  0
SECTION
  2
HEADER
  9
$ACADVER
  1
AC1006
  9
$INSBASE
 10
0.0
 20
0.0
 30
0.0
  9
$EXTMIN
 10
0.0
 20
0.0
  9
$EXTMAX
 10
700.999995
 20
420.0
  9
$LIMMIN
 10
0.0
 20
0.0
  9
$LIMMAX
 10
12.0
 20
9.0
  9
$ORTHOMODE
 70
     0
  9
$REGENMODE
 70
     1
  9
$FILLMODE
 70
     1
  9
$QTEXTMODE
 70
     0
  9
$MIRRTEXT
 70
     1
  9
$DRAGMODE
 70
     2
  9
$LTSCALE
 40
1.0
  9
$OSMODE
 70
     0
  9
$ATTMODE
 70
     1
  9
$TEXTSIZE
 40
4.5
  9
$TRACEWID
 40
0.05
  9
$TEXTSTYLE
  7
STANDARD
  9
$CLAYER
  8
L-ZISSEN
  9
$CELTYPE
  6
BYLAYER
  9
$CECOLOR
 62
   256
  9
$DIMSCALE
 40
1.0
  9
$DIMASZ
 40
2.0
  9
$DIMEXO
 40
1.0
  9
$DIMDLI
 40
0.38
  9
$DIMRND
 40
0.0
  9
$DIMDLE
 40
0.0
  9
$DIMEXE
 40
1.0
  9
$DIMTP
 40
0.0
  9
$DIMTM
 40
0.0
  9
$DIMTXT
 40
4.5
  9
$DIMCEN
 40
0.09
  9
$DIMTSZ
 40
0.0
  9
$DIMTOL
 70
     0
  9
$DIMLIM
 70
     0
  9
$DIMTIH
 70
     0
  9
$DIMTOH
 70
     0
  9
$DIMSE1
 70
     0
  9
$DIMSE2
 70
     0
  9
$DIMTAD
 70
     1
  9
$DIMZIN
 70
     0
  9
$DIMBLK
  1

  9
$DIMASO
 70
     1
  9
$DIMSHO
 70
     0
  9
$DIMPOST
  1

  9
$DIMAPOST
  1

  9
$DIMALT
 70
     0
  9
$DIMALTD
 70
     2
  9
$DIMALTF
 40
25.4
  9
$DIMLFAC
 40
1.0
  9
$DIMTOFL
 70
     1
  9
$DIMTVP
 40
0.0
  9
$DIMTIX
 70
     0
  9
$DIMSOXD
 70
     0
  9
$DIMSAH
 70
     0
  9
$DIMBLK1
  1

  9
$DIMBLK2
  1

  9
$LUNITS
 70
     2
  9
$LUPREC
 70
     4
  9
$AXISMODE
 70
     0
  9
$AXISUNIT
 10
0.0
 20
0.0
  9
$SKETCHINC
 40
0.1
  9
$FILLETRAD
 40
0.0
  9
$AUNITS
 70
     0
  9
$AUPREC
 70
     0
  9
$MENU
  1
acad
  9
$ELEVATION
 40
0.0
  9
$THICKNESS
 40
0.0
  9
$LIMCHECK
 70
     0
  9
$BLIPMODE
 70
     1
  9
$CHAMFERA
 40
0.0
  9
$CHAMFERB
 40
0.0
  9
$SKPOLY
 70
     0
  9
$TDCREATE
 40
2449238.5647001159
  9
$TDUPDATE
 40
2449238.5647001159
  9
$TDINDWG
 40
0.0000000000
  9
$TDUSRTIMER
 40
0.0000000000
  9
$USRTIMER
 70
     1
  9
$ANGBASE
 50
0.0
  9
$ANGDIR
 70
     0
  9
$PDMODE
 70
     0
  9
$PDSIZE
 40
0.0
  9
$PLINEWID
 40
0.0
  9
$COORDS
 70
     0
  9
$SPLFRAME
 70
     0
  9
$SPLINETYPE
 70
     6
  9
$SPLINESEGS
 70
     8
  9
$ATTDIA
 70
     0
  9
$ATTREQ
 70
     1
  9
$HANDLING
 70
     0
  9
$HANDSEED
  5
0
  9
$SURFTAB1
 70
     6
  9
$SURFTAB2
 70
     6
  9
$SURFTYPE
 70
     6
  9
$SURFU
 70
     6
  9
$SURFV
 70
     6
  9
$FLATLAND
 70
     0
  9
$UCSNAME
  2

  9
$UCSORG
 10
0.0
 20
0.0
 30
0.0
  9
$UCSXDIR
 10
1.0
 20
0.0
 30
0.0
  9
$UCSYDIR
 10
0.0
 20
1.0
 30
0.0
  9
$USERI1
 70
     0
  9
$USERI2
 70
     0
  9
$USERI3
 70
     0
  9
$USERI4
 70
     0
  9
$USERI5
 70
     0
  9
$USERR1
 40
0.0
  9
$USERR2
 40
0.0
  9
$USERR3
 40
0.0
  9
$USERR4
 40
0.0
  9
$USERR5
 40
0.0
  9
$WORLDVIEW
 70
     1
  0
ENDSEC
  0
SECTION
  2
TABLES
  0
TABLE
  2
VPORT
 70
     1
  0
VPORT
  2
*ACTIVE
 70
     0
 10
0.0
 20
0.0
 11
1.0
 21
1.0
 12
401.289978
 22
185.218141
 13
0.0
 23
0.0
 14
1.0
 24
1.0
 15
0.0
 25
0.0
 16
0.0
 26
0.0
 36
1.0
 17
0.0
 27
0.0
 37
0.0
 40
508.191253
 41
1.5487
 42
50.0
 43
0.0
 44
0.0
 50
0.0
 51
0.0
 71
     0
 72
   100
 73
     1
 74
     0
 75
     0
 76
     0
 77
     0
 78
     0
  0
ENDTAB
  0
TABLE
  2
LTYPE
 70
     2
  0
LTYPE
  2
CONTINUOUS
 70
    64
  3
Solid line
 72
    65
 73
     0
 40
0.0
  0
LTYPE
  2
CENTER
 70
    64
  3
____ _ ____ _ ____
 72
    65
 73
     4
 40
8.0
 49
5.0
 49
-1.0
 49
1.0
 49
-1.0
  0
ENDTAB
  0
TABLE
  2
LAYER
 70
     3
  0
LAYER
  2
0
 70
     0
 62
     7
  6
CONTINUOUS
  0
LAYER
  2
L-ZISSEN
 70
    64
 62
     7
  6
CONTINUOUS
  0
LAYER
  2
L-TYUSIN
 70
    64
 62
     1
  6
CENTER
  0
ENDTAB
  0
TABLE
  2
STYLE
 70
     1
  0
STYLE
  2
STANDARD
 70
    64
 40
0.0
 41
1.0
 50
0.0
 71
     0
 42
4.5
  3
txt
  4

  0
ENDTAB
  0
TABLE
  2
VIEW
 70
     0
  0
ENDTAB
  0
TABLE
  2
UCS
 70
     0
  0
ENDTAB
  0
TABLE
  2
DWGMGR
 70
     0
  0
ENDTAB
  0
ENDSEC
  0
SECTION
  2
BLOCKS
  0
ENDSEC
  0
SECTION
  2
ENTITIES
  0
CIRCLE
  8
L-ZISSEN
 10
89.5
 20
240.0
 30
0.0
 40
5.7225
  0
CIRCLE
  8
L-ZISSEN
 10
122.5
 20
240.0
 30
0.0
 40
5.7225
  0
TEXT
  8
L-ZISSEN
 10
179.034405
 20
40.674355
 30
0.0
 40
4.5
  1
Rc1/2
  0
TEXT
  8
L-ZISSEN
 10
179.379803
 20
49.899584
 30
0.0
 40
4.5
  1
IN
  0
LINE
  8
L-ZISSEN
 10
175.379803
 20
52.149584
 30
0.0
 11
177.379803
 21
52.149584
 31
0.0
  0
LINE
  8
L-ZISSEN
 10
165.698464
 20
78.125927
 30
0.0
 11
175.379803
 21
52.149584
 31
0.0
  0
SOLID
  8
L-ZISSEN
 10
165.386118
 20
78.009517
 30
0.0
 11
166.010809
 21
78.242338
 31
0.0
 12
165.0
 22
80.0
 32
0.0
 13
165.0
 23
80.0
 33
0.0
  0
CIRCLE
  8
L-ZISSEN
 10
122.5
 20
80.0
 30
0.0
 40
4.283
  0
CIRCLE
  8
L-ZISSEN
 10
242.5
 20
80.0
 30
0.0
 40
9.3155
  0
TEXT
  8
L-ZISSEN
 10
165.5
 20
137.75
 30
0.0
 40
4.5
  1
P.P
  0
LINE
  8
L-ZISSEN
 10
157.5
 20
140.0
 30
0.0
 11
161.5
 21
140.0
 31
0.0
  0
LINE
  8
L-ZISSEN
 10
125.645273
 20
114.971286
 30
0.0
 11
157.5
 21
140.0
 31
0.0
  0
SOLID
  8
L-ZISSEN
 10
126.057154
 20
114.447074
 30
0.0
 11
125.233392
 21
115.495498
 31
0.0
 12
122.5
 22
112.5
 32
0.0
 13
122.5
 23
112.5
 33
0.0
  0
TEXT
  8
L-ZISSEN
 10
170.5
 20
282.75
 30
0.0
 40
4.5
  1
P.P
  0
LINE
  8
L-ZISSEN
 10
162.5
 20
285.0
 30
0.0
 11
166.5
 21
285.0
 31
0.0
  0
LINE
  8
L-ZISSEN
 10
125.157455
 20
242.989637
 30
0.0
 11
162.5
 21
285.0
 31
0.0
  0
SOLID
  8
L-ZISSEN
 10
125.655728
 20
242.546728
 30
0.0
 11
124.659182
 21
243.432547
 31
0.0
 12
122.5
 22
240.0
 32
0.0
 13
122.5
 23
240.0
 33
0.0
  0
LINE
  8
L-TYUSIN
 10
89.5
 20
105.785248
 30
0.0
 11
89.5
 21
130.681891
 31
0.0
  0
LINE
  8
L-TYUSIN
 10
89.5
 20
227.551679
 30
0.0
 11
89.5
 21
252.448321
 31
0.0
  0
LINE
  8
L-ZISSEN
  6
CONTINUOUS
 62
     7
 10
80.0
 20
252.51219
 30
0.0
 11
80.0
 21
254.5
 31
0.0
  0
ARC
  8
L-ZISSEN
 10
85.351649
 20
248.0
 30
0.0
 40
7.0
 50
23.222875
 51
211.594568
  0
CIRCLE
  8
L-ZISSEN
 10
89.5
 20
240.0
 30
0.0
 40
11.0
  0
ARC
  8
L-ZISSEN
 10
122.5
 20
240.0
 30
0.0
 40
25.24167
 50
195.52809
 51
164.47191
  0
CIRCLE
  8
L-ZISSEN
 10
122.5
 20
240.0
 30
0.0
 40
11.0
  0
ARC
  8
L-ZISSEN
 10
122.5
 20
240.0
 30
0.0
 40
31.0
 50
199.470154
 51
160.529846
  0
LINE
  8
L-ZISSEN
 10
268.5
 20
139.8
 30
0.0
 11
272.5
 21
139.8
 31
0.0
  0
TEXT
  8
L-ZISSEN
 10
276.5
 20
137.55
 30
0.0
 40
4.5
  1
P.P
  0
LINE
  8
L-ZISSEN
 10
245.258621
 20
115.396552
 30
0.0
 11
268.5
 21
139.8
 31
0.0
  0
LINE
  8
L-ZISSEN
 10
201.0
 20
106.0
 30
0.0
 11
284.0
 21
106.0
 31
0.0
  0
LINE
  8
L-ZISSEN
 10
201.0
 20
104.8
 30
0.0
 11
284.0
 21
104.8
 31
0.0
  0
LINE
  8
L-ZISSEN
 10
210.5
 20
115.098076
 30
0.0
 11
217.25833
 21
119.0
 31
0.0
  0
LINE
  8
L-ZISSEN
 10
253.5
 20
126.0
 30
0.0
 11
253.5
 21
119.0
 31
0.0
  0
LINE
  8
L-ZISSEN
 10
231.5
 20
126.0
 30
0.0
 11
231.5
 21
119.0
 31
0.0
  0
LINE
  8
L-ZISSEN
 10
253.5
 20
126.0
 30
0.0
 11
231.5
 21
126.0
 31
0.0
  0
LINE
  8
L-ZISSEN
 10
274.5
 20
115.098076
 30
0.0
 11
267.74167
 21
119.0
 31
0.0
  0
LINE
  8
L-ZISSEN
 10
267.74167
 20
119.0
 30
0.0
 11
217.25833
 21
119.0
 31
0.0
  0
LINE
  8
L-ZISSEN
 10
100.5
 20
126.0
 30
0.0
 11
78.5
 21
126.0
 31
0.0
  0
LINE
  8
L-ZISSEN
 10
100.5
 20
126.0
 30
0.0
 11
100.5
 21
119.0
 31
0.0
  0
LINE
  8
L-ZISSEN
 10
78.5
 20
126.0
 30
0.0
 11
78.5
 21
106.0
 31
0.0
  0
LINE
  8
L-ZISSEN
 10
111.5
 20
126.0
 30
0.0
 11
111.5
 21
119.0
 31
0.0
  0
LINE
  8
L-ZISSEN
 10
133.5
 20
126.0
 30
0.0
 11
111.5
 21
126.0
 31
0.0
  0
LINE
  8
L-ZISSEN
 10
133.5
 20
126.0
 30
0.0
 11
133.5
 21
119.0
 31
0.0
  0
LINE
  8
L-ZISSEN
 10
151.032566
 20
117.1
 30
0.0
 11
147.74167
 21
119.0
 31
0.0
  0
LINE
  8
L-ZISSEN
 10
147.74167
 20
119.0
 30
0.0
 11
97.25833
 21
119.0
 31
0.0
  0
LINE
  8
L-ZISSEN
 10
93.967434
 20
117.1
 30
0.0
 11
97.25833
 21
119.0
 31
0.0
  0
LINE
  8
L-ZISSEN
  6
CONTINUOUS
 62
     7
 10
81.0
 20
104.8
 30
0.0
 11
164.0
 21
104.8
 31
0.0
  0
LINE
  8
L-ZISSEN
  6
CONTINUOUS
 62
     7
 10
78.5
 20
106.0
 30
0.0
 11
164.0
 21
106.0
 31
0.0
  0
LINE
  8
L-ZISSEN
 10
549.364
 20
379.0
 30
0.0
 11
549.364
 21
367.558266
 31
0.0
  0
LINE
  8
L-ZISSEN
 10
539.636
 20
379.0
 30
0.0
 11
539.636
 21
367.558266
 31
0.0
  0
LINE
  8
L-ZISSEN
 10
652.5
 20
279.864
 30
0.0
 11
641.5
 21
279.864
 31
0.0
  0
LINE
  8
L-ZISSEN
 10
652.5
 20
270.136
 30
0.0
 11
641.5
 21
270.136
 31
0.0
  0
LINE
  8
L-ZISSEN
  6
CONTINUOUS
 62
     7
 10
641.5
 20
266.5
 30
0.0
 11
587.5
 21
266.5
 31
0.0
  0
LINE
  8
L-ZISSEN
  6
CONTINUOUS
 62
     7
 10
587.5
 20
290.0
 30
0.0
 11
587.5
 21
266.5
 31
0.0
  0
LINE
  8
L-ZISSEN
  6
CONTINUOUS
 62
     7
 10
587.5
 20
290.0
 30
0.0
 11
641.5
 21
290.0
 31
0.0
  0
LINE
  8
L-ZISSEN
  6
CONTINUOUS
 62
     7
 10
641.5
 20
290.0
 30
0.0
 11
641.5
 21
266.5
 31
0.0
  0
LINE
  8
L-ZISSEN
 10
537.428932
 20
333.928932
 30
0.0
 11
558.642136
 21
355.142136
 31
0.0
  0
LINE
  8
L-ZISSEN
 10
379.571068
 20
302.071068
 30
0.0
 11
358.357864
 21
280.857864
 31
0.0
  0
LINE
  8
L-ZISSEN
 10
452.5
 20
290.136
 30
0.0
 11
441.0
 21
290.136
 31
0.0
  0
LINE
  8
L-ZISSEN
 10
452.5
 20
299.864
 30
0.0
 11
441.0
 21
299.864
 31
0.0
  0
LINE
  8
L-TYUSIN
 10
467.5
 20
140.0
 30
0.0
 11
502.5
 21
140.0
 31
0.0
  0
LINE
  8
L-TYUSIN
 10
467.5
 20
415.0
 30
0.0
 11
467.5
 21
140.0
 31
0.0
  0
LINE
  8
L-TYUSIN
 10
312.5
 20
255.0
 30
0.0
 11
697.5
 21
255.0
 31
0.0
  0
TEXT
  8
L-ZISSEN
 10
307.5
 20
210.0
 30
0.0
 40
4.5
  1
BRACKET
  0
TEXT
  8
L-ZISSEN
 10
482.5
 20
395.0
 30
0.0
 40
4.5
  1
Q TYPE GAUZE
  0
TEXT
  8
L-ZISSEN
 10
307.5
 20
395.0
 30
0.0
 40
4.5
  1
T TYPE GAUZE
  0
TEXT
  8
L-ZISSEN
 10
406.5
 20
103.75
 30
0.0
 40
4.5
  1
P.P
  0
LINE
  8
L-ZISSEN
 10
398.5
 20
106.0
 30
0.0
 11
402.5
 21
106.0
 31
0.0
  0
LINE
  8
L-ZISSEN
 10
375.258621
 20
81.596552
 30
0.0
 11
398.5
 21
106.0
 31
0.0
  0
SOLID
  8
L-ZISSEN
 10
375.741379
 20
81.136782
 30
0.0
 11
374.775862
 21
82.056322
 31
0.0
 12
372.5
 22
78.7
 32
0.0
 13
372.5
 23
78.7
 33
0.0
  0
SOLID
  8
L-ZISSEN
 10
245.741379
 20
114.936782
 30
0.0
 11
244.775862
 21
115.856322
 31
0.0
 12
242.5
 22
112.5
 32
0.0
 13
242.5
 23
112.5
 33
0.0
  0
SOLID
  8
L-ZISSEN
 10
548.21888
 20
377.383096
 30
0.0
 11
548.54226
 21
378.676619
 31
0.0
 12
544.5
 22
379.0
 32
0.0
 13
544.5
 23
379.0
 33
0.0
  0
LINE
  8
L-ZISSEN
 10
548.38057
 20
378.029857
 30
0.0
 11
572.5
 21
372.0
 31
0.0
  0
LINE
  8
L-ZISSEN
 10
572.5
 20
372.0
 30
0.0
 11
576.5
 21
372.0
 31
0.0
  0
TEXT
  8
L-ZISSEN
 10
580.5
 20
369.75
 30
0.0
 40
4.5
  1
P.P
  0
CIRCLE
  8
L-ZISSEN
 10
544.5
 20
341.0
 30
0.0
 40
27.0
  0
SOLID
  8
L-ZISSEN
 10
541.200994
 20
277.358178
 30
0.0
 11
540.614504
 21
276.160761
 31
0.0
 12
544.5
 22
275.0
 32
0.0
 13
544.5
 23
275.0
 33
0.0
  0
LINE
  8
L-ZISSEN
 10
540.907749
 20
276.75947
 30
0.0
 11
495.5
 21
299.0
 31
0.0
  0
LINE
  8
L-ZISSEN
 10
495.5
 20
299.0
 30
0.0
 11
492.5
 21
299.0
 31
0.0
  0
TEXT
  8
L-ZISSEN
 10
478.857143
 20
296.75
 30
0.0
 40
4.5
  1
P.P
  0
LINE
  8
L-ZISSEN
  6
CONTINUOUS
 62
     7
 10
571.5
 20
290.0
 30
0.0
 11
571.5
 21
266.5
 31
0.0
  0
LINE
  8
L-ZISSEN
  6
CONTINUOUS
 62
     7
 10
571.5
 20
266.5
 30
0.0
 11
517.5
 21
266.5
 31
0.0
  0
LINE
  8
L-ZISSEN
  6
CONTINUOUS
 62
     7
 10
517.5
 20
290.0
 30
0.0
 11
517.5
 21
266.5
 31
0.0
  0
LINE
  8
L-ZISSEN
  6
CONTINUOUS
 62
     7
 10
517.5
 20
290.0
 30
0.0
 11
571.5
 21
290.0
 31
0.0
  0
TEXT
  8
L-ZISSEN
 10
307.5
 20
410.0
 30
0.0
 40
4.5
  1
OPTION
  0
TEXT
  8
L-ZISSEN
 10
306.857143
 20
316.75
 30
0.0
 40
4.5
  1
P.P
  0
LINE
  8
L-ZISSEN
 10
323.5
 20
319.0
 30
0.0
 11
320.5
 21
319.0
 31
0.0
  0
SOLID
  8
L-ZISSEN
 10
369.200994
 20
297.358178
 30
0.0
 11
368.614504
 21
296.160761
 31
0.0
 12
372.5
 22
295.0
 32
0.0
 13
372.5
 23
295.0
 33
0.0
  0
LINE
  8
L-ZISSEN
 10
368.907749
 20
296.75947
 30
0.0
 11
323.5
 21
319.0
 31
0.0
  0
CIRCLE
  8
L-ZISSEN
 10
372.5
 20
295.0
 30
0.0
 40
27.0
  0
TEXT
  8
L-ZISSEN
 10
158.5
 20
189.75
 30
0.0
 40
4.5
  1
P.P
  0
LINE
  8
L-ZISSEN
 10
150.5
 20
192.0
 30
0.0
 11
154.5
 21
192.0
 31
0.0
  0
LINE
  8
L-ZISSEN
 10
126.38057
 20
198.029857
 30
0.0
 11
150.5
 21
192.0
 31
0.0
  0
SOLID
  8
L-ZISSEN
 10
126.21888
 20
197.383096
 30
0.0
 11
126.54226
 21
198.676619
 31
0.0
 12
122.5
 22
199.0
 32
0.0
 13
122.5
 23
199.0
 33
0.0
  0
TEXT
  8
L-ZISSEN
 10
99.5
 20
390.0
 30
0.0
 40
4.5
  1
: NSV-504
  0
TEXT
  8
L-ZISSEN
 10
57.5
 20
390.0
 30
0.0
 40
4.5
  1
MODEL No.
  0
LINE
  8
L-ZISSEN
 10
399.609927
 20
85.6
 30
0.0
 11
408.609927
 21
85.6
 31
0.0
  0
LINE
  8
L-ZISSEN
 10
336.390073
 20
85.6
 30
0.0
 11
345.390073
 21
85.6
 31
0.0
  0
TEXT
  8
L-ZISSEN
 10
307.857143
 20
141.75
 30
0.0
 40
4.5
  1
P.P
  0
LINE
  8
L-ZISSEN
 10
325.5
 20
144.0
 30
0.0
 11
321.5
 21
144.0
 31
0.0
  0
LINE
  8
L-ZISSEN
 10
368.571379
 20
135.752289
 30
0.0
 11
325.5
 21
144.0
 31
0.0
  0
SOLID
  8
L-ZISSEN
 10
368.696761
 20
136.407059
 30
0.0
 11
368.445998
 21
135.097519
 31
0.0
 12
372.5
 22
135.0
 32
0.0
 13
372.5
 23
135.0
 33
0.0
  0
TEXT
  8
L-ZISSEN
 10
624.857143
 20
308.75
 30
0.0
 40
4.5
  1
P.P
  0
LINE
  8
L-ZISSEN
 10
641.5
 20
311.0
 30
0.0
 11
638.5
 21
311.0
 31
0.0
  0
LINE
  8
L-ZISSEN
 10
651.331126
 20
278.825406
 30
0.0
 11
641.5
 21
311.0
 31
0.0
  0
SOLID
  8
L-ZISSEN
 10
651.968694
 20
279.020219
 30
0.0
 11
650.693558
 21
278.630594
 31
0.0
 12
652.5
 22
275.0
 32
0.0
 13
652.5
 23
275.0
 33
0.0
  0
SOLID
  8
L-ZISSEN
 10
200.968694
 20
84.020219
 30
0.0
 11
199.693558
 21
83.630594
 31
0.0
 12
201.5
 22
80.0
 32
0.0
 13
201.5
 23
80.0
 33
0.0
  0
TEXT
  8
L-ZISSEN
 10
173.857143
 20
113.75
 30
0.0
 40
4.5
  1
P.P
  0
LINE
  8
L-ZISSEN
 10
190.5
 20
116.0
 30
0.0
 11
187.5
 21
116.0
 31
0.0
  0
LINE
  8
L-ZISSEN
 10
200.331126
 20
83.825406
 30
0.0
 11
190.5
 21
116.0
 31
0.0
  0
TEXT
  8
L-ZISSEN
 10
424.857143
 20
328.75
 30
0.0
 40
4.5
  1
P.P
  0
LINE
  8
L-ZISSEN
 10
441.5
 20
331.0
 30
0.0
 11
438.5
 21
331.0
 31
0.0
  0
LINE
  8
L-ZISSEN
 10
451.331126
 20
298.825406
 30
0.0
 11
441.5
 21
331.0
 31
0.0
  0
SOLID
  8
L-ZISSEN
 10
451.968694
 20
299.020219
 30
0.0
 11
450.693558
 21
298.630594
 31
0.0
 12
452.5
 22
295.0
 32
0.0
 13
452.5
 23
295.0
 33
0.0
  0
TEXT
  8
L-ZISSEN
 10
466.5
 20
103.75
 30
0.0
 40
4.5
  1
P.P
  0
LINE
  8
L-ZISSEN
 10
458.5
 20
106.0
 30
0.0
 11
462.5
 21
106.0
 31
0.0
  0
LINE
  8
L-ZISSEN
 10
435.258621
 20
81.596552
 30
0.0
 11
458.5
 21
106.0
 31
0.0
  0
SOLID
  8
L-ZISSEN
 10
435.741379
 20
81.136782
 30
0.0
 11
434.775862
 21
82.056322
 31
0.0
 12
432.5
 22
78.7
 32
0.0
 13
432.5
 23
78.7
 33
0.0
  0
TEXT
  8
L-ZISSEN
 10
56.857143
 20
101.75
 30
0.0
 40
4.5
  1
P.P
  0
LINE
  8
L-ZISSEN
 10
73.5
 20
104.0
 30
0.0
 11
70.5
 21
104.0
 31
0.0
  0
LINE
  8
L-ZISSEN
 10
118.907749
 20
81.75947
 30
0.0
 11
73.5
 21
104.0
 31
0.0
  0
SOLID
  8
L-ZISSEN
 10
119.200994
 20
82.358178
 30
0.0
 11
118.614504
 21
81.160761
 31
0.0
 12
122.5
 22
80.0
 32
0.0
 13
122.5
 23
80.0
 33
0.0
  0
LINE
  8
L-TYUSIN
  6
CENTER
 62
     1
 10
494.5
 20
89.0
 30
0.0
 11
488.2
 21
89.0
 31
0.0
  0
LINE
  8
L-TYUSIN
  6
CENTER
 62
     1
 10
408.5
 20
89.0
 30
0.0
 11
381.5
 21
89.0
 31
0.0
  0
ARC
  8
L-ZISSEN
  6
CONTINUOUS
 62
     7
 10
402.5
 20
89.0
 30
0.0
 40
3.4
 50
270.0
 51
90.0
  0
LINE
  8
L-TYUSIN
  6
CENTER
 62
     1
 10
402.5
 20
83.0
 30
0.0
 11
402.5
 21
95.0
 31
0.0
  0
LINE
  8
L-ZISSEN
  6
CONTINUOUS
 62
     7
 10
395.140351
 20
92.4
 30
0.0
 11
402.5
 21
92.4
 31
0.0
  0
LINE
  8
L-ZISSEN
  6
CONTINUOUS
 62
     7
 10
395.438596
 20
85.6
 30
0.0
 11
402.5
 21
85.6
 31
0.0
  0
LINE
  8
L-ZISSEN
  6
CONTINUOUS
 62
     7
 10
332.5
 20
81.0
 30
0.0
 11
336.390073
 21
81.0
 31
0.0
  0
LINE
  8
L-ZISSEN
  6
CONTINUOUS
 62
     7
 10
332.5
 20
98.7
 30
0.0
 11
350.135965
 21
98.7
 31
0.0
  0
LINE
  8
L-ZISSEN
  6
CONTINUOUS
 62
     7
 10
349.561404
 20
85.6
 30
0.0
 11
342.5
 21
85.6
 31
0.0
  0
LINE
  8
L-ZISSEN
  6
CONTINUOUS
 62
     7
 10
349.859649
 20
92.4
 30
0.0
 11
342.5
 21
92.4
 31
0.0
  0
ARC
  8
L-ZISSEN
  6
CONTINUOUS
 62
     7
 10
342.5
 20
89.0
 30
0.0
 40
3.4
 50
90.0
 51
270.0
  0
LINE
  8
L-ZISSEN
  6
CONTINUOUS
 62
     7
 10
332.5
 20
78.7
 30
0.0
 11
332.5
 21
98.7
 31
0.0
  0
LINE
  8
L-TYUSIN
  6
CENTER
 62
     1
 10
395.0
 20
83.0
 30
0.0
 11
395.0
 21
95.0
 31
0.0
  0
LINE
  8
L-TYUSIN
  6
CENTER
 62
     1
 10
350.0
 20
83.0
 30
0.0
 11
350.0
 21
95.0
 31
0.0
  0
LINE
  8
L-TYUSIN
  6
CENTER
 62
     1
 10
342.5
 20
83.0
 30
0.0
 11
342.5
 21
95.0
 31
0.0
  0
LINE
  8
L-TYUSIN
  6
CENTER
 62
     1
 10
363.5
 20
89.0
 30
0.0
 11
336.5
 21
89.0
 31
0.0
  0
LINE
  8
L-ZISSEN
 10
408.609927
 20
85.6
 30
0.0
 11
408.609927
 21
78.7
 31
0.0
  0
LINE
  8
L-ZISSEN
  6
CONTINUOUS
 62
     7
 10
399.612206
 20
81.372858
 30
0.0
 11
395.5
 21
84.2
 31
0.0
  0
LINE
  8
L-ZISSEN
 10
399.609927
 20
85.6
 30
0.0
 11
399.609927
 21
78.7
 31
0.0
  0
LINE
  8
L-ZISSEN
 10
345.390073
 20
85.6
 30
0.0
 11
345.390073
 21
78.7
 31
0.0
  0
LINE
  8
L-ZISSEN
 10
336.390073
 20
85.6
 30
0.0
 11
336.390073
 21
78.7
 31
0.0
  0
LINE
  8
L-ZISSEN
  6
CONTINUOUS
 62
     7
 10
408.609927
 20
81.0
 30
0.0
 11
412.5
 21
81.0
 31
0.0
  0
LINE
  8
L-ZISSEN
  6
CONTINUOUS
 62
     7
 10
412.5
 20
98.7
 30
0.0
 11
394.864035
 21
98.7
 31
0.0
  0
LINE
  8
L-ZISSEN
  6
CONTINUOUS
 62
     7
 10
412.5
 20
78.7
 30
0.0
 11
412.5
 21
98.7
 31
0.0
  0
LINE
  8
L-TYUSIN
  6
CENTER
 62
     1
 10
395.0
 20
190.7
 30
0.0
 11
395.0
 21
197.0
 31
0.0
  0
LINE
  8
L-TYUSIN
  6
CENTER
 62
     1
 10
350.0
 20
190.7
 30
0.0
 11
350.0
 21
197.0
 31
0.0
  0
LINE
  8
L-ZISSEN
 10
442.5
 20
81.0
 30
0.0
 11
442.5
 21
78.7
 31
0.0
  0
LINE
  8
L-TYUSIN
  6
CENTER
 62
     1
 10
242.5
 20
132.282286
 30
0.0
 11
242.5
 21
42.0
 31
0.0
  0
LINE
  8
L-ZISSEN
  6
CONTINUOUS
 62
     7
 10
201.0
 20
99.2
 30
0.0
 11
284.0
 21
99.2
 31
0.0
  0
LINE
  8
L-ZISSEN
  6
CONTINUOUS
 62
     7
 10
201.0
 20
98.0
 30
0.0
 11
201.0
 21
112.5
 31
0.0
  0
LINE
  8
L-ZISSEN
  6
CONTINUOUS
 62
     7
 10
284.0
 20
112.5
 30
0.0
 11
201.0
 21
112.5
 31
0.0
  0
LINE
  8
L-ZISSEN
  6
CONTINUOUS
 62
     7
 10
284.0
 20
98.0
 30
0.0
 11
284.0
 21
112.5
 31
0.0
  0
LINE
  8
L-ZISSEN
  6
CONTINUOUS
 62
     7
 10
201.0
 20
98.0
 30
0.0
 11
284.0
 21
98.0
 31
0.0
  0
LINE
  8
L-TYUSIN
  6
CENTER
 62
     1
 10
199.5
 20
80.0
 30
0.0
 11
285.5
 21
80.0
 31
0.0
  0
LINE
  8
L-ZISSEN
  6
CONTINUOUS
 62
     7
 10
222.5
 20
44.0
 30
0.0
 11
262.5
 21
44.0
 31
0.0
  0
LINE
  8
L-ZISSEN
  6
CONTINUOUS
 62
     7
 10
262.5
 20
44.0
 30
0.0
 11
262.5
 21
54.5
 31
0.0
  0
LINE
  8
L-ZISSEN
  6
CONTINUOUS
 62
     7
 10
222.5
 20
44.0
 30
0.0
 11
222.5
 21
54.5
 31
0.0
  0
LINE
  8
L-ZISSEN
  6
CONTINUOUS
 62
     7
 10
201.5
 20
70.5
 30
0.0
 11
221.5
 21
70.5
 31
0.0
  0
LINE
  8
L-ZISSEN
  6
CONTINUOUS
 62
     7
 10
228.0
 20
90.5
 30
0.0
 11
201.5
 21
90.5
 31
0.0
  0
LINE
  8
L-ZISSEN
  6
CONTINUOUS
 62
     7
 10
201.5
 20
98.0
 30
0.0
 11
201.5
 21
70.5
 31
0.0
  0
LINE
  8
L-ZISSEN
  6
CONTINUOUS
 62
     7
 10
257.0
 20
90.5
 30
0.0
 11
283.5
 21
90.5
 31
0.0
  0
LINE
  8
L-ZISSEN
  6
CONTINUOUS
 62
     7
 10
283.5
 20
98.0
 30
0.0
 11
283.5
 21
70.5
 31
0.0
  0
LINE
  8
L-ZISSEN
  6
CONTINUOUS
 62
     7
 10
257.0
 20
66.0
 30
0.0
 11
257.0
 21
98.0
 31
0.0
  0
LINE
  8
L-ZISSEN
  6
CONTINUOUS
 62
     7
 10
228.0
 20
66.0
 30
0.0
 11
228.0
 21
98.0
 31
0.0
  0
LINE
  8
L-ZISSEN
  6
CONTINUOUS
 62
     7
 10
221.5
 20
54.5
 30
0.0
 11
221.5
 21
70.5
 31
0.0
  0
LINE
  8
L-ZISSEN
  6
CONTINUOUS
 62
     7
 10
283.5
 20
70.5
 30
0.0
 11
263.5
 21
70.5
 31
0.0
  0
LINE
  8
L-ZISSEN
  6
CONTINUOUS
 62
     7
 10
263.5
 20
54.5
 30
0.0
 11
263.5
 21
70.5
 31
0.0
  0
LINE
  8
L-ZISSEN
  6
CONTINUOUS
 62
     7
 10
221.5
 20
54.5
 30
0.0
 11
263.5
 21
54.5
 31
0.0
  0
LINE
  8
L-ZISSEN
 10
201.5
 20
117.1
 30
0.0
 11
201.5
 21
112.5
 31
0.0
  0
LINE
  8
L-ZISSEN
 10
201.5
 20
117.1
 30
0.0
 11
210.5
 21
117.1
 31
0.0
  0
LINE
  8
L-ZISSEN
 10
210.5
 20
117.1
 30
0.0
 11
210.5
 21
112.5
 31
0.0
  0
LINE
  8
L-ZISSEN
 10
228.75
 20
117.1
 30
0.0
 11
228.75
 21
112.5
 31
0.0
  0
LINE
  8
L-ZISSEN
 10
219.75
 20
117.1
 30
0.0
 11
228.75
 21
117.1
 31
0.0
  0
LINE
  8
L-ZISSEN
 10
219.75
 20
117.1
 30
0.0
 11
219.75
 21
112.5
 31
0.0
  0
LINE
  8
L-ZISSEN
 10
256.25
 20
117.1
 30
0.0
 11
256.25
 21
112.5
 31
0.0
  0
LINE
  8
L-ZISSEN
 10
256.25
 20
117.1
 30
0.0
 11
265.25
 21
117.1
 31
0.0
  0
LINE
  8
L-ZISSEN
 10
265.25
 20
117.1
 30
0.0
 11
265.25
 21
112.5
 31
0.0
  0
LINE
  8
L-ZISSEN
 10
274.5
 20
117.1
 30
0.0
 11
274.5
 21
112.5
 31
0.0
  0
LINE
  8
L-ZISSEN
 10
274.5
 20
117.1
 30
0.0
 11
283.5
 21
117.1
 31
0.0
  0
LINE
  8
L-ZISSEN
 10
283.5
 20
117.1
 30
0.0
 11
283.5
 21
112.5
 31
0.0
  0
LINE
  8
L-ZISSEN
 10
228.0
 20
66.0
 30
0.0
 11
257.0
 21
66.0
 31
0.0
  0
CIRCLE
  8
L-ZISSEN
  6
CONTINUOUS
 62
     7
 10
372.5
 20
171.5
 30
0.0
 40
4.5
  0
CIRCLE
  8
L-ZISSEN
  6
CONTINUOUS
 62
     7
 10
404.109927
 20
153.25
 30
0.0
 40
4.5
  0
CIRCLE
  8
L-ZISSEN
  6
CONTINUOUS
 62
     7
 10
340.890073
 20
153.25
 30
0.0
 40
4.5
  0
LINE
  8
L-ZISSEN
  6
CONTINUOUS
 62
     7
 10
412.5
 20
145.0
 30
0.0
 11
412.5
 21
195.0
 31
0.0
  0
LINE
  8
L-ZISSEN
  6
CONTINUOUS
 62
     7
 10
412.5
 20
195.0
 30
0.0
 11
332.5
 21
195.0
 31
0.0
  0
LINE
  8
L-ZISSEN
  6
CONTINUOUS
 62
     7
 10
412.5
 20
192.7
 30
0.0
 11
332.5
 21
192.7
 31
0.0
  0
LINE
  8
L-ZISSEN
  6
CONTINUOUS
 62
     7
 10
401.842802
 20
145.0
 30
0.0
 11
412.5
 21
145.0
 31
0.0
  0
LINE
  8
L-ZISSEN
  6
CONTINUOUS
 62
     7
 10
332.5
 20
145.0
 30
0.0
 11
332.5
 21
195.0
 31
0.0
  0
LINE
  8
L-ZISSEN
  6
CONTINUOUS
 62
     7
 10
343.157198
 20
145.0
 30
0.0
 11
332.5
 21
145.0
 31
0.0
  0
LINE
  8
L-ZISSEN
 10
473.5
 20
85.6
 30
0.0
 11
473.5
 21
81.0
 31
0.0
  0
LINE
  8
L-ZISSEN
 10
464.5
 20
85.6
 30
0.0
 11
473.5
 21
85.6
 31
0.0
  0
LINE
  8
L-ZISSEN
 10
464.5
 20
85.6
 30
0.0
 11
464.5
 21
81.0
 31
0.0
  0
LINE
  8
L-ZISSEN
 10
455.25
 20
85.6
 30
0.0
 11
455.25
 21
81.0
 31
0.0
  0
LINE
  8
L-ZISSEN
 10
446.25
 20
85.6
 30
0.0
 11
455.25
 21
85.6
 31
0.0
  0
LINE
  8
L-ZISSEN
 10
446.25
 20
85.6
 30
0.0
 11
446.25
 21
81.0
 31
0.0
  0
LINE
  8
L-ZISSEN
 10
86.390073
 20
117.1
 30
0.0
 11
86.390073
 21
112.5
 31
0.0
  0
LINE
  8
L-ZISSEN
 10
86.390073
 20
117.1
 30
0.0
 11
95.390073
 21
117.1
 31
0.0
  0
LINE
  8
L-ZISSEN
 10
95.390073
 20
117.1
 30
0.0
 11
95.390073
 21
112.5
 31
0.0
  0
LINE
  8
L-ZISSEN
 10
127.0
 20
117.1
 30
0.0
 11
127.0
 21
112.5
 31
0.0
  0
LINE
  8
L-ZISSEN
 10
118.0
 20
117.1
 30
0.0
 11
127.0
 21
117.1
 31
0.0
  0
LINE
  8
L-ZISSEN
 10
118.0
 20
117.1
 30
0.0
 11
118.0
 21
112.5
 31
0.0
  0
LINE
  8
L-ZISSEN
 10
149.609927
 20
117.1
 30
0.0
 11
149.609927
 21
112.5
 31
0.0
  0
LINE
  8
L-ZISSEN
 10
149.609927
 20
117.1
 30
0.0
 11
158.609927
 21
117.1
 31
0.0
  0
LINE
  8
L-ZISSEN
  6
CONTINUOUS
 62
     7
 10
80.0
 20
98.0
 30
0.0
 11
80.0
 21
66.0
 31
0.0
  0
LINE
  8
L-ZISSEN
  6
CONTINUOUS
 62
     7
 10
113.0
 20
90.5
 30
0.0
 11
113.0
 21
70.5
 31
0.0
  0
LINE
  8
L-ZISSEN
 10
113.0
 20
70.5
 30
0.0
 11
132.0
 21
70.5
 31
0.0
  0
LINE
  8
L-ZISSEN
 10
158.609927
 20
117.1
 30
0.0
 11
158.609927
 21
112.5
 31
0.0
  0
LINE
  8
L-ZISSEN
  6
CONTINUOUS
 62
     7
 10
165.0
 20
225.5
 30
0.0
 11
161.317199
 21
225.320932
 31
0.0
  0
LINE
  8
L-ZISSEN
  6
CONTINUOUS
 62
     7
 10
165.0
 20
225.5
 30
0.0
 11
165.0
 21
254.5
 31
0.0
  0
LINE
  8
L-ZISSEN
  6
CONTINUOUS
 62
     7
 10
165.0
 20
254.5
 30
0.0
 11
161.317199
 21
254.679068
 31
0.0
  0
LINE
  8
L-ZISSEN
  6
CONTINUOUS
 62
     7
 10
80.0
 20
225.5
 30
0.0
 11
83.682801
 21
225.320932
 31
0.0
  0
LINE
  8
L-ZISSEN
  6
CONTINUOUS
 62
     7
 10
80.0
 20
254.5
 30
0.0
 11
83.682801
 21
254.679068
 31
0.0
  0
LINE
  8
L-ZISSEN
  6
CONTINUOUS
 62
     7
 10
80.0
 20
225.5
 30
0.0
 11
80.0
 21
234.454732
 31
0.0
  0
LINE
  8
L-TYUSIN
  6
CENTER
 62
     1
 10
167.0
 20
80.0
 30
0.0
 11
78.0
 21
80.0
 31
0.0
  0
LINE
  8
L-ZISSEN
  6
CONTINUOUS
 62
     7
 10
142.5
 20
44.0
 30
0.0
 11
142.5
 21
54.5
 31
0.0
  0
LINE
  8
L-ZISSEN
  6
CONTINUOUS
 62
     7
 10
102.5
 20
44.0
 30
0.0
 11
142.5
 21
44.0
 31
0.0
  0
LINE
  8
L-ZISSEN
  6
CONTINUOUS
 62
     7
 10
102.5
 20
44.0
 30
0.0
 11
102.5
 21
54.5
 31
0.0
  0
LINE
  8
L-ZISSEN
  6
CONTINUOUS
 62
     7
 10
101.5
 20
54.5
 30
0.0
 11
143.5
 21
54.5
 31
0.0
  0
LINE
  8
L-ZISSEN
  6
CONTINUOUS
 62
     7
 10
143.5
 20
54.5
 30
0.0
 11
143.5
 21
66.0
 31
0.0
  0
LINE
  8
L-ZISSEN
  6
CONTINUOUS
 62
     7
 10
165.0
 20
66.0
 30
0.0
 11
143.5
 21
66.0
 31
0.0
  0
LINE
  8
L-ZISSEN
  6
CONTINUOUS
 62
     7
 10
165.0
 20
98.0
 30
0.0
 11
165.0
 21
66.0
 31
0.0
  0
LINE
  8
L-ZISSEN
  6
CONTINUOUS
 62
     7
 10
132.0
 20
90.5
 30
0.0
 11
132.0
 21
70.5
 31
0.0
  0
LINE
  8
L-ZISSEN
  6
CONTINUOUS
 62
     7
 10
80.0
 20
66.0
 30
0.0
 11
101.5
 21
66.0
 31
0.0
  0
LINE
  8
L-ZISSEN
  6
CONTINUOUS
 62
     7
 10
101.5
 20
54.5
 30
0.0
 11
101.5
 21
66.0
 31
0.0
  0
LINE
  8
L-ZISSEN
  6
CONTINUOUS
 62
     7
 10
80.0
 20
90.5
 30
0.0
 11
165.0
 21
90.5
 31
0.0
  0
LINE
  8
L-ZISSEN
  6
CONTINUOUS
 62
     7
 10
165.0
 20
98.0
 30
0.0
 11
80.0
 21
98.0
 31
0.0
  0
LINE
  8
L-TYUSIN
  6
CENTER
 62
     1
 10
122.5
 20
196.5
 30
0.0
 11
122.5
 21
283.5
 31
0.0
  0
CIRCLE
  8
L-ZISSEN
  6
CONTINUOUS
 62
     7
 10
90.890073
 20
221.75
 30
0.0
 40
4.5
  0
CIRCLE
  8
L-ZISSEN
  6
CONTINUOUS
 62
     7
 10
90.890073
 20
258.25
 30
0.0
 40
4.5
  0
CIRCLE
  8
L-ZISSEN
  6
CONTINUOUS
 62
     7
 10
154.109927
 20
221.75
 30
0.0
 40
4.5
  0
CIRCLE
  8
L-ZISSEN
  6
CONTINUOUS
 62
     7
 10
154.109927
 20
258.25
 30
0.0
 40
4.5
  0
CIRCLE
  8
L-ZISSEN
  6
CONTINUOUS
 62
     7
 10
122.5
 20
203.5
 30
0.0
 40
4.5
  0
CIRCLE
  8
L-ZISSEN
  6
CONTINUOUS
 62
     7
 10
122.5
 20
276.5
 30
0.0
 40
4.5
  0
ARC
  8
L-ZISSEN
  6
CONTINUOUS
 62
     7
 10
122.5
 20
240.0
 30
0.0
 40
41.5
 50
190.826179
 51
159.091764
  0
LINE
  8
L-TYUSIN
  6
CENTER
 62
     1
 10
78.0
 20
240.0
 30
0.0
 11
167.0
 21
240.0
 31
0.0
  0
LINE
  8
L-ZISSEN
  6
CONTINUOUS
 62
     7
 10
417.5
 20
322.0
 30
0.0
 11
441.0
 21
322.0
 31
0.0
  0
LINE
  8
L-ZISSEN
  6
CONTINUOUS
 62
     7
 10
441.0
 20
322.0
 30
0.0
 11
441.0
 21
268.0
 31
0.0
  0
LINE
  8
L-ZISSEN
  6
CONTINUOUS
 62
     7
 10
490.2
 20
81.0
 30
0.0
 11
442.5
 21
81.0
 31
0.0
  0
LINE
  8
L-ZISSEN
  6
CONTINUOUS
 62
     7
 10
492.5
 20
78.7
 30
0.0
 11
492.5
 21
98.7
 31
0.0
  0
LINE
  8
L-ZISSEN
  6
CONTINUOUS
 62
     7
 10
490.2
 20
98.7
 30
0.0
 11
490.2
 21
81.0
 31
0.0
  0
LINE
  8
L-ZISSEN
  6
CONTINUOUS
 62
     7
 10
492.5
 20
98.7
 30
0.0
 11
490.2
 21
98.7
 31
0.0
  0
LINE
  8
L-ZISSEN
  6
CONTINUOUS
 62
     7
 10
474.0
 20
78.7
 30
0.0
 11
492.5
 21
78.7
 31
0.0
  0
LINE
  8
L-ZISSEN
  6
CONTINUOUS
 62
     7
 10
78.5
 20
112.5
 30
0.0
 11
164.0
 21
112.5
 31
0.0
  0
LINE
  8
L-ZISSEN
  6
CONTINUOUS
 62
     7
 10
417.5
 20
268.0
 30
0.0
 11
441.0
 21
268.0
 31
0.0
  0
LINE
  8
L-ZISSEN
  6
CONTINUOUS
 62
     7
 10
417.5
 20
268.0
 30
0.0
 11
417.5
 21
322.0
 31
0.0
  0
LINE
  8
L-ZISSEN
  6
CONTINUOUS
 62
     7
 10
81.0
 20
99.2
 30
0.0
 11
164.0
 21
99.2
 31
0.0
  0
LINE
  8
L-ZISSEN
  6
CONTINUOUS
 62
     7
 10
81.0
 20
98.0
 30
0.0
 11
81.0
 21
106.0
 31
0.0
  0
LINE
  8
L-ZISSEN
  6
CONTINUOUS
 62
     7
 10
164.0
 20
98.0
 30
0.0
 11
164.0
 21
112.5
 31
0.0
  0
LINE
  8
L-TYUSIN
  6
CENTER
 62
     1
 10
122.5
 20
132.282286
 30
0.0
 11
122.5
 21
42.0
 31
0.0
  0
LINE
  8
L-TYUSIN
 10
302.5
 20
420.0
 30
0.0
 11
302.5
 21
15.0
 31
0.0
  0
LINE
  8
L-TYUSIN
 10
502.5
 20
140.0
 30
0.0
 11
502.5
 21
20.0
 31
0.0
  0
ENDSEC
  0
EOF
