  0
SECTION
  2
HEADER
  9
$ACADVER
  1
AC1012
  9
$DWGCODEPAGE
  3
dos932
  9
$INSBASE
 10
0.0
 20
0.0
 30
0.0
  9
$EXTMIN
 10
14.06646563163826
 20
-3.766983835877226
 30
-0.0000000000001472
  9
$EXTMAX
 10
307.4621078197229
 20
301.9047717189433
 30
0.0000000000002462
  9
$LIMMIN
 10
0.0
 20
0.0
  9
$LIMMAX
 10
420.0
 20
297.0
  9
$ORTHOMODE
 70
     1
  9
$REGENMODE
 70
     1
  9
$FILLMODE
 70
     1
  9
$QTEXTMODE
 70
     0
  9
$MIRRTEXT
 70
     0
  9
$DRAGMODE
 70
     2
  9
$LTSCALE
 40
1.0
  9
$OSMODE
 70
    37
  9
$ATTMODE
 70
     1
  9
$TEXTSIZE
 40
6.0
  9
$TRACEWID
 40
0.05
  9
$TEXTSTYLE
  7
STANDARD
  9
$CLAYER
  8
L-ZISSEN
  9
$CELTYPE
  6
BYLAYER
  9
$CECOLOR
 62
   256
  9
$CELTSCALE
 40
1.0
  9
$DELOBJ
 70
     1
  9
$DISPSILH
 70
     0
  9
$DIMSCALE
 40
1.0
  9
$DIMASZ
 40
2.0
  9
$DIMEXO
 40
1.0
  9
$DIMDLI
 40
0.38
  9
$DIMRND
 40
0.0
  9
$DIMDLE
 40
0.0
  9
$DIMEXE
 40
1.0
  9
$DIMTP
 40
0.0
  9
$DIMTM
 40
0.0
  9
$DIMTXT
 40
3.5
  9
$DIMCEN
 40
0.09
  9
$DIMTSZ
 40
0.0
  9
$DIMTOL
 70
     0
  9
$DIMLIM
 70
     0
  9
$DIMTIH
 70
     0
  9
$DIMTOH
 70
     0
  9
$DIMSE1
 70
     0
  9
$DIMSE2
 70
     0
  9
$DIMTAD
 70
     1
  9
$DIMZIN
 70
     8
  9
$DIMBLK
  1

  9
$DIMASO
 70
     1
  9
$DIMSHO
 70
     0
  9
$DIMPOST
  1

  9
$DIMAPOST
  1

  9
$DIMALT
 70
     0
  9
$DIMALTD
 70
     2
  9
$DIMALTF
 40
25.4
  9
$DIMLFAC
 40
1.0
  9
$DIMTOFL
 70
     1
  9
$DIMTVP
 40
0.0
  9
$DIMTIX
 70
     0
  9
$DIMSOXD
 70
     0
  9
$DIMSAH
 70
     1
  9
$DIMBLK1
  1
OPEN
  9
$DIMBLK2
  1
OPEN
  9
$DIMSTYLE
  2
STANDARD
  9
$DIMCLRD
 70
     0
  9
$DIMCLRE
 70
     0
  9
$DIMCLRT
 70
     0
  9
$DIMTFAC
 40
1.0
  9
$DIMGAP
 40
1.0
  9
$DIMJUST
 70
     0
  9
$DIMSD1
 70
     0
  9
$DIMSD2
 70
     0
  9
$DIMTOLJ
 70
     1
  9
$DIMTZIN
 70
     0
  9
$DIMALTZ
 70
     0
  9
$DIMALTTZ
 70
     0
  9
$DIMFIT
 70
     3
  9
$DIMUPT
 70
     0
  9
$DIMUNIT
 70
     2
  9
$DIMDEC
 70
     4
  9
$DIMTDEC
 70
     4
  9
$DIMALTU
 70
     2
  9
$DIMALTTD
 70
     2
  9
$DIMTXSTY
  7
STANDARD
  9
$DIMAUNIT
 70
     0
  9
$LUNITS
 70
     2
  9
$LUPREC
 70
     4
  9
$SKETCHINC
 40
0.1
  9
$FILLETRAD
 40
5.0
  9
$AUNITS
 70
     0
  9
$AUPREC
 70
     0
  9
$MENU
  1
acad
  9
$ELEVATION
 40
0.0
  9
$PELEVATION
 40
0.0
  9
$THICKNESS
 40
0.0
  9
$LIMCHECK
 70
     0
  9
$BLIPMODE
 70
     0
  9
$CHAMFERA
 40
0.0
  9
$CHAMFERB
 40
0.0
  9
$CHAMFERC
 40
0.0
  9
$CHAMFERD
 40
0.0
  9
$SKPOLY
 70
     0
  9
$TDCREATE
 40
2450214.232181597
  9
$TDUPDATE
 40
2453167.678481713
  9
$TDINDWG
 40
13.2371120370
  9
$TDUSRTIMER
 40
13.2371120370
  9
$USRTIMER
 70
     1
  9
$ANGBASE
 50
0.0
  9
$ANGDIR
 70
     0
  9
$PDMODE
 70
     0
  9
$PDSIZE
 40
0.0
  9
$PLINEWID
 40
0.0
  9
$COORDS
 70
     1
  9
$SPLFRAME
 70
     0
  9
$SPLINETYPE
 70
     6
  9
$SPLINESEGS
 70
     8
  9
$ATTDIA
 70
     0
  9
$ATTREQ
 70
     1
  9
$HANDLING
 70
-16383
  9
$HANDSEED
  5
FE96E
  9
$SURFTAB1
 70
     6
  9
$SURFTAB2
 70
     6
  9
$SURFTYPE
 70
     6
  9
$SURFU
 70
     6
  9
$SURFV
 70
     6
  9
$UCSNAME
  2

  9
$UCSORG
 10
0.0
 20
0.0
 30
0.0
  9
$UCSXDIR
 10
1.0
 20
0.0
 30
0.0
  9
$UCSYDIR
 10
0.0
 20
1.0
 30
0.0
  9
$PUCSNAME
  2

  9
$PUCSORG
 10
0.0
 20
0.0
 30
0.0
  9
$PUCSXDIR
 10
1.0
 20
0.0
 30
0.0
  9
$PUCSYDIR
 10
0.0
 20
1.0
 30
0.0
  9
$USERI1
 70
     0
  9
$USERI2
 70
     0
  9
$USERI3
 70
     0
  9
$USERI4
 70
     0
  9
$USERI5
 70
     0
  9
$USERR1
 40
0.0
  9
$USERR2
 40
0.0
  9
$USERR3
 40
0.0
  9
$USERR4
 40
0.0
  9
$USERR5
 40
0.0
  9
$WORLDVIEW
 70
     1
  9
$SHADEDGE
 70
     3
  9
$SHADEDIF
 70
    70
  9
$TILEMODE
 70
     1
  9
$MAXACTVP
 70
    16
  9
$PINSBASE
 10
0.0
 20
0.0
 30
0.0
  9
$PLIMCHECK
 70
     0
  9
$PEXTMIN
 10
1.126647978470018
 20
0.7845611790946699
 30
-0.0015258207003583
  9
$PEXTMAX
 10
10.14093020155668
 20
7.063247699364143
 30
0.0000000349246037
  9
$PLIMMIN
 10
-0.2112501249538632
 20
-0.2112499935420479
  9
$PLIMMAX
 10
11.47874967319758
 20
8.058749953592856
  9
$UNITMODE
 70
     0
  9
$VISRETAIN
 70
     0
  9
$PLINEGEN
 70
     0
  9
$PSLTSCALE
 70
     0
  9
$TREEDEPTH
 70
  3020
  9
$PICKSTYLE
 70
     3
  9
$CMLSTYLE
  2
STANDARD
  9
$CMLJUST
 70
     0
  9
$CMLSCALE
 40
1.0
  9
$SAVEIMAGES
 70
     1
  0
ENDSEC
  0
SECTION
  2
CLASSES
  0
CLASS
  1
LWPOLYLINE
  2
AcDbPolyline
  3
AutoCAD 2000
 90
    32768
280
     1
281
     1
  0
CLASS
  1
DICTIONARYVAR
  2
AcDbDictionaryVar
  3
AutoCAD 2000
 90
    32768
280
     1
281
     0
  0
CLASS
  1
HATCH
  2
AcDbHatch
  3
AutoCAD 2000
 90
    32768
280
     1
281
     1
  0
CLASS
  1
ACDBDICTIONARYWDFLT
  2
AcDbDictionaryWithDefault
  3
AutoCAD 2000
 90
    32768
280
     0
281
     0
  0
CLASS
  1
ACDBPLACEHOLDER
  2
AcDbPlaceHolder
  3
AutoCAD 2000
 90
    32768
280
     0
281
     0
  0
CLASS
  1
LAYOUT
  2
AcDbLayout
  3
AutoCAD 2000
 90
    32768
280
     0
281
     0
  0
CLASS
  1
LONG_TRANSACTION
  2
AcDbLongTransaction
  3
AutoCAD 2000
 90
    32768
280
     0
281
     0
  0
CLASS
  1
LWPOLYLINE
  2
AcDbPolyline
  3
AutoCAD 2000
 90
    32768
280
     0
281
     1
  0
CLASS
  1
HATCH
  2
AcDbHatch
  3
AutoCAD 2000
 90
    32768
280
     0
281
     1
  0
CLASS
  1
XRECORD
  2
AcDbXrecord
  3
AutoCAD 2000
 90
    32768
280
     0
281
     0
  0
CLASS
  1
LONG_TRANSACTION
  2
AcDbLongTransaction
  3
AutoCAD 2000
 90
    32768
280
     0
281
     0
  0
CLASS
  1
LWPOLYLINE
  2
AcDbPolyline
  3
AutoCAD 2000
 90
    32768
280
     0
281
     1
  0
CLASS
  1
HATCH
  2
AcDbHatch
  3
AutoCAD 2000
 90
    32768
280
     0
281
     1
  0
CLASS
  1
XRECORD
  2
AcDbXrecord
  3
AutoCAD 2000
 90
    32768
280
     0
281
     0
  0
CLASS
  1
LONG_TRANSACTION
  2
AcDbLongTransaction
  3
AutoCAD 2000
 90
    32768
280
     0
281
     0
  0
CLASS
  1
LWPOLYLINE
  2
AcDbPolyline
  3
AutoCAD 2000
 90
    32768
280
     0
281
     1
  0
CLASS
  1
HATCH
  2
AcDbHatch
  3
AutoCAD 2000
 90
    32768
280
     0
281
     1
  0
CLASS
  1
XRECORD
  2
AcDbXrecord
  3
AutoCAD 2000
 90
    32768
280
     0
281
     0
  0
CLASS
  1
LONG_TRANSACTION
  2
AcDbLongTransaction
  3
AutoCAD 2000
 90
    32768
280
     0
281
     0
  0
CLASS
  1
LWPOLYLINE
  2
AcDbPolyline
  3
AutoCAD 2000
 90
    32768
280
     0
281
     1
  0
CLASS
  1
HATCH
  2
AcDbHatch
  3
AutoCAD 2000
 90
    32768
280
     0
281
     1
  0
CLASS
  1
XRECORD
  2
AcDbXrecord
  3
AutoCAD 2000
 90
    32768
280
     0
281
     0
  0
CLASS
  1
LONG_TRANSACTION
  2
AcDbLongTransaction
  3
AutoCAD 2000
 90
    32768
280
     0
281
     0
  0
CLASS
  1
LWPOLYLINE
  2
AcDbPolyline
  3
AutoCAD 2000
 90
    32768
280
     0
281
     1
  0
CLASS
  1
HATCH
  2
AcDbHatch
  3
AutoCAD 2000
 90
    32768
280
     0
281
     1
  0
CLASS
  1
XRECORD
  2
AcDbXrecord
  3
AutoCAD 2000
 90
    32768
280
     0
281
     0
  0
CLASS
  1
LONG_TRANSACTION
  2
AcDbLongTransaction
  3
AutoCAD 2000
 90
    32768
280
     0
281
     0
  0
CLASS
  1
LWPOLYLINE
  2
AcDbPolyline
  3
AutoCAD 2000
 90
    32768
280
     0
281
     1
  0
CLASS
  1
HATCH
  2
AcDbHatch
  3
AutoCAD 2000
 90
    32768
280
     0
281
     1
  0
CLASS
  1
XRECORD
  2
AcDbXrecord
  3
AutoCAD 2000
 90
    32768
280
     0
281
     0
  0
CLASS
  1
LONG_TRANSACTION
  2
AcDbLongTransaction
  3
AutoCAD 2000
 90
    32768
280
     0
281
     0
  0
CLASS
  1
LWPOLYLINE
  2
AcDbPolyline
  3
AutoCAD 2000
 90
    32768
280
     0
281
     1
  0
CLASS
  1
HATCH
  2
AcDbHatch
  3
AutoCAD 2000
 90
    32768
280
     0
281
     1
  0
CLASS
  1
XRECORD
  2
AcDbXrecord
  3
AutoCAD 2000
 90
    32768
280
     0
281
     0
  0
CLASS
  1
LONG_TRANSACTION
  2
AcDbLongTransaction
  3
AutoCAD 2000
 90
    32768
280
     0
281
     0
  0
CLASS
  1
LWPOLYLINE
  2
AcDbPolyline
  3
AutoCAD 2000
 90
    32768
280
     0
281
     1
  0
CLASS
  1
HATCH
  2
AcDbHatch
  3
AutoCAD 2000
 90
    32768
280
     0
281
     1
  0
CLASS
  1
XRECORD
  2
AcDbXrecord
  3
AutoCAD 2000
 90
    32768
280
     0
281
     0
  0
CLASS
  1
LONG_TRANSACTION
  2
AcDbLongTransaction
  3
AutoCAD 2000
 90
    32768
280
     0
281
     0
  0
CLASS
  1
LWPOLYLINE
  2
AcDbPolyline
  3
AutoCAD 2000
 90
    32768
280
     0
281
     1
  0
CLASS
  1
HATCH
  2
AcDbHatch
  3
AutoCAD 2000
 90
    32768
280
     0
281
     1
  0
CLASS
  1
XRECORD
  2
AcDbXrecord
  3
AutoCAD 2000
 90
    32768
280
     0
281
     0
  0
CLASS
  1
LONG_TRANSACTION
  2
AcDbLongTransaction
  3
AutoCAD 2000
 90
    32768
280
     0
281
     0
  0
CLASS
  1
LWPOLYLINE
  2
AcDbPolyline
  3
AutoCAD 2000
 90
    32768
280
     0
281
     1
  0
CLASS
  1
HATCH
  2
AcDbHatch
  3
AutoCAD 2000
 90
    32768
280
     0
281
     1
  0
CLASS
  1
XRECORD
  2
AcDbXrecord
  3
AutoCAD 2000
 90
    32768
280
     0
281
     0
  0
CLASS
  1
LONG_TRANSACTION
  2
AcDbLongTransaction
  3
AutoCAD 2000
 90
    32768
280
     0
281
     0
  0
CLASS
  1
LWPOLYLINE
  2
AcDbPolyline
  3
AutoCAD 2000
 90
    32768
280
     0
281
     1
  0
CLASS
  1
HATCH
  2
AcDbHatch
  3
AutoCAD 2000
 90
    32768
280
     0
281
     1
  0
CLASS
  1
XRECORD
  2
AcDbXrecord
  3
AutoCAD 2000
 90
    32768
280
     0
281
     0
  0
CLASS
  1
LONG_TRANSACTION
  2
AcDbLongTransaction
  3
AutoCAD 2000
 90
    32768
280
     0
281
     0
  0
CLASS
  1
LWPOLYLINE
  2
AcDbPolyline
  3
AutoCAD 2000
 90
    32768
280
     0
281
     1
  0
CLASS
  1
HATCH
  2
AcDbHatch
  3
AutoCAD 2000
 90
    32768
280
     0
281
     1
  0
CLASS
  1
XRECORD
  2
AcDbXrecord
  3
AutoCAD 2000
 90
    32768
280
     0
281
     0
  0
CLASS
  1
LONG_TRANSACTION
  2
AcDbLongTransaction
  3
AutoCAD 2000
 90
    32768
280
     0
281
     0
  0
CLASS
  1
LWPOLYLINE
  2
AcDbPolyline
  3
AutoCAD 2000
 90
    32768
280
     0
281
     1
  0
CLASS
  1
HATCH
  2
AcDbHatch
  3
AutoCAD 2000
 90
    32768
280
     0
281
     1
  0
CLASS
  1
XRECORD
  2
AcDbXrecord
  3
AutoCAD 2000
 90
    32768
280
     0
281
     0
  0
CLASS
  1
LONG_TRANSACTION
  2
AcDbLongTransaction
  3
AutoCAD 2000
 90
    32768
280
     0
281
     0
  0
CLASS
  1
LWPOLYLINE
  2
AcDbPolyline
  3
AutoCAD 2000
 90
    32768
280
     0
281
     1
  0
CLASS
  1
HATCH
  2
AcDbHatch
  3
AutoCAD 2000
 90
    32768
280
     0
281
     1
  0
CLASS
  1
XRECORD
  2
AcDbXrecord
  3
AutoCAD 2000
 90
    32768
280
     0
281
     0
  0
CLASS
  1
LONG_TRANSACTION
  2
AcDbLongTransaction
  3
AutoCAD 2000
 90
    32768
280
     0
281
     0
  0
CLASS
  1
LWPOLYLINE
  2
AcDbPolyline
  3
AutoCAD 2000
 90
    32768
280
     0
281
     1
  0
CLASS
  1
HATCH
  2
AcDbHatch
  3
AutoCAD 2000
 90
    32768
280
     0
281
     1
  0
CLASS
  1
XRECORD
  2
AcDbXrecord
  3
AutoCAD 2000
 90
    32768
280
     0
281
     0
  0
CLASS
  1
LONG_TRANSACTION
  2
AcDbLongTransaction
  3
AutoCAD 2000
 90
    32768
280
     0
281
     0
  0
CLASS
  1
LWPOLYLINE
  2
AcDbPolyline
  3
AutoCAD 2000
 90
    32768
280
     0
281
     1
  0
CLASS
  1
HATCH
  2
AcDbHatch
  3
AutoCAD 2000
 90
    32768
280
     0
281
     1
  0
CLASS
  1
XRECORD
  2
AcDbXrecord
  3
AutoCAD 2000
 90
    32768
280
     0
281
     0
  0
CLASS
  1
LONG_TRANSACTION
  2
AcDbLongTransaction
  3
AutoCAD 2000
 90
    32768
280
     0
281
     0
  0
CLASS
  1
LWPOLYLINE
  2
AcDbPolyline
  3
AutoCAD 2000
 90
    32768
280
     0
281
     1
  0
CLASS
  1
HATCH
  2
AcDbHatch
  3
AutoCAD 2000
 90
    32768
280
     0
281
     1
  0
CLASS
  1
XRECORD
  2
AcDbXrecord
  3
AutoCAD 2000
 90
    32768
280
     0
281
     0
  0
CLASS
  1
LONG_TRANSACTION
  2
AcDbLongTransaction
  3
AutoCAD 2000
 90
    32768
280
     0
281
     0
  0
CLASS
  1
LWPOLYLINE
  2
AcDbPolyline
  3
AutoCAD 2000
 90
    32768
280
     0
281
     1
  0
CLASS
  1
HATCH
  2
AcDbHatch
  3
AutoCAD 2000
 90
    32768
280
     0
281
     1
  0
CLASS
  1
XRECORD
  2
AcDbXrecord
  3
AutoCAD 2000
 90
    32768
280
     0
281
     0
  0
CLASS
  1
LONG_TRANSACTION
  2
AcDbLongTransaction
  3
AutoCAD 2000
 90
    32768
280
     0
281
     0
  0
CLASS
  1
LWPOLYLINE
  2
AcDbPolyline
  3
AutoCAD 2000
 90
    32768
280
     0
281
     1
  0
CLASS
  1
HATCH
  2
AcDbHatch
  3
AutoCAD 2000
 90
    32768
280
     0
281
     1
  0
CLASS
  1
XRECORD
  2
AcDbXrecord
  3
AutoCAD 2000
 90
    32768
280
     0
281
     0
  0
CLASS
  1
LONG_TRANSACTION
  2
AcDbLongTransaction
  3
AutoCAD 2000
 90
    32768
280
     0
281
     0
  0
CLASS
  1
LWPOLYLINE
  2
AcDbPolyline
  3
AutoCAD 2000
 90
    32768
280
     0
281
     1
  0
CLASS
  1
HATCH
  2
AcDbHatch
  3
AutoCAD 2000
 90
    32768
280
     0
281
     1
  0
CLASS
  1
XRECORD
  2
AcDbXrecord
  3
AutoCAD 2000
 90
    32768
280
     0
281
     0
  0
CLASS
  1
LONG_TRANSACTION
  2
AcDbLongTransaction
  3
AutoCAD 2000
 90
    32768
280
     0
281
     0
  0
CLASS
  1
LWPOLYLINE
  2
AcDbPolyline
  3
AutoCAD 2000
 90
    32768
280
     0
281
     1
  0
CLASS
  1
HATCH
  2
AcDbHatch
  3
AutoCAD 2000
 90
    32768
280
     0
281
     1
  0
CLASS
  1
XRECORD
  2
AcDbXrecord
  3
AutoCAD 2000
 90
    32768
280
     0
281
     0
  0
CLASS
  1
LONG_TRANSACTION
  2
AcDbLongTransaction
  3
AutoCAD 2000
 90
    32768
280
     0
281
     0
  0
CLASS
  1
LWPOLYLINE
  2
AcDbPolyline
  3
AutoCAD 2000
 90
    32768
280
     0
281
     1
  0
CLASS
  1
HATCH
  2
AcDbHatch
  3
AutoCAD 2000
 90
    32768
280
     0
281
     1
  0
CLASS
  1
XRECORD
  2
AcDbXrecord
  3
AutoCAD 2000
 90
    32768
280
     0
281
     0
  0
CLASS
  1
LONG_TRANSACTION
  2
AcDbLongTransaction
  3
AutoCAD 2000
 90
    32768
280
     0
281
     0
  0
CLASS
  1
LWPOLYLINE
  2
AcDbPolyline
  3
AutoCAD 2000
 90
    32768
280
     0
281
     1
  0
CLASS
  1
HATCH
  2
AcDbHatch
  3
AutoCAD 2000
 90
    32768
280
     0
281
     1
  0
CLASS
  1
XRECORD
  2
AcDbXrecord
  3
AutoCAD 2000
 90
    32768
280
     0
281
     0
  0
CLASS
  1
LONG_TRANSACTION
  2
AcDbLongTransaction
  3
AutoCAD 2000
 90
    32768
280
     0
281
     0
  0
CLASS
  1
LWPOLYLINE
  2
AcDbPolyline
  3
AutoCAD 2000
 90
    32768
280
     0
281
     1
  0
CLASS
  1
HATCH
  2
AcDbHatch
  3
AutoCAD 2000
 90
    32768
280
     0
281
     1
  0
CLASS
  1
XRECORD
  2
AcDbXrecord
  3
AutoCAD 2000
 90
    32768
280
     0
281
     0
  0
CLASS
  1
LONG_TRANSACTION
  2
AcDbLongTransaction
  3
AutoCAD 2000
 90
    32768
280
     0
281
     0
  0
CLASS
  1
LWPOLYLINE
  2
AcDbPolyline
  3
AutoCAD 2000
 90
    32768
280
     0
281
     1
  0
CLASS
  1
HATCH
  2
AcDbHatch
  3
AutoCAD 2000
 90
    32768
280
     0
281
     1
  0
CLASS
  1
XRECORD
  2
AcDbXrecord
  3
AutoCAD 2000
 90
    32768
280
     0
281
     0
  0
CLASS
  1
LONG_TRANSACTION
  2
AcDbLongTransaction
  3
AutoCAD 2000
 90
    32768
280
     0
281
     0
  0
CLASS
  1
LWPOLYLINE
  2
AcDbPolyline
  3
AutoCAD 2000
 90
    32768
280
     0
281
     1
  0
CLASS
  1
HATCH
  2
AcDbHatch
  3
AutoCAD 2000
 90
    32768
280
     0
281
     1
  0
CLASS
  1
XRECORD
  2
AcDbXrecord
  3
AutoCAD 2000
 90
    32768
280
     0
281
     0
  0
CLASS
  1
LONG_TRANSACTION
  2
AcDbLongTransaction
  3
AutoCAD 2000
 90
    32768
280
     0
281
     0
  0
CLASS
  1
LWPOLYLINE
  2
AcDbPolyline
  3
AutoCAD 2000
 90
    32768
280
     0
281
     1
  0
CLASS
  1
HATCH
  2
AcDbHatch
  3
AutoCAD 2000
 90
    32768
280
     0
281
     1
  0
CLASS
  1
XRECORD
  2
AcDbXrecord
  3
AutoCAD 2000
 90
    32768
280
     0
281
     0
  0
CLASS
  1
LONG_TRANSACTION
  2
AcDbLongTransaction
  3
AutoCAD 2000
 90
    32768
280
     0
281
     0
  0
CLASS
  1
LWPOLYLINE
  2
AcDbPolyline
  3
AutoCAD 2000
 90
    32768
280
     0
281
     1
  0
CLASS
  1
HATCH
  2
AcDbHatch
  3
AutoCAD 2000
 90
    32768
280
     0
281
     1
  0
CLASS
  1
XRECORD
  2
AcDbXrecord
  3
AutoCAD 2000
 90
    32768
280
     0
281
     0
  0
CLASS
  1
LONG_TRANSACTION
  2
AcDbLongTransaction
  3
AutoCAD 2000
 90
    32768
280
     0
281
     0
  0
CLASS
  1
LWPOLYLINE
  2
AcDbPolyline
  3
AutoCAD 2000
 90
    32768
280
     0
281
     1
  0
CLASS
  1
HATCH
  2
AcDbHatch
  3
AutoCAD 2000
 90
    32768
280
     0
281
     1
  0
CLASS
  1
XRECORD
  2
AcDbXrecord
  3
AutoCAD 2000
 90
    32768
280
     0
281
     0
  0
CLASS
  1
LONG_TRANSACTION
  2
AcDbLongTransaction
  3
AutoCAD 2000
 90
    32768
280
     0
281
     0
  0
CLASS
  1
LWPOLYLINE
  2
AcDbPolyline
  3
AutoCAD 2000
 90
    32768
280
     0
281
     1
  0
CLASS
  1
HATCH
  2
AcDbHatch
  3
AutoCAD 2000
 90
    32768
280
     0
281
     1
  0
CLASS
  1
XRECORD
  2
AcDbXrecord
  3
AutoCAD 2000
 90
    32768
280
     0
281
     0
  0
CLASS
  1
LONG_TRANSACTION
  2
AcDbLongTransaction
  3
AutoCAD 2000
 90
    32768
280
     0
281
     0
  0
CLASS
  1
LWPOLYLINE
  2
AcDbPolyline
  3
AutoCAD 2000
 90
    32768
280
     0
281
     1
  0
CLASS
  1
HATCH
  2
AcDbHatch
  3
AutoCAD 2000
 90
    32768
280
     0
281
     1
  0
CLASS
  1
XRECORD
  2
AcDbXrecord
  3
AutoCAD 2000
 90
    32768
280
     0
281
     0
  0
CLASS
  1
LONG_TRANSACTION
  2
AcDbLongTransaction
  3
AutoCAD 2000
 90
    32768
280
     0
281
     0
  0
CLASS
  1
LWPOLYLINE
  2
AcDbPolyline
  3
AutoCAD 2000
 90
    32768
280
     0
281
     1
  0
CLASS
  1
HATCH
  2
AcDbHatch
  3
AutoCAD 2000
 90
    32768
280
     0
281
     1
  0
CLASS
  1
XRECORD
  2
AcDbXrecord
  3
AutoCAD 2000
 90
    32768
280
     0
281
     0
  0
CLASS
  1
LONG_TRANSACTION
  2
AcDbLongTransaction
  3
AutoCAD 2000
 90
    32768
280
     0
281
     0
  0
CLASS
  1
LWPOLYLINE
  2
AcDbPolyline
  3
AutoCAD 2000
 90
    32768
280
     0
281
     1
  0
CLASS
  1
HATCH
  2
AcDbHatch
  3
AutoCAD 2000
 90
    32768
280
     0
281
     1
  0
CLASS
  1
XRECORD
  2
AcDbXrecord
  3
AutoCAD 2000
 90
    32768
280
     0
281
     0
  0
CLASS
  1
LONG_TRANSACTION
  2
AcDbLongTransaction
  3
AutoCAD 2000
 90
    32768
280
     0
281
     0
  0
CLASS
  1
LWPOLYLINE
  2
AcDbPolyline
  3
AutoCAD 2000
 90
    32768
280
     0
281
     1
  0
CLASS
  1
HATCH
  2
AcDbHatch
  3
AutoCAD 2000
 90
    32768
280
     0
281
     1
  0
CLASS
  1
XRECORD
  2
AcDbXrecord
  3
AutoCAD 2000
 90
    32768
280
     0
281
     0
  0
CLASS
  1
LONG_TRANSACTION
  2
AcDbLongTransaction
  3
AutoCAD 2000
 90
    32768
280
     0
281
     0
  0
CLASS
  1
LWPOLYLINE
  2
AcDbPolyline
  3
AutoCAD 2000
 90
    32768
280
     0
281
     1
  0
CLASS
  1
HATCH
  2
AcDbHatch
  3
AutoCAD 2000
 90
    32768
280
     0
281
     1
  0
CLASS
  1
XRECORD
  2
AcDbXrecord
  3
AutoCAD 2000
 90
    32768
280
     0
281
     0
  0
CLASS
  1
LONG_TRANSACTION
  2
AcDbLongTransaction
  3
AutoCAD 2000
 90
    32768
280
     0
281
     0
  0
CLASS
  1
LWPOLYLINE
  2
AcDbPolyline
  3
AutoCAD 2000
 90
    32768
280
     0
281
     1
  0
CLASS
  1
HATCH
  2
AcDbHatch
  3
AutoCAD 2000
 90
    32768
280
     0
281
     1
  0
CLASS
  1
XRECORD
  2
AcDbXrecord
  3
AutoCAD 2000
 90
    32768
280
     0
281
     0
  0
CLASS
  1
LONG_TRANSACTION
  2
AcDbLongTransaction
  3
AutoCAD 2000
 90
    32768
280
     0
281
     0
  0
CLASS
  1
LWPOLYLINE
  2
AcDbPolyline
  3
AutoCAD 2000
 90
    32768
280
     0
281
     1
  0
CLASS
  1
HATCH
  2
AcDbHatch
  3
AutoCAD 2000
 90
    32768
280
     0
281
     1
  0
CLASS
  1
XRECORD
  2
AcDbXrecord
  3
AutoCAD 2000
 90
    32768
280
     0
281
     0
  0
CLASS
  1
LONG_TRANSACTION
  2
AcDbLongTransaction
  3
AutoCAD 2000
 90
    32768
280
     0
281
     0
  0
CLASS
  1
LWPOLYLINE
  2
AcDbPolyline
  3
AutoCAD 2000
 90
    32768
280
     0
281
     1
  0
CLASS
  1
HATCH
  2
AcDbHatch
  3
AutoCAD 2000
 90
    32768
280
     0
281
     1
  0
CLASS
  1
XRECORD
  2
AcDbXrecord
  3
AutoCAD 2000
 90
    32768
280
     0
281
     0
  0
CLASS
  1
LONG_TRANSACTION
  2
AcDbLongTransaction
  3
AutoCAD 2000
 90
    32768
280
     0
281
     0
  0
CLASS
  1
LWPOLYLINE
  2
AcDbPolyline
  3
AutoCAD 2000
 90
    32768
280
     0
281
     1
  0
CLASS
  1
HATCH
  2
AcDbHatch
  3
AutoCAD 2000
 90
    32768
280
     0
281
     1
  0
CLASS
  1
XRECORD
  2
AcDbXrecord
  3
AutoCAD 2000
 90
    32768
280
     0
281
     0
  0
CLASS
  1
LONG_TRANSACTION
  2
AcDbLongTransaction
  3
AutoCAD 2000
 90
    32768
280
     0
281
     0
  0
CLASS
  1
LWPOLYLINE
  2
AcDbPolyline
  3
AutoCAD 2000
 90
    32768
280
     0
281
     1
  0
CLASS
  1
HATCH
  2
AcDbHatch
  3
AutoCAD 2000
 90
    32768
280
     0
281
     1
  0
CLASS
  1
XRECORD
  2
AcDbXrecord
  3
AutoCAD 2000
 90
    32768
280
     0
281
     0
  0
CLASS
  1
LONG_TRANSACTION
  2
AcDbLongTransaction
  3
AutoCAD 2000
 90
    32768
280
     0
281
     0
  0
CLASS
  1
LWPOLYLINE
  2
AcDbPolyline
  3
AutoCAD 2000
 90
    32768
280
     0
281
     1
  0
CLASS
  1
HATCH
  2
AcDbHatch
  3
AutoCAD 2000
 90
    32768
280
     0
281
     1
  0
CLASS
  1
XRECORD
  2
AcDbXrecord
  3
AutoCAD 2000
 90
    32768
280
     0
281
     0
  0
CLASS
  1
LONG_TRANSACTION
  2
AcDbLongTransaction
  3
AutoCAD 2000
 90
    32768
280
     0
281
     0
  0
CLASS
  1
LWPOLYLINE
  2
AcDbPolyline
  3
AutoCAD 2000
 90
    32768
280
     0
281
     1
  0
CLASS
  1
HATCH
  2
AcDbHatch
  3
AutoCAD 2000
 90
    32768
280
     0
281
     1
  0
CLASS
  1
XRECORD
  2
AcDbXrecord
  3
AutoCAD 2000
 90
    32768
280
     0
281
     0
  0
CLASS
  1
LONG_TRANSACTION
  2
AcDbLongTransaction
  3
AutoCAD 2000
 90
    32768
280
     0
281
     0
  0
CLASS
  1
LWPOLYLINE
  2
AcDbPolyline
  3
AutoCAD 2000
 90
    32768
280
     0
281
     1
  0
CLASS
  1
HATCH
  2
AcDbHatch
  3
AutoCAD 2000
 90
    32768
280
     0
281
     1
  0
CLASS
  1
XRECORD
  2
AcDbXrecord
  3
AutoCAD 2000
 90
    32768
280
     0
281
     0
  0
CLASS
  1
LONG_TRANSACTION
  2
AcDbLongTransaction
  3
AutoCAD 2000
 90
    32768
280
     0
281
     0
  0
CLASS
  1
LWPOLYLINE
  2
AcDbPolyline
  3
AutoCAD 2000
 90
    32768
280
     0
281
     1
  0
CLASS
  1
HATCH
  2
AcDbHatch
  3
AutoCAD 2000
 90
    32768
280
     0
281
     1
  0
CLASS
  1
XRECORD
  2
AcDbXrecord
  3
AutoCAD 2000
 90
    32768
280
     0
281
     0
  0
CLASS
  1
LONG_TRANSACTION
  2
AcDbLongTransaction
  3
AutoCAD 2000
 90
    32768
280
     0
281
     0
  0
CLASS
  1
LWPOLYLINE
  2
AcDbPolyline
  3
AutoCAD 2000
 90
    32768
280
     0
281
     1
  0
CLASS
  1
HATCH
  2
AcDbHatch
  3
AutoCAD 2000
 90
    32768
280
     0
281
     1
  0
CLASS
  1
XRECORD
  2
AcDbXrecord
  3
AutoCAD 2000
 90
    32768
280
     0
281
     0
  0
CLASS
  1
LONG_TRANSACTION
  2
AcDbLongTransaction
  3
AutoCAD 2000
 90
    32768
280
     0
281
     0
  0
CLASS
  1
LWPOLYLINE
  2
AcDbPolyline
  3
AutoCAD 2000
 90
    32768
280
     0
281
     1
  0
CLASS
  1
HATCH
  2
AcDbHatch
  3
AutoCAD 2000
 90
    32768
280
     0
281
     1
  0
CLASS
  1
XRECORD
  2
AcDbXrecord
  3
AutoCAD 2000
 90
    32768
280
     0
281
     0
  0
CLASS
  1
LONG_TRANSACTION
  2
AcDbLongTransaction
  3
AutoCAD 2000
 90
    32768
280
     0
281
     0
  0
CLASS
  1
LWPOLYLINE
  2
AcDbPolyline
  3
AutoCAD 2000
 90
    32768
280
     0
281
     1
  0
CLASS
  1
HATCH
  2
AcDbHatch
  3
AutoCAD 2000
 90
    32768
280
     0
281
     1
  0
CLASS
  1
XRECORD
  2
AcDbXrecord
  3
AutoCAD 2000
 90
    32768
280
     0
281
     0
  0
CLASS
  1
LONG_TRANSACTION
  2
AcDbLongTransaction
  3
AutoCAD 2000
 90
    32768
280
     0
281
     0
  0
CLASS
  1
LWPOLYLINE
  2
AcDbPolyline
  3
AutoCAD 2000
 90
    32768
280
     0
281
     1
  0
CLASS
  1
HATCH
  2
AcDbHatch
  3
AutoCAD 2000
 90
    32768
280
     0
281
     1
  0
CLASS
  1
XRECORD
  2
AcDbXrecord
  3
AutoCAD 2000
 90
    32768
280
     0
281
     0
  0
CLASS
  1
LONG_TRANSACTION
  2
AcDbLongTransaction
  3
AutoCAD 2000
 90
    32768
280
     0
281
     0
  0
CLASS
  1
LWPOLYLINE
  2
AcDbPolyline
  3
AutoCAD 2000
 90
    32768
280
     0
281
     1
  0
CLASS
  1
HATCH
  2
AcDbHatch
  3
AutoCAD 2000
 90
    32768
280
     0
281
     1
  0
CLASS
  1
XRECORD
  2
AcDbXrecord
  3
AutoCAD 2000
 90
    32768
280
     0
281
     0
  0
CLASS
  1
LONG_TRANSACTION
  2
AcDbLongTransaction
  3
AutoCAD 2000
 90
    32768
280
     0
281
     0
  0
CLASS
  1
LWPOLYLINE
  2
AcDbPolyline
  3
AutoCAD 2000
 90
    32768
280
     0
281
     1
  0
CLASS
  1
HATCH
  2
AcDbHatch
  3
AutoCAD 2000
 90
    32768
280
     0
281
     1
  0
CLASS
  1
XRECORD
  2
AcDbXrecord
  3
AutoCAD 2000
 90
    32768
280
     0
281
     0
  0
CLASS
  1
LONG_TRANSACTION
  2
AcDbLongTransaction
  3
AutoCAD 2000
 90
    32768
280
     0
281
     0
  0
CLASS
  1
LWPOLYLINE
  2
AcDbPolyline
  3
AutoCAD 2000
 90
    32768
280
     0
281
     1
  0
CLASS
  1
HATCH
  2
AcDbHatch
  3
AutoCAD 2000
 90
    32768
280
     0
281
     1
  0
CLASS
  1
XRECORD
  2
AcDbXrecord
  3
AutoCAD 2000
 90
    32768
280
     0
281
     0
  0
CLASS
  1
LONG_TRANSACTION
  2
AcDbLongTransaction
  3
AutoCAD 2000
 90
    32768
280
     0
281
     0
  0
CLASS
  1
LWPOLYLINE
  2
AcDbPolyline
  3
AutoCAD 2000
 90
    32768
280
     0
281
     1
  0
CLASS
  1
HATCH
  2
AcDbHatch
  3
AutoCAD 2000
 90
    32768
280
     0
281
     1
  0
CLASS
  1
XRECORD
  2
AcDbXrecord
  3
AutoCAD 2000
 90
    32768
280
     0
281
     0
  0
CLASS
  1
LONG_TRANSACTION
  2
AcDbLongTransaction
  3
AutoCAD 2000
 90
    32768
280
     0
281
     0
  0
CLASS
  1
LWPOLYLINE
  2
AcDbPolyline
  3
AutoCAD 2000
 90
    32768
280
     0
281
     1
  0
CLASS
  1
HATCH
  2
AcDbHatch
  3
AutoCAD 2000
 90
    32768
280
     0
281
     1
  0
CLASS
  1
XRECORD
  2
AcDbXrecord
  3
AutoCAD 2000
 90
    32768
280
     0
281
     0
  0
CLASS
  1
LONG_TRANSACTION
  2
AcDbLongTransaction
  3
AutoCAD 2000
 90
    32768
280
     0
281
     0
  0
CLASS
  1
LWPOLYLINE
  2
AcDbPolyline
  3
AutoCAD 2000
 90
    32768
280
     0
281
     1
  0
CLASS
  1
HATCH
  2
AcDbHatch
  3
AutoCAD 2000
 90
    32768
280
     0
281
     1
  0
CLASS
  1
XRECORD
  2
AcDbXrecord
  3
AutoCAD 2000
 90
    32768
280
     0
281
     0
  0
CLASS
  1
LONG_TRANSACTION
  2
AcDbLongTransaction
  3
AutoCAD 2000
 90
    32768
280
     0
281
     0
  0
CLASS
  1
LWPOLYLINE
  2
AcDbPolyline
  3
AutoCAD 2000
 90
    32768
280
     0
281
     1
  0
CLASS
  1
HATCH
  2
AcDbHatch
  3
AutoCAD 2000
 90
    32768
280
     0
281
     1
  0
CLASS
  1
XRECORD
  2
AcDbXrecord
  3
AutoCAD 2000
 90
    32768
280
     0
281
     0
  0
CLASS
  1
LONG_TRANSACTION
  2
AcDbLongTransaction
  3
AutoCAD 2000
 90
    32768
280
     0
281
     0
  0
CLASS
  1
LWPOLYLINE
  2
AcDbPolyline
  3
AutoCAD 2000
 90
    32768
280
     0
281
     1
  0
CLASS
  1
HATCH
  2
AcDbHatch
  3
AutoCAD 2000
 90
    32768
280
     0
281
     1
  0
CLASS
  1
XRECORD
  2
AcDbXrecord
  3
AutoCAD 2000
 90
    32768
280
     0
281
     0
  0
CLASS
  1
LONG_TRANSACTION
  2
AcDbLongTransaction
  3
AutoCAD 2000
 90
    32768
280
     0
281
     0
  0
CLASS
  1
LWPOLYLINE
  2
AcDbPolyline
  3
AutoCAD 2000
 90
    32768
280
     0
281
     1
  0
CLASS
  1
HATCH
  2
AcDbHatch
  3
AutoCAD 2000
 90
    32768
280
     0
281
     1
  0
CLASS
  1
XRECORD
  2
AcDbXrecord
  3
AutoCAD 2000
 90
    32768
280
     0
281
     0
  0
CLASS
  1
LONG_TRANSACTION
  2
AcDbLongTransaction
  3
AutoCAD 2000
 90
    32768
280
     0
281
     0
  0
CLASS
  1
LWPOLYLINE
  2
AcDbPolyline
  3
AutoCAD 2000
 90
    32768
280
     0
281
     1
  0
CLASS
  1
HATCH
  2
AcDbHatch
  3
AutoCAD 2000
 90
    32768
280
     0
281
     1
  0
CLASS
  1
XRECORD
  2
AcDbXrecord
  3
AutoCAD 2000
 90
    32768
280
     0
281
     0
  0
CLASS
  1
LONG_TRANSACTION
  2
AcDbLongTransaction
  3
AutoCAD 2000
 90
    32768
280
     0
281
     0
  0
CLASS
  1
LWPOLYLINE
  2
AcDbPolyline
  3
AutoCAD 2000
 90
    32768
280
     0
281
     1
  0
CLASS
  1
HATCH
  2
AcDbHatch
  3
AutoCAD 2000
 90
    32768
280
     0
281
     1
  0
CLASS
  1
XRECORD
  2
AcDbXrecord
  3
AutoCAD 2000
 90
    32768
280
     0
281
     0
  0
CLASS
  1
LONG_TRANSACTION
  2
AcDbLongTransaction
  3
AutoCAD 2000
 90
    32768
280
     0
281
     0
  0
CLASS
  1
LWPOLYLINE
  2
AcDbPolyline
  3
AutoCAD 2000
 90
    32768
280
     0
281
     1
  0
CLASS
  1
HATCH
  2
AcDbHatch
  3
AutoCAD 2000
 90
    32768
280
     0
281
     1
  0
CLASS
  1
XRECORD
  2
AcDbXrecord
  3
AutoCAD 2000
 90
    32768
280
     0
281
     0
  0
CLASS
  1
LONG_TRANSACTION
  2
AcDbLongTransaction
  3
AutoCAD 2000
 90
    32768
280
     0
281
     0
  0
CLASS
  1
LWPOLYLINE
  2
AcDbPolyline
  3
AutoCAD 2000
 90
    32768
280
     0
281
     1
  0
CLASS
  1
HATCH
  2
AcDbHatch
  3
AutoCAD 2000
 90
    32768
280
     0
281
     1
  0
CLASS
  1
XRECORD
  2
AcDbXrecord
  3
AutoCAD 2000
 90
    32768
280
     0
281
     0
  0
CLASS
  1
LONG_TRANSACTION
  2
AcDbLongTransaction
  3
AutoCAD 2000
 90
    32768
280
     0
281
     0
  0
CLASS
  1
LWPOLYLINE
  2
AcDbPolyline
  3
AutoCAD 2000
 90
    32768
280
     0
281
     1
  0
CLASS
  1
HATCH
  2
AcDbHatch
  3
AutoCAD 2000
 90
    32768
280
     0
281
     1
  0
CLASS
  1
XRECORD
  2
AcDbXrecord
  3
AutoCAD 2000
 90
    32768
280
     0
281
     0
  0
CLASS
  1
LONG_TRANSACTION
  2
AcDbLongTransaction
  3
AutoCAD 2000
 90
    32768
280
     0
281
     0
  0
CLASS
  1
LWPOLYLINE
  2
AcDbPolyline
  3
AutoCAD 2000
 90
    32768
280
     0
281
     1
  0
CLASS
  1
HATCH
  2
AcDbHatch
  3
AutoCAD 2000
 90
    32768
280
     0
281
     1
  0
CLASS
  1
XRECORD
  2
AcDbXrecord
  3
AutoCAD 2000
 90
    32768
280
     0
281
     0
  0
CLASS
  1
LONG_TRANSACTION
  2
AcDbLongTransaction
  3
AutoCAD 2000
 90
    32768
280
     0
281
     0
  0
CLASS
  1
LWPOLYLINE
  2
AcDbPolyline
  3
AutoCAD 2000
 90
    32768
280
     0
281
     1
  0
CLASS
  1
HATCH
  2
AcDbHatch
  3
AutoCAD 2000
 90
    32768
280
     0
281
     1
  0
CLASS
  1
XRECORD
  2
AcDbXrecord
  3
AutoCAD 2000
 90
    32768
280
     0
281
     0
  0
CLASS
  1
LONG_TRANSACTION
  2
AcDbLongTransaction
  3
AutoCAD 2000
 90
    32768
280
     0
281
     0
  0
CLASS
  1
LWPOLYLINE
  2
AcDbPolyline
  3
AutoCAD 2000
 90
    32768
280
     0
281
     1
  0
CLASS
  1
HATCH
  2
AcDbHatch
  3
AutoCAD 2000
 90
    32768
280
     0
281
     1
  0
CLASS
  1
XRECORD
  2
AcDbXrecord
  3
AutoCAD 2000
 90
    32768
280
     0
281
     0
  0
CLASS
  1
LONG_TRANSACTION
  2
AcDbLongTransaction
  3
AutoCAD 2000
 90
    32768
280
     0
281
     0
  0
CLASS
  1
LWPOLYLINE
  2
AcDbPolyline
  3
AutoCAD 2000
 90
    32768
280
     0
281
     1
  0
CLASS
  1
HATCH
  2
AcDbHatch
  3
AutoCAD 2000
 90
    32768
280
     0
281
     1
  0
CLASS
  1
XRECORD
  2
AcDbXrecord
  3
AutoCAD 2000
 90
    32768
280
     0
281
     0
  0
CLASS
  1
LONG_TRANSACTION
  2
AcDbLongTransaction
  3
AutoCAD 2000
 90
    32768
280
     0
281
     0
  0
CLASS
  1
LWPOLYLINE
  2
AcDbPolyline
  3
AutoCAD 2000
 90
    32768
280
     0
281
     1
  0
CLASS
  1
HATCH
  2
AcDbHatch
  3
AutoCAD 2000
 90
    32768
280
     0
281
     1
  0
CLASS
  1
XRECORD
  2
AcDbXrecord
  3
AutoCAD 2000
 90
    32768
280
     0
281
     0
  0
CLASS
  1
LONG_TRANSACTION
  2
AcDbLongTransaction
  3
AutoCAD 2000
 90
    32768
280
     0
281
     0
  0
CLASS
  1
LWPOLYLINE
  2
AcDbPolyline
  3
AutoCAD 2000
 90
    32768
280
     0
281
     1
  0
CLASS
  1
HATCH
  2
AcDbHatch
  3
AutoCAD 2000
 90
    32768
280
     0
281
     1
  0
CLASS
  1
XRECORD
  2
AcDbXrecord
  3
AutoCAD 2000
 90
    32768
280
     0
281
     0
  0
CLASS
  1
LONG_TRANSACTION
  2
AcDbLongTransaction
  3
AutoCAD 2000
 90
    32768
280
     0
281
     0
  0
CLASS
  1
LWPOLYLINE
  2
AcDbPolyline
  3
AutoCAD 2000
 90
    32768
280
     0
281
     1
  0
CLASS
  1
HATCH
  2
AcDbHatch
  3
AutoCAD 2000
 90
    32768
280
     0
281
     1
  0
CLASS
  1
XRECORD
  2
AcDbXrecord
  3
AutoCAD 2000
 90
    32768
280
     0
281
     0
  0
CLASS
  1
LONG_TRANSACTION
  2
AcDbLongTransaction
  3
AutoCAD 2000
 90
    32768
280
     0
281
     0
  0
CLASS
  1
LWPOLYLINE
  2
AcDbPolyline
  3
AutoCAD 2000
 90
    32768
280
     0
281
     1
  0
CLASS
  1
HATCH
  2
AcDbHatch
  3
AutoCAD 2000
 90
    32768
280
     0
281
     1
  0
CLASS
  1
XRECORD
  2
AcDbXrecord
  3
AutoCAD 2000
 90
    32768
280
     0
281
     0
  0
CLASS
  1
LONG_TRANSACTION
  2
AcDbLongTransaction
  3
AutoCAD 2000
 90
    32768
280
     0
281
     0
  0
CLASS
  1
LWPOLYLINE
  2
AcDbPolyline
  3
AutoCAD 2000
 90
    32768
280
     0
281
     1
  0
CLASS
  1
HATCH
  2
AcDbHatch
  3
AutoCAD 2000
 90
    32768
280
     0
281
     1
  0
CLASS
  1
XRECORD
  2
AcDbXrecord
  3
AutoCAD 2000
 90
    32768
280
     0
281
     0
  0
CLASS
  1
LONG_TRANSACTION
  2
AcDbLongTransaction
  3
AutoCAD 2000
 90
    32768
280
     0
281
     0
  0
CLASS
  1
LWPOLYLINE
  2
AcDbPolyline
  3
AutoCAD 2000
 90
    32768
280
     0
281
     1
  0
CLASS
  1
HATCH
  2
AcDbHatch
  3
AutoCAD 2000
 90
    32768
280
     0
281
     1
  0
CLASS
  1
XRECORD
  2
AcDbXrecord
  3
AutoCAD 2000
 90
    32768
280
     0
281
     0
  0
CLASS
  1
LONG_TRANSACTION
  2
AcDbLongTransaction
  3
AutoCAD 2000
 90
    32768
280
     0
281
     0
  0
CLASS
  1
LWPOLYLINE
  2
AcDbPolyline
  3
AutoCAD 2000
 90
    32768
280
     0
281
     1
  0
CLASS
  1
HATCH
  2
AcDbHatch
  3
AutoCAD 2000
 90
    32768
280
     0
281
     1
  0
CLASS
  1
XRECORD
  2
AcDbXrecord
  3
AutoCAD 2000
 90
    32768
280
     0
281
     0
  0
CLASS
  1
LONG_TRANSACTION
  2
AcDbLongTransaction
  3
AutoCAD 2000
 90
    32768
280
     0
281
     0
  0
CLASS
  1
LWPOLYLINE
  2
AcDbPolyline
  3
AutoCAD 2000
 90
    32768
280
     0
281
     1
  0
CLASS
  1
HATCH
  2
AcDbHatch
  3
AutoCAD 2000
 90
    32768
280
     0
281
     1
  0
CLASS
  1
XRECORD
  2
AcDbXrecord
  3
AutoCAD 2000
 90
    32768
280
     0
281
     0
  0
CLASS
  1
LONG_TRANSACTION
  2
AcDbLongTransaction
  3
AutoCAD 2000
 90
    32768
280
     0
281
     0
  0
CLASS
  1
LWPOLYLINE
  2
AcDbPolyline
  3
AutoCAD 2000
 90
    32768
280
     0
281
     1
  0
CLASS
  1
HATCH
  2
AcDbHatch
  3
AutoCAD 2000
 90
    32768
280
     0
281
     1
  0
CLASS
  1
XRECORD
  2
AcDbXrecord
  3
AutoCAD 2000
 90
    32768
280
     0
281
     0
  0
CLASS
  1
LONG_TRANSACTION
  2
AcDbLongTransaction
  3
AutoCAD 2000
 90
    32768
280
     0
281
     0
  0
CLASS
  1
LWPOLYLINE
  2
AcDbPolyline
  3
AutoCAD 2000
 90
    32768
280
     0
281
     1
  0
CLASS
  1
HATCH
  2
AcDbHatch
  3
AutoCAD 2000
 90
    32768
280
     0
281
     1
  0
CLASS
  1
XRECORD
  2
AcDbXrecord
  3
AutoCAD 2000
 90
    32768
280
     0
281
     0
  0
CLASS
  1
LONG_TRANSACTION
  2
AcDbLongTransaction
  3
AutoCAD 2000
 90
    32768
280
     0
281
     0
  0
CLASS
  1
LWPOLYLINE
  2
AcDbPolyline
  3
AutoCAD 2000
 90
    32768
280
     0
281
     1
  0
CLASS
  1
HATCH
  2
AcDbHatch
  3
AutoCAD 2000
 90
    32768
280
     0
281
     1
  0
CLASS
  1
XRECORD
  2
AcDbXrecord
  3
AutoCAD 2000
 90
    32768
280
     0
281
     0
  0
CLASS
  1
LONG_TRANSACTION
  2
AcDbLongTransaction
  3
AutoCAD 2000
 90
    32768
280
     0
281
     0
  0
CLASS
  1
LWPOLYLINE
  2
AcDbPolyline
  3
AutoCAD 2000
 90
    32768
280
     0
281
     1
  0
CLASS
  1
HATCH
  2
AcDbHatch
  3
AutoCAD 2000
 90
    32768
280
     0
281
     1
  0
CLASS
  1
XRECORD
  2
AcDbXrecord
  3
AutoCAD 2000
 90
    32768
280
     0
281
     0
  0
CLASS
  1
LONG_TRANSACTION
  2
AcDbLongTransaction
  3
AutoCAD 2000
 90
    32768
280
     0
281
     0
  0
CLASS
  1
LWPOLYLINE
  2
AcDbPolyline
  3
AutoCAD 2000
 90
    32768
280
     0
281
     1
  0
CLASS
  1
HATCH
  2
AcDbHatch
  3
AutoCAD 2000
 90
    32768
280
     0
281
     1
  0
CLASS
  1
XRECORD
  2
AcDbXrecord
  3
AutoCAD 2000
 90
    32768
280
     0
281
     0
  0
ENDSEC
  0
SECTION
  2
TABLES
  0
TABLE
  2
VPORT
  5
12
330
0
100
AcDbSymbolTable
 70
     2
  0
VPORT
  5
FE95D
330
12
100
AcDbSymbolTableRecord
100
AcDbViewportTableRecord
  2
*ACTIVE
 70
     0
 10
0.0
 20
0.0
 11
1.0
 21
1.0
 12
160.7325886095479
 22
168.5223607073438
 13
0.0
 23
0.0
 14
1.0
 24
1.0
 15
0.0
 25
0.0
 16
0.0
 26
0.0
 36
1.0
 17
0.0
 27
0.0
 37
0.0
 40
349.5634621492034
 41
1.667838312829525
 42
50.0
 43
0.0
 44
0.0
 50
0.0
 51
0.0
 71
     0
 72
   100
 73
     1
 74
     0
 75
     0
 76
     0
 77
     0
 78
     0
  0
ENDTAB
  0
TABLE
  2
LTYPE
  5
E
330
0
100
AcDbSymbolTable
 70
     2
  0
LTYPE
  5
F
330
E
100
AcDbSymbolTableRecord
100
AcDbLinetypeTableRecord
  2
BYBLOCK
 70
     0
  3

 72
    65
 73
     0
 40
0.0
  0
LTYPE
  5
6
330
E
100
AcDbSymbolTableRecord
100
AcDbLinetypeTableRecord
  2
BYLAYER
 70
     0
  3

 72
    65
 73
     0
 40
0.0
  0
LTYPE
  5
5
330
E
100
AcDbSymbolTableRecord
100
AcDbLinetypeTableRecord
  2
CONTINUOUS
 70
     0
  3
Solid line
 72
    65
 73
     0
 40
0.0
  0
LTYPE
  5
54C
330
E
100
AcDbSymbolTableRecord
100
AcDbLinetypeTableRecord
  2
CENTER
 70
     0
  3
----- - ----- - ----- - ----- - ----- - -----
 72
    65
 73
     4
 40
35.0
 49
30.0
 74
     0
 49
-1.5
 74
     0
 49
2.0
 74
     0
 49
-1.5
 74
     0
  0
ENDTAB
  0
TABLE
  2
LAYER
  5
B
330
0
100
AcDbSymbolTable
 70
     7
  0
LAYER
  5
4
330
B
100
AcDbSymbolTableRecord
100
AcDbLayerTableRecord
  2
0
 70
     0
 62
     2
  6
CONTINUOUS
  0
LAYER
  5
1DB
330
B
100
AcDbSymbolTableRecord
100
AcDbLayerTableRecord
  2
SUNPOU
 70
     0
 62
     3
  6
CONTINUOUS
  0
LAYER
  5
1B
330
B
100
AcDbSymbolTableRecord
100
AcDbLayerTableRecord
  2
WAKU
 70
     0
 62
     6
  6
CONTINUOUS
  0
LAYER
  5
54F
330
B
100
AcDbSymbolTableRecord
100
AcDbLayerTableRecord
  2
L-ZISSEN
 70
     0
 62
     7
  6
CONTINUOUS
  0
LAYER
  5
550
330
B
100
AcDbSymbolTableRecord
100
AcDbLayerTableRecord
  2
L-TYUSIN
 70
     0
 62
     1
  6
CENTER
  0
LAYER
  5
551
330
B
100
AcDbSymbolTableRecord
100
AcDbLayerTableRecord
  2
L-MOJI
 70
     0
 62
     4
  6
CONTINUOUS
  0
LAYER
  5
59F33
330
B
100
AcDbSymbolTableRecord
100
AcDbLayerTableRecord
  2
L-SUNPO
 70
     0
 62
     3
  6
CONTINUOUS
  0
ENDTAB
  0
TABLE
  2
STYLE
  5
C
330
0
100
AcDbSymbolTable
 70
     2
  0
STYLE
  5
D
330
C
100
AcDbSymbolTableRecord
100
AcDbTextStyleTableRecord
  2
STANDARD
 70
     0
 40
0.0
 41
0.8
 50
0.0
 71
     0
 42
6.0
  3
SIMPLEX.shx
  4
BIGFONT.shx
  0
STYLE
  5
556
330
C
100
AcDbSymbolTableRecord
100
AcDbTextStyleTableRecord
  2
KANJI
 70
     0
 40
0.0
 41
1.0
 50
0.0
 71
     0
 42
1.5
  3
ROMANS
  4
BIGFONT
  0
ENDTAB
  0
TABLE
  2
VIEW
  5
10
330
0
100
AcDbSymbolTable
 70
     0
  0
ENDTAB
  0
TABLE
  2
UCS
  5
11
330
0
100
AcDbSymbolTable
 70
     0
  0
ENDTAB
  0
TABLE
  2
APPID
  5
14
330
0
100
AcDbSymbolTable
 70
     2
  0
APPID
  5
15
330
14
100
AcDbSymbolTableRecord
100
AcDbRegAppTableRecord
  2
ACAD
 70
     0
  0
APPID
  5
4F725
330
14
100
AcDbSymbolTableRecord
100
AcDbRegAppTableRecord
  2
CONTENTBLOCKICON
 70
     0
  0
ENDTAB
  0
TABLE
  2
DIMSTYLE
  5
16
330
0
100
AcDbSymbolTable
 70
     1
  0
DIMSTYLE
105
1D
330
16
100
AcDbSymbolTableRecord
100
AcDbDimStyleTableRecord
  2
STANDARD
 70
     0
  3

  4

  5

  6

  7

 40
1.0
 41
0.18
 42
0.0625
 43
0.38
 44
0.18
 45
0.0
 46
0.0
 47
0.0
 48
0.0
140
0.18
141
0.09
142
0.0
143
25.4
144
1.0
145
0.0
146
1.0
147
0.09
 71
     0
 72
     0
 73
     1
 74
     1
 75
     0
 76
     0
 77
     0
 78
     0
170
     0
171
     2
172
     0
173
     0
174
     0
175
     0
176
     0
177
     0
178
     0
270
     2
271
     4
272
     4
273
     2
274
     2
340
D
275
     0
280
     0
281
     0
282
     0
283
     1
284
     0
285
     0
286
     0
287
     3
288
     0
  0
ENDTAB
  0
TABLE
  2
BLOCK_RECORD
  5
1
330
0
100
AcDbSymbolTable
 70
     2
  0
BLOCK_RECORD
  5
2
102
{ACAD_XDICTIONARY
360
31AB5
102
}
330
1
100
AcDbSymbolTableRecord
100
AcDbBlockTableRecord
  2
*MODEL_SPACE
  0
BLOCK_RECORD
  5
8
102
{ACAD_XDICTIONARY
360
31AB7
102
}
330
1
100
AcDbSymbolTableRecord
100
AcDbBlockTableRecord
  2
*PAPER_SPACE
  0
BLOCK_RECORD
  5
557
330
1
100
AcDbSymbolTableRecord
100
AcDbBlockTableRecord
  2
0
  0
BLOCK_RECORD
  5
FDE2F
330
1
100
AcDbSymbolTableRecord
100
AcDbBlockTableRecord
  2
_OPEN
  0
ENDTAB
  0
ENDSEC
  0
SECTION
  2
BLOCKS
  0
BLOCK
  5
3
330
2
100
AcDbEntity
  8
0
100
AcDbBlockBegin
  2
*MODEL_SPACE
 70
     0
 10
0.0
 20
0.0
 30
0.0
  3
*MODEL_SPACE
  1

  0
ENDBLK
  5
7
330
2
100
AcDbEntity
  8
0
100
AcDbBlockEnd
  0
BLOCK
  5
9
330
8
100
AcDbEntity
 67
     1
  8
0
100
AcDbBlockBegin
  2
*PAPER_SPACE
 70
     0
 10
0.0
 20
0.0
 30
0.0
  3
*PAPER_SPACE
  1

  0
ENDBLK
  5
A
330
8
100
AcDbEntity
 67
     1
  8
0
100
AcDbBlockEnd
  0
BLOCK
  5
596
330
557
100
AcDbEntity
  8
0
100
AcDbBlockBegin
  2
0
 70
     0
 10
0.0
 20
0.0
 30
0.0
  3
0
  1

  0
TEXT
  5
558
330
557
100
AcDbEntity
  8
L-MOJI
100
AcDbText
 10
1088.402233707399
 20
149.2778487543101
 30
0.0
 40
1.75
  1

  7
KANJI
100
AcDbText
  0
TEXT
  5
559
330
557
100
AcDbEntity
  8
L-MOJI
100
AcDbText
 10
1120.172191128635
 20
223.0237043353318
 30
0.0
 40
1.75
  1
 
  7
KANJI
 72
     1
 11
1120.697191128636
 21
223.0237043353318
 31
0.0
100
AcDbText
  0
TEXT
  5
55A
330
557
100
AcDbEntity
  8
L-MOJI
100
AcDbText
 10
1120.172191128635
 20
190.0237043353318
 30
0.0
 40
1.75
  1
 
  7
KANJI
 72
     1
 11
1120.697191128636
 21
190.0237043353318
 31
0.0
100
AcDbText
  0
TEXT
  5
55B
330
557
100
AcDbEntity
  8
L-MOJI
100
AcDbText
 10
1120.172191128635
 20
181.7737043353319
 30
0.0
 40
1.75
  1
 
  7
KANJI
 72
     1
 11
1120.697191128636
 21
181.7737043353319
 31
0.0
100
AcDbText
  0
TEXT
  5
55C
330
557
100
AcDbEntity
  8
L-MOJI
100
AcDbText
 10
1120.172191128635
 20
176.2737043353319
 30
0.0
 40
1.75
  1
 
  7
KANJI
 72
     1
 11
1120.697191128636
 21
176.2737043353319
 31
0.0
100
AcDbText
  0
TEXT
  5
55D
330
557
100
AcDbEntity
  8
L-MOJI
100
AcDbText
 10
1120.172191128635
 20
146.0237043353319
 30
0.0
 40
1.75
  1
 
  7
KANJI
 72
     1
 11
1120.697191128636
 21
146.0237043353319
 31
0.0
100
AcDbText
  0
TEXT
  5
55E
330
557
100
AcDbEntity
  8
L-MOJI
100
AcDbText
 10
1120.172191128635
 20
126.7737043353319
 30
0.0
 40
1.75
  1
 
  7
KANJI
 72
     1
 11
1120.697191128636
 21
126.7737043353319
 31
0.0
100
AcDbText
  0
TEXT
  5
55F
330
557
100
AcDbEntity
  8
L-MOJI
100
AcDbText
 10
1052.632632888906
 20
357.6332257178274
 30
0.0
 40
1.75
  1

  7
KANJI
100
AcDbText
  0
TEXT
  5
560
330
557
100
AcDbEntity
  8
L-MOJI
100
AcDbText
 10
1084.402590310142
 20
431.3790812988492
 30
0.0
 40
1.75
  1
 
  7
KANJI
 72
     1
 11
1084.927590310142
 21
431.3790812988492
 31
0.0
100
AcDbText
  0
TEXT
  5
561
330
557
100
AcDbEntity
  8
L-MOJI
100
AcDbText
 10
1084.402590310142
 20
398.3790812988491
 30
0.0
 40
1.75
  1
 
  7
KANJI
 72
     1
 11
1084.927590310142
 21
398.3790812988491
 31
0.0
100
AcDbText
  0
TEXT
  5
562
330
557
100
AcDbEntity
  8
L-MOJI
100
AcDbText
 10
1084.402590310142
 20
390.1290812988493
 30
0.0
 40
1.75
  1
 
  7
KANJI
 72
     1
 11
1084.927590310142
 21
390.1290812988493
 31
0.0
100
AcDbText
  0
TEXT
  5
563
330
557
100
AcDbEntity
  8
L-MOJI
100
AcDbText
 10
1084.402590310142
 20
384.6290812988493
 30
0.0
 40
1.75
  1
 
  7
KANJI
 72
     1
 11
1084.927590310142
 21
384.6290812988493
 31
0.0
100
AcDbText
  0
TEXT
  5
564
330
557
100
AcDbEntity
  8
L-MOJI
100
AcDbText
 10
1084.402590310142
 20
354.3790812988492
 30
0.0
 40
1.75
  1
 
  7
KANJI
 72
     1
 11
1084.927590310142
 21
354.3790812988492
 31
0.0
100
AcDbText
  0
TEXT
  5
565
330
557
100
AcDbEntity
  8
L-MOJI
100
AcDbText
 10
1084.402590310142
 20
335.1290812988492
 30
0.0
 40
1.75
  1
 
  7
KANJI
 72
     1
 11
1084.927590310142
 21
335.1290812988492
 31
0.0
100
AcDbText
  0
TEXT
  5
566
330
557
100
AcDbEntity
  8
L-MOJI
100
AcDbText
 10
1088.402233707399
 20
386.8778487543197
 30
0.0
 40
1.75
  1

  7
KANJI
100
AcDbText
  0
TEXT
  5
567
330
557
100
AcDbEntity
  8
L-MOJI
100
AcDbText
 10
1120.172191128635
 20
460.6237043353415
 30
0.0
 40
1.75
  1
 
  7
KANJI
 72
     1
 11
1120.697191128636
 21
460.6237043353415
 31
0.0
100
AcDbText
  0
TEXT
  5
568
330
557
100
AcDbEntity
  8
L-MOJI
100
AcDbText
 10
1120.172191128635
 20
427.6237043353415
 30
0.0
 40
1.75
  1
 
  7
KANJI
 72
     1
 11
1120.697191128636
 21
427.6237043353415
 31
0.0
100
AcDbText
  0
TEXT
  5
569
330
557
100
AcDbEntity
  8
L-MOJI
100
AcDbText
 10
1120.172191128635
 20
419.3737043353415
 30
0.0
 40
1.75
  1
 
  7
KANJI
 72
     1
 11
1120.697191128636
 21
419.3737043353415
 31
0.0
100
AcDbText
  0
TEXT
  5
56A
330
557
100
AcDbEntity
  8
L-MOJI
100
AcDbText
 10
1120.172191128635
 20
413.8737043353414
 30
0.0
 40
1.75
  1
 
  7
KANJI
 72
     1
 11
1120.697191128636
 21
413.8737043353414
 31
0.0
100
AcDbText
  0
TEXT
  5
56B
330
557
100
AcDbEntity
  8
L-MOJI
100
AcDbText
 10
1120.172191128635
 20
383.6237043353414
 30
0.0
 40
1.75
  1
 
  7
KANJI
 72
     1
 11
1120.697191128636
 21
383.6237043353414
 31
0.0
100
AcDbText
  0
TEXT
  5
56C
330
557
100
AcDbEntity
  8
L-MOJI
100
AcDbText
 10
1120.172191128635
 20
364.3737043353414
 30
0.0
 40
1.75
  1
 
  7
KANJI
 72
     1
 11
1120.697191128636
 21
364.3737043353414
 31
0.0
100
AcDbText
  0
TEXT
  5
56D
330
557
100
AcDbEntity
  8
L-MOJI
100
AcDbText
 10
959.1840484803556
 20
404.9662560902292
 30
0.0
 40
1.75
  1

  7
KANJI
100
AcDbText
  0
TEXT
  5
56E
330
557
100
AcDbEntity
  8
L-MOJI
100
AcDbText
 10
990.9540059015919
 20
478.7121116712508
 30
0.0
 40
1.75
  1
 
  7
KANJI
 72
     1
 11
991.4790059015917
 21
478.7121116712508
 31
0.0
100
AcDbText
  0
TEXT
  5
56F
330
557
100
AcDbEntity
  8
L-MOJI
100
AcDbText
 10
990.9540059015919
 20
445.7121116712508
 30
0.0
 40
1.75
  1
 
  7
KANJI
 72
     1
 11
991.4790059015917
 21
445.7121116712508
 31
0.0
100
AcDbText
  0
TEXT
  5
570
330
557
100
AcDbEntity
  8
L-MOJI
100
AcDbText
 10
990.9540059015919
 20
437.462111671251
 30
0.0
 40
1.75
  1
 
  7
KANJI
 72
     1
 11
991.4790059015919
 21
437.462111671251
 31
0.0
100
AcDbText
  0
TEXT
  5
571
330
557
100
AcDbEntity
  8
L-MOJI
100
AcDbText
 10
990.9540059015919
 20
431.962111671251
 30
0.0
 40
1.75
  1
 
  7
KANJI
 72
     1
 11
991.4790059015919
 21
431.962111671251
 31
0.0
100
AcDbText
  0
TEXT
  5
572
330
557
100
AcDbEntity
  8
L-MOJI
100
AcDbText
 10
990.9540059015919
 20
401.7121116712509
 30
0.0
 40
1.75
  1
 
  7
KANJI
 72
     1
 11
991.4790059015919
 21
401.7121116712509
 31
0.0
100
AcDbText
  0
TEXT
  5
573
330
557
100
AcDbEntity
  8
L-MOJI
100
AcDbText
 10
990.9540059015919
 20
382.462111671251
 30
0.0
 40
1.75
  1
 
  7
KANJI
 72
     1
 11
991.4790059015919
 21
382.462111671251
 31
0.0
100
AcDbText
  0
TEXT
  5
574
330
557
100
AcDbEntity
  8
L-MOJI
100
AcDbText
 10
926.963957906206
 20
410.3929533810932
 30
0.0
 40
1.75
  1

  7
KANJI
100
AcDbText
  0
TEXT
  5
575
330
557
100
AcDbEntity
  8
L-MOJI
100
AcDbText
 10
958.733915327442
 20
484.138808962115
 30
0.0
 40
1.75
  1
 
  7
KANJI
 72
     1
 11
959.258915327442
 21
484.138808962115
 31
0.0
100
AcDbText
  0
TEXT
  5
576
330
557
100
AcDbEntity
  8
L-MOJI
100
AcDbText
 10
958.733915327442
 20
451.138808962115
 30
0.0
 40
1.75
  1
 
  7
KANJI
 72
     1
 11
959.258915327442
 21
451.138808962115
 31
0.0
100
AcDbText
  0
TEXT
  5
577
330
557
100
AcDbEntity
  8
L-MOJI
100
AcDbText
 10
958.7339153274422
 20
442.8888089621151
 30
0.0
 40
1.75
  1
 
  7
KANJI
 72
     1
 11
959.2589153274422
 21
442.8888089621151
 31
0.0
100
AcDbText
  0
TEXT
  5
578
330
557
100
AcDbEntity
  8
L-MOJI
100
AcDbText
 10
958.7339153274422
 20
437.3888089621151
 30
0.0
 40
1.75
  1
 
  7
KANJI
 72
     1
 11
959.2589153274422
 21
437.3888089621151
 31
0.0
100
AcDbText
  0
TEXT
  5
579
330
557
100
AcDbEntity
  8
L-MOJI
100
AcDbText
 10
958.7339153274422
 20
407.1388089621151
 30
0.0
 40
1.75
  1
 
  7
KANJI
 72
     1
 11
959.2589153274422
 21
407.1388089621151
 31
0.0
100
AcDbText
  0
TEXT
  5
57A
330
557
100
AcDbEntity
  8
L-MOJI
100
AcDbText
 10
958.7339153274422
 20
387.888808962115
 30
0.0
 40
1.75
  1
 
  7
KANJI
 72
     1
 11
959.2589153274422
 21
387.888808962115
 31
0.0
100
AcDbText
  0
TEXT
  5
57B
330
557
100
AcDbEntity
  8
L-MOJI
100
AcDbText
 10
1088.402233707399
 20
386.8778487543197
 30
0.0
 40
1.75
  1

  7
KANJI
100
AcDbText
  0
TEXT
  5
57C
330
557
100
AcDbEntity
  8
L-MOJI
100
AcDbText
 10
1120.172191128635
 20
460.6237043353415
 30
0.0
 40
1.75
  1
 
  7
KANJI
 72
     1
 11
1120.697191128636
 21
460.6237043353415
 31
0.0
100
AcDbText
  0
TEXT
  5
57D
330
557
100
AcDbEntity
  8
L-MOJI
100
AcDbText
 10
1120.172191128635
 20
427.6237043353415
 30
0.0
 40
1.75
  1
 
  7
KANJI
 72
     1
 11
1120.697191128636
 21
427.6237043353415
 31
0.0
100
AcDbText
  0
TEXT
  5
57E
330
557
100
AcDbEntity
  8
L-MOJI
100
AcDbText
 10
1120.172191128635
 20
419.3737043353415
 30
0.0
 40
1.75
  1
 
  7
KANJI
 72
     1
 11
1120.697191128636
 21
419.3737043353415
 31
0.0
100
AcDbText
  0
TEXT
  5
57F
330
557
100
AcDbEntity
  8
L-MOJI
100
AcDbText
 10
1120.172191128635
 20
413.8737043353414
 30
0.0
 40
1.75
  1
 
  7
KANJI
 72
     1
 11
1120.697191128636
 21
413.8737043353414
 31
0.0
100
AcDbText
  0
TEXT
  5
580
330
557
100
AcDbEntity
  8
L-MOJI
100
AcDbText
 10
1120.172191128635
 20
383.6237043353414
 30
0.0
 40
1.75
  1
 
  7
KANJI
 72
     1
 11
1120.697191128636
 21
383.6237043353414
 31
0.0
100
AcDbText
  0
TEXT
  5
581
330
557
100
AcDbEntity
  8
L-MOJI
100
AcDbText
 10
1120.172191128635
 20
364.3737043353414
 30
0.0
 40
1.75
  1
 
  7
KANJI
 72
     1
 11
1120.697191128636
 21
364.3737043353414
 31
0.0
100
AcDbText
  0
TEXT
  5
582
330
557
100
AcDbEntity
  8
L-MOJI
100
AcDbText
 10
541.1743156417367
 20
367.4242069491108
 30
0.0
 40
1.75
  1
 
  7
KANJI
 72
     1
 11
541.6993156417366
 21
367.4242069491108
 31
0.0
100
AcDbText
  0
TEXT
  5
583
330
557
100
AcDbEntity
  8
L-MOJI
100
AcDbText
 10
541.1743156417367
 20
334.4242069491108
 30
0.0
 40
1.75
  1
 
  7
KANJI
 72
     1
 11
541.6993156417366
 21
334.4242069491108
 31
0.0
100
AcDbText
  0
TEXT
  5
584
330
557
100
AcDbEntity
  8
L-MOJI
100
AcDbText
 10
541.1743156417367
 20
326.1742069491109
 30
0.0
 40
1.75
  1
 
  7
KANJI
 72
     1
 11
541.6993156417366
 21
326.1742069491109
 31
0.0
100
AcDbText
  0
TEXT
  5
585
330
557
100
AcDbEntity
  8
L-MOJI
100
AcDbText
 10
541.1743156417367
 20
320.6742069491109
 30
0.0
 40
1.75
  1
 
  7
KANJI
 72
     1
 11
541.6993156417366
 21
320.6742069491109
 31
0.0
100
AcDbText
  0
TEXT
  5
586
330
557
100
AcDbEntity
  8
L-MOJI
100
AcDbText
 10
541.1743156417367
 20
290.4242069491108
 30
0.0
 40
1.75
  1
 
  7
KANJI
 72
     1
 11
541.6993156417366
 21
290.4242069491108
 31
0.0
100
AcDbText
  0
TEXT
  5
587
330
557
100
AcDbEntity
  8
L-MOJI
100
AcDbText
 10
541.1743156417367
 20
271.1742069491108
 30
0.0
 40
1.75
  1
 
  7
KANJI
 72
     1
 11
541.6993156417366
 21
271.1742069491108
 31
0.0
100
AcDbText
  0
TEXT
  5
588
330
557
100
AcDbEntity
  8
L-MOJI
100
AcDbText
 10
821.0439144288644
 20
356.782954942525
 30
0.0
 40
1.75
  1

  7
KANJI
100
AcDbText
  0
TEXT
  5
589
330
557
100
AcDbEntity
  8
L-MOJI
100
AcDbText
 10
852.8138718501006
 20
430.5288105235468
 30
0.0
 40
1.75
  1
 
  7
KANJI
 72
     1
 11
853.3388718501004
 21
430.5288105235468
 31
0.0
100
AcDbText
  0
TEXT
  5
58A
330
557
100
AcDbEntity
  8
L-MOJI
100
AcDbText
 10
852.8138718501006
 20
397.5288105235467
 30
0.0
 40
1.75
  1
 
  7
KANJI
 72
     1
 11
853.3388718501004
 21
397.5288105235467
 31
0.0
100
AcDbText
  0
TEXT
  5
58B
330
557
100
AcDbEntity
  8
L-MOJI
100
AcDbText
 10
852.8138718501006
 20
389.2788105235468
 30
0.0
 40
1.75
  1
 
  7
KANJI
 72
     1
 11
853.3388718501004
 21
389.2788105235468
 31
0.0
100
AcDbText
  0
TEXT
  5
58C
330
557
100
AcDbEntity
  8
L-MOJI
100
AcDbText
 10
852.8138718501006
 20
383.7788105235468
 30
0.0
 40
1.75
  1
 
  7
KANJI
 72
     1
 11
853.3388718501004
 21
383.7788105235468
 31
0.0
100
AcDbText
  0
TEXT
  5
58D
330
557
100
AcDbEntity
  8
L-MOJI
100
AcDbText
 10
852.8138718501006
 20
353.5288105235468
 30
0.0
 40
1.75
  1
 
  7
KANJI
 72
     1
 11
853.3388718501004
 21
353.5288105235468
 31
0.0
100
AcDbText
  0
TEXT
  5
58E
330
557
100
AcDbEntity
  8
L-MOJI
100
AcDbText
 10
852.8138718501006
 20
334.2788105235468
 30
0.0
 40
1.75
  1
 
  7
KANJI
 72
     1
 11
853.3388718501004
 21
334.2788105235468
 31
0.0
100
AcDbText
  0
TEXT
  5
58F
330
557
100
AcDbEntity
  8
L-MOJI
100
AcDbText
 10
966.0057369944025
 20
365.1508756818898
 30
0.0
 40
1.75
  1

  7
KANJI
100
AcDbText
  0
TEXT
  5
590
330
557
100
AcDbEntity
  8
L-MOJI
100
AcDbText
 10
997.7756944156386
 20
438.8967312629115
 30
0.0
 40
1.75
  1
 
  7
KANJI
 72
     1
 11
998.3006944156386
 21
438.8967312629115
 31
0.0
100
AcDbText
  0
TEXT
  5
591
330
557
100
AcDbEntity
  8
L-MOJI
100
AcDbText
 10
997.7756944156386
 20
405.8967312629115
 30
0.0
 40
1.75
  1
 
  7
KANJI
 72
     1
 11
998.3006944156386
 21
405.8967312629115
 31
0.0
100
AcDbText
  0
TEXT
  5
592
330
557
100
AcDbEntity
  8
L-MOJI
100
AcDbText
 10
997.7756944156386
 20
397.6467312629116
 30
0.0
 40
1.75
  1
 
  7
KANJI
 72
     1
 11
998.3006944156386
 21
397.6467312629116
 31
0.0
100
AcDbText
  0
TEXT
  5
593
330
557
100
AcDbEntity
  8
L-MOJI
100
AcDbText
 10
997.7756944156386
 20
392.1467312629116
 30
0.0
 40
1.75
  1
 
  7
KANJI
 72
     1
 11
998.3006944156386
 21
392.1467312629116
 31
0.0
100
AcDbText
  0
TEXT
  5
594
330
557
100
AcDbEntity
  8
L-MOJI
100
AcDbText
 10
997.7756944156386
 20
361.8967312629115
 30
0.0
 40
1.75
  1
 
  7
KANJI
 72
     1
 11
998.3006944156386
 21
361.8967312629115
 31
0.0
100
AcDbText
  0
TEXT
  5
595
330
557
100
AcDbEntity
  8
L-MOJI
100
AcDbText
 10
997.7756944156386
 20
342.6467312629116
 30
0.0
 40
1.75
  1
 
  7
KANJI
 72
     1
 11
998.3006944156386
 21
342.6467312629116
 31
0.0
100
AcDbText
  0
ENDBLK
  5
597
330
557
100
AcDbEntity
  8
0
100
AcDbBlockEnd
  0
BLOCK
  5
FDE30
330
FDE2F
100
AcDbEntity
  8
0
100
AcDbBlockBegin
  2
_OPEN
 70
     0
 10
0.0
 20
0.0
 30
0.0
  3
_OPEN
  1

  0
LINE
  5
FDE31
330
FDE2F
100
AcDbEntity
  8
0
  6
BYBLOCK
 62
     0
100
AcDbLine
 10
-1.0
 20
0.1666666666666666
 30
0.0
 11
0.0
 21
0.0
 31
0.0
  0
LINE
  5
FDE32
330
FDE2F
100
AcDbEntity
  8
0
  6
BYBLOCK
 62
     0
100
AcDbLine
 10
0.0
 20
0.0
 30
0.0
 11
-1.0
 21
-0.1666666666666666
 31
0.0
  0
LINE
  5
FDE33
330
FDE2F
100
AcDbEntity
  8
0
  6
BYBLOCK
 62
     0
100
AcDbLine
 10
0.0
 20
0.0
 30
0.0
 11
-1.0
 21
0.0
 31
0.0
  0
ENDBLK
  5
FDE34
330
FDE2F
100
AcDbEntity
  8
0
100
AcDbBlockEnd
  0
ENDSEC
  0
SECTION
  2
ENTITIES
  0
INSERT
  5
599
330
2
100
AcDbEntity
  8
WAKU
100
AcDbBlockReference
  2
0
 10
0.0
 20
0.0
 30
0.0
  0
MTEXT
  5
27E72
330
2
100
AcDbEntity
  8
SUNPOU
100
AcDbMText
 10
7014.425912573011
 20
152.3528176503732
 30
-0.6084123218692526
 40
2.799999999999999
 41
0.0
 71
     7
 72
     1
  1

1001
ACAD
1000
MTEXTBEGIN
1070
    73
1070
     1
1070
    44
1040
1.0
1070
    74
1070
     0
1000
MTEXTEND
1000
MTEXTBEGIN
1070
    73
1070
     1
1070
    44
1040
1.0
1070
    74
1070
     0
1000
MTEXTEND
1000
MTEXTBEGIN
1070
    73
1070
     1
1070
    44
1040
1.0
1070
    74
1070
     0
1000
MTEXTEND
1000
MTEXTBEGIN
1070
    73
1070
     1
1070
    44
1040
1.0
1070
    74
1070
     0
1000
MTEXTEND
1000
MTEXTBEGIN
1070
    73
1070
     1
1070
    44
1040
1.0
1070
    74
1070
     0
1000
MTEXTEND
1000
MTEXTBEGIN
1070
    73
1070
     1
1070
    44
1040
1.0
1070
    74
1070
     0
1000
MTEXTEND
1000
MTEXTBEGIN
1070
    73
1070
     1
1070
    44
1040
1.0
1070
    74
1070
     0
1000
MTEXTEND
1000
MTEXTBEGIN
1070
    73
1070
     1
1070
    44
1040
1.0
1070
    74
1070
     0
1000
MTEXTEND
1000
MTEXTBEGIN
1070
    73
1070
     1
1070
    44
1040
1.0
1070
    74
1070
     0
1000
MTEXTEND
1000
MTEXTBEGIN
1070
    73
1070
     1
1070
    44
1040
1.0
1070
    74
1070
     0
1000
MTEXTEND
1000
MTEXTBEGIN
1070
    73
1070
     1
1070
    44
1040
1.0
1070
    74
1070
     0
1000
MTEXTEND
1000
MTEXTBEGIN
1070
    73
1070
     1
1070
    44
1040
1.0
1070
    74
1070
     0
1000
MTEXTEND
1000
MTEXTBEGIN
1070
    73
1070
     1
1070
    44
1040
1.0
1070
    74
1070
     0
1000
MTEXTEND
1000
MTEXTBEGIN
1070
    73
1070
     1
1070
    44
1040
1.0
1070
    74
1070
     0
1000
MTEXTEND
1000
MTEXTBEGIN
1070
    73
1070
     1
1070
    44
1040
1.0
1070
    74
1070
     0
1000
MTEXTEND
1000
MTEXTBEGIN
1070
    73
1070
     1
1070
    44
1040
1.0
1070
    74
1070
     0
1000
MTEXTEND
1000
MTEXTBEGIN
1070
    73
1070
     1
1070
    44
1040
1.0
1070
    74
1070
     0
1000
MTEXTEND
1000
MTEXTBEGIN
1070
    73
1070
     1
1070
    44
1040
1.0
1070
    74
1070
     0
1000
MTEXTEND
1000
MTEXTBEGIN
1070
    73
1070
     1
1070
    44
1040
1.0
1070
    74
1070
     0
1000
MTEXTEND
1000
MTEXTBEGIN
1070
    73
1070
     1
1070
    44
1040
1.0
1070
    74
1070
     0
1000
MTEXTEND
1000
MTEXTBEGIN
1070
    73
1070
     1
1070
    44
1040
1.0
1070
    74
1070
     0
1000
MTEXTEND
1000
MTEXTBEGIN
1070
    73
1070
     1
1070
    44
1040
1.0
1070
    74
1070
     0
1000
MTEXTEND
1000
MTEXTBEGIN
1070
    73
1070
     1
1070
    44
1040
1.0
1070
    74
1070
     0
1000
MTEXTEND
1000
MTEXTBEGIN
1070
    73
1070
     1
1070
    44
1040
1.0
1070
    74
1070
     0
1000
MTEXTEND
1000
MTEXTBEGIN
1070
    73
1070
     1
1070
    44
1040
1.0
1070
    74
1070
     0
1000
MTEXTEND
1000
MTEXTBEGIN
1070
    73
1070
     1
1070
    44
1040
1.0
1070
    74
1070
     0
1000
MTEXTEND
1000
MTEXTBEGIN
1070
    73
1070
     1
1070
    44
1040
1.0
1070
    74
1070
     0
1000
MTEXTEND
1000
MTEXTBEGIN
1070
    73
1070
     1
1070
    44
1040
1.0
1070
    74
1070
     0
1000
MTEXTEND
1000
MTEXTBEGIN
1070
    73
1070
     1
1070
    44
1040
1.0
1070
    74
1070
     0
1000
MTEXTEND
1000
MTEXTBEGIN
1070
    73
1070
     1
1070
    44
1040
1.0
1070
    74
1070
     0
1000
MTEXTEND
1000
MTEXTBEGIN
1070
    73
1070
     1
1070
    44
1040
1.0
1070
    74
1070
     0
1000
MTEXTEND
1000
MTEXTBEGIN
1070
    73
1070
     1
1070
    44
1040
1.0
1070
    74
1070
     0
1000
MTEXTEND
1000
MTEXTBEGIN
1070
    73
1070
     1
1070
    44
1040
1.0
1070
    74
1070
     0
1000
MTEXTEND
1000
MTEXTBEGIN
1070
    73
1070
     1
1070
    44
1040
1.0
1070
    74
1070
     0
1000
MTEXTEND
1000
MTEXTBEGIN
1070
    73
1070
     1
1070
    44
1040
1.0
1070
    74
1070
     0
1000
MTEXTEND
1000
MTEXTBEGIN
1070
    73
1070
     1
1070
    44
1040
1.0
1070
    74
1070
     0
1000
MTEXTEND
1000
MTEXTBEGIN
1070
    73
1070
     1
1070
    44
1040
1.0
1070
    74
1070
     0
1000
MTEXTEND
1000
MTEXTBEGIN
1070
    73
1070
     1
1070
    44
1040
1.0
1070
    74
1070
     0
1000
MTEXTEND
1000
MTEXTBEGIN
1070
    73
1070
     1
1070
    44
1040
1.0
1070
    74
1070
     0
1000
MTEXTEND
1000
MTEXTBEGIN
1070
    73
1070
     1
1070
    44
1040
1.0
1070
    74
1070
     0
1000
MTEXTEND
1000
MTEXTBEGIN
1070
    73
1070
     1
1070
    44
1040
1.0
1070
    74
1070
     0
1000
MTEXTEND
1000
MTEXTBEGIN
1070
    73
1070
     1
1070
    44
1040
1.0
1070
    74
1070
     0
1000
MTEXTEND
1000
MTEXTBEGIN
1070
    73
1070
     1
1070
    44
1040
1.0
1070
    74
1070
     0
1000
MTEXTEND
1000
MTEXTBEGIN
1070
    73
1070
     1
1070
    44
1040
1.0
1070
    74
1070
     0
1000
MTEXTEND
1000
MTEXTBEGIN
1070
    73
1070
     1
1070
    44
1040
1.0
1070
    74
1070
     0
1000
MTEXTEND
1000
MTEXTBEGIN
1070
    73
1070
     1
1070
    44
1040
1.0
1070
    74
1070
     0
1000
MTEXTEND
1000
MTEXTBEGIN
1070
    73
1070
     1
1070
    44
1040
1.0
1070
    74
1070
     0
1000
MTEXTEND
1000
MTEXTBEGIN
1070
    73
1070
     1
1070
    44
1040
1.0
1070
    74
1070
     0
1000
MTEXTEND
1000
MTEXTBEGIN
1070
    73
1070
     1
1070
    44
1040
1.0
1070
    74
1070
     0
1000
MTEXTEND
1000
MTEXTBEGIN
1070
    73
1070
     1
1070
    44
1040
1.0
1070
    74
1070
     0
1000
MTEXTEND
1000
MTEXTBEGIN
1070
    73
1070
     1
1070
    44
1040
1.0
1070
    74
1070
     0
1000
MTEXTEND
1000
MTEXTBEGIN
1070
    73
1070
     1
1070
    44
1040
1.0
1070
    74
1070
     0
1000
MTEXTEND
1000
MTEXTBEGIN
1070
    73
1070
     1
1070
    44
1040
1.0
1070
    74
1070
     0
1000
MTEXTEND
1000
MTEXTBEGIN
1070
    73
1070
     1
1070
    44
1040
1.0
1070
    74
1070
     0
1000
MTEXTEND
1000
MTEXTBEGIN
1070
    73
1070
     1
1070
    44
1040
1.0
1070
    74
1070
     0
1000
MTEXTEND
1000
MTEXTBEGIN
1070
    73
1070
     1
1070
    44
1040
1.0
1070
    74
1070
     0
1000
MTEXTEND
1000
MTEXTBEGIN
1070
    73
1070
     1
1070
    44
1040
1.0
1070
    74
1070
     0
1000
MTEXTEND
1000
MTEXTBEGIN
1070
    73
1070
     1
1070
    44
1040
1.0
1070
    74
1070
     0
1000
MTEXTEND
1000
MTEXTBEGIN
1070
    73
1070
     1
1070
    44
1040
1.0
1070
    74
1070
     0
1000
MTEXTEND
1000
MTEXTBEGIN
1070
    73
1070
     1
1070
    44
1040
1.0
1070
    74
1070
     0
1000
MTEXTEND
1000
MTEXTBEGIN
1070
    73
1070
     1
1070
    44
1040
1.0
1070
    74
1070
     0
1000
MTEXTEND
1000
MTEXTBEGIN
1070
    73
1070
     1
1070
    44
1040
1.0
1070
    74
1070
     0
1000
MTEXTEND
1000
MTEXTBEGIN
1070
    73
1070
     1
1070
    44
1040
1.0
1070
    74
1070
     0
1000
MTEXTEND
1000
MTEXTBEGIN
1070
    73
1070
     1
1070
    44
1040
1.0
1070
    74
1070
     0
1000
MTEXTEND
1000
MTEXTBEGIN
1070
    73
1070
     1
1070
    44
1040
1.0
1070
    74
1070
     0
1000
MTEXTEND
1000
MTEXTBEGIN
1070
    73
1070
     1
1070
    44
1040
1.0
1070
    74
1070
     0
1000
MTEXTEND
1000
MTEXTBEGIN
1070
    73
1070
     1
1070
    44
1040
1.0
1070
    74
1070
     0
1000
MTEXTEND
1000
MTEXTBEGIN
1070
    73
1070
     1
1070
    44
1040
1.0
1070
    74
1070
     0
1000
MTEXTEND
1000
MTEXTBEGIN
1070
    73
1070
     1
1070
    44
1040
1.0
1070
    74
1070
     0
1000
MTEXTEND
1000
MTEXTBEGIN
1070
    73
1070
     1
1070
    44
1040
1.0
1070
    74
1070
     0
1000
MTEXTEND
1000
MTEXTBEGIN
1070
    73
1070
     1
1070
    44
1040
1.0
1070
    74
1070
     0
1000
MTEXTEND
1000
MTEXTBEGIN
1070
    73
1070
     1
1070
    44
1040
1.0
1070
    74
1070
     0
1000
MTEXTEND
1000
MTEXTBEGIN
1070
    73
1070
     1
1070
    44
1040
1.0
1070
    74
1070
     0
1000
MTEXTEND
1000
MTEXTBEGIN
1070
    73
1070
     1
1070
    44
1040
1.0
1070
    74
1070
     0
1000
MTEXTEND
1000
MTEXTBEGIN
1070
    73
1070
     1
1070
    44
1040
1.0
1070
    74
1070
     0
1000
MTEXTEND
1000
MTEXTBEGIN
1070
    73
1070
     1
1070
    44
1040
1.0
1070
    74
1070
     0
1000
MTEXTEND
1000
MTEXTBEGIN
1070
    73
1070
     1
1070
    44
1040
1.0
1070
    74
1070
     0
1000
MTEXTEND
1000
MTEXTBEGIN
1070
    73
1070
     1
1070
    44
1040
1.0
1070
    74
1070
     0
1000
MTEXTEND
1000
MTEXTBEGIN
1070
    73
1070
     1
1070
    44
1040
1.0
1070
    74
1070
     0
1000
MTEXTEND
  0
MTEXT
  5
4BFF5
330
2
100
AcDbEntity
  8
SUNPOU
100
AcDbMText
 10
7773.237570474616
 20
88.79223781163373
 30
-0.6084123218692526
 40
2.799999999999999
 41
0.0
 71
     7
 72
     1
  1

1001
ACAD
1000
MTEXTBEGIN
1070
    73
1070
     1
1070
    44
1040
1.0
1070
    74
1070
     0
1000
MTEXTEND
1000
MTEXTBEGIN
1070
    73
1070
     1
1070
    44
1040
1.0
1070
    74
1070
     0
1000
MTEXTEND
1000
MTEXTBEGIN
1070
    73
1070
     1
1070
    44
1040
1.0
1070
    74
1070
     0
1000
MTEXTEND
1000
MTEXTBEGIN
1070
    73
1070
     1
1070
    44
1040
1.0
1070
    74
1070
     0
1000
MTEXTEND
1000
MTEXTBEGIN
1070
    73
1070
     1
1070
    44
1040
1.0
1070
    74
1070
     0
1000
MTEXTEND
1000
MTEXTBEGIN
1070
    73
1070
     1
1070
    44
1040
1.0
1070
    74
1070
     0
1000
MTEXTEND
1000
MTEXTBEGIN
1070
    73
1070
     1
1070
    44
1040
1.0
1070
    74
1070
     0
1000
MTEXTEND
1000
MTEXTBEGIN
1070
    73
1070
     1
1070
    44
1040
1.0
1070
    74
1070
     0
1000
MTEXTEND
1000
MTEXTBEGIN
1070
    73
1070
     1
1070
    44
1040
1.0
1070
    74
1070
     0
1000
MTEXTEND
1000
MTEXTBEGIN
1070
    73
1070
     1
1070
    44
1040
1.0
1070
    74
1070
     0
1000
MTEXTEND
1000
MTEXTBEGIN
1070
    73
1070
     1
1070
    44
1040
1.0
1070
    74
1070
     0
1000
MTEXTEND
1000
MTEXTBEGIN
1070
    73
1070
     1
1070
    44
1040
1.0
1070
    74
1070
     0
1000
MTEXTEND
1000
MTEXTBEGIN
1070
    73
1070
     1
1070
    44
1040
1.0
1070
    74
1070
     0
1000
MTEXTEND
1000
MTEXTBEGIN
1070
    73
1070
     1
1070
    44
1040
1.0
1070
    74
1070
     0
1000
MTEXTEND
1000
MTEXTBEGIN
1070
    73
1070
     1
1070
    44
1040
1.0
1070
    74
1070
     0
1000
MTEXTEND
1000
MTEXTBEGIN
1070
    73
1070
     1
1070
    44
1040
1.0
1070
    74
1070
     0
1000
MTEXTEND
1000
MTEXTBEGIN
1070
    73
1070
     1
1070
    44
1040
1.0
1070
    74
1070
     0
1000
MTEXTEND
1000
MTEXTBEGIN
1070
    73
1070
     1
1070
    44
1040
1.0
1070
    74
1070
     0
1000
MTEXTEND
1000
MTEXTBEGIN
1070
    73
1070
     1
1070
    44
1040
1.0
1070
    74
1070
     0
1000
MTEXTEND
1000
MTEXTBEGIN
1070
    73
1070
     1
1070
    44
1040
1.0
1070
    74
1070
     0
1000
MTEXTEND
1000
MTEXTBEGIN
1070
    73
1070
     1
1070
    44
1040
1.0
1070
    74
1070
     0
1000
MTEXTEND
1000
MTEXTBEGIN
1070
    73
1070
     1
1070
    44
1040
1.0
1070
    74
1070
     0
1000
MTEXTEND
1000
MTEXTBEGIN
1070
    73
1070
     1
1070
    44
1040
1.0
1070
    74
1070
     0
1000
MTEXTEND
1000
MTEXTBEGIN
1070
    73
1070
     1
1070
    44
1040
1.0
1070
    74
1070
     0
1000
MTEXTEND
1000
MTEXTBEGIN
1070
    73
1070
     1
1070
    44
1040
1.0
1070
    74
1070
     0
1000
MTEXTEND
1000
MTEXTBEGIN
1070
    73
1070
     1
1070
    44
1040
1.0
1070
    74
1070
     0
1000
MTEXTEND
1000
MTEXTBEGIN
1070
    73
1070
     1
1070
    44
1040
1.0
1070
    74
1070
     0
1000
MTEXTEND
1000
MTEXTBEGIN
1070
    73
1070
     1
1070
    44
1040
1.0
1070
    74
1070
     0
1000
MTEXTEND
1000
MTEXTBEGIN
1070
    73
1070
     1
1070
    44
1040
1.0
1070
    74
1070
     0
1000
MTEXTEND
1000
MTEXTBEGIN
1070
    73
1070
     1
1070
    44
1040
1.0
1070
    74
1070
     0
1000
MTEXTEND
1000
MTEXTBEGIN
1070
    73
1070
     1
1070
    44
1040
1.0
1070
    74
1070
     0
1000
MTEXTEND
1000
MTEXTBEGIN
1070
    73
1070
     1
1070
    44
1040
1.0
1070
    74
1070
     0
1000
MTEXTEND
1000
MTEXTBEGIN
1070
    73
1070
     1
1070
    44
1040
1.0
1070
    74
1070
     0
1000
MTEXTEND
1000
MTEXTBEGIN
1070
    73
1070
     1
1070
    44
1040
1.0
1070
    74
1070
     0
1000
MTEXTEND
1000
MTEXTBEGIN
1070
    73
1070
     1
1070
    44
1040
1.0
1070
    74
1070
     0
1000
MTEXTEND
1000
MTEXTBEGIN
1070
    73
1070
     1
1070
    44
1040
1.0
1070
    74
1070
     0
1000
MTEXTEND
1000
MTEXTBEGIN
1070
    73
1070
     1
1070
    44
1040
1.0
1070
    74
1070
     0
1000
MTEXTEND
1000
MTEXTBEGIN
1070
    73
1070
     1
1070
    44
1040
1.0
1070
    74
1070
     0
1000
MTEXTEND
1000
MTEXTBEGIN
1070
    73
1070
     1
1070
    44
1040
1.0
1070
    74
1070
     0
1000
MTEXTEND
1000
MTEXTBEGIN
1070
    73
1070
     1
1070
    44
1040
1.0
1070
    74
1070
     0
1000
MTEXTEND
1000
MTEXTBEGIN
1070
    73
1070
     1
1070
    44
1040
1.0
1070
    74
1070
     0
1000
MTEXTEND
1000
MTEXTBEGIN
1070
    73
1070
     1
1070
    44
1040
1.0
1070
    74
1070
     0
1000
MTEXTEND
1000
MTEXTBEGIN
1070
    73
1070
     1
1070
    44
1040
1.0
1070
    74
1070
     0
1000
MTEXTEND
1000
MTEXTBEGIN
1070
    73
1070
     1
1070
    44
1040
1.0
1070
    74
1070
     0
1000
MTEXTEND
1000
MTEXTBEGIN
1070
    73
1070
     1
1070
    44
1040
1.0
1070
    74
1070
     0
1000
MTEXTEND
1000
MTEXTBEGIN
1070
    73
1070
     1
1070
    44
1040
1.0
1070
    74
1070
     0
1000
MTEXTEND
1000
MTEXTBEGIN
1070
    73
1070
     1
1070
    44
1040
1.0
1070
    74
1070
     0
1000
MTEXTEND
1000
MTEXTBEGIN
1070
    73
1070
     1
1070
    44
1040
1.0
1070
    74
1070
     0
1000
MTEXTEND
1000
MTEXTBEGIN
1070
    73
1070
     1
1070
    44
1040
1.0
1070
    74
1070
     0
1000
MTEXTEND
1000
MTEXTBEGIN
1070
    73
1070
     1
1070
    44
1040
1.0
1070
    74
1070
     0
1000
MTEXTEND
1000
MTEXTBEGIN
1070
    73
1070
     1
1070
    44
1040
1.0
1070
    74
1070
     0
1000
MTEXTEND
1000
MTEXTBEGIN
1070
    73
1070
     1
1070
    44
1040
1.0
1070
    74
1070
     0
1000
MTEXTEND
1000
MTEXTBEGIN
1070
    73
1070
     1
1070
    44
1040
1.0
1070
    74
1070
     0
1000
MTEXTEND
1000
MTEXTBEGIN
1070
    73
1070
     1
1070
    44
1040
1.0
1070
    74
1070
     0
1000
MTEXTEND
1000
MTEXTBEGIN
1070
    73
1070
     1
1070
    44
1040
1.0
1070
    74
1070
     0
1000
MTEXTEND
1000
MTEXTBEGIN
1070
    73
1070
     1
1070
    44
1040
1.0
1070
    74
1070
     0
1000
MTEXTEND
1000
MTEXTBEGIN
1070
    73
1070
     1
1070
    44
1040
1.0
1070
    74
1070
     0
1000
MTEXTEND
1000
MTEXTBEGIN
1070
    73
1070
     1
1070
    44
1040
1.0
1070
    74
1070
     0
1000
MTEXTEND
1000
MTEXTBEGIN
1070
    73
1070
     1
1070
    44
1040
1.0
1070
    74
1070
     0
1000
MTEXTEND
1000
MTEXTBEGIN
1070
    73
1070
     1
1070
    44
1040
1.0
1070
    74
1070
     0
1000
MTEXTEND
1000
MTEXTBEGIN
1070
    73
1070
     1
1070
    44
1040
1.0
1070
    74
1070
     0
1000
MTEXTEND
1000
MTEXTBEGIN
1070
    73
1070
     1
1070
    44
1040
1.0
1070
    74
1070
     0
1000
MTEXTEND
1000
MTEXTBEGIN
1070
    73
1070
     1
1070
    44
1040
1.0
1070
    74
1070
     0
1000
MTEXTEND
1000
MTEXTBEGIN
1070
    73
1070
     1
1070
    44
1040
1.0
1070
    74
1070
     0
1000
MTEXTEND
1000
MTEXTBEGIN
1070
    73
1070
     1
1070
    44
1040
1.0
1070
    74
1070
     0
1000
MTEXTEND
1000
MTEXTBEGIN
1070
    73
1070
     1
1070
    44
1040
1.0
1070
    74
1070
     0
1000
MTEXTEND
1000
MTEXTBEGIN
1070
    73
1070
     1
1070
    44
1040
1.0
1070
    74
1070
     0
1000
MTEXTEND
1000
MTEXTBEGIN
1070
    73
1070
     1
1070
    44
1040
1.0
1070
    74
1070
     0
1000
MTEXTEND
1000
MTEXTBEGIN
1070
    73
1070
     1
1070
    44
1040
1.0
1070
    74
1070
     0
1000
MTEXTEND
1000
MTEXTBEGIN
1070
    73
1070
     1
1070
    44
1040
1.0
1070
    74
1070
     0
1000
MTEXTEND
1000
MTEXTBEGIN
1070
    73
1070
     1
1070
    44
1040
1.0
1070
    74
1070
     0
1000
MTEXTEND
1000
MTEXTBEGIN
1070
    73
1070
     1
1070
    44
1040
1.0
1070
    74
1070
     0
1000
MTEXTEND
  0
INSERT
  5
4BFF6
330
2
100
AcDbEntity
  8
WAKU
100
AcDbBlockReference
  2
0
 10
758.8116579016041
 20
-63.56057983873952
 30
0.0
  0
LINE
  5
FE565
330
2
100
AcDbEntity
  8
L-ZISSEN
100
AcDbLine
 10
65.11646563165879
 20
148.181621339863
 30
-0.0000000000000002
 11
58.6164656316588
 21
148.1816213398625
 31
-0.0000000000000002
  0
LINE
  5
FE566
330
2
100
AcDbEntity
  8
L-ZISSEN
100
AcDbLine
 10
60.3664656316597
 20
141.1816213398625
 30
-0.0000000000000002
 11
59.86646563165971
 21
141.6816213398625
 31
-0.0000000000000002
  0
LINE
  5
FE567
330
2
100
AcDbEntity
  8
L-ZISSEN
100
AcDbLine
 10
64.1164656316597
 20
143.181621339863
 30
-0.0000000000000002
 11
59.6164656316597
 21
143.1816213398625
 31
-0.0000000000000002
  0
LINE
  5
FE568
330
2
100
AcDbEntity
  8
L-ZISSEN
 48
0.5
100
AcDbLine
 10
22.4450233963455
 20
163.4816213398628
 30
0.00000000000008
 11
78.36646563163845
 21
163.4816213398629
 31
0.0000000000000811
  0
LINE
  5
FE569
330
2
100
AcDbEntity
  8
L-ZISSEN
 48
0.5
100
AcDbLine
 10
27.57238919378437
 20
210.4816213398627
 30
0.0000000000000781
 11
72.16054206949206
 21
210.4816213398628
 31
0.0000000000001263
  0
LINE
  5
FE56A
330
2
100
AcDbEntity
  8
L-ZISSEN
100
AcDbLine
 10
78.36646563163845
 20
156.981621339863
 30
0.0
 11
21.36646563163844
 21
156.981621339863
 31
0.0000000000000812
  0
LINE
  5
FE56B
330
2
100
AcDbEntity
  8
L-ZISSEN
100
AcDbLine
 10
78.36646563163845
 20
153.7816213398627
 30
0.0
 11
21.36646563163844
 21
153.7816213398627
 31
0.0000000000000812
  0
LINE
  5
FE56C
330
2
100
AcDbEntity
  8
L-ZISSEN
100
AcDbLine
 10
23.36646563163844
 20
153.7816213398627
 30
0.0
 11
78.36646563163856
 21
153.7816213398626
 31
0.0
  0
LINE
  5
FE56D
330
2
100
AcDbEntity
  8
L-ZISSEN
100
AcDbLine
 10
23.56646563163848
 20
150.5816213398627
 30
0.0
 11
78.36646563163845
 21
150.5816213398627
 31
0.0
  0
LINE
  5
FE56F
330
2
100
AcDbEntity
  8
L-TYUSIN
100
AcDbLine
 10
49.80092430385685
 20
132.9627971746065
 30
-0.0000000000000002
 11
49.80092430385639
 21
178.2627971746071
 31
-0.0000000000000002
  0
LINE
  5
FE570
330
2
100
AcDbEntity
  8
L-ZISSEN
 48
0.5
100
AcDbLine
 10
21.36646563163799
 20
163.4816213398628
 30
0.00000000000008
 11
21.36646563163799
 21
159.4816213398628
 31
0.0000000000000815
  0
LINE
  5
FE571
330
2
100
AcDbEntity
  8
L-TYUSIN
100
AcDbLine
 10
14.06646563163826
 20
133.7816213398632
 30
0.0
 11
29.06646563163826
 21
133.7816213398631
 31
0.0
  0
LINE
  5
FE573
330
2
100
AcDbEntity
  8
L-ZISSEN
100
AcDbLine
 10
18.36646563163833
 20
123.7816213398626
 30
0.0
 11
18.36646563163843
 21
148.7816213398627
 31
0.0
  0
LINE
  5
FE574
330
2
100
AcDbEntity
  8
L-ZISSEN
100
AcDbLine
 10
21.56646563163838
 20
123.7816213398626
 30
0.0
 11
21.56646563163849
 21
148.5816213398627
 31
0.0
  0
LINE
  5
FE575
330
2
100
AcDbEntity
  8
L-ZISSEN
100
AcDbLine
 10
18.36646563163833
 20
123.7816213398626
 30
0.0
 11
21.56646563163849
 21
123.7816213398626
 31
0.0
  0
LINE
  5
FE576
330
2
100
AcDbEntity
  8
L-ZISSEN
100
AcDbLine
 10
38.96646563165688
 20
138.9416213398648
 30
-0.0000000000000002
 11
36.76646563165707
 21
138.9416213398648
 31
-0.0000000000000002
  0
LINE
  5
FE577
330
2
100
AcDbEntity
  8
L-ZISSEN
100
AcDbLine
 10
41.36646563165675
 20
146.9416213398648
 30
-0.0000000000000002
 11
34.36646563165675
 21
146.9416213398648
 31
-0.0000000000000002
  0
LINE
  5
FE578
330
2
100
AcDbEntity
  8
L-ZISSEN
100
AcDbLine
 10
41.36646563165607
 20
139.4416213398648
 30
-0.0000000000000002
 11
34.36646563165675
 21
139.4416213398648
 31
-0.0000000000000002
  0
LINE
  5
FE579
330
2
100
AcDbEntity
  8
L-ZISSEN
100
AcDbLine
 10
33.86646563165675
 20
149.4416213398648
 30
-0.0000000000000002
 11
41.86646563165675
 21
149.4416213398648
 31
-0.0000000000000002
  0
LINE
  5
FE57A
330
2
100
AcDbEntity
  8
L-ZISSEN
100
AcDbLine
 10
41.90791751598396
 20
149.4416213398643
 30
-0.0000000000000002
 11
33.82501374732953
 21
149.4416213398648
 31
-0.0000000000000002
  0
LINE
  5
FE57B
330
2
100
AcDbEntity
  8
L-ZISSEN
100
AcDbLine
 10
41.90791751598396
 20
146.9416213398643
 30
-0.0000000000000002
 11
33.82501374732953
 21
146.9416213398648
 31
-0.0000000000000002
  0
LINE
  5
FE57C
330
2
100
AcDbEntity
  8
L-ZISSEN
100
AcDbLine
 10
42.89146563165639
 20
149.4416213398646
 30
0.0
 11
37.86646563165675
 21
149.4416213398646
 31
0.0
  0
LINE
  5
FE57D
330
2
100
AcDbEntity
  8
L-ZISSEN
100
AcDbLine
 10
42.89146563165639
 20
149.9416213398644
 30
0.0
 11
37.86646563165675
 21
149.941621339865
 31
0.0
  0
LINE
  5
FE57E
330
2
100
AcDbEntity
  8
L-TYUSIN
100
AcDbLine
 10
37.86646563165607
 20
132.9627971746066
 30
-0.0000000000000002
 11
37.86646563165573
 21
156.981621339863
 31
-0.0000000000000002
  0
LINE
  5
FE57F
330
2
100
AcDbEntity
  8
L-ZISSEN
100
AcDbLine
 10
33.82501374732953
 20
149.4416213398648
 30
-0.0000000000000002
 11
33.82501374732953
 21
146.9416213398648
 31
-0.0000000000000002
  0
LINE
  5
FE580
330
2
100
AcDbEntity
  8
L-ZISSEN
100
AcDbLine
 10
36.76646563165707
 20
138.9416213398648
 30
-0.0000000000000002
 11
36.76646563165707
 21
139.4416213398648
 31
-0.0000000000000002
  0
LINE
  5
FE581
330
2
100
AcDbEntity
  8
L-ZISSEN
100
AcDbLine
 10
34.36646563165675
 20
146.9416213398648
 30
-0.0000000000000002
 11
33.8250137473293
 21
146.6290139486953
 31
-0.0000000000000002
  0
LINE
  5
FE582
330
2
100
AcDbEntity
  8
L-ZISSEN
100
AcDbLine
 10
34.36646563165675
 20
139.4416213398648
 30
-0.0000000000000002
 11
33.8250137473293
 21
139.7542287310346
 31
-0.0000000000000002
  0
LINE
  5
FE583
330
2
100
AcDbEntity
  8
L-ZISSEN
100
AcDbLine
 10
35.84573968949291
 20
146.9416213398648
 30
-0.0000000000000002
 11
35.84573968949291
 21
139.4416213398648
 31
-0.0000000000000002
  0
LINE
  5
FE584
330
2
100
AcDbEntity
  8
L-ZISSEN
100
AcDbLine
 10
33.8250137473293
 20
146.6290139486953
 30
-0.0000000000000002
 11
33.8250137473293
 21
139.7542287310346
 31
-0.0000000000000002
  0
LINE
  5
FE585
330
2
100
AcDbEntity
  8
L-ZISSEN
100
AcDbLine
 10
21.86646563163799
 20
158.9816213398628
 30
0.0000000000000817
 11
21.86646563163799
 21
156.981621339863
 31
0.0000000000000812
  0
LINE
  5
FE586
330
2
100
AcDbEntity
  8
L-ZISSEN
 48
0.5
100
AcDbLine
 10
21.36646563163799
 20
159.4816213398628
 30
0.0000000000000815
 11
21.86646563163799
 21
158.9816213398628
 31
0.0000000000000817
  0
LINE
  5
FE587
330
2
100
AcDbEntity
  8
L-ZISSEN
100
AcDbLine
 10
21.36646563163844
 20
156.981621339863
 30
0.0000000000000812
 11
21.36646563163844
 21
153.7816213398627
 31
0.0000000000000812
  0
LINE
  5
FE588
330
2
100
AcDbEntity
  8
L-ZISSEN
100
AcDbLine
 10
30.89146563165729
 20
150.5816213398627
 30
0.0
 11
30.89146563165729
 21
149.9416213398644
 31
0.0
  0
LINE
  5
FE589
330
2
100
AcDbEntity
  8
L-ZISSEN
100
AcDbLine
 10
37.86646563165675
 20
149.9416213398643
 30
0.0
 11
30.89146563165729
 21
149.9416213398644
 31
0.0
  0
LINE
  5
FE58A
330
2
100
AcDbEntity
  8
L-ZISSEN
100
AcDbLine
 10
37.86646563165675
 20
149.4416213398644
 30
0.0
 11
32.89146563165639
 21
149.4416213398644
 31
0.0
  0
LINE
  5
FE58B
330
2
100
AcDbEntity
  8
L-ZISSEN
100
AcDbLine
 10
35.39146563165639
 20
149.9416213398642
 30
0.0
 11
32.89146563165639
 21
149.9416213398642
 31
0.0
  0
LINE
  5
FE58C
330
2
100
AcDbEntity
  8
L-ZISSEN
100
AcDbLine
 10
32.89146563165639
 20
149.9416213398644
 30
0.0
 11
32.89146563165639
 21
149.4416213398646
 31
0.0
  0
LINE
  5
FE58D
330
2
100
AcDbEntity
  8
L-ZISSEN
100
AcDbLine
 10
53.84237618818474
 20
146.9416213398647
 30
-0.0000000000000002
 11
53.84237618818474
 21
149.4416213398646
 31
-0.0000000000000002
  0
LINE
  5
FE58E
330
2
100
AcDbEntity
  8
L-ZISSEN
100
AcDbLine
 10
45.75947241953031
 20
149.4416213398646
 30
-0.0000000000000002
 11
45.75947241953031
 21
146.9416213398647
 31
-0.0000000000000002
  0
LINE
  5
FE58F
330
2
100
AcDbEntity
  8
L-ZISSEN
100
AcDbLine
 10
58.61646563165971
 20
148.1816213398625
 30
-0.0000000000000002
 11
58.61646563165971
 21
144.1816213398625
 31
-0.0000000000000002
  0
LINE
  5
FE590
330
2
100
AcDbEntity
  8
L-ZISSEN
100
AcDbLine
 10
41.90791751598396
 20
146.9416213398648
 30
-0.0000000000000002
 11
41.90791751598396
 21
149.4416213398648
 31
-0.0000000000000002
  0
LINE
  5
FE591
330
2
100
AcDbEntity
  8
L-ZISSEN
100
AcDbLine
 10
53.84237618818474
 20
146.9416213398642
 30
-0.0000000000000002
 11
45.75947241953031
 21
146.9416213398647
 31
-0.0000000000000002
  0
LINE
  5
FE592
330
2
100
AcDbEntity
  8
L-ZISSEN
100
AcDbLine
 10
53.30092430385684
 20
139.4416213398647
 30
-0.0000000000000002
 11
46.30092430385753
 21
139.4416213398647
 31
-0.0000000000000002
  0
LINE
  5
FE593
330
2
100
AcDbEntity
  8
L-ZISSEN
100
AcDbLine
 10
53.30092430385753
 20
146.9416213398647
 30
-0.0000000000000002
 11
46.30092430385753
 21
146.9416213398647
 31
-0.0000000000000002
  0
LINE
  5
FE594
330
2
100
AcDbEntity
  8
L-ZISSEN
100
AcDbLine
 10
50.90092430385766
 20
138.9416213398646
 30
-0.0000000000000002
 11
48.70092430385785
 21
138.9416213398646
 31
-0.0000000000000002
  0
LINE
  5
FE595
330
2
100
AcDbEntity
  8
L-ZISSEN
100
AcDbLine
 10
45.75947241953008
 20
146.6290139486952
 30
-0.0000000000000002
 11
45.75947241953008
 21
139.7542287310345
 31
-0.0000000000000002
  0
LINE
  5
FE596
330
2
100
AcDbEntity
  8
L-ZISSEN
100
AcDbLine
 10
47.78019836169369
 20
146.9416213398647
 30
-0.0000000000000002
 11
47.78019836169369
 21
139.4416213398647
 31
-0.0000000000000002
  0
LINE
  5
FE597
330
2
100
AcDbEntity
  8
L-ZISSEN
100
AcDbLine
 10
46.30092430385753
 20
139.4416213398647
 30
-0.0000000000000002
 11
45.75947241953008
 21
139.7542287310345
 31
-0.0000000000000002
  0
LINE
  5
FE598
330
2
100
AcDbEntity
  8
L-ZISSEN
100
AcDbLine
 10
46.30092430385753
 20
146.9416213398647
 30
-0.0000000000000002
 11
45.75947241953008
 21
146.6290139486952
 31
-0.0000000000000002
  0
LINE
  5
FE599
330
2
100
AcDbEntity
  8
L-ZISSEN
100
AcDbLine
 10
48.70092430385785
 20
138.9416213398646
 30
-0.0000000000000002
 11
48.70092430385785
 21
139.4416213398647
 31
-0.0000000000000002
  0
LINE
  5
FE59A
330
2
100
AcDbEntity
  8
L-ZISSEN
100
AcDbLine
 10
41.36646563165675
 20
146.9416213398648
 30
-0.0000000000000002
 11
41.90791751598396
 21
146.6290139486953
 31
-0.0000000000000002
  0
LINE
  5
FE59B
330
2
100
AcDbEntity
  8
L-ZISSEN
100
AcDbLine
 10
38.96646563165688
 20
138.9416213398648
 30
-0.0000000000000002
 11
38.96646563165688
 21
139.4416213398648
 31
-0.0000000000000002
  0
LINE
  5
FE59C
330
2
100
AcDbEntity
  8
L-ZISSEN
100
AcDbLine
 10
41.36646563165675
 20
139.4416213398648
 30
-0.0000000000000002
 11
41.90791751598396
 21
139.7542287310346
 31
-0.0000000000000002
  0
LINE
  5
FE59D
330
2
100
AcDbEntity
  8
L-ZISSEN
100
AcDbLine
 10
39.88719157382035
 20
146.9416213398652
 30
-0.0000000000000002
 11
39.88719157382035
 21
139.4416213398648
 31
-0.0000000000000002
  0
LINE
  5
FE59E
330
2
100
AcDbEntity
  8
L-ZISSEN
100
AcDbLine
 10
41.90791751598396
 20
146.6290139486953
 30
-0.0000000000000002
 11
41.90791751598396
 21
139.7542287310346
 31
-0.0000000000000002
  0
LINE
  5
FE59F
330
2
100
AcDbEntity
  8
L-ZISSEN
100
AcDbLine
 10
53.84237618818474
 20
146.6290139486952
 30
-0.0000000000000002
 11
53.84237618818474
 21
139.7542287310345
 31
-0.0000000000000002
  0
LINE
  5
FE5A0
330
2
100
AcDbEntity
  8
L-ZISSEN
100
AcDbLine
 10
51.82165024602113
 20
146.9416213398651
 30
-0.0000000000000002
 11
51.82165024602113
 21
139.4416213398647
 31
-0.0000000000000002
  0
LINE
  5
FE5A1
330
2
100
AcDbEntity
  8
L-ZISSEN
100
AcDbLine
 10
53.30092430385753
 20
139.4416213398647
 30
-0.0000000000000002
 11
53.84237618818474
 21
139.7542287310345
 31
-0.0000000000000002
  0
LINE
  5
FE5A2
330
2
100
AcDbEntity
  8
L-ZISSEN
100
AcDbLine
 10
50.90092430385766
 20
138.9416213398646
 30
-0.0000000000000002
 11
50.90092430385766
 21
139.4416213398647
 31
-0.0000000000000002
  0
LINE
  5
FE5A3
330
2
100
AcDbEntity
  8
L-ZISSEN
100
AcDbLine
 10
53.30092430385753
 20
146.9416213398647
 30
-0.0000000000000002
 11
53.84237618818474
 21
146.6290139486952
 31
-0.0000000000000002
  0
LINE
  5
FE5A4
330
2
100
AcDbEntity
  8
L-ZISSEN
100
AcDbLine
 10
59.6164656316597
 20
143.1816213398625
 30
-0.0000000000000002
 11
58.61646563165971
 21
144.1816213398625
 31
-0.0000000000000002
  0
LINE
  5
FE5A5
330
2
100
AcDbEntity
  8
L-ZISSEN
100
AcDbLine
 10
59.86646563165971
 20
143.181621339863
 30
-0.0000000000000002
 11
59.86646563165971
 21
141.6816213398625
 31
-0.0000000000000002
  0
LINE
  5
FE5A6
330
2
100
AcDbEntity
  8
L-ZISSEN
100
AcDbLine
 10
49.80092430385752
 20
149.4416213398643
 30
0.0
 11
44.82592430385716
 21
149.4416213398643
 31
0.0
  0
LINE
  5
FE5A7
330
2
100
AcDbEntity
  8
L-ZISSEN
100
AcDbLine
 10
49.80092430385752
 20
149.9416213398642
 30
0.0
 11
42.82592430385807
 21
149.9416213398643
 31
0.0
  0
LINE
  5
FE5A8
330
2
100
AcDbEntity
  8
L-ZISSEN
100
AcDbLine
 10
53.84237618818474
 20
149.4416213398642
 30
-0.0000000000000002
 11
45.75947241953031
 21
149.4416213398646
 31
-0.0000000000000002
  0
LINE
  5
FE5A9
330
2
100
AcDbEntity
  8
L-ZISSEN
100
AcDbLine
 10
45.80092430385753
 20
149.4416213398646
 30
-0.0000000000000002
 11
53.80092430385753
 21
149.4416213398646
 31
-0.0000000000000002
  0
LINE
  5
FE5AA
330
2
100
AcDbEntity
  8
L-ZISSEN
100
AcDbLine
 10
44.82592430385716
 20
149.9416213398643
 30
0.0
 11
44.82592430385716
 21
149.4416213398645
 31
0.0
  0
LINE
  5
FE5AB
330
2
100
AcDbEntity
  8
L-ZISSEN
100
AcDbLine
 10
47.32592430385716
 20
149.9416213398641
 30
0.0
 11
44.82592430385716
 21
149.9416213398641
 31
0.0
  0
LINE
  5
FE5AC
330
2
100
AcDbEntity
  8
L-ZISSEN
100
AcDbLine
 10
44.89146563165729
 20
150.5816213398627
 30
0.0
 11
44.89146563165729
 21
149.9416213398644
 31
0.0
  0
LINE
  5
FE5AD
330
2
100
AcDbEntity
  8
L-ZISSEN
100
AcDbLine
 10
44.89146563165729
 20
149.9416213398644
 30
0.0
 11
40.39146563165729
 21
149.9416213398644
 31
0.0
  0
LINE
  5
FE5AE
330
2
100
AcDbEntity
  8
L-ZISSEN
100
AcDbLine
 10
42.89146563165639
 20
149.9416213398647
 30
0.0
 11
42.89146563165639
 21
149.4416213398646
 31
0.0
  0
LINE
  5
FE5AF
330
2
100
AcDbEntity
  8
L-ZISSEN
100
AcDbLine
 10
54.82592430385716
 20
149.9416213398645
 30
0.0
 11
54.82592430385716
 21
149.4416213398645
 31
0.0
  0
LINE
  5
FE5B0
330
2
100
AcDbEntity
  8
L-ZISSEN
100
AcDbLine
 10
56.82592430385807
 20
149.9416213398643
 30
0.0
 11
52.32592430385807
 21
149.9416213398643
 31
0.0
  0
LINE
  5
FE5B1
330
2
100
AcDbEntity
  8
L-ZISSEN
100
AcDbLine
 10
56.82592430385807
 20
150.5816213398626
 30
0.0
 11
56.82592430385807
 21
149.9416213398643
 31
0.0
  0
LINE
  5
FE5B2
330
2
100
AcDbEntity
  8
L-ZISSEN
100
AcDbLine
 10
54.82592430385716
 20
149.9416213398643
 30
0.0
 11
49.80092430385752
 21
149.9416213398649
 31
0.0
  0
LINE
  5
FE5B3
330
2
100
AcDbEntity
  8
L-ZISSEN
100
AcDbLine
 10
54.82592430385716
 20
149.4416213398645
 30
0.0
 11
49.80092430385752
 21
149.4416213398645
 31
0.0
  0
LINE
  5
FE5B4
330
2
100
AcDbEntity
  8
L-ZISSEN
100
AcDbLine
 10
59.36646563165879
 20
150.5816213398626
 30
-0.0000000000000002
 11
59.36646563165879
 21
148.1816213398625
 31
-0.0000000000000002
  0
LINE
  5
FE5B6
330
2
100
AcDbEntity
  8
L-ZISSEN
 48
0.5
100
AcDbLine
 10
22.4450233963455
 20
163.4816213398627
 30
-0.000000000000066
 11
23.57375989388151
 21
206.5863291330941
 31
-0.0000000000000634
  0
LINE
  5
FE5B7
330
2
100
AcDbEntity
  8
L-ZISSEN
 48
0.5
100
AcDbLine
 10
21.36646563163799
 20
163.4816213398628
 30
0.00000000000008
 11
22.4450233963455
 21
163.4816213398628
 31
0.00000000000008
  0
ARC
  5
FE5BD
330
2
100
AcDbEntity
  8
L-ZISSEN
 48
0.5
100
AcDbCircle
 10
27.57238919378437
 20
206.4816213398627
 30
0.0000000000000456
 40
4.0
100
AcDbArc
 50
90.0
 51
178.4999999999971
  0
LINE
  5
FE5C6
330
2
100
AcDbEntity
  8
L-TYUSIN
100
AcDbLine
 10
211.4343384026694
 20
133.7816213398626
 30
0.0
 11
211.4343384026694
 21
156.9816213398629
 31
0.0
  0
LINE
  5
FE5C8
330
2
100
AcDbEntity
  8
L-ZISSEN
 48
0.5
100
AcDbLine
 10
78.36646563163845
 20
163.4816213398628
 30
-0.0000000000000012
 11
78.36646563163845
 21
159.4816213398628
 31
0.0000000000000004
  0
LINE
  5
FE5CB
330
2
100
AcDbEntity
  8
L-TYUSIN
100
AcDbLine
 10
152.4343384026654
 20
148.1816213398627
 30
0.0
 11
152.4343384026653
 21
156.9816213398629
 31
0.0
  0
LINE
  5
FE5CE
330
2
100
AcDbEntity
  8
L-ZISSEN
 48
0.5
100
AcDbLine
 10
141.4343384026663
 20
163.4816213398627
 30
-0.0000000000000012
 11
141.4343384026663
 21
159.4816213398627
 31
0.0000000000000004
  0
LINE
  5
FE5D3
330
2
100
AcDbEntity
  8
L-ZISSEN
 48
0.5
100
AcDbLine
 10
234.4343384026663
 20
163.4816213398627
 30
-0.0000000000000012
 11
234.4343384026663
 21
159.4816213398627
 31
0.0000000000000004
  0
LINE
  5
FE5D4
330
2
100
AcDbEntity
  8
L-ZISSEN
100
AcDbLine
 10
159.4343384026663
 20
149.9416213398625
 30
0.0
 11
154.9343384026663
 21
149.9416213398625
 31
0.0
  0
LINE
  5
FE5D5
330
2
100
AcDbEntity
  8
L-TYUSIN
100
AcDbLine
 10
150.4343384026642
 20
133.7816213398627
 30
0.0
 11
165.4343384026642
 21
133.7816213398626
 31
0.0
  0
CIRCLE
  5
FE5D6
330
2
100
AcDbEntity
  8
L-ZISSEN
100
AcDbCircle
 10
157.9343384026642
 20
133.7816213398625
 30
0.0
 40
3.5
  0
LINE
  5
FE5D7
330
2
100
AcDbEntity
  8
L-ZISSEN
100
AcDbLine
 10
141.4343384026667
 20
153.7816213398626
 30
0.0
 11
234.4343384026658
 21
153.7816213398626
 31
0.0
  0
LINE
  5
FE5D8
330
2
100
AcDbEntity
  8
L-ZISSEN
100
AcDbLine
 10
141.4343384026667
 20
156.9816213398629
 30
0.0
 11
234.4343384026658
 21
156.9816213398629
 31
0.0
  0
LINE
  5
FE5D9
330
2
100
AcDbEntity
  8
L-ZISSEN
100
AcDbLine
 10
141.4343384026667
 20
150.5816213398626
 30
0.0
 11
234.4343384026658
 21
150.5816213398626
 31
0.0
  0
LINE
  5
FE5DA
330
2
100
AcDbEntity
  8
L-ZISSEN
100
AcDbLine
 10
146.434338402662
 20
123.7816213398626
 30
0.0
 11
229.4343384026662
 21
123.7816213398625
 31
0.0
  0
LINE
  5
FE5DB
330
2
100
AcDbEntity
  8
L-TYUSIN
100
AcDbLine
 10
61.86646563165879
 20
135.2027971746045
 30
-0.0000000000000002
 11
61.86646563165846
 21
156.9816213398629
 31
-0.0000000000000002
  0
LINE
  5
FE5DC
330
2
100
AcDbEntity
  8
L-ZISSEN
100
AcDbLine
 10
65.11646563165971
 20
148.181621339863
 30
-0.0000000000000002
 11
65.11646563165971
 21
144.181621339863
 31
-0.0000000000000002
  0
LINE
  5
FE5DE
330
2
100
AcDbEntity
  8
L-ZISSEN
100
AcDbLine
 10
63.3664656316597
 20
141.181621339863
 30
-0.0000000000000002
 11
63.86646563165971
 21
141.6816213398629
 31
-0.0000000000000002
  0
LINE
  5
FE5DF
330
2
100
AcDbEntity
  8
L-ZISSEN
100
AcDbLine
 10
64.1164656316597
 20
143.181621339863
 30
-0.0000000000000002
 11
65.11646563165971
 21
144.181621339863
 31
-0.0000000000000002
  0
LINE
  5
FE5E0
330
2
100
AcDbEntity
  8
L-ZISSEN
100
AcDbLine
 10
63.86646563165971
 20
143.181621339863
 30
-0.0000000000000002
 11
63.86646563165971
 21
141.6816213398629
 31
-0.0000000000000002
  0
LINE
  5
FE5E1
330
2
100
AcDbEntity
  8
L-ZISSEN
100
AcDbLine
 10
63.3664656316597
 20
141.181621339863
 30
-0.0000000000000002
 11
60.3664656316597
 21
141.1816213398625
 31
-0.0000000000000002
  0
LINE
  5
FE5E2
330
2
100
AcDbEntity
  8
L-ZISSEN
100
AcDbLine
 10
64.36646563165948
 20
150.5816213398626
 30
-0.0000000000000002
 11
64.36646563165879
 21
148.1816213398625
 31
-0.0000000000000002
  0
LINE
  5
FE5E3
330
2
100
AcDbEntity
  8
L-ZISSEN
100
AcDbLine
 10
77.86646563163845
 20
158.9816213398628
 30
0.0000000000000006
 11
77.86646563163845
 21
156.981621339863
 31
0.0
  0
LINE
  5
FE5E4
330
2
100
AcDbEntity
  8
L-ZISSEN
 48
0.5
100
AcDbLine
 10
78.36646563163845
 20
159.4816213398628
 30
0.0000000000000004
 11
77.86646563163845
 21
158.9816213398628
 31
0.0000000000000006
  0
LINE
  5
FE5E5
330
2
100
AcDbEntity
  8
L-ZISSEN
100
AcDbLine
 10
78.36646563163845
 20
156.981621339863
 30
0.0000000000000812
 11
78.36646563163845
 21
153.7816213398627
 31
0.0000000000000812
  0
LINE
  5
FE5E6
330
2
100
AcDbEntity
  8
L-ZISSEN
100
AcDbLine
 10
78.36646563163845
 20
150.5816213398627
 30
0.0
 11
78.36646563163845
 21
153.7816213398627
 31
0.0
  0
LINE
  5
FE5E8
330
2
100
AcDbEntity
  8
L-TYUSIN
100
AcDbLine
 10
157.9343384026642
 20
126.2816213398625
 30
0.0
 11
157.9343384026642
 21
141.2816213398625
 31
0.0
  0
LINE
  5
FE5E9
330
2
100
AcDbEntity
  8
L-ZISSEN
100
AcDbLine
 10
141.4343384026667
 20
156.9816213398629
 30
0.0
 11
141.4343384026627
 21
128.7816213398626
 31
0.0
  0
LINE
  5
FE5EA
330
2
100
AcDbEntity
  8
L-ZISSEN
100
AcDbLine
 10
141.4343384026627
 20
128.7816213398626
 30
0.0
 11
146.434338402662
 21
123.7816213398626
 31
0.0
  0
LINE
  5
FE5EB
330
2
100
AcDbEntity
  8
L-ZISSEN
100
AcDbLine
 10
156.4757902869923
 20
146.9416213398627
 30
0.0
 11
156.4757902869923
 21
149.4416213398627
 31
0.0
  0
LINE
  5
FE5EC
330
2
100
AcDbEntity
  8
L-ZISSEN
100
AcDbLine
 10
155.6843384026663
 20
148.181621339863
 30
0.0
 11
155.6843384026663
 21
144.181621339863
 31
0.0
  0
LINE
  5
FE5ED
330
2
100
AcDbEntity
  8
L-ZISSEN
100
AcDbLine
 10
148.3928865183379
 20
149.4416213398627
 30
0.0
 11
148.3928865183379
 21
146.9416213398627
 31
0.0
  0
LINE
  5
FE5EE
330
2
100
AcDbEntity
  8
L-ZISSEN
100
AcDbLine
 10
149.1843384026662
 20
148.1816213398625
 30
0.0
 11
149.1843384026662
 21
144.1816213398625
 31
0.0
  0
LINE
  5
FE5F0
330
2
100
AcDbEntity
  8
L-ZISSEN
100
AcDbLine
 10
154.4550643448286
 20
143.181621339863
 30
0.0
 11
154.4550643448287
 21
139.4416213398627
 31
0.0
  0
LINE
  5
FE5F1
330
2
100
AcDbEntity
  8
L-ZISSEN
100
AcDbLine
 10
150.4136124605015
 20
143.1816213398625
 30
0.0
 11
150.4136124605015
 21
139.4416213398627
 31
0.0
  0
LINE
  5
FE5F2
330
2
100
AcDbEntity
  8
L-ZISSEN
100
AcDbLine
 10
155.9343384026651
 20
146.9416213398627
 30
0.0
 11
155.6843384026663
 21
146.9416213398627
 31
0.0
  0
LINE
  5
FE5F3
330
2
100
AcDbEntity
  8
L-ZISSEN
100
AcDbLine
 10
156.4757902869923
 20
146.9416213398623
 30
0.0
 11
155.6843384026663
 21
146.9416213398623
 31
0.0
  0
LINE
  5
FE5F4
330
2
100
AcDbEntity
  8
L-ZISSEN
100
AcDbLine
 10
156.4757902869923
 20
146.6290139486933
 30
0.0
 11
156.4757902869923
 21
139.7542287310326
 31
0.0
  0
LINE
  5
FE5F5
330
2
100
AcDbEntity
  8
L-ZISSEN
100
AcDbLine
 10
153.5343384026655
 20
138.9416213398627
 30
0.0
 11
153.5343384026655
 21
139.4416213398627
 31
0.0
  0
LINE
  5
FE5F6
330
2
100
AcDbEntity
  8
L-ZISSEN
100
AcDbLine
 10
155.9343384026651
 20
139.4416213398627
 30
0.0
 11
156.4757902869923
 21
139.7542287310326
 31
0.0
  0
LINE
  5
FE5F7
330
2
100
AcDbEntity
  8
L-ZISSEN
100
AcDbLine
 10
155.9343384026651
 20
146.9416213398627
 30
0.0
 11
156.4757902869923
 21
146.6290139486933
 31
0.0
  0
LINE
  5
FE5F8
330
2
100
AcDbEntity
  8
L-ZISSEN
100
AcDbLine
 10
151.3343384026657
 20
138.9416213398627
 30
0.0
 11
151.3343384026657
 21
139.4416213398627
 31
0.0
  0
LINE
  5
FE5F9
330
2
100
AcDbEntity
  8
L-ZISSEN
100
AcDbLine
 10
153.5343384026655
 20
138.9416213398627
 30
0.0
 11
151.3343384026657
 21
138.9416213398627
 31
0.0
  0
LINE
  5
FE5FA
330
2
100
AcDbEntity
  8
L-ZISSEN
100
AcDbLine
 10
153.9343384026663
 20
141.181621339863
 30
0.0
 11
150.9343384026663
 21
141.1816213398625
 31
0.0
  0
LINE
  5
FE5FB
330
2
100
AcDbEntity
  8
L-ZISSEN
100
AcDbLine
 10
154.6843384026663
 20
143.181621339863
 30
0.0
 11
150.1843384026662
 21
143.1816213398625
 31
0.0
  0
LINE
  5
FE5FC
330
2
100
AcDbEntity
  8
L-ZISSEN
100
AcDbLine
 10
154.4343384026662
 20
143.181621339863
 30
0.0
 11
154.4343384026662
 21
141.6816213398629
 31
0.0
  0
LINE
  5
FE5FD
330
2
100
AcDbEntity
  8
L-ZISSEN
100
AcDbLine
 10
150.4343384026663
 20
143.181621339863
 30
0.0
 11
150.4343384026663
 21
141.6816213398625
 31
0.0
  0
LINE
  5
FE5FE
330
2
100
AcDbEntity
  8
L-ZISSEN
100
AcDbLine
 10
154.6843384026663
 20
143.181621339863
 30
0.0
 11
155.6843384026663
 21
144.181621339863
 31
0.0
  0
LINE
  5
FE5FF
330
2
100
AcDbEntity
  8
L-ZISSEN
100
AcDbLine
 10
153.9343384026663
 20
141.181621339863
 30
0.0
 11
154.4343384026662
 21
141.6816213398629
 31
0.0
  0
LINE
  5
FE600
330
2
100
AcDbEntity
  8
L-ZISSEN
100
AcDbLine
 10
150.9343384026663
 20
141.1816213398625
 30
0.0
 11
150.4343384026663
 21
141.6816213398625
 31
0.0
  0
LINE
  5
FE601
330
2
100
AcDbEntity
  8
L-ZISSEN
100
AcDbLine
 10
149.1843384026662
 20
146.9416213398627
 30
0.0
 11
148.9343384026651
 21
146.9416213398627
 31
0.0
  0
LINE
  5
FE602
330
2
100
AcDbEntity
  8
L-ZISSEN
100
AcDbLine
 10
149.1843384026662
 20
146.9416213398626
 30
0.0
 11
148.3928865183379
 21
146.9416213398627
 31
0.0
  0
LINE
  5
FE603
330
2
100
AcDbEntity
  8
L-ZISSEN
100
AcDbLine
 10
148.3928865183379
 20
146.6290139486933
 30
0.0
 11
148.3928865183379
 21
139.7542287310326
 31
0.0
  0
LINE
  5
FE604
330
2
100
AcDbEntity
  8
L-ZISSEN
100
AcDbLine
 10
148.9343384026651
 20
139.4416213398627
 30
0.0
 11
148.3928865183379
 21
139.7542287310326
 31
0.0
  0
LINE
  5
FE605
330
2
100
AcDbEntity
  8
L-ZISSEN
100
AcDbLine
 10
148.9343384026651
 20
146.9416213398627
 30
0.0
 11
148.3928865183379
 21
146.6290139486933
 31
0.0
  0
LINE
  5
FE606
330
2
100
AcDbEntity
  8
L-ZISSEN
100
AcDbLine
 10
155.9343384026647
 20
139.4416213398627
 30
0.0
 11
148.9343384026651
 21
139.4416213398627
 31
0.0
  0
LINE
  5
FE607
330
2
100
AcDbEntity
  8
L-ZISSEN
100
AcDbLine
 10
150.1843384026662
 20
143.1816213398625
 30
0.0
 11
149.1843384026662
 21
144.1816213398625
 31
0.0
  0
LINE
  5
FE608
330
2
100
AcDbEntity
  8
L-ZISSEN
100
AcDbLine
 10
149.9343384026653
 20
149.9416213398625
 30
0.0
 11
145.4343384026663
 21
149.9416213398625
 31
0.0
  0
LINE
  5
FE609
330
2
100
AcDbEntity
  8
L-ZISSEN
100
AcDbLine
 10
149.9343384026653
 20
149.9416213398623
 30
0.0
 11
147.4343384026654
 21
149.9416213398623
 31
0.0
  0
LINE
  5
FE60A
330
2
100
AcDbEntity
  8
L-ZISSEN
100
AcDbLine
 10
149.9343384026653
 20
149.4416213398625
 30
0.0
 11
147.4343384026654
 21
149.4416213398625
 31
0.0
  0
LINE
  5
FE60C
330
2
100
AcDbEntity
  8
L-ZISSEN
 48
0.5
100
AcDbLine
 10
141.4343384026663
 20
159.4816213398627
 30
0.0000000000000004
 11
141.9343384026662
 21
158.9816213398627
 31
0.0000000000000006
  0
LINE
  5
FE60D
330
2
100
AcDbEntity
  8
L-ZISSEN
100
AcDbLine
 10
141.9343384026662
 20
158.9816213398627
 30
0.0000000000000006
 11
141.9343384026662
 21
156.9816213398629
 31
0.0
  0
LINE
  5
FE60E
330
2
100
AcDbEntity
  8
L-ZISSEN
100
AcDbLine
 10
147.4343384026654
 20
149.9416213398625
 30
0.0
 11
147.4343384026654
 21
149.4416213398627
 31
0.0
  0
LINE
  5
FE60F
330
2
100
AcDbEntity
  8
L-ZISSEN
100
AcDbLine
 10
146.4343384026663
 20
153.7816213398627
 30
0.0
 11
146.4343384026659
 21
150.5816213398626
 31
0.0
  0
LINE
  5
FE610
330
2
100
AcDbEntity
  8
L-ZISSEN
100
AcDbLine
 10
145.4343384026663
 20
150.5816213398626
 30
0.0
 11
145.4343384026663
 21
149.9416213398625
 31
0.0
  0
LINE
  5
FE613
330
2
100
AcDbEntity
  8
L-ZISSEN
100
AcDbLine
 10
157.4343384026653
 20
149.4416213398627
 30
0.0
 11
154.9343384026663
 21
149.4416213398627
 31
0.0
  0
LINE
  5
FE614
330
2
100
AcDbEntity
  8
L-ZISSEN
100
AcDbLine
 10
157.4343384026653
 20
149.9416213398625
 30
0.0
 11
154.9343384026663
 21
149.9416213398627
 31
0.0
  0
LINE
  5
FE615
330
2
100
AcDbEntity
  8
L-ZISSEN
100
AcDbLine
 10
154.9343384026663
 20
149.4416213398627
 30
0.0
 11
156.4343384026653
 21
149.4416213398627
 31
0.0
  0
LINE
  5
FE616
330
2
100
AcDbEntity
  8
L-ZISSEN
100
AcDbLine
 10
157.4343384026653
 20
149.9416213398627
 30
0.0
 11
157.4343384026653
 21
149.4416213398627
 31
0.0
  0
LINE
  5
FE617
330
2
100
AcDbEntity
  8
L-ZISSEN
100
AcDbLine
 10
149.9343384026653
 20
150.5816213398626
 30
0.0
 11
149.9343384026653
 21
148.1816213398625
 31
0.0
  0
LINE
  5
FE618
330
2
100
AcDbEntity
  8
L-ZISSEN
100
AcDbLine
 10
154.934338402666
 20
150.5816213398626
 30
0.0
 11
154.9343384026653
 21
148.1816213398625
 31
0.0
  0
LINE
  5
FE61B
330
2
100
AcDbEntity
  8
L-ZISSEN
100
AcDbLine
 10
155.6843384026653
 20
148.181621339863
 30
0.0
 11
149.1843384026653
 21
148.1816213398625
 31
0.0
  0
LINE
  5
FE620
330
2
100
AcDbEntity
  8
L-ZISSEN
100
AcDbLine
 10
148.4343384026654
 20
149.4416213398627
 30
0.0
 11
149.9343384026653
 21
149.4416213398627
 31
0.0
  0
LINE
  5
FE623
330
2
100
AcDbEntity
  8
L-ZISSEN
100
AcDbLine
 10
159.4343384026663
 20
150.5816213398626
 30
0.0
 11
159.4343384026663
 21
149.9416213398625
 31
0.0
  0
LINE
  5
FE626
330
2
100
AcDbEntity
  8
L-ZISSEN
100
AcDbLine
 10
234.4343384026663
 20
156.9816213398629
 30
0.0
 11
234.4343384026663
 21
128.7816213398625
 31
0.0
  0
CIRCLE
  5
FE627
330
2
100
AcDbEntity
  8
L-ZISSEN
100
AcDbCircle
 10
217.9343384026642
 20
133.7816213398625
 30
0.0
 40
3.5
  0
LINE
  5
FE628
330
2
100
AcDbEntity
  8
L-TYUSIN
100
AcDbLine
 10
217.9343384026642
 20
126.2816213398625
 30
0.0
 11
217.9343384026642
 21
141.2816213398625
 31
0.0
  0
LINE
  5
FE629
330
2
100
AcDbEntity
  8
L-ZISSEN
100
AcDbLine
 10
234.4343384026663
 20
128.7816213398625
 30
0.0
 11
229.4343384026662
 21
123.7816213398625
 31
0.0
  0
LINE
  5
FE62A
330
2
100
AcDbEntity
  8
L-TYUSIN
100
AcDbLine
 10
210.4343384026642
 20
133.7816213398627
 30
0.0
 11
225.4343384026642
 21
133.7816213398626
 31
0.0
  0
LINE
  5
FE62B
330
2
100
AcDbEntity
  8
L-ZISSEN
100
AcDbLine
 10
215.4757902869964
 20
146.9416213398627
 30
0.0
 11
215.4757902869964
 21
149.4416213398627
 31
0.0
  0
LINE
  5
FE62C
330
2
100
AcDbEntity
  8
L-ZISSEN
100
AcDbLine
 10
207.392886518342
 20
149.4416213398627
 30
0.0
 11
207.392886518342
 21
146.9416213398627
 31
0.0
  0
LINE
  5
FE62D
330
2
100
AcDbEntity
  8
L-ZISSEN
100
AcDbLine
 10
214.9343384026692
 20
146.9416213398627
 30
0.0
 11
207.9343384026692
 21
146.9416213398627
 31
0.0
  0
LINE
  5
FE62E
330
2
100
AcDbEntity
  8
L-ZISSEN
100
AcDbLine
 10
215.4757902869964
 20
146.9416213398623
 30
0.0
 11
207.392886518342
 21
146.9416213398627
 31
0.0
  0
LINE
  5
FE62F
330
2
100
AcDbEntity
  8
L-ZISSEN
100
AcDbLine
 10
214.9343384026688
 20
139.4416213398627
 30
0.0
 11
207.9343384026692
 21
139.4416213398627
 31
0.0
  0
LINE
  5
FE630
330
2
100
AcDbEntity
  8
L-ZISSEN
100
AcDbLine
 10
212.5343384026696
 20
138.9416213398627
 30
0.0
 11
210.3343384026698
 21
138.9416213398627
 31
0.0
  0
LINE
  5
FE631
330
2
100
AcDbEntity
  8
L-ZISSEN
100
AcDbLine
 10
207.9343384026692
 20
146.9416213398627
 30
0.0
 11
207.392886518342
 21
146.6290139486933
 31
0.0
  0
LINE
  5
FE632
330
2
100
AcDbEntity
  8
L-ZISSEN
100
AcDbLine
 10
210.3343384026698
 20
138.9416213398627
 30
0.0
 11
210.3343384026698
 21
139.4416213398627
 31
0.0
  0
LINE
  5
FE633
330
2
100
AcDbEntity
  8
L-ZISSEN
100
AcDbLine
 10
207.9343384026692
 20
139.4416213398627
 30
0.0
 11
207.392886518342
 21
139.7542287310326
 31
0.0
  0
LINE
  5
FE634
330
2
100
AcDbEntity
  8
L-ZISSEN
100
AcDbLine
 10
209.4136124605056
 20
146.9416213398627
 30
0.0
 11
209.4136124605056
 21
139.4416213398627
 31
0.0
  0
LINE
  5
FE635
330
2
100
AcDbEntity
  8
L-ZISSEN
100
AcDbLine
 10
207.392886518342
 20
146.6290139486933
 30
0.0
 11
207.392886518342
 21
139.7542287310326
 31
0.0
  0
LINE
  5
FE636
330
2
100
AcDbEntity
  8
L-ZISSEN
100
AcDbLine
 10
212.5343384026696
 20
138.9416213398627
 30
0.0
 11
212.5343384026696
 21
139.4416213398627
 31
0.0
  0
LINE
  5
FE637
330
2
100
AcDbEntity
  8
L-ZISSEN
100
AcDbLine
 10
214.9343384026692
 20
146.9416213398627
 30
0.0
 11
215.4757902869964
 21
146.6290139486933
 31
0.0
  0
LINE
  5
FE638
330
2
100
AcDbEntity
  8
L-ZISSEN
100
AcDbLine
 10
214.9343384026692
 20
139.4416213398627
 30
0.0
 11
215.4757902869964
 21
139.7542287310326
 31
0.0
  0
LINE
  5
FE639
330
2
100
AcDbEntity
  8
L-ZISSEN
100
AcDbLine
 10
215.4757902869964
 20
146.6290139486933
 30
0.0
 11
215.4757902869964
 21
139.7542287310326
 31
0.0
  0
LINE
  5
FE63A
330
2
100
AcDbEntity
  8
L-ZISSEN
100
AcDbLine
 10
213.4550643448328
 20
146.9416213398632
 30
0.0
 11
213.4550643448328
 21
139.4416213398627
 31
0.0
  0
LINE
  5
FE63B
330
2
100
AcDbEntity
  8
L-ZISSEN
100
AcDbLine
 10
215.9343384026692
 20
149.4416213398627
 30
0.0
 11
206.9343384026692
 21
149.4416213398627
 31
0.0
  0
LINE
  5
FE63C
330
2
100
AcDbEntity
  8
L-ZISSEN
100
AcDbLine
 10
207.4343384026692
 20
149.4416213398627
 30
0.0
 11
215.4343384026692
 21
149.4416213398627
 31
0.0
  0
LINE
  5
FE63D
330
2
100
AcDbEntity
  8
L-ZISSEN
100
AcDbLine
 10
215.4757902869964
 20
149.4416213398623
 30
0.0
 11
207.392886518342
 21
149.4416213398627
 31
0.0
  0
LINE
  5
FE63E
330
2
100
AcDbEntity
  8
L-ZISSEN
100
AcDbLine
 10
216.4343384026695
 20
149.4416213398627
 30
0.0
 11
211.4343384026693
 21
149.4416213398626
 31
0.0
  0
LINE
  5
FE63F
330
2
100
AcDbEntity
  8
L-ZISSEN
100
AcDbLine
 10
216.4343384026695
 20
149.9416213398625
 30
0.0
 11
211.4343384026693
 21
149.9416213398628
 31
0.0
  0
LINE
  5
FE641
330
2
100
AcDbEntity
  8
L-ZISSEN
100
AcDbLine
 10
211.4343384026693
 20
149.4416213398626
 30
0.0
 11
206.4343384026694
 21
149.4416213398625
 31
0.0
  0
LINE
  5
FE642
330
2
100
AcDbEntity
  8
L-ZISSEN
100
AcDbLine
 10
211.4343384026693
 20
149.9416213398623
 30
0.0
 11
206.4343384026694
 21
149.9416213398623
 31
0.0
  0
LINE
  5
FE643
330
2
100
AcDbEntity
  8
L-ZISSEN
100
AcDbLine
 10
206.4343384026694
 20
149.9416213398625
 30
0.0
 11
206.4343384026694
 21
149.4416213398627
 31
0.0
  0
LINE
  5
FE644
330
2
100
AcDbEntity
  8
L-ZISSEN
100
AcDbLine
 10
208.9343384026694
 20
149.9416213398625
 30
0.0
 11
204.4343384026703
 21
149.9416213398625
 31
0.0
  0
LINE
  5
FE645
330
2
100
AcDbEntity
  8
L-ZISSEN
100
AcDbLine
 10
204.4343384026703
 20
150.5816213398626
 30
0.0
 11
204.4343384026703
 21
149.9416213398625
 31
0.0
  0
LINE
  5
FE646
330
2
100
AcDbEntity
  8
L-ZISSEN
100
AcDbLine
 10
216.4343384026695
 20
149.9416213398627
 30
0.0
 11
216.4343384026695
 21
149.4416213398627
 31
0.0
  0
LINE
  5
FE647
330
2
100
AcDbEntity
  8
L-ZISSEN
100
AcDbLine
 10
218.4343384026703
 20
150.5816213398626
 30
0.0
 11
218.4343384026703
 21
149.9416213398625
 31
0.0
  0
LINE
  5
FE648
330
2
100
AcDbEntity
  8
L-ZISSEN
100
AcDbLine
 10
218.4343384026703
 20
149.9416213398625
 30
0.0
 11
213.9343384026703
 21
149.9416213398625
 31
0.0
  0
LINE
  5
FE649
330
2
100
AcDbEntity
  8
L-ZISSEN
 48
0.5
100
AcDbLine
 10
234.4343384026663
 20
159.4816213398627
 30
0.0000000000000004
 11
233.9343384026662
 21
158.9816213398627
 31
0.0000000000000006
  0
LINE
  5
FE64A
330
2
100
AcDbEntity
  8
L-ZISSEN
100
AcDbLine
 10
233.9343384026662
 20
158.9816213398627
 30
0.0000000000000006
 11
233.9343384026662
 21
156.9816213398629
 31
0.0
  0
LINE
  5
FE64B
330
2
100
AcDbEntity
  8
L-ZISSEN
100
AcDbLine
 10
229.4343384026662
 20
153.7816213398626
 30
0.0
 11
229.4343384026662
 21
150.5816213398626
 31
0.0
  0
LINE
  5
FE64F
330
2
100
AcDbEntity
  8
L-ZISSEN
 48
0.5
100
AcDbLine
 10
147.6402619648126
 20
210.4816213398627
 30
-0.000000000000003
 11
228.2284148405199
 21
210.4816213398627
 31
-0.0000000000000214
  0
LINE
  5
FE650
330
2
100
AcDbEntity
  8
L-ZISSEN
100
AcDbLine
 10
142.5128961673738
 20
163.4816213398627
 30
-0.0000000000000011
 11
233.3557806379597
 21
163.4816213398629
 31
0.0000000000000006
  0
LINE
  5
FE651
330
2
100
AcDbEntity
  8
L-ZISSEN
 48
0.5
100
AcDbLine
 10
77.28790786693185
 20
163.481621339863
 30
0.0000000000000006
 11
76.15917136939493
 21
206.5863291330943
 31
0.0000000000000031
  0
LINE
  5
FE652
330
2
100
AcDbEntity
  8
L-ZISSEN
 48
0.5
100
AcDbLine
 10
77.28790786693185
 20
163.481621339863
 30
0.0000000000000006
 11
78.366465631638
 21
163.481621339863
 31
0.0000000000000006
  0
ARC
  5
FE653
330
2
100
AcDbEntity
  8
L-ZISSEN
 48
0.5
100
AcDbCircle
 10
72.16054206949206
 20
206.4816213398628
 30
0.0000000000002462
 40
4.0
100
AcDbArc
 50
1.500000000002823
 51
90.0
  0
LINE
  5
FE654
330
2
100
AcDbEntity
  8
L-ZISSEN
 48
0.5
100
AcDbLine
 10
142.5128961673738
 20
163.4816213398627
 30
-0.0000000000001472
 11
143.6416326649098
 21
206.5863291330941
 31
-0.0000000000001446
  0
LINE
  5
FE656
330
2
100
AcDbEntity
  8
L-ZISSEN
 48
0.5
100
AcDbLine
 10
141.4343384026663
 20
163.4816213398627
 30
-0.0000000000000012
 11
142.5128961673738
 21
163.4816213398627
 31
-0.0000000000000011
  0
ARC
  5
FE65E
330
2
100
AcDbEntity
  8
L-ZISSEN
 48
0.5
100
AcDbCircle
 10
147.6402619648126
 20
206.4816213398627
 30
-0.0000000000000356
 40
4.0
100
AcDbArc
 50
90.0
 51
178.4999999999971
  0
LINE
  5
FE688
330
2
100
AcDbEntity
  8
L-ZISSEN
 48
0.5
100
AcDbLine
 10
233.3557806379597
 20
163.4816213398629
 30
-0.0000000000001472
 11
232.2270441404227
 21
206.5863291330941
 31
-0.0000000000001446
  0
LINE
  5
FE6A6
330
2
100
AcDbEntity
  8
L-ZISSEN
 48
0.5
100
AcDbLine
 10
233.3557806379597
 20
163.4816213398629
 30
0.0000000000000006
 11
234.4343384026658
 21
163.4816213398629
 31
0.0000000000000006
  0
ARC
  5
FE6B4
330
2
100
AcDbEntity
  8
L-ZISSEN
 48
0.5
100
AcDbCircle
 10
228.2284148405199
 20
206.4816213398627
 30
0.0000000000000984
 40
4.0
100
AcDbArc
 50
1.500000000002823
 51
90.0
  0
ARC
  5
FE83B
330
2
100
AcDbEntity
  8
L-ZISSEN
100
AcDbCircle
 10
23.36646563163843
 20
148.7816213398627
 30
0.0
 40
5.0
100
AcDbArc
 50
89.99999999999989
 51
179.9999999999998
  0
ARC
  5
FE83C
330
2
100
AcDbEntity
  8
L-ZISSEN
100
AcDbCircle
 10
23.56646563163848
 20
148.5816213398627
 30
0.0
 40
2.0
100
AcDbArc
 50
90.0
 51
179.9999999999997
  0
LINE
  5
FE844
330
2
100
AcDbEntity
  8
L-ZISSEN
100
AcDbLine
 10
141.4343384026663
 20
239.4047717189433
 30
0.0000000000000008
 11
141.4343384026663
 21
294.4047717189436
 31
-0.0000000000000015
  0
LINE
  5
FE845
330
2
100
AcDbEntity
  8
L-ZISSEN
100
AcDbLine
 10
234.4343384026663
 20
239.4047717189433
 30
0.0000000000000006
 11
234.4343384026662
 21
294.4047717189434
 31
0.0000000000000009
  0
LINE
  5
FE8C0
330
2
100
AcDbEntity
  8
L-ZISSEN
100
AcDbLine
 10
146.4343384026663
 20
291.4047717189438
 30
-0.000000000000005
 11
229.4343384026662
 21
291.4047717189437
 31
0.0000000000000003
  0
LINE
  5
FE8C1
330
2
100
AcDbEntity
  8
L-ZISSEN
100
AcDbLine
 10
146.4343384026663
 20
234.4047717189433
 30
0.0000000000000006
 11
229.4343384026662
 21
234.4047717189433
 31
0.0000000000000006
  0
LINE
  5
FE8C2
330
2
100
AcDbEntity
  8
L-ZISSEN
100
AcDbLine
 10
141.4343384026663
 20
294.4047717189436
 30
-0.0000000000000015
 11
234.4343384026662
 21
294.4047717189434
 31
0.0000000000000031
  0
ARC
  5
FE8C3
330
2
100
AcDbEntity
  8
L-ZISSEN
100
AcDbCircle
 10
146.4343384026663
 20
286.4047717189438
 30
0.0000000000000713
 40
5.0
100
AcDbArc
 50
89.99999999999996
 51
180.0
  0
ARC
  5
FE8C4
330
2
100
AcDbEntity
  8
L-ZISSEN
100
AcDbCircle
 10
146.4343384026663
 20
239.4047717189433
 30
-0.0000000000000342
 40
5.0
100
AcDbArc
 50
180.0
 51
270.0
  0
ARC
  5
FE8C5
330
2
100
AcDbEntity
  8
L-ZISSEN
100
AcDbCircle
 10
229.4343384026662
 20
286.4047717189437
 30
-0.0000000000000113
 40
5.0
100
AcDbArc
 50
0.0
 51
90.0
  0
ARC
  5
FE8C6
330
2
100
AcDbEntity
  8
L-ZISSEN
100
AcDbCircle
 10
229.4343384026662
 20
239.4047717189433
 30
0.0000000000000006
 40
5.0
100
AcDbArc
 50
270.0000000000001
 51
0.0
  0
LINE
  5
FE8C7
330
2
100
AcDbEntity
  8
L-ZISSEN
100
AcDbLine
 10
146.4343384026663
 20
290.4047717189438
 30
-0.000000000000005
 11
229.4343384026662
 21
290.4047717189437
 31
0.0000000000000003
  0
LINE
  5
FE8C9
330
2
100
AcDbEntity
  8
L-ZISSEN
100
AcDbLine
 10
142.4343384026663
 20
239.4047717189433
 30
0.0000000000000008
 11
142.4343384026663
 21
286.4047717189438
 31
-0.0000000000000012
  0
ARC
  5
FE8CA
330
2
100
AcDbEntity
  8
L-ZISSEN
100
AcDbCircle
 10
146.4343384026663
 20
239.4047717189433
 30
-0.0000000000000342
 40
4.0
100
AcDbArc
 50
180.0
 51
270.0
  0
LINE
  5
FE8CB
330
2
100
AcDbEntity
  8
L-ZISSEN
100
AcDbLine
 10
146.4343384026663
 20
235.4047717189434
 30
0.0000000000000006
 11
229.4343384026662
 21
235.4047717189434
 31
0.0000000000000006
  0
ARC
  5
FE8CD
330
2
100
AcDbEntity
  8
L-ZISSEN
100
AcDbCircle
 10
229.4343384026662
 20
239.4047717189433
 30
0.0000000000000006
 40
4.0
100
AcDbArc
 50
270.0000000000001
 51
0.0
  0
LINE
  5
FE8CE
330
2
100
AcDbEntity
  8
L-ZISSEN
100
AcDbLine
 10
233.4343384026662
 20
239.4047717189433
 30
0.0000000000000006
 11
233.4343384026662
 21
286.4047717189437
 31
0.0000000000000009
  0
ARC
  5
FE8CF
330
2
100
AcDbEntity
  8
L-ZISSEN
100
AcDbCircle
 10
229.4343384026662
 20
286.4047717189437
 30
-0.0000000000000113
 40
4.0
100
AcDbArc
 50
0.0
 51
90.0
  0
ARC
  5
FE8D0
330
2
100
AcDbEntity
  8
L-ZISSEN
100
AcDbCircle
 10
146.4343384026663
 20
286.4047717189438
 30
0.0000000000000713
 40
4.0
100
AcDbArc
 50
89.99999999999996
 51
180.0
  0
LINE
  5
FE934
330
2
100
AcDbEntity
  8
L-ZISSEN
100
AcDbLine
 10
141.4343384026686
 20
58.24260833954326
 30
0.0
 11
141.4343384026609
 21
3.242608339542414
 31
0.0
  0
LINE
  5
FE935
330
2
100
AcDbEntity
  8
L-ZISSEN
100
AcDbLine
 10
234.4343384026663
 20
58.24260833954259
 30
0.0
 11
234.4343384026662
 21
3.242608339542357
 31
0.0
  0
LINE
  5
FE936
330
2
100
AcDbEntity
  8
L-ZISSEN
100
AcDbLine
 10
146.4343384026686
 20
63.24260833954259
 30
0.0
 11
229.4343384026663
 21
63.24260833954259
 31
0.0
  0
LINE
  5
FE937
330
2
100
AcDbEntity
  8
L-ZISSEN
100
AcDbLine
 10
141.4343384026613
 20
6.442608339542516
 30
0.0
 11
234.4343384026662
 21
6.442608339542516
 31
0.0
  0
LINE
  5
FE938
330
2
100
AcDbEntity
  8
L-ZISSEN
100
AcDbLine
 10
141.4343384026609
 20
3.242608339542414
 30
0.0
 11
234.4343384026662
 21
3.242608339542357
 31
0.0
  0
LINE
  5
FE939
330
2
100
AcDbEntity
  8
L-ZISSEN
100
AcDbLine
 10
146.4343384026693
 20
63.24260833954252
 30
0.0
 11
141.4343384026686
 21
58.24260833954252
 31
0.0
  0
LINE
  5
FE93A
330
2
100
AcDbEntity
  8
L-ZISSEN
100
AcDbLine
 10
229.4343384026663
 20
63.24260833954259
 30
0.0
 11
234.4343384026663
 21
58.24260833954259
 31
0.0
  0
LINE
  5
FE93B
330
2
100
AcDbEntity
  8
L-TYUSIN
100
AcDbLine
 10
157.9343384026642
 20
-3.766983835877226
 30
0.0
 11
157.9343384026642
 21
11.23301616412277
 31
0.0
  0
LINE
  5
FE93C
330
2
100
AcDbEntity
  8
L-TYUSIN
100
AcDbLine
 10
217.9343384026642
 20
-3.766983835877226
 30
0.0
 11
217.9343384026642
 21
11.23301616412277
 31
0.0
  0
LINE
  5
FE93D
330
2
100
AcDbEntity
  8
L-TYUSIN
100
AcDbLine
 10
211.4343384026694
 20
24.74803402008456
 30
0.0
 11
211.4343384026694
 21
44.6061000034374
 31
0.0
  0
LINE
  5
FE93E
330
2
100
AcDbEntity
  8
L-TYUSIN
100
AcDbLine
 10
221.3633713943459
 20
34.67706701176075
 30
-0.0000000000000002
 11
201.5053054109929
 21
34.67706701176058
 31
-0.0000000000000002
  0
CIRCLE
  5
FE93F
330
2
100
AcDbEntity
  8
L-ZISSEN
100
AcDbCircle
 10
211.4343384026694
 20
34.67706701176098
 30
0.0
 40
1.100000000000875
  0
POLYLINE
  5
FE940
330
2
100
AcDbEntity
  8
L-ZISSEN
100
AcDb2dPolyline
 66
     1
 10
0.0
 20
0.0
 30
0.0
 70
     1
  0
VERTEX
  5
FE960
330
FE940
100
AcDbEntity
  8
L-ZISSEN
100
AcDbVertex
100
AcDb2dVertex
 10
211.4343384026682
 20
38.71851889608831
 30
0.0
  0
VERTEX
  5
FE961
330
FE940
100
AcDbEntity
  8
L-ZISSEN
100
AcDbVertex
100
AcDb2dVertex
 10
207.9343384026677
 20
36.6977929539243
 30
0.0
  0
VERTEX
  5
FE962
330
FE940
100
AcDbEntity
  8
L-ZISSEN
100
AcDbVertex
100
AcDb2dVertex
 10
207.9343384026677
 20
32.65634106959629
 30
0.0
  0
VERTEX
  5
FE963
330
FE940
100
AcDbEntity
  8
L-ZISSEN
100
AcDbVertex
100
AcDb2dVertex
 10
211.4343384026682
 20
30.63561512743229
 30
0.0
  0
VERTEX
  5
FE964
330
FE940
100
AcDbEntity
  8
L-ZISSEN
100
AcDbVertex
100
AcDb2dVertex
 10
214.9343384026688
 20
32.65634106959629
 30
0.0
  0
VERTEX
  5
FE965
330
FE940
100
AcDbEntity
  8
L-ZISSEN
100
AcDbVertex
100
AcDb2dVertex
 10
214.9343384026688
 20
36.6977929539243
 30
0.0
  0
SEQEND
  5
FE966
330
FE940
100
AcDbEntity
  8
L-ZISSEN
  0
CIRCLE
  5
FE941
330
2
100
AcDbEntity
  8
L-ZISSEN
100
AcDbCircle
 10
211.4343384026694
 20
34.67706701176098
 30
0.0
 40
5.025000000000488
  0
CIRCLE
  5
FE942
330
2
100
AcDbEntity
  8
L-ZISSEN
100
AcDbCircle
 10
211.4343384026694
 20
34.67706701176098
 30
0.0
 40
7.025000000000488
  0
LINE
  5
FE944
330
2
100
AcDbEntity
  8
L-TYUSIN
100
AcDbLine
 10
152.4343384026656
 20
53.76760833956308
 30
0.0
 11
152.4343384026656
 21
39.7176083395621
 31
0.0
  0
LINE
  5
FE946
330
2
100
AcDbEntity
  8
L-TYUSIN
100
AcDbLine
 10
159.4593384026661
 20
46.7426083395627
 30
-0.0000000000000002
 11
145.4093384026651
 21
46.74260833956248
 31
-0.0000000000000002
  0
CIRCLE
  5
FE947
330
2
100
AcDbEntity
  8
L-ZISSEN
100
AcDbCircle
 10
152.4343384026656
 20
46.74260833956259
 30
0.0
 40
1.500000000001023
  0
CIRCLE
  5
FE948
330
2
100
AcDbEntity
  8
L-ZISSEN
100
AcDbCircle
 10
152.4343384026656
 20
46.74260833956259
 30
0.0
 40
3.250000000000227
  0
LINE
  5
FE94A
330
2
100
AcDbEntity
  8
L-TYUSIN
100
AcDbLine
 10
162.363371394342
 20
22.74260833955963
 30
-0.0000000000000002
 11
142.5053054109891
 21
22.74260833955946
 31
-0.0000000000000002
  0
LINE
  5
FE94B
330
2
100
AcDbEntity
  8
L-TYUSIN
100
AcDbLine
 10
152.4343384026656
 20
12.81357534788344
 30
0.0
 11
152.4343384026656
 21
32.67164133123628
 31
0.0
  0
POLYLINE
  5
FE94C
330
2
100
AcDbEntity
  8
L-ZISSEN
100
AcDb2dPolyline
 66
     1
 10
0.0
 20
0.0
 30
0.0
 70
     1
  0
VERTEX
  5
FE967
330
FE94C
100
AcDbEntity
  8
L-ZISSEN
100
AcDbVertex
100
AcDb2dVertex
 10
152.4343384026644
 20
26.78406022388719
 30
0.0
  0
VERTEX
  5
FE968
330
FE94C
100
AcDbEntity
  8
L-ZISSEN
100
AcDbVertex
100
AcDb2dVertex
 10
148.9343384026639
 20
24.76333428172319
 30
0.0
  0
VERTEX
  5
FE969
330
FE94C
100
AcDbEntity
  8
L-ZISSEN
100
AcDbVertex
100
AcDb2dVertex
 10
148.9343384026639
 20
20.72188239739517
 30
0.0
  0
VERTEX
  5
FE96A
330
FE94C
100
AcDbEntity
  8
L-ZISSEN
100
AcDbVertex
100
AcDb2dVertex
 10
152.4343384026644
 20
18.70115645523117
 30
0.0
  0
VERTEX
  5
FE96B
330
FE94C
100
AcDbEntity
  8
L-ZISSEN
100
AcDbVertex
100
AcDb2dVertex
 10
155.9343384026649
 20
20.72188239739517
 30
0.0
  0
VERTEX
  5
FE96C
330
FE94C
100
AcDbEntity
  8
L-ZISSEN
100
AcDbVertex
100
AcDb2dVertex
 10
155.9343384026649
 20
24.76333428172319
 30
0.0
  0
SEQEND
  5
FE96D
330
FE94C
100
AcDbEntity
  8
L-ZISSEN
  0
CIRCLE
  5
FE94D
330
2
100
AcDbEntity
  8
L-ZISSEN
100
AcDbCircle
 10
152.4343384026656
 20
22.74260833955986
 30
0.0
 40
5.025000000000488
  0
CIRCLE
  5
FE94E
330
2
100
AcDbEntity
  8
L-ZISSEN
100
AcDbCircle
 10
152.4343384026656
 20
22.74260833955986
 30
0.0
 40
7.025000000000488
  0
CIRCLE
  5
FE94F
330
2
100
AcDbEntity
  8
L-ZISSEN
100
AcDbCircle
 10
152.4343384026656
 20
22.74260833955986
 30
0.0
 40
1.100000000000875
  0
ARC
  5
FE951
330
2
100
AcDbEntity
  8
L-ZISSEN
100
AcDbCircle
 10
146.4343384026686
 20
58.24260833954259
 30
0.0
 40
5.0
100
AcDbArc
 50
90.00000000000005
 51
179.9999999999918
  0
ARC
  5
FE952
330
2
100
AcDbEntity
  8
L-ZISSEN
100
AcDbCircle
 10
229.4343384026663
 20
58.24260833954259
 30
0.0
 40
5.0
100
AcDbArc
 50
359.9999999999999
 51
90.0
  0
TEXT
  5
FE953
330
2
100
AcDbEntity
  8
L-ZISSEN
100
AcDbText
 10
276.6049649625802
 20
31.50981341629403
 30
0.0
 40
6.0
  1
SC50458
 41
0.8
100
AcDbText
  0
LINE
  5
FE954
330
2
100
AcDbEntity
  8
L-TYUSIN
100
AcDbLine
 10
157.9343384026646
 20
286.9047717189433
 30
0.0000000000000022
 11
157.9343384026646
 21
301.9047717189433
 31
0.0000000000000022
  0
LINE
  5
FE955
330
2
100
AcDbEntity
  8
L-TYUSIN
100
AcDbLine
 10
217.9343384026646
 20
286.9047717189433
 30
0.0000000000000022
 11
217.9343384026646
 21
301.9047717189433
 31
0.0000000000000022
  0
VIEWPORT
  5
DAFA9
330
8
100
AcDbEntity
 67
     1
  8
0
100
AcDbViewport
 10
5.633789090013352
 20
3.923904439229406
 30
0.0
 40
10.79873663960966
 41
6.348064271874662
 68
     2
 69
     1
1001
ACAD
1000
MVIEW
1002
{
1070
    16
1010
0.0
1020
0.0
1030
0.0
1010
0.0
1020
0.0
1030
1.0
1040
0.0
1040
6.348064271874662
1040
5.633789090013352
1040
3.923904439229406
1040
50.0
1040
0.0
1040
0.0
1070
     0
1070
   100
1070
     1
1070
     1
1070
     1
1070
     0
1070
     0
1070
     0
1040
0.0
1040
0.0
1040
0.0
1040
10.0
1040
10.0
1040
10.0
1040
10.0
1070
     0
1002
{
1002
}
1002
}
  0
VIEWPORT
  5
DAFAB
330
8
100
AcDbEntity
 67
     1
  8
L-SUNPO
100
AcDbViewport
 10
5.633749708415954
 20
3.923749914319497
 30
0.0
 40
9.013999533465527
 41
6.277999862911195
 68
     1
 69
     2
1001
ACAD
1000
MVIEW
1002
{
1070
    16
1010
0.0
1020
0.0
1030
0.0
1010
0.0
1020
0.0
1030
1.0
1040
0.0
1040
2433.508958617355
1040
1889.21330312845
1040
588.764545312568
1040
50.0
1040
0.0
1040
0.0
1070
     0
1070
   100
1070
     1
1070
     0
1070
     0
1070
     1
1070
     0
1070
     0
1040
0.0
1040
0.0
1040
0.0
1040
1.0
1040
1.0
1040
0.0
1040
0.0
1070
     0
1002
{
1002
}
1002
}
  0
ENDSEC
  0
SECTION
  2
OBJECTS
  0
DICTIONARY
  5
1A
330
0
100
AcDbDictionary
  3
ACAD_GROUP
350
18
  3
ACAD_LAYOUT
350
307BA
  3
ACAD_MLINESTYLE
350
19
  3
ACAD_PLOTSETTINGS
350
307BB
1001
ACAD
1000
TREAT_AS_HARD
1070
     0
1000
TREAT_AS_HARD
1070
     0
  0
DICTIONARY
  5
31AB5
330
2
100
AcDbDictionary
  3
ACAD_LAYOUTSELFREF
350
FE95E
1001
ACAD
1000
TREAT_AS_HARD
1070
     1
1000
TREAT_AS_HARD
1070
     1
  0
DICTIONARY
  5
31AB7
330
8
100
AcDbDictionary
  3
ACAD_LAYOUTSELFREF
350
FE95F
1001
ACAD
1000
TREAT_AS_HARD
1070
     1
1000
TREAT_AS_HARD
1070
     1
  0
DICTIONARY
  5
18
102
{ACAD_REACTORS
330
1A
102
}
330
1A
100
AcDbDictionary
1001
ACAD
1000
TREAT_AS_HARD
1070
     0
1000
TREAT_AS_HARD
1070
     0
  0
DICTIONARY
  5
307BA
102
{ACAD_REACTORS
330
1A
102
}
330
1A
100
AcDbDictionary
1001
ACAD
1000
TREAT_AS_HARD
1070
     0
1000
TREAT_AS_HARD
1070
     0
  0
DICTIONARY
  5
19
102
{ACAD_REACTORS
330
1A
102
}
330
1A
100
AcDbDictionary
  3
STANDARD
350
1C
1001
ACAD
1000
TREAT_AS_HARD
1070
     0
1000
TREAT_AS_HARD
1070
     0
  0
DICTIONARY
  5
307BB
102
{ACAD_REACTORS
330
1A
102
}
330
1A
100
AcDbDictionary
1001
ACAD
1000
TREAT_AS_HARD
1070
     0
1000
TREAT_AS_HARD
1070
     0
  0
XRECORD
  5
FE95E
102
{ACAD_REACTORS
330
31AB5
102
}
330
31AB5
100
AcDbXrecord
340
2
  0
XRECORD
  5
FE95F
102
{ACAD_REACTORS
330
31AB7
102
}
330
31AB7
100
AcDbXrecord
340
8
  0
MLINESTYLE
  5
1C
102
{ACAD_REACTORS
330
19
102
}
330
19
100
AcDbMlineStyle
  2
STANDARD
 70
     0
  3

 62
     0
 51
90.0
 52
90.0
 71
     2
 49
0.5
 62
   256
  6
BYLAYER
 49
-0.5
 62
   256
  6
BYLAYER
  0
ENDSEC
  0
EOF
