  0
SECTION
  2
HEADER
  9
$ACADVER
  1
AC1014
  9
$ACADMAINTVER
 70
     9
  9
$DWGCODEPAGE
  3
ANSI_932
  9
$INSBASE
 10
150.3039159999999
 20
159.56471
 30
0.0
  9
$EXTMIN
 10
26.459958
 20
-68.14215400000001
 30
0.0
  9
$EXTMAX
 10
598.1886829999999
 20
245.4482829999999
 30
0.0
  9
$LIMMIN
 10
0.0
 20
0.0
  9
$LIMMAX
 10
12.0
 20
9.0
  9
$ORTHOMODE
 70
     1
  9
$REGENMODE
 70
     1
  9
$FILLMODE
 70
     1
  9
$QTEXTMODE
 70
     0
  9
$MIRRTEXT
 70
     1
  9
$DRAGMODE
 70
     2
  9
$LTSCALE
 40
1.0
  9
$OSMODE
 70
    37
  9
$ATTMODE
 70
     1
  9
$TEXTSIZE
 40
4.5
  9
$TRACEWID
 40
0.05
  9
$TEXTSTYLE
  7
STANDARD
  9
$CLAYER
  8
L-ZISSEN
  9
$CELTYPE
  6
BYLAYER
  9
$CECOLOR
 62
   256
  9
$CELTSCALE
 40
1.0
  9
$DELOBJ
 70
     1
  9
$DISPSILH
 70
     0
  9
$DIMSCALE
 40
1.0
  9
$DIMASZ
 40
2.0
  9
$DIMEXO
 40
0.0625
  9
$DIMDLI
 40
0.38
  9
$DIMRND
 40
0.0
  9
$DIMDLE
 40
0.0
  9
$DIMEXE
 40
0.18
  9
$DIMTP
 40
0.0
  9
$DIMTM
 40
0.0
  9
$DIMTXT
 40
4.5
  9
$DIMCEN
 40
0.09
  9
$DIMTSZ
 40
0.0
  9
$DIMTOL
 70
     0
  9
$DIMLIM
 70
     0
  9
$DIMTIH
 70
     1
  9
$DIMTOH
 70
     1
  9
$DIMSE1
 70
     0
  9
$DIMSE2
 70
     0
  9
$DIMTAD
 70
     0
  9
$DIMZIN
 70
     0
  9
$DIMBLK
  1

  9
$DIMASO
 70
     0
  9
$DIMSHO
 70
     0
  9
$DIMPOST
  1

  9
$DIMAPOST
  1

  9
$DIMALT
 70
     0
  9
$DIMALTD
 70
     2
  9
$DIMALTF
 40
25.4
  9
$DIMLFAC
 40
1.0
  9
$DIMTOFL
 70
     0
  9
$DIMTVP
 40
0.0
  9
$DIMTIX
 70
     0
  9
$DIMSOXD
 70
     0
  9
$DIMSAH
 70
     0
  9
$DIMBLK1
  1

  9
$DIMBLK2
  1

  9
$DIMSTYLE
  2
STANDARD
  9
$DIMCLRD
 70
     0
  9
$DIMCLRE
 70
     0
  9
$DIMCLRT
 70
     0
  9
$DIMTFAC
 40
1.0
  9
$DIMGAP
 40
0.09
  9
$DIMJUST
 70
     0
  9
$DIMSD1
 70
     0
  9
$DIMSD2
 70
     0
  9
$DIMTOLJ
 70
     1
  9
$DIMTZIN
 70
     0
  9
$DIMALTZ
 70
     0
  9
$DIMALTTZ
 70
     0
  9
$DIMFIT
 70
     3
  9
$DIMUPT
 70
     0
  9
$DIMUNIT
 70
     2
  9
$DIMDEC
 70
     4
  9
$DIMTDEC
 70
     4
  9
$DIMALTU
 70
     2
  9
$DIMALTTD
 70
     2
  9
$DIMTXSTY
  7
STANDARD
  9
$DIMAUNIT
 70
     0
  9
$LUNITS
 70
     2
  9
$LUPREC
 70
     4
  9
$SKETCHINC
 40
0.1
  9
$FILLETRAD
 40
0.0
  9
$AUNITS
 70
     0
  9
$AUPREC
 70
     0
  9
$MENU
  1
acad
  9
$ELEVATION
 40
0.0
  9
$PELEVATION
 40
0.0
  9
$THICKNESS
 40
0.0
  9
$LIMCHECK
 70
     0
  9
$BLIPMODE
 70
     0
  9
$CHAMFERA
 40
0.0
  9
$CHAMFERB
 40
0.0
  9
$CHAMFERC
 40
0.0
  9
$CHAMFERD
 40
0.0
  9
$SKPOLY
 70
     0
  9
$TDCREATE
 40
2449015.935195486
  9
$TDUPDATE
 40
2452594.435280671
  9
$TDINDWG
 40
0.0129449074
  9
$TDUSRTIMER
 40
0.0129449074
  9
$USRTIMER
 70
     1
  9
$ANGBASE
 50
0.0
  9
$ANGDIR
 70
     0
  9
$PDMODE
 70
     0
  9
$PDSIZE
 40
0.0
  9
$PLINEWID
 40
0.0
  9
$COORDS
 70
     0
  9
$SPLFRAME
 70
     0
  9
$SPLINETYPE
 70
     6
  9
$SPLINESEGS
 70
     8
  9
$ATTDIA
 70
     0
  9
$ATTREQ
 70
     1
  9
$HANDLING
 70
-16383
  9
$HANDSEED
  5
1AC
  9
$SURFTAB1
 70
     6
  9
$SURFTAB2
 70
     6
  9
$SURFTYPE
 70
     6
  9
$SURFU
 70
     6
  9
$SURFV
 70
     6
  9
$UCSNAME
  2

  9
$UCSORG
 10
0.0
 20
0.0
 30
0.0
  9
$UCSXDIR
 10
1.0
 20
0.0
 30
0.0
  9
$UCSYDIR
 10
0.0
 20
1.0
 30
0.0
  9
$PUCSNAME
  2

  9
$PUCSORG
 10
0.0
 20
0.0
 30
0.0
  9
$PUCSXDIR
 10
1.0
 20
0.0
 30
0.0
  9
$PUCSYDIR
 10
0.0
 20
1.0
 30
0.0
  9
$USERI1
 70
     0
  9
$USERI2
 70
     0
  9
$USERI3
 70
     0
  9
$USERI4
 70
     0
  9
$USERI5
 70
     0
  9
$USERR1
 40
0.0
  9
$USERR2
 40
0.0
  9
$USERR3
 40
0.0
  9
$USERR4
 40
0.0
  9
$USERR5
 40
0.0
  9
$WORLDVIEW
 70
     1
  9
$SHADEDGE
 70
     3
  9
$SHADEDIF
 70
    70
  9
$TILEMODE
 70
     1
  9
$MAXACTVP
 70
    48
  9
$PINSBASE
 10
0.0
 20
0.0
 30
0.0
  9
$PLIMCHECK
 70
     0
  9
$PEXTMIN
 10
1.000000000000000E+20
 20
1.000000000000000E+20
 30
1.000000000000000E+20
  9
$PEXTMAX
 10
-1.000000000000000E+20
 20
-1.000000000000000E+20
 30
-1.000000000000000E+20
  9
$PLIMMIN
 10
0.0
 20
0.0
  9
$PLIMMAX
 10
12.0
 20
9.0
  9
$UNITMODE
 70
     0
  9
$VISRETAIN
 70
     1
  9
$PLINEGEN
 70
     0
  9
$PSLTSCALE
 70
     1
  9
$TREEDEPTH
 70
  3020
  9
$PICKSTYLE
 70
     0
  9
$CMLSTYLE
  2
STANDARD
  9
$CMLJUST
 70
     0
  9
$CMLSCALE
 40
1.0
  9
$PROXYGRAPHICS
 70
     1
  9
$MEASUREMENT
 70
     0
  0
ENDSEC
  0
SECTION
  2
CLASSES
  0
CLASS
  1
ACDBDICTIONARYWDFLT
  2
AcDbDictionaryWithDefault
  3
AutoCAD 2000
 90
        0
280
     0
281
     0
  0
CLASS
  1
ACDBPLACEHOLDER
  2
AcDbPlaceHolder
  3
AutoCAD 2000
 90
        0
280
     0
281
     0
  0
CLASS
  1
LAYOUT
  2
AcDbLayout
  3
AutoCAD 2000
 90
        0
280
     0
281
     0
  0
CLASS
  1
LONG_TRANSACTION
  2
AcDbLongTransaction
  3
AutoCAD 2000
 90
        0
280
     0
281
     0
  0
CLASS
  1
LWPOLYLINE
  2
AcDbPolyline
  3
AutoCAD 2000
 90
        0
280
     0
281
     1
  0
CLASS
  1
HATCH
  2
AcDbHatch
  3
AutoCAD 2000
 90
        0
280
     0
281
     1
  0
CLASS
  1
XRECORD
  2
AcDbXrecord
  3
AutoCAD 2000
 90
        0
280
     0
281
     0
  0
ENDSEC
  0
SECTION
  2
TABLES
  0
TABLE
  2
VPORT
  5
8
330
0
100
AcDbSymbolTable
 70
     2
  0
VPORT
  5
187
330
8
100
AcDbSymbolTableRecord
100
AcDbViewportTableRecord
  2
*ACTIVE
 70
     0
 10
0.0
 20
0.0
 11
1.0
 21
1.0
 12
359.6564176757913
 22
74.47108224288894
 13
0.0
 23
0.0
 14
5.0
 24
5.0
 15
0.0
 25
0.0
 16
0.0
 26
0.0
 36
1.0
 17
0.0
 27
0.0
 37
0.0
 40
415.4384172416465
 41
1.84990253411306
 42
50.0
 43
0.0
 44
0.0
 50
0.0
 51
0.0
 71
     0
 72
   100
 73
     1
 74
     0
 75
     0
 76
     0
 77
     0
 78
     0
  0
ENDTAB
  0
TABLE
  2
LTYPE
  5
5
330
0
100
AcDbSymbolTable
 70
     2
  0
LTYPE
  5
12
330
5
100
AcDbSymbolTableRecord
100
AcDbLinetypeTableRecord
  2
BYBLOCK
 70
     0
  3

 72
    65
 73
     0
 40
0.0
  0
LTYPE
  5
13
330
5
100
AcDbSymbolTableRecord
100
AcDbLinetypeTableRecord
  2
BYLAYER
 70
     0
  3

 72
    65
 73
     0
 40
0.0
  0
LTYPE
  5
14
330
5
100
AcDbSymbolTableRecord
100
AcDbLinetypeTableRecord
  2
CONTINUOUS
 70
     0
  3
Solid line
 72
    65
 73
     0
 40
0.0
  0
LTYPE
  5
20
330
5
100
AcDbSymbolTableRecord
100
AcDbLinetypeTableRecord
  2
CENTER
 70
     0
  3
____ _ ____ _ ____ _ ____ _ ____ _ ____
 72
    65
 73
     4
 40
21.49999999999999
 49
15.0
 74
     0
 49
-2.5
 74
     0
 49
1.5
 74
     0
 49
-2.5
 74
     0
  0
ENDTAB
  0
TABLE
  2
LAYER
  5
2
330
0
100
AcDbSymbolTable
 70
     3
  0
LAYER
  5
E
330
2
100
AcDbSymbolTableRecord
100
AcDbLayerTableRecord
  2
0
 70
     0
 62
     7
  6
CONTINUOUS
  0
LAYER
  5
1F
330
2
100
AcDbSymbolTableRecord
100
AcDbLayerTableRecord
  2
L-ZISSEN
 70
     0
 62
     7
  6
CONTINUOUS
  0
LAYER
  5
21
330
2
100
AcDbSymbolTableRecord
100
AcDbLayerTableRecord
  2
L-TYUSIN
 70
     0
 62
     1
  6
CENTER
  0
ENDTAB
  0
TABLE
  2
STYLE
  5
3
330
0
100
AcDbSymbolTable
 70
     1
  0
STYLE
  5
F
330
3
100
AcDbSymbolTableRecord
100
AcDbTextStyleTableRecord
  2
STANDARD
 70
     0
 40
0.0
 41
1.0
 50
0.0
 71
     0
 42
4.5
  3
txt
  4

  0
ENDTAB
  0
TABLE
  2
VIEW
  5
6
330
0
100
AcDbSymbolTable
 70
     0
  0
ENDTAB
  0
TABLE
  2
UCS
  5
7
330
0
100
AcDbSymbolTable
 70
     0
  0
ENDTAB
  0
TABLE
  2
APPID
  5
9
330
0
100
AcDbSymbolTable
 70
     1
  0
APPID
  5
10
330
9
100
AcDbSymbolTableRecord
100
AcDbRegAppTableRecord
  2
ACAD
 70
     0
  0
ENDTAB
  0
TABLE
  2
DIMSTYLE
  5
A
330
0
100
AcDbSymbolTable
 70
     1
  0
DIMSTYLE
105
11B
330
A
100
AcDbSymbolTableRecord
100
AcDbDimStyleTableRecord
  2
STANDARD
 70
     0
  3

  4

  5

  6

  7

 40
1.0
 41
0.18
 42
0.0625
 43
0.38
 44
0.18
 45
0.0
 46
0.0
 47
0.0
 48
0.0
140
0.18
141
0.09
142
0.0
143
25.4
144
1.0
145
0.0
146
1.0
147
0.09
 71
     0
 72
     0
 73
     1
 74
     1
 75
     0
 76
     0
 77
     0
 78
     0
170
     0
171
     2
172
     0
173
     0
174
     0
175
     0
176
     0
177
     0
178
     0
270
     2
271
     4
272
     4
273
     2
274
     2
340
F
275
     0
280
     0
281
     0
282
     0
283
     1
284
     0
285
     0
286
     0
287
     3
288
     0
  0
ENDTAB
  0
TABLE
  2
BLOCK_RECORD
  5
1
330
0
100
AcDbSymbolTable
 70
     0
  0
BLOCK_RECORD
  5
18
102
{ACAD_XDICTIONARY
360
1AA
102
}
330
1
100
AcDbSymbolTableRecord
100
AcDbBlockTableRecord
  2
*MODEL_SPACE
  0
BLOCK_RECORD
  5
15
102
{ACAD_XDICTIONARY
360
1A8
102
}
330
1
100
AcDbSymbolTableRecord
100
AcDbBlockTableRecord
  2
*PAPER_SPACE
  0
ENDTAB
  0
ENDSEC
  0
SECTION
  2
BLOCKS
  0
BLOCK
  5
19
330
18
100
AcDbEntity
  8
0
100
AcDbBlockBegin
  2
*MODEL_SPACE
 70
     0
 10
0.0
 20
0.0
 30
0.0
  3
*MODEL_SPACE
  1

  0
ENDBLK
  5
1A
330
18
100
AcDbEntity
  8
0
100
AcDbBlockEnd
  0
BLOCK
  5
16
330
15
100
AcDbEntity
 67
     1
  8
0
100
AcDbBlockBegin
  2
*PAPER_SPACE
 70
     0
 10
0.0
 20
0.0
 30
0.0
  3
*PAPER_SPACE
  1

  0
ENDBLK
  5
17
330
15
100
AcDbEntity
 67
     1
  8
0
100
AcDbBlockEnd
  0
ENDSEC
  0
SECTION
  2
ENTITIES
  0
LINE
  5
22
330
18
100
AcDbEntity
  8
L-ZISSEN
100
AcDbLine
 10
210.303916
 20
159.56471
 30
0.0
 11
130.3039159999999
 21
159.56471
 31
0.0
  0
LINE
  5
23
330
18
100
AcDbEntity
  8
L-ZISSEN
  6
CONTINUOUS
 62
     7
100
AcDbLine
 10
130.3039159999999
 20
178.56471
 30
0.0
 11
210.303916
 21
178.56471
 31
0.0
  0
LINE
  5
24
330
18
100
AcDbEntity
  8
L-ZISSEN
  6
CONTINUOUS
 62
     7
100
AcDbLine
 10
170.0539159999999
 20
182.76471
 30
0.0
 11
130.5539159999999
 21
182.76471
 31
0.0
  0
LINE
  5
25
330
18
100
AcDbEntity
  8
L-ZISSEN
  6
CONTINUOUS
 62
     7
100
AcDbLine
 10
131.5539159999999
 20
182.76471
 30
0.0
 11
132.8632119999999
 21
232.76471
 31
0.0
  0
LINE
  5
26
330
18
100
AcDbEntity
  8
L-ZISSEN
  6
CONTINUOUS
 62
     7
100
AcDbLine
 10
132.8632119999999
 20
232.76471
 30
0.0
 11
167.74462
 21
232.76471
 31
0.0
  0
LINE
  5
27
330
18
100
AcDbEntity
  8
L-ZISSEN
100
AcDbLine
 10
130.3039159999999
 20
126.56471
 30
0.0
 11
210.303916
 21
126.56471
 31
0.0
  0
CIRCLE
  5
28
330
18
100
AcDbEntity
  8
L-ZISSEN
  6
CONTINUOUS
 62
     7
100
AcDbCircle
 10
142.3039159999999
 20
151.56471
 30
0.0
 40
4.849999999999999
  0
LINE
  5
29
330
18
100
AcDbEntity
  8
L-TYUSIN
  6
CENTER
 62
     1
100
AcDbLine
 10
150.3039159999999
 20
118.591704
 30
0.0
 11
150.3039159999999
 21
238.0
 31
0.0
  0
LINE
  5
2A
330
18
100
AcDbEntity
  8
L-ZISSEN
100
AcDbLine
 10
130.3039159999999
 20
178.56471
 30
0.0
 11
130.3039159999999
 21
126.56471
 31
0.0
  0
LINE
  5
2B
330
18
100
AcDbEntity
  8
L-ZISSEN
100
AcDbLine
 10
170.3039159999999
 20
126.56471
 30
0.0
 11
170.3039159999999
 21
178.56471
 31
0.0
  0
LINE
  5
33
330
18
100
AcDbEntity
  8
L-ZISSEN
  6
CONTINUOUS
 62
     7
100
AcDbLine
 10
118.3039159999999
 20
175.56471
 30
0.0
 11
118.3039159999999
 21
147.56471
 31
0.0
  0
CIRCLE
  5
34
330
18
100
AcDbEntity
  8
L-ZISSEN
  6
CONTINUOUS
 62
     7
100
AcDbCircle
 10
122.3039159999999
 20
170.56471
 30
0.0
 40
2.799999999999999
  0
LINE
  5
35
330
18
100
AcDbEntity
  8
L-TYUSIN
  6
CENTER
 62
     1
100
AcDbLine
 10
122.3039159999999
 20
167.41471
 30
0.0
 11
122.3039159999999
 21
173.71471
 31
0.0
  0
LINE
  5
36
330
18
100
AcDbEntity
  8
L-TYUSIN
  6
CENTER
 62
     1
100
AcDbLine
 10
119.153916
 20
170.56471
 30
0.0
 11
125.4539159999999
 21
170.56471
 31
0.0
  0
LINE
  5
37
330
18
100
AcDbEntity
  8
L-TYUSIN
  6
CENTER
 62
     1
100
AcDbLine
 10
119.153916
 20
152.56471
 30
0.0
 11
125.4539159999999
 21
152.56471
 31
0.0
  0
CIRCLE
  5
38
330
18
100
AcDbEntity
  8
L-ZISSEN
  6
CONTINUOUS
 62
     7
100
AcDbCircle
 10
122.3039159999999
 20
152.56471
 30
0.0
 40
2.799999999999999
  0
LINE
  5
39
330
18
100
AcDbEntity
  8
L-TYUSIN
  6
CENTER
 62
     1
100
AcDbLine
 10
122.3039159999999
 20
149.41471
 30
0.0
 11
122.3039159999999
 21
155.7147099999999
 31
0.0
  0
LINE
  5
3A
330
18
100
AcDbEntity
  8
L-ZISSEN
  6
CONTINUOUS
 62
     7
100
AcDbLine
 10
118.3039159999999
 20
147.56471
 30
0.0
 11
130.3039159999999
 21
147.56471
 31
0.0
  0
LINE
  5
3C
330
18
100
AcDbEntity
  8
L-ZISSEN
  6
CONTINUOUS
 62
     7
100
AcDbLine
 10
130.8039159999999
 20
121.5647099999999
 30
0.0
 11
130.8039159999999
 21
126.56471
 31
0.0
  0
LINE
  5
3D
330
18
100
AcDbEntity
  8
L-ZISSEN
  6
CONTINUOUS
 62
     7
100
AcDbLine
 10
137.8039159999999
 20
121.5647099999999
 30
0.0
 11
130.8039159999999
 21
121.5647099999999
 31
0.0
  0
LINE
  5
3E
330
18
100
AcDbEntity
  8
L-ZISSEN
  6
CONTINUOUS
 62
     7
100
AcDbLine
 10
137.8039159999999
 20
121.5647099999999
 30
0.0
 11
137.8039159999999
 21
126.56471
 31
0.0
  0
LINE
  5
3F
330
18
100
AcDbEntity
  8
L-ZISSEN
  6
CONTINUOUS
 62
     7
100
AcDbLine
 10
162.8039159999999
 20
121.5647099999999
 30
0.0
 11
162.8039159999999
 21
126.56471
 31
0.0
  0
LINE
  5
40
330
18
100
AcDbEntity
  8
L-ZISSEN
  6
CONTINUOUS
 62
     7
100
AcDbLine
 10
169.8039159999999
 20
121.5647099999999
 30
0.0
 11
169.8039159999999
 21
126.56471
 31
0.0
  0
LINE
  5
41
330
18
100
AcDbEntity
  8
L-ZISSEN
  6
CONTINUOUS
 62
     7
100
AcDbLine
 10
162.8039159999999
 20
121.5647099999999
 30
0.0
 11
169.8039159999999
 21
121.5647099999999
 31
0.0
  0
CIRCLE
  5
42
330
18
100
AcDbEntity
  8
L-ZISSEN
  6
CONTINUOUS
 62
     7
100
AcDbCircle
 10
160.3039159999999
 20
134.56471
 30
0.0
 40
2.5
  0
LINE
  5
43
330
18
100
AcDbEntity
  8
L-ZISSEN
  6
CONTINUOUS
 62
     7
100
AcDbLine
 10
393.8212939999999
 20
232.76471
 30
0.0
 11
314.44372
 21
232.76471
 31
0.0
  0
LINE
  5
44
330
18
100
AcDbEntity
  8
L-TYUSIN
  6
CENTER
 62
     1
100
AcDbLine
 10
350.132507
 20
118.591704
 30
0.0
 11
350.132507
 21
238.0
 31
0.0
  0
LINE
  5
45
330
18
100
AcDbEntity
  8
L-ZISSEN
  6
CONTINUOUS
 62
     7
100
AcDbLine
 10
312.300248
 20
208.2647099999999
 30
0.0
 11
314.44372
 21
232.76471
 31
0.0
  0
LINE
  5
46
330
18
100
AcDbEntity
  8
L-ZISSEN
  6
CONTINUOUS
 62
     7
100
AcDbLine
 10
395.9647659999999
 20
208.2647099999999
 30
0.0
 11
393.8212939999999
 21
232.76471
 31
0.0
  0
LINE
  5
47
330
18
100
AcDbEntity
  8
L-ZISSEN
  6
CONTINUOUS
 62
     7
100
AcDbLine
 10
396.6325069999999
 20
182.76471
 30
0.0
 11
395.9647659999999
 21
208.2647099999999
 31
0.0
  0
LINE
  5
48
330
18
100
AcDbEntity
  8
L-ZISSEN
  6
CONTINUOUS
 62
     7
100
AcDbLine
 10
311.6325069999999
 20
182.76471
 30
0.0
 11
312.300248
 21
208.2647099999999
 31
0.0
  0
LINE
  5
49
330
18
100
AcDbEntity
  8
L-ZISSEN
  6
CONTINUOUS
 62
     7
100
AcDbLine
 10
310.632507
 20
182.76471
 30
0.0
 11
397.6325069999999
 21
182.76471
 31
0.0
  0
LINE
  5
4A
330
18
100
AcDbEntity
  8
L-ZISSEN
  6
CONTINUOUS
 62
     7
100
AcDbLine
 10
310.632507
 20
178.56471
 30
0.0
 11
310.632507
 21
182.76471
 31
0.0
  0
LINE
  5
4B
330
18
100
AcDbEntity
  8
L-ZISSEN
  6
CONTINUOUS
 62
     7
100
AcDbLine
 10
397.6325069999999
 20
182.76471
 30
0.0
 11
397.6325069999999
 21
178.56471
 31
0.0
  0
LINE
  5
4C
330
18
100
AcDbEntity
  8
L-ZISSEN
  6
CONTINUOUS
 62
     7
100
AcDbLine
 10
401.032507
 20
147.41471
 30
0.0
 11
401.032507
 21
175.56471
 31
0.0
  0
LINE
  5
4D
330
18
100
AcDbEntity
  8
L-ZISSEN
  6
CONTINUOUS
 62
     7
100
AcDbLine
 10
402.6325069999999
 20
175.56471
 30
0.0
 11
402.6325069999999
 21
147.41471
 31
0.0
  0
LINE
  5
4E
330
18
100
AcDbEntity
  8
L-ZISSEN
  6
CONTINUOUS
 62
     7
100
AcDbLine
 10
402.6325069999999
 20
147.41471
 30
0.0
 11
390.6325069999999
 21
147.41471
 31
0.0
  0
LINE
  5
4F
330
18
100
AcDbEntity
  8
L-ZISSEN
  6
CONTINUOUS
 62
     7
100
AcDbLine
 10
390.6325069999999
 20
147.41471
 30
0.0
 11
362.632507
 21
160.41471
 31
0.0
  0
LINE
  5
50
330
18
100
AcDbEntity
  8
L-ZISSEN
  6
CONTINUOUS
 62
     7
100
AcDbLine
 10
367.1325069999999
 20
178.56471
 30
0.0
 11
367.1325069999999
 21
175.56471
 31
0.0
  0
LINE
  5
51
330
18
100
AcDbEntity
  8
L-ZISSEN
  6
CONTINUOUS
 62
     7
100
AcDbLine
 10
394.1325069999999
 20
125.56471
 30
0.0
 11
367.1325069999999
 21
125.56471
 31
0.0
  0
LINE
  5
52
330
18
100
AcDbEntity
  8
L-ZISSEN
  6
CONTINUOUS
 62
     7
100
AcDbLine
 10
394.1325069999999
 20
178.56471
 30
0.0
 11
394.1325069999999
 21
175.56471
 31
0.0
  0
LINE
  5
53
330
18
100
AcDbEntity
  8
L-ZISSEN
  6
CONTINUOUS
 62
     7
100
AcDbLine
 10
355.1325069999999
 20
121.5647099999999
 30
0.0
 11
362.1325069999999
 21
121.5647099999999
 31
0.0
  0
LINE
  5
54
330
18
100
AcDbEntity
  8
L-ZISSEN
  6
CONTINUOUS
 62
     7
100
AcDbLine
 10
362.1325069999999
 20
121.5647099999999
 30
0.0
 11
362.1325069999999
 21
126.56471
 31
0.0
  0
LINE
  5
55
330
18
100
AcDbEntity
  8
L-ZISSEN
  6
CONTINUOUS
 62
     7
100
AcDbLine
 10
355.1325069999999
 20
121.5647099999999
 30
0.0
 11
355.1325069999999
 21
126.56471
 31
0.0
  0
LINE
  5
56
330
18
100
AcDbEntity
  8
L-ZISSEN
  6
CONTINUOUS
 62
     7
100
AcDbLine
 10
322.6325069999999
 20
126.56471
 30
0.0
 11
362.632507
 21
126.56471
 31
0.0
  0
LINE
  5
57
330
18
100
AcDbEntity
  8
L-ZISSEN
  6
CONTINUOUS
 62
     7
100
AcDbLine
 10
362.632507
 20
178.56471
 30
0.0
 11
362.632507
 21
175.56471
 31
0.0
  0
LINE
  5
58
330
18
100
AcDbEntity
  8
L-ZISSEN
  6
CONTINUOUS
 62
     7
100
AcDbLine
 10
330.1325069999999
 20
121.5647099999999
 30
0.0
 11
330.1325069999999
 21
126.56471
 31
0.0
  0
LINE
  5
59
330
18
100
AcDbEntity
  8
L-ZISSEN
  6
CONTINUOUS
 62
     7
100
AcDbLine
 10
330.1325069999999
 20
121.5647099999999
 30
0.0
 11
323.132507
 21
121.5647099999999
 31
0.0
  0
LINE
  5
5A
330
18
100
AcDbEntity
  8
L-ZISSEN
  6
CONTINUOUS
 62
     7
100
AcDbLine
 10
323.132507
 20
121.5647099999999
 30
0.0
 11
323.132507
 21
126.56471
 31
0.0
  0
LINE
  5
5B
330
18
100
AcDbEntity
  8
L-ZISSEN
  6
CONTINUOUS
 62
     7
100
AcDbLine
 10
322.6325069999999
 20
138.56471
 30
0.0
 11
318.6325069999999
 21
138.56471
 31
0.0
  0
LINE
  5
5C
330
18
100
AcDbEntity
  8
L-ZISSEN
  6
CONTINUOUS
 62
     7
100
AcDbLine
 10
318.6325069999999
 20
136.56471
 30
0.0
 11
315.159982
 21
136.56471
 31
0.0
  0
LINE
  5
5D
330
18
100
AcDbEntity
  8
L-ZISSEN
  6
CONTINUOUS
 62
     7
100
AcDbLine
 10
315.159982
 20
132.56471
 30
0.0
 11
315.159982
 21
136.56471
 31
0.0
  0
LINE
  5
5E
330
18
100
AcDbEntity
  8
L-ZISSEN
  6
CONTINUOUS
 62
     7
100
AcDbLine
 10
318.6325069999999
 20
132.56471
 30
0.0
 11
315.159982
 21
132.56471
 31
0.0
  0
LINE
  5
5F
330
18
100
AcDbEntity
  8
L-ZISSEN
  6
CONTINUOUS
 62
     7
100
AcDbLine
 10
322.6325069999999
 20
130.56471
 30
0.0
 11
318.6325069999999
 21
130.56471
 31
0.0
  0
LINE
  5
60
330
18
100
AcDbEntity
  8
L-ZISSEN
  6
CONTINUOUS
 62
     7
100
AcDbLine
 10
322.6325069999999
 20
178.56471
 30
0.0
 11
322.6325069999999
 21
126.56471
 31
0.0
  0
LINE
  5
61
330
18
100
AcDbEntity
  8
L-ZISSEN
  6
CONTINUOUS
 62
     7
100
AcDbLine
 10
322.6325069999999
 20
159.56471
 30
0.0
 11
362.632507
 21
159.56471
 31
0.0
  0
LINE
  5
62
330
18
100
AcDbEntity
  8
L-ZISSEN
  6
CONTINUOUS
 62
     7
100
AcDbLine
 10
327.6325069999999
 20
175.56471
 30
0.0
 11
327.6325069999999
 21
160.41471
 31
0.0
  0
CIRCLE
  5
63
330
18
100
AcDbEntity
  8
L-ZISSEN
  6
CONTINUOUS
 62
     7
100
AcDbCircle
 10
333.632507
 20
167.56471
 30
0.0
 40
3.5
  0
LINE
  5
64
330
18
100
AcDbEntity
  8
L-ZISSEN
  6
CONTINUOUS
 62
     7
100
AcDbLine
 10
327.6325069999999
 20
160.41471
 30
0.0
 11
362.632507
 21
160.41471
 31
0.0
  0
CIRCLE
  5
65
330
18
100
AcDbEntity
  8
L-ZISSEN
  6
CONTINUOUS
 62
     7
100
AcDbCircle
 10
351.6325069999999
 20
167.56471
 30
0.0
 40
3.5
  0
LINE
  5
66
330
18
100
AcDbEntity
  8
L-ZISSEN
  6
CONTINUOUS
 62
     7
100
AcDbLine
 10
515.7395280000001
 20
170.56471
 30
0.0
 11
539.739528
 21
170.56471
 31
0.0
  0
LINE
  5
67
330
18
100
AcDbEntity
  8
L-ZISSEN
  6
CONTINUOUS
 62
     7
100
AcDbLine
 10
515.7395280000001
 20
132.56471
 30
0.0
 11
515.7395280000001
 21
170.56471
 31
0.0
  0
LINE
  5
68
330
18
100
AcDbEntity
  8
L-ZISSEN
  6
CONTINUOUS
 62
     7
100
AcDbLine
 10
169.0539159999999
 20
182.76471
 30
0.0
 11
167.74462
 21
232.76471
 31
0.0
  0
LINE
  5
69
330
18
100
AcDbEntity
  8
L-ZISSEN
  6
CONTINUOUS
 62
     7
100
AcDbLine
 10
157.9945149999999
 20
138.56471
 30
0.0
 11
155.685114
 21
134.56471
 31
0.0
  0
LINE
  5
6A
330
18
100
AcDbEntity
  8
L-ZISSEN
  6
CONTINUOUS
 62
     7
100
AcDbLine
 10
155.685114
 20
134.56471
 30
0.0
 11
157.9945149999999
 21
130.56471
 31
0.0
  0
LINE
  5
6B
330
18
100
AcDbEntity
  8
L-ZISSEN
  6
CONTINUOUS
 62
     7
100
AcDbLine
 10
157.9945149999999
 20
130.56471
 30
0.0
 11
162.6133169999999
 21
130.56471
 31
0.0
  0
LINE
  5
6C
330
18
100
AcDbEntity
  8
L-ZISSEN
  6
CONTINUOUS
 62
     7
100
AcDbLine
 10
162.6133169999999
 20
130.56471
 30
0.0
 11
164.922718
 21
134.56471
 31
0.0
  0
LINE
  5
6D
330
18
100
AcDbEntity
  8
L-ZISSEN
  6
CONTINUOUS
 62
     7
100
AcDbLine
 10
164.922718
 20
134.56471
 30
0.0
 11
162.6133169999999
 21
138.56471
 31
0.0
  0
LINE
  5
6E
330
18
100
AcDbEntity
  8
L-ZISSEN
  6
CONTINUOUS
 62
     7
100
AcDbLine
 10
162.6133169999999
 20
138.56471
 30
0.0
 11
157.9945149999999
 21
138.56471
 31
0.0
  0
LINE
  5
6F
330
18
100
AcDbEntity
  8
L-ZISSEN
100
AcDbLine
 10
130.5539159999999
 20
182.76471
 30
0.0
 11
130.5539159999999
 21
178.56471
 31
0.0
  0
LINE
  5
70
330
18
100
AcDbEntity
  8
L-ZISSEN
100
AcDbLine
 10
170.0539159999999
 20
182.76471
 30
0.0
 11
170.0539159999999
 21
178.56471
 31
0.0
  0
LINE
  5
71
330
18
100
AcDbEntity
  8
L-ZISSEN
100
AcDbLine
 10
310.632507
 20
178.56471
 30
0.0
 11
397.6325069999999
 21
178.56471
 31
0.0
  0
LINE
  5
72
330
18
100
AcDbEntity
  8
L-ZISSEN
100
AcDbLine
 10
318.6325069999999
 20
138.56471
 30
0.0
 11
318.6325069999999
 21
130.56471
 31
0.0
  0
LINE
  5
73
330
18
100
AcDbEntity
  8
L-TYUSIN
  6
CENTER
 62
     1
100
AcDbLine
 10
150.3039159999999
 20
-39.81510399999999
 30
0.0
 11
150.3039159999999
 21
64.13528199999999
 31
0.0
  0
LINE
  5
74
330
18
100
AcDbEntity
  8
L-ZISSEN
100
AcDbLine
 10
130.3039159999999
 20
-0.339911
 30
0.0
 11
210.3039159999999
 21
-0.339911
 31
0.0
  0
LINE
  5
75
330
18
100
AcDbEntity
  8
L-ZISSEN
100
AcDbLine
 10
130.3039159999999
 20
52.660089
 30
0.0
 11
130.3039159999999
 21
-40.339911
 31
0.0
  0
LINE
  5
76
330
18
100
AcDbEntity
  8
L-ZISSEN
100
AcDbLine
 10
170.3039159999999
 20
-34.33991099999999
 30
0.0
 11
170.3039159999999
 21
52.660089
 31
0.0
  0
LINE
  5
77
330
18
100
AcDbEntity
  8
L-ZISSEN
100
AcDbLine
 10
210.3039159999999
 20
39.660089
 30
0.0
 11
130.3039159999999
 21
39.660089
 31
0.0
  0
LINE
  5
79
330
18
100
AcDbEntity
  8
L-ZISSEN
100
AcDbLine
 10
210.3039159999999
 20
52.660089
 30
0.0
 11
130.3039159999999
 21
52.660089
 31
0.0
  0
LINE
  5
7A
330
18
100
AcDbEntity
  8
L-ZISSEN
100
AcDbLine
 10
210.3039159999999
 20
-34.339911
 30
0.0
 11
130.3039159999999
 21
-34.339911
 31
0.0
  0
CIRCLE
  5
7B
330
18
100
AcDbEntity
  8
L-ZISSEN
100
AcDbCircle
 10
142.3039159999999
 20
24.660089
 30
0.0
 40
4.863999999999999
  0
CIRCLE
  5
7C
330
18
100
AcDbEntity
  8
L-ZISSEN
100
AcDbCircle
 10
134.3039159999999
 20
35.66008899999999
 30
0.0
 40
3.5
  0
CIRCLE
  5
7D
330
18
100
AcDbEntity
  8
L-ZISSEN
100
AcDbCircle
 10
166.3039159999999
 20
35.66008899999999
 30
0.0
 40
3.5
  0
CIRCLE
  5
7E
330
18
100
AcDbEntity
  8
L-ZISSEN
100
AcDbCircle
 10
134.3039159999999
 20
3.660089
 30
0.0
 40
3.5
  0
CIRCLE
  5
7F
330
18
100
AcDbEntity
  8
L-ZISSEN
100
AcDbCircle
 10
166.3039159999999
 20
3.660089
 30
0.0
 40
3.5
  0
LINE
  5
80
330
18
100
AcDbEntity
  8
L-ZISSEN
100
AcDbLine
 10
144.712033
 20
-5.839910999999999
 30
0.0
 11
136.8039159999999
 21
-13.748028
 31
0.0
  0
LINE
  5
81
330
18
100
AcDbEntity
  8
L-ZISSEN
100
AcDbLine
 10
136.8039159999999
 20
-13.748028
 30
0.0
 11
136.8039159999999
 21
-24.931794
 31
0.0
  0
LINE
  5
82
330
18
100
AcDbEntity
  8
L-ZISSEN
100
AcDbLine
 10
136.8039159999999
 20
-24.931794
 30
0.0
 11
144.712033
 21
-32.839911
 31
0.0
  0
LINE
  5
83
330
18
100
AcDbEntity
  8
L-ZISSEN
100
AcDbLine
 10
144.712033
 20
-32.839911
 30
0.0
 11
155.895799
 21
-32.839911
 31
0.0
  0
LINE
  5
84
330
18
100
AcDbEntity
  8
L-ZISSEN
100
AcDbLine
 10
155.895799
 20
-32.839911
 30
0.0
 11
163.8039159999999
 21
-24.931794
 31
0.0
  0
LINE
  5
85
330
18
100
AcDbEntity
  8
L-ZISSEN
100
AcDbLine
 10
163.8039159999999
 20
-24.931794
 30
0.0
 11
163.8039159999999
 21
-13.748028
 31
0.0
  0
LINE
  5
86
330
18
100
AcDbEntity
  8
L-ZISSEN
100
AcDbLine
 10
163.8039159999999
 20
-13.748028
 30
0.0
 11
155.895799
 21
-5.839910999999999
 31
0.0
  0
LINE
  5
87
330
18
100
AcDbEntity
  8
L-ZISSEN
100
AcDbLine
 10
155.895799
 20
-5.839910999999999
 30
0.0
 11
144.712033
 21
-5.839910999999999
 31
0.0
  0
LINE
  5
8D
330
18
100
AcDbEntity
  8
L-ZISSEN
100
AcDbLine
 10
128.7039159999999
 20
34.660089
 30
0.0
 11
128.7039159999999
 21
-38.73991099999999
 31
0.0
  0
LINE
  5
8E
330
18
100
AcDbEntity
  8
L-ZISSEN
100
AcDbLine
 10
128.7039159999999
 20
-38.73991099999999
 30
0.0
 11
118.3039159999999
 21
-38.73991099999999
 31
0.0
  0
LINE
  5
8F
330
18
100
AcDbEntity
  8
L-ZISSEN
100
AcDbLine
 10
130.3039159999999
 20
-40.339911
 30
0.0
 11
118.3039159999999
 21
-40.339911
 31
0.0
  0
LINE
  5
90
330
18
100
AcDbEntity
  8
L-ZISSEN
100
AcDbLine
 10
118.3039159999999
 20
-40.339911
 30
0.0
 11
118.3039159999999
 21
-38.73991099999999
 31
0.0
  0
LINE
  5
91
330
18
100
AcDbEntity
  8
L-ZISSEN
100
AcDbLine
 10
130.3039159999999
 20
34.660089
 30
0.0
 11
128.7039159999999
 21
34.660089
 31
0.0
  0
LINE
  5
92
330
18
100
AcDbEntity
  8
L-TYUSIN
  6
CENTER
 62
     1
100
AcDbLine
 10
122.3039159999999
 20
-42.38797
 30
0.0
 11
122.3039159999999
 21
-36.08797
 31
0.0
  0
LINE
  5
94
330
18
100
AcDbEntity
  8
L-TYUSIN
  6
CENTER
 62
     1
100
AcDbLine
 10
136.847666
 20
24.660089
 30
0.0
 11
147.7601659999999
 21
24.660089
 31
0.0
  0
LINE
  5
95
330
18
100
AcDbEntity
  8
L-TYUSIN
  6
CENTER
 62
     1
100
AcDbLine
 10
142.3039159999999
 20
19.203839
 30
0.0
 11
142.3039159999999
 21
30.116339
 31
0.0
  0
CIRCLE
  5
96
330
18
100
AcDbEntity
  8
L-ZISSEN
100
AcDbCircle
 10
350.132507
 20
148.56471
 30
0.0
 40
4.863999999999999
  0
LINE
  5
97
330
18
100
AcDbEntity
  8
L-TYUSIN
  6
CENTER
 62
     1
100
AcDbLine
 10
344.6762569999999
 20
148.56471
 30
0.0
 11
355.5887569999999
 21
148.56471
 31
0.0
  0
CIRCLE
  5
98
330
18
100
AcDbEntity
  8
L-ZISSEN
100
AcDbCircle
 10
350.132507
 20
134.56471
 30
0.0
 40
2.75
  0
LINE
  5
99
330
18
100
AcDbEntity
  8
L-ZISSEN
100
AcDbLine
 10
158.2831899999999
 20
34.160089
 30
0.0
 11
156.2624639999999
 21
30.660089
 31
0.0
  0
LINE
  5
9A
330
18
100
AcDbEntity
  8
L-ZISSEN
100
AcDbLine
 10
156.2624639999999
 20
30.660089
 30
0.0
 11
158.2831899999999
 21
27.160089
 31
0.0
  0
LINE
  5
9B
330
18
100
AcDbEntity
  8
L-ZISSEN
100
AcDbLine
 10
158.2831899999999
 20
27.160089
 30
0.0
 11
162.3246419999999
 21
27.160089
 31
0.0
  0
LINE
  5
9C
330
18
100
AcDbEntity
  8
L-ZISSEN
100
AcDbLine
 10
162.3246419999999
 20
27.160089
 30
0.0
 11
164.345368
 21
30.660089
 31
0.0
  0
LINE
  5
9D
330
18
100
AcDbEntity
  8
L-ZISSEN
100
AcDbLine
 10
164.345368
 20
30.660089
 30
0.0
 11
162.3246419999999
 21
34.160089
 31
0.0
  0
LINE
  5
9E
330
18
100
AcDbEntity
  8
L-ZISSEN
100
AcDbLine
 10
162.3246419999999
 20
34.160089
 30
0.0
 11
158.2831899999999
 21
34.160089
 31
0.0
  0
LINE
  5
A0
330
18
100
AcDbEntity
  8
L-ZISSEN
100
AcDbLine
 10
128.7039159999999
 20
147.56471
 30
0.0
 11
128.7039159999999
 21
175.56471
 31
0.0
  0
TEXT
  5
A1
330
18
100
AcDbEntity
  8
L-ZISSEN
100
AcDbText
 10
134.0183909999999
 20
13.26100799999999
 30
0.0
 40
4.5
  1
OUT
100
AcDbText
  0
TEXT
  5
A2
330
18
100
AcDbEntity
  8
L-ZISSEN
100
AcDbText
 10
336.064772
 20
142.250911
 30
0.0
 40
4.5
  1
IN
100
AcDbText
  0
LINE
  5
A3
330
18
100
AcDbEntity
  8
L-TYUSIN
  6
CENTER
 62
     1
100
AcDbLine
 10
404.558406
 20
170.56471
 30
0.0
 11
398.2584059999999
 21
170.56471
 31
0.0
  0
LINE
  5
A4
330
18
100
AcDbEntity
  8
L-TYUSIN
  6
CENTER
 62
     1
100
AcDbLine
 10
404.558406
 20
152.56471
 30
0.0
 11
398.2584059999999
 21
152.56471
 31
0.0
  0
LINE
  5
A5
330
18
100
AcDbEntity
  8
L-ZISSEN
  6
CONTINUOUS
 62
     7
100
AcDbLine
 10
515.7395280000001
 20
132.56471
 30
0.0
 11
539.739528
 21
132.56471
 31
0.0
  0
LINE
  5
A6
330
18
100
AcDbEntity
  8
L-ZISSEN
100
AcDbLine
 10
539.739528
 20
170.56471
 30
0.0
 11
539.739528
 21
132.56471
 31
0.0
  0
LINE
  5
A7
330
18
100
AcDbEntity
  8
L-ZISSEN
100
AcDbLine
 10
539.739528
 20
156.42871
 30
0.0
 11
550.739528
 21
156.42871
 31
0.0
  0
SOLID
  5
A8
330
18
100
AcDbEntity
  8
L-ZISSEN
100
AcDbTrace
 10
321.287059
 20
153.0815749999999
 30
0.0
 11
320.867829
 21
152.5632199999999
 31
0.0
 12
322.6325069999999
 22
151.56471
 32
0.0
 13
322.6325069999999
 23
151.56471
 33
0.0
  0
LINE
  5
A9
330
18
100
AcDbEntity
  8
L-ZISSEN
100
AcDbLine
 10
321.077444
 20
152.8223979999999
 30
0.0
 11
285.584163
 21
181.528284
 31
0.0
  0
LINE
  5
AA
330
18
100
AcDbEntity
  8
L-ZISSEN
100
AcDbLine
 10
285.584163
 20
181.528284
 30
0.0
 11
283.584163
 21
181.528284
 31
0.0
  0
TEXT
  5
AB
330
18
100
AcDbEntity
  8
L-ZISSEN
100
AcDbText
 10
272.584163
 20
179.278284
 30
0.0
 40
4.5
  1
P.P
100
AcDbText
  0
SOLID
  5
AC
330
18
100
AcDbEntity
  8
L-ZISSEN
100
AcDbTrace
 10
552.3290179999999
 20
152.823531
 30
0.0
 11
551.834833
 21
153.2709969999999
 31
0.0
 12
550.739528
 22
151.56471
 32
0.0
 13
550.739528
 23
151.56471
 33
0.0
  0
LINE
  5
AD
330
18
100
AcDbEntity
  8
L-ZISSEN
100
AcDbLine
 10
552.0819259999999
 20
153.0472639999999
 30
0.0
 11
571.9593049999999
 21
175.0
 31
0.0
  0
LINE
  5
AE
330
18
100
AcDbEntity
  8
L-ZISSEN
100
AcDbLine
 10
571.9593049999999
 20
175.0
 30
0.0
 11
573.9593049999999
 21
175.0
 31
0.0
  0
TEXT
  5
AF
330
18
100
AcDbEntity
  8
L-ZISSEN
100
AcDbText
 10
575.9593049999999
 20
172.75
 30
0.0
 40
4.5
  1
P.P
100
AcDbText
  0
LINE
  5
B0
330
18
100
AcDbEntity
  8
L-ZISSEN
100
AcDbLine
 10
539.739528
 20
146.70071
 30
0.0
 11
550.739528
 21
146.70071
 31
0.0
  0
CIRCLE
  5
B1
330
18
100
AcDbEntity
  8
L-ZISSEN
100
AcDbCircle
 10
475.567289
 20
151.56471
 30
0.0
 40
19.0
  0
LINE
  5
B2
330
18
100
AcDbEntity
  8
L-ZISSEN
100
AcDbLine
 10
479.102823
 20
155.1002439999999
 30
0.0
 11
464.960688
 21
140.958108
 31
0.0
  0
SOLID
  5
B3
330
18
100
AcDbEntity
  8
L-ZISSEN
100
AcDbTrace
 10
141.521732
 20
153.435351
 30
0.0
 11
140.9573169999999
 21
153.080554
 31
0.0
 12
142.3039159999999
 22
151.56471
 32
0.0
 13
142.3039159999999
 23
151.56471
 33
0.0
  0
LINE
  5
B4
330
18
100
AcDbEntity
  8
L-ZISSEN
100
AcDbLine
 10
141.2395239999999
 20
153.2579519999999
 30
0.0
 11
115.0
 21
195.0
 31
0.0
  0
LINE
  5
B5
330
18
100
AcDbEntity
  8
L-ZISSEN
100
AcDbLine
 10
115.0
 20
195.0
 30
0.0
 11
113.0
 21
195.0
 31
0.0
  0
TEXT
  5
B6
330
18
100
AcDbEntity
  8
L-ZISSEN
100
AcDbText
 10
102.0
 20
192.75
 30
0.0
 40
4.5
  1
P.P
100
AcDbText
  0
SOLID
  5
B7
330
18
100
AcDbEntity
  8
L-ZISSEN
100
AcDbTrace
 10
474.4779379999999
 20
153.274805
 30
0.0
 11
473.982197
 21
152.8290639999999
 31
0.0
 12
475.567289
 22
151.56471
 32
0.0
 13
475.567289
 23
151.56471
 33
0.0
  0
LINE
  5
B8
330
18
100
AcDbEntity
  8
L-ZISSEN
100
AcDbLine
 10
474.230067
 20
153.051934
 30
0.0
 11
450.0
 21
180.0
 31
0.0
  0
LINE
  5
B9
330
18
100
AcDbEntity
  8
L-ZISSEN
100
AcDbLine
 10
450.0
 20
180.0
 30
0.0
 11
448.0
 21
180.0
 31
0.0
  0
TEXT
  5
BA
330
18
100
AcDbEntity
  8
L-ZISSEN
100
AcDbText
 10
437.0
 20
177.75
 30
0.0
 40
4.5
  1
P.P
100
AcDbText
  0
SOLID
  5
BB
330
18
100
AcDbEntity
  8
L-ZISSEN
100
AcDbTrace
 10
148.926733
 20
41.148201
 30
0.0
 11
148.5185439999999
 21
40.621109
 31
0.0
 12
150.3039159999999
 22
39.660089
 32
0.0
 13
150.3039159999999
 23
39.660089
 33
0.0
  0
LINE
  5
BC
330
18
100
AcDbEntity
  8
L-ZISSEN
100
AcDbLine
 10
148.7226389999999
 20
40.884655
 30
0.0
 11
115.0
 21
67.0
 31
0.0
  0
LINE
  5
BD
330
18
100
AcDbEntity
  8
L-ZISSEN
100
AcDbLine
 10
115.0
 20
67.0
 30
0.0
 11
113.0
 21
67.0
 31
0.0
  0
TEXT
  5
BE
330
18
100
AcDbEntity
  8
L-ZISSEN
100
AcDbText
 10
102.0
 20
64.75
 30
0.0
 40
4.5
  1
P.P
100
AcDbText
  0
LINE
  5
BF
330
18
100
AcDbEntity
  8
L-TYUSIN
  6
CENTER
 62
     1
100
AcDbLine
 10
115.4462623483542
 20
148.56471
 30
0.0
 11
225.1615696516457
 21
148.56471
 31
0.0
  0
LINE
  5
C0
330
18
100
AcDbEntity
  8
L-ZISSEN
100
AcDbLine
 10
158.303916
 20
116.56471
 30
0.0
 11
162.3039159999999
 21
116.56471
 31
0.0
  0
LINE
  5
C1
330
18
100
AcDbEntity
  8
L-ZISSEN
100
AcDbLine
 10
162.3039159999999
 20
116.56471
 30
0.0
 11
162.3039159999999
 21
124.06471
 31
0.0
  0
LINE
  5
C2
330
18
100
AcDbEntity
  8
L-ZISSEN
100
AcDbLine
 10
158.303916
 20
116.56471
 30
0.0
 11
158.303916
 21
124.06471
 31
0.0
  0
LINE
  5
C3
330
18
100
AcDbEntity
  8
L-ZISSEN
100
AcDbLine
 10
156.2624639999999
 20
124.06471
 30
0.0
 11
156.2624639999999
 21
126.56471
 31
0.0
  0
LINE
  5
C4
330
18
100
AcDbEntity
  8
L-ZISSEN
100
AcDbLine
 10
156.2624639999999
 20
124.06471
 30
0.0
 11
162.8039159999999
 21
124.06471
 31
0.0
  0
LINE
  5
C5
330
18
100
AcDbEntity
  8
L-ZISSEN
100
AcDbLine
 10
330.1325069999999
 20
124.06471
 30
0.0
 11
335.6739589999999
 21
124.06471
 31
0.0
  0
LINE
  5
C6
330
18
100
AcDbEntity
  8
L-ZISSEN
100
AcDbLine
 10
329.6325069999999
 20
116.56471
 30
0.0
 11
329.6325069999999
 21
121.5647099999999
 31
0.0
  0
LINE
  5
C7
330
18
100
AcDbEntity
  8
L-ZISSEN
100
AcDbLine
 10
333.632507
 20
116.56471
 30
0.0
 11
333.632507
 21
124.06471
 31
0.0
  0
LINE
  5
C8
330
18
100
AcDbEntity
  8
L-ZISSEN
100
AcDbLine
 10
329.6325069999999
 20
116.56471
 30
0.0
 11
333.632507
 21
116.56471
 31
0.0
  0
LINE
  5
C9
330
18
100
AcDbEntity
  8
L-ZISSEN
100
AcDbLine
 10
335.6739589999999
 20
124.06471
 30
0.0
 11
335.6739589999999
 21
126.56471
 31
0.0
  0
TEXT
  5
CA
330
18
100
AcDbEntity
  8
L-ZISSEN
100
AcDbText
 10
26.459958
 20
225.3309269999999
 30
0.0
 40
4.5
  1
MODEL NO.
100
AcDbText
  0
TEXT
  5
CB
330
18
100
AcDbEntity
  8
L-ZISSEN
100
AcDbText
 10
30.523575
 20
215.4074329999999
 30
0.0
 40
4.5
  1
S51-120-**0*
100
AcDbText
  0
LINE
  5
CC
330
18
100
AcDbEntity
  8
L-TYUSIN
100
AcDbLine
 10
421.799515
 20
245.4482829999999
 30
0.0
 11
421.799515
 21
-67.42914899999999
 31
0.0
  0
LINE
  5
CD
330
18
100
AcDbEntity
  8
L-TYUSIN
100
AcDbLine
 10
421.799515
 20
119.6171419999999
 30
0.0
 11
598.1886829999999
 21
119.6171419999999
 31
0.0
  0
TEXT
  5
CE
330
18
100
AcDbEntity
  8
L-ZISSEN
100
AcDbText
 10
432.011519
 20
196.702886
 30
0.0
 40
4.5
  1
GAUGE
100
AcDbText
  0
LINE
  5
CF
330
18
100
AcDbEntity
  8
L-ZISSEN
100
AcDbLine
 10
445.9761519999999
 20
58.37413399999999
 30
0.0
 11
445.9761519999999
 21
52.374134
 31
0.0
  0
LINE
  5
D0
330
18
100
AcDbEntity
  8
L-ZISSEN
100
AcDbLine
 10
445.9761519999999
 20
52.374134
 30
0.0
 11
475.998366
 21
52.374134
 31
0.0
  0
LINE
  5
D1
330
18
100
AcDbEntity
  8
L-ZISSEN
100
AcDbLine
 10
450.9872589999999
 20
47.374134
 30
0.0
 11
473.487259
 21
47.374134
 31
0.0
  0
LINE
  5
D2
330
18
100
AcDbEntity
  8
L-ZISSEN
100
AcDbLine
 10
445.9761519999999
 20
52.374134
 30
0.0
 11
450.9872589999999
 21
47.374134
 31
0.0
  0
LINE
  5
D3
330
18
100
AcDbEntity
  8
L-ZISSEN
100
AcDbLine
 10
469.987259
 20
26.37413399999999
 30
0.0
 11
453.9872589999999
 21
26.37413399999999
 31
0.0
  0
LINE
  5
D4
330
18
100
AcDbEntity
  8
L-ZISSEN
100
AcDbLine
 10
450.9872589999999
 20
47.374134
 30
0.0
 11
453.9872589999999
 21
26.37413399999999
 31
0.0
  0
LINE
  5
D5
330
18
100
AcDbEntity
  8
L-ZISSEN
100
AcDbLine
 10
465.487259
 20
26.37413399999999
 30
0.0
 11
465.487259
 21
21.37413399999999
 31
0.0
  0
LINE
  5
D6
330
18
100
AcDbEntity
  8
L-ZISSEN
100
AcDbLine
 10
456.487259
 20
21.37413399999999
 30
0.0
 11
456.487259
 21
26.37413399999999
 31
0.0
  0
LINE
  5
D7
330
18
100
AcDbEntity
  8
L-ZISSEN
100
AcDbLine
 10
465.487259
 20
21.37413399999999
 30
0.0
 11
456.487259
 21
21.37413399999999
 31
0.0
  0
LINE
  5
D8
330
18
100
AcDbEntity
  8
L-ZISSEN
100
AcDbLine
 10
475.998366
 20
52.374134
 30
0.0
 11
470.9872589999999
 21
47.374134
 31
0.0
  0
LINE
  5
D9
330
18
100
AcDbEntity
  8
L-ZISSEN
100
AcDbLine
 10
475.998366
 20
58.37413399999999
 30
0.0
 11
475.998366
 21
52.374134
 31
0.0
  0
ARC
  5
DA
330
18
100
AcDbEntity
  8
L-ZISSEN
100
AcDbCircle
 10
460.987259
 20
-17.09789599999999
 30
0.0
 40
9.5
100
AcDbArc
 50
90.0
 51
270.0
  0
LINE
  5
DB
330
18
100
AcDbEntity
  8
L-ZISSEN
100
AcDbLine
 10
473.487259
 20
-26.59789599999999
 30
0.0
 11
473.487259
 21
-7.597895999999991
 31
0.0
  0
LINE
  5
DC
330
18
100
AcDbEntity
  8
L-ZISSEN
100
AcDbLine
 10
460.987259
 20
-7.597895999999991
 30
0.0
 11
473.487259
 21
-7.597895999999991
 31
0.0
  0
LINE
  5
DD
330
18
100
AcDbEntity
  8
L-ZISSEN
100
AcDbLine
 10
460.987259
 20
-26.59789599999999
 30
0.0
 11
473.487259
 21
-26.59789599999999
 31
0.0
  0
LINE
  5
DE
330
18
100
AcDbEntity
  8
L-ZISSEN
100
AcDbLine
 10
473.487259
 20
47.374134
 30
0.0
 11
469.987259
 21
26.37413399999999
 31
0.0
  0
LINE
  5
DF
330
18
100
AcDbEntity
  8
L-ZISSEN
100
AcDbLine
 10
453.481705
 20
-4.097895999999991
 30
0.0
 11
445.9761519999999
 21
-17.09789599999999
 31
0.0
  0
LINE
  5
E0
330
18
100
AcDbEntity
  8
L-ZISSEN
100
AcDbLine
 10
445.9761519999999
 20
-17.09789599999999
 30
0.0
 11
453.481705
 21
-30.09789599999999
 31
0.0
  0
LINE
  5
E1
330
18
100
AcDbEntity
  8
L-ZISSEN
100
AcDbLine
 10
453.481705
 20
-30.09789599999999
 30
0.0
 11
468.492812
 21
-30.09789599999999
 31
0.0
  0
LINE
  5
E2
330
18
100
AcDbEntity
  8
L-ZISSEN
100
AcDbLine
 10
468.492812
 20
-30.09789599999999
 30
0.0
 11
470.5135379999999
 21
-26.59789599999999
 31
0.0
  0
LINE
  5
E3
330
18
100
AcDbEntity
  8
L-ZISSEN
100
AcDbLine
 10
475.998366
 20
-17.09789599999999
 30
0.0
 11
473.487259
 21
-12.74853100000001
 31
0.0
  0
LINE
  5
E4
330
18
100
AcDbEntity
  8
L-ZISSEN
100
AcDbLine
 10
468.492812
 20
-4.097895999999991
 30
0.0
 11
453.481705
 21
-4.097895999999991
 31
0.0
  0
LINE
  5
E5
330
18
100
AcDbEntity
  8
L-ZISSEN
100
AcDbLine
 10
473.487259
 20
-21.44726099999999
 30
0.0
 11
475.998366
 21
-17.09789599999999
 31
0.0
  0
LINE
  5
E6
330
18
100
AcDbEntity
  8
L-ZISSEN
100
AcDbLine
 10
470.5135379999999
 20
-7.597895999999991
 30
0.0
 11
468.492812
 21
-4.097895999999991
 31
0.0
  0
LINE
  5
E7
330
18
100
AcDbEntity
  8
L-ZISSEN
100
AcDbLine
 10
551.5712459999999
 20
-7.597895999999991
 30
0.0
 11
549.55052
 21
-4.097895999999991
 31
0.0
  0
LINE
  5
E8
330
18
100
AcDbEntity
  8
L-ZISSEN
100
AcDbLine
 10
549.55052
 20
-4.097895999999991
 30
0.0
 11
534.5394129999999
 21
-4.097895999999991
 31
0.0
  0
LINE
  5
E9
330
18
100
AcDbEntity
  8
L-ZISSEN
100
AcDbLine
 10
549.55052
 20
-30.09789599999999
 30
0.0
 11
551.5712459999999
 21
-26.59789599999999
 31
0.0
  0
LINE
  5
EA
330
18
100
AcDbEntity
  8
L-ZISSEN
100
AcDbLine
 10
534.5394129999999
 20
-30.09789599999999
 30
0.0
 11
549.55052
 21
-30.09789599999999
 31
0.0
  0
LINE
  5
EB
330
18
100
AcDbEntity
  8
L-ZISSEN
100
AcDbLine
 10
527.033859
 20
-17.09789599999999
 30
0.0
 11
534.5394129999999
 21
-30.09789599999999
 31
0.0
  0
LINE
  5
EC
330
18
100
AcDbEntity
  8
L-ZISSEN
100
AcDbLine
 10
534.5394129999999
 20
-4.097895999999991
 30
0.0
 11
527.033859
 21
-17.09789599999999
 31
0.0
  0
LINE
  5
ED
330
18
100
AcDbEntity
  8
L-ZISSEN
100
AcDbLine
 10
557.0560729999999
 20
58.37413399999999
 30
0.0
 11
557.0560729999999
 21
52.374134
 31
0.0
  0
LINE
  5
EE
330
18
100
AcDbEntity
  8
L-ZISSEN
100
AcDbLine
 10
527.033859
 20
52.374134
 30
0.0
 11
557.0560729999999
 21
52.374134
 31
0.0
  0
LINE
  5
EF
330
18
100
AcDbEntity
  8
L-ZISSEN
100
AcDbLine
 10
527.033859
 20
58.37413399999999
 30
0.0
 11
527.033859
 21
52.374134
 31
0.0
  0
LINE
  5
F0
330
18
100
AcDbEntity
  8
L-ZISSEN
100
AcDbLine
 10
532.5449659999999
 20
48.37413399999999
 30
0.0
 11
532.5449659999999
 21
34.374134
 31
0.0
  0
LINE
  5
F1
330
18
100
AcDbEntity
  8
L-ZISSEN
100
AcDbLine
 10
532.5449659999999
 20
48.37413399999999
 30
0.0
 11
527.033859
 21
52.374134
 31
0.0
  0
LINE
  5
F2
330
18
100
AcDbEntity
  8
L-ZISSEN
100
AcDbLine
 10
556.5449659999999
 20
34.374134
 30
0.0
 11
532.5449659999999
 21
34.374134
 31
0.0
  0
ARC
  5
F3
330
18
100
AcDbEntity
  8
L-ZISSEN
100
AcDbCircle
 10
542.0449659999999
 20
-17.09789599999999
 30
0.0
 40
9.5
100
AcDbArc
 50
90.0
 51
270.0
  0
LINE
  5
F4
330
18
100
AcDbEntity
  8
L-ZISSEN
100
AcDbLine
 10
556.5449659999999
 20
-26.59789599999999
 30
0.0
 11
556.5449659999999
 21
-7.597895999999991
 31
0.0
  0
LINE
  5
F5
330
18
100
AcDbEntity
  8
L-ZISSEN
100
AcDbLine
 10
542.0449659999999
 20
-7.597895999999991
 30
0.0
 11
556.5449659999999
 21
-7.597895999999991
 31
0.0
  0
LINE
  5
F6
330
18
100
AcDbEntity
  8
L-ZISSEN
100
AcDbLine
 10
542.0449659999999
 20
-26.59789599999999
 30
0.0
 11
556.5449659999999
 21
-26.59789599999999
 31
0.0
  0
LINE
  5
F7
330
18
100
AcDbEntity
  8
L-ZISSEN
100
AcDbLine
 10
556.5449659999999
 20
34.374134
 30
0.0
 11
556.5449659999999
 21
48.37413399999999
 31
0.0
  0
LINE
  5
F8
330
18
100
AcDbEntity
  8
L-ZISSEN
100
AcDbLine
 10
551.5449659999999
 20
48.37413399999999
 30
0.0
 11
557.0560729999999
 21
52.374134
 31
0.0
  0
LINE
  5
F9
330
18
100
AcDbEntity
  8
L-ZISSEN
100
AcDbLine
 10
532.5449659999999
 20
48.37413399999999
 30
0.0
 11
556.5449659999999
 21
48.37413399999999
 31
0.0
  0
SOLID
  5
FA
330
18
100
AcDbEntity
  8
L-ZISSEN
100
AcDbTrace
 10
379.282353
 20
124.0520309999999
 30
0.0
 11
379.845933
 21
123.69591
 31
0.0
 12
380.6325069999999
 22
125.56471
 32
0.0
 13
380.6325069999999
 23
125.56471
 33
0.0
  0
LINE
  5
FB
330
18
100
AcDbEntity
  8
L-ZISSEN
100
AcDbLine
 10
379.5641429999999
 20
123.8739709999999
 30
0.0
 11
355.0
 21
85.0
 31
0.0
  0
LINE
  5
FC
330
18
100
AcDbEntity
  8
L-ZISSEN
100
AcDbLine
 10
355.0
 20
85.0
 30
0.0
 11
353.0
 21
85.0
 31
0.0
  0
TEXT
  5
FD
330
18
100
AcDbEntity
  8
L-ZISSEN
100
AcDbText
 10
342.0
 20
82.75
 30
0.0
 40
4.5
  1
P.P
100
AcDbText
  0
SOLID
  5
102
330
18
100
AcDbEntity
  8
L-ZISSEN
100
AcDbTrace
 10
462.420775
 20
59.80805900000001
 30
0.0
 11
461.878231
 21
60.19547399999999
 31
0.0
 12
460.987259
 22
58.37413399999999
 32
0.0
 13
460.987259
 23
58.37413399999999
 33
0.0
  0
LINE
  5
103
330
18
100
AcDbEntity
  8
L-ZISSEN
100
AcDbLine
 10
462.149503
 20
60.001767
 30
0.0
 11
480.0
 21
85.0
 31
0.0
  0
LINE
  5
104
330
18
100
AcDbEntity
  8
L-ZISSEN
100
AcDbLine
 10
480.0
 20
85.0
 30
0.0
 11
482.0
 21
85.0
 31
0.0
  0
TEXT
  5
105
330
18
100
AcDbEntity
  8
L-ZISSEN
100
AcDbText
 10
484.0
 20
82.75
 30
0.0
 40
4.5
  1
P.P
100
AcDbText
  0
SOLID
  5
106
330
18
100
AcDbEntity
  8
L-ZISSEN
100
AcDbTrace
 10
543.6033629999999
 20
59.67124999999999
 30
0.0
 11
543.0984389999999
 21
60.10656199999999
 31
0.0
 12
542.0449659999999
 22
58.37413399999999
 32
0.0
 13
542.0449659999999
 23
58.37413399999999
 33
0.0
  0
LINE
  5
107
330
18
100
AcDbEntity
  8
L-ZISSEN
100
AcDbLine
 10
543.350901
 20
59.88890600000002
 30
0.0
 11
565.0
 21
85.0
 31
0.0
  0
LINE
  5
108
330
18
100
AcDbEntity
  8
L-ZISSEN
100
AcDbLine
 10
565.0
 20
85.0
 30
0.0
 11
567.0
 21
85.0
 31
0.0
  0
TEXT
  5
109
330
18
100
AcDbEntity
  8
L-ZISSEN
100
AcDbText
 10
569.0
 20
82.75
 30
0.0
 40
4.5
  1
P.P
100
AcDbText
  0
SOLID
  5
10A
330
18
100
AcDbEntity
  8
L-ZISSEN
100
AcDbTrace
 10
462.544354
 20
-15.79921799999999
 30
0.0
 11
462.0389939999999
 21
-15.36441300000001
 31
0.0
 12
460.987259
 22
-17.09789599999999
 32
0.0
 13
460.987259
 23
-17.09789599999999
 33
0.0
  0
LINE
  5
10B
330
18
100
AcDbEntity
  8
L-ZISSEN
100
AcDbLine
 10
462.2916739999999
 20
-15.581816
 30
0.0
 11
480.0
 21
5.0
 31
0.0
  0
LINE
  5
10C
330
18
100
AcDbEntity
  8
L-ZISSEN
100
AcDbLine
 10
480.0
 20
5.0
 30
0.0
 11
482.0
 21
5.0
 31
0.0
  0
TEXT
  5
10D
330
18
100
AcDbEntity
  8
L-ZISSEN
100
AcDbText
 10
484.0
 20
2.75
 30
0.0
 40
4.5
  1
P.P
100
AcDbText
  0
SOLID
  5
10E
330
18
100
AcDbEntity
  8
L-ZISSEN
100
AcDbTrace
 10
543.6020619999999
 20
-15.79921799999999
 30
0.0
 11
543.0967019999999
 21
-15.36441300000001
 31
0.0
 12
542.0449659999999
 22
-17.09789599999999
 32
0.0
 13
542.0449659999999
 23
-17.09789599999999
 33
0.0
  0
LINE
  5
10F
330
18
100
AcDbEntity
  8
L-ZISSEN
100
AcDbLine
 10
543.3493820000001
 20
-15.581816
 30
0.0
 11
561.057708
 21
5.0
 31
0.0
  0
TEXT
  5
110
330
18
100
AcDbEntity
  8
L-ZISSEN
100
AcDbText
 10
565.057708
 20
2.75
 30
0.0
 40
4.5
  1
P.P
100
AcDbText
  0
LINE
  5
111
330
18
100
AcDbEntity
  8
L-ZISSEN
100
AcDbLine
 10
561.057708
 20
5.0
 30
0.0
 11
563.0577080000001
 21
5.0
 31
0.0
  0
LINE
  5
112
330
18
100
AcDbEntity
  8
L-TYUSIN
100
AcDbLine
 10
507.5588709999999
 20
119.6171419999999
 30
0.0
 11
507.5588709999999
 21
-68.14215400000001
 31
0.0
  0
TEXT
  5
113
330
18
100
AcDbEntity
  8
L-ZISSEN
100
AcDbText
 10
433.678412
 20
100.1685109999999
 30
0.0
 40
4.5
  1
S51-120-**1*
100
AcDbText
  0
TEXT
  5
114
330
18
100
AcDbEntity
  8
L-ZISSEN
100
AcDbText
 10
521.8938849999999
 20
100.1685109999999
 30
0.0
 40
4.5
  1
S52-220-**2*
100
AcDbText
  0
LINE
  5
116
330
18
100
AcDbEntity
  8
L-ZISSEN
100
AcDbLine
 10
118.3039159999999
 20
175.56471
 30
0.0
 11
130.3039159999999
 21
175.56471
 31
0.0
  0
LINE
  5
117
330
18
100
AcDbEntity
  8
L-ZISSEN
100
AcDbLine
 10
327.6325069999999
 20
175.56471
 30
0.0
 11
402.6325069999999
 21
175.56471
 31
0.0
  0
LINE
  5
118
330
18
100
AcDbEntity
  8
L-ZISSEN
  6
CONTINUOUS
 62
     7
100
AcDbLine
 10
394.1325069999999
 20
147.41471
 30
0.0
 11
394.1325069999999
 21
125.56471
 31
0.0
  0
LINE
  5
119
330
18
100
AcDbEntity
  8
L-ZISSEN
  6
CONTINUOUS
 62
     7
100
AcDbLine
 10
367.1325069999999
 20
158.325424
 30
0.0
 11
367.1325069999999
 21
125.56471
 31
0.0
  0
LINE
  5
11A
330
18
100
AcDbEntity
  8
L-ZISSEN
  6
CONTINUOUS
 62
     7
100
AcDbLine
 10
362.632507
 20
160.41471
 30
0.0
 11
362.632507
 21
126.56471
 31
0.0
  0
LINE
  5
120
330
18
100
AcDbEntity
  8
L-ZISSEN
  6
CONTINUOUS
 62
     7
100
AcDbLine
 10
209.053916
 20
182.76471
 30
0.0
 11
207.7446199999999
 21
232.76471
 31
0.0
  0
LINE
  5
121
330
18
100
AcDbEntity
  8
L-ZISSEN
  6
CONTINUOUS
 62
     7
100
AcDbLine
 10
171.5539159999999
 20
182.76471
 30
0.0
 11
172.863212
 21
232.76471
 31
0.0
  0
LINE
  5
122
330
18
100
AcDbEntity
  8
L-ZISSEN
  6
CONTINUOUS
 62
     7
100
AcDbLine
 10
210.0539159999999
 20
182.76471
 30
0.0
 11
170.5539159999999
 21
182.76471
 31
0.0
  0
LINE
  5
124
330
18
100
AcDbEntity
  8
L-ZISSEN
100
AcDbLine
 10
170.5539159999999
 20
182.76471
 30
0.0
 11
170.5539159999999
 21
178.56471
 31
0.0
  0
LINE
  5
125
330
18
100
AcDbEntity
  8
L-ZISSEN
100
AcDbLine
 10
210.0539159999999
 20
182.76471
 30
0.0
 11
210.0539159999999
 21
178.56471
 31
0.0
  0
LINE
  5
126
330
18
100
AcDbEntity
  8
L-ZISSEN
  6
CONTINUOUS
 62
     7
100
AcDbLine
 10
172.863212
 20
232.76471
 30
0.0
 11
207.7446199999999
 21
232.76471
 31
0.0
  0
LINE
  5
127
330
18
100
AcDbEntity
  8
L-ZISSEN
100
AcDbLine
 10
222.3039159999999
 20
175.56471
 30
0.0
 11
210.3039159999999
 21
175.56471
 31
0.0
  0
LINE
  5
128
330
18
100
AcDbEntity
  8
L-ZISSEN
  6
CONTINUOUS
 62
     7
100
AcDbLine
 10
222.3039159999999
 20
147.56471
 30
0.0
 11
210.3039159999999
 21
147.56471
 31
0.0
  0
LINE
  5
129
330
18
100
AcDbEntity
  8
L-ZISSEN
  6
CONTINUOUS
 62
     7
100
AcDbLine
 10
204.9227179999999
 20
134.56471
 30
0.0
 11
202.613317
 21
138.56471
 31
0.0
  0
LINE
  5
12A
330
18
100
AcDbEntity
  8
L-ZISSEN
  6
CONTINUOUS
 62
     7
100
AcDbLine
 10
197.9945149999999
 20
138.56471
 30
0.0
 11
195.6851139999999
 21
134.56471
 31
0.0
  0
LINE
  5
12B
330
18
100
AcDbEntity
  8
L-ZISSEN
100
AcDbLine
 10
210.3039159999999
 20
126.56471
 30
0.0
 11
210.3039159999999
 21
178.56471
 31
0.0
  0
LINE
  5
12E
330
18
100
AcDbEntity
  8
L-ZISSEN
  6
CONTINUOUS
 62
     7
100
AcDbLine
 10
177.8039159999999
 20
121.5647099999999
 30
0.0
 11
177.8039159999999
 21
126.56471
 31
0.0
  0
LINE
  5
12F
330
18
100
AcDbEntity
  8
L-ZISSEN
  6
CONTINUOUS
 62
     7
100
AcDbLine
 10
170.803916
 20
121.5647099999999
 30
0.0
 11
170.803916
 21
126.56471
 31
0.0
  0
LINE
  5
130
330
18
100
AcDbEntity
  8
L-ZISSEN
  6
CONTINUOUS
 62
     7
100
AcDbLine
 10
177.8039159999999
 20
121.5647099999999
 30
0.0
 11
170.803916
 21
121.5647099999999
 31
0.0
  0
LINE
  5
131
330
18
100
AcDbEntity
  8
L-ZISSEN
100
AcDbLine
 10
196.2624639999999
 20
124.06471
 30
0.0
 11
202.803916
 21
124.06471
 31
0.0
  0
LINE
  5
132
330
18
100
AcDbEntity
  8
L-ZISSEN
100
AcDbLine
 10
198.3039159999999
 20
116.56471
 30
0.0
 11
202.3039159999999
 21
116.56471
 31
0.0
  0
LINE
  5
133
330
18
100
AcDbEntity
  8
L-ZISSEN
  6
CONTINUOUS
 62
     7
100
AcDbLine
 10
197.9945149999999
 20
130.56471
 30
0.0
 11
202.613317
 21
130.56471
 31
0.0
  0
CIRCLE
  5
134
330
18
100
AcDbEntity
  8
L-ZISSEN
  6
CONTINUOUS
 62
     7
100
AcDbCircle
 10
200.3039159999999
 20
134.56471
 30
0.0
 40
2.5
  0
LINE
  5
135
330
18
100
AcDbEntity
  8
L-ZISSEN
100
AcDbLine
 10
196.2624639999999
 20
124.06471
 30
0.0
 11
196.2624639999999
 21
126.56471
 31
0.0
  0
LINE
  5
136
330
18
100
AcDbEntity
  8
L-ZISSEN
100
AcDbLine
 10
198.3039159999999
 20
116.56471
 30
0.0
 11
198.3039159999999
 21
124.06471
 31
0.0
  0
LINE
  5
137
330
18
100
AcDbEntity
  8
L-ZISSEN
  6
CONTINUOUS
 62
     7
100
AcDbLine
 10
195.6851139999999
 20
134.56471
 30
0.0
 11
197.9945149999999
 21
130.56471
 31
0.0
  0
LINE
  5
138
330
18
100
AcDbEntity
  8
L-ZISSEN
  6
CONTINUOUS
 62
     7
100
AcDbLine
 10
209.8039159999999
 20
121.5647099999999
 30
0.0
 11
209.8039159999999
 21
126.56471
 31
0.0
  0
LINE
  5
139
330
18
100
AcDbEntity
  8
L-ZISSEN
  6
CONTINUOUS
 62
     7
100
AcDbLine
 10
202.803916
 20
121.5647099999999
 30
0.0
 11
202.803916
 21
126.56471
 31
0.0
  0
LINE
  5
13A
330
18
100
AcDbEntity
  8
L-ZISSEN
100
AcDbLine
 10
202.3039159999999
 20
116.56471
 30
0.0
 11
202.3039159999999
 21
124.06471
 31
0.0
  0
LINE
  5
13B
330
18
100
AcDbEntity
  8
L-ZISSEN
  6
CONTINUOUS
 62
     7
100
AcDbLine
 10
202.803916
 20
121.5647099999999
 30
0.0
 11
209.8039159999999
 21
121.5647099999999
 31
0.0
  0
LINE
  5
13C
330
18
100
AcDbEntity
  8
L-ZISSEN
  6
CONTINUOUS
 62
     7
100
AcDbLine
 10
202.613317
 20
130.56471
 30
0.0
 11
204.9227179999999
 21
134.56471
 31
0.0
  0
CIRCLE
  5
13D
330
18
100
AcDbEntity
  8
L-ZISSEN
  6
CONTINUOUS
 62
     7
100
AcDbCircle
 10
182.303916
 20
151.56471
 30
0.0
 40
4.849999999999999
  0
LINE
  5
13F
330
18
100
AcDbEntity
  8
L-ZISSEN
100
AcDbLine
 10
211.9039159999999
 20
147.56471
 30
0.0
 11
211.9039159999999
 21
175.56471
 31
0.0
  0
LINE
  5
140
330
18
100
AcDbEntity
  8
L-ZISSEN
  6
CONTINUOUS
 62
     7
100
AcDbLine
 10
202.613317
 20
138.56471
 30
0.0
 11
197.9945149999999
 21
138.56471
 31
0.0
  0
LINE
  5
142
330
18
100
AcDbEntity
  8
L-TYUSIN
  6
CENTER
 62
     1
100
AcDbLine
 10
218.3039159999999
 20
149.41471
 30
0.0
 11
218.3039159999999
 21
155.7147099999999
 31
0.0
  0
CIRCLE
  5
143
330
18
100
AcDbEntity
  8
L-ZISSEN
  6
CONTINUOUS
 62
     7
100
AcDbCircle
 10
218.3039159999999
 20
152.56471
 30
0.0
 40
2.799999999999999
  0
LINE
  5
144
330
18
100
AcDbEntity
  8
L-TYUSIN
  6
CENTER
 62
     1
100
AcDbLine
 10
221.453916
 20
152.56471
 30
0.0
 11
215.153916
 21
152.56471
 31
0.0
  0
LINE
  5
145
330
18
100
AcDbEntity
  8
L-TYUSIN
  6
CENTER
 62
     1
100
AcDbLine
 10
218.3039159999999
 20
167.41471
 30
0.0
 11
218.3039159999999
 21
173.71471
 31
0.0
  0
CIRCLE
  5
146
330
18
100
AcDbEntity
  8
L-ZISSEN
  6
CONTINUOUS
 62
     7
100
AcDbCircle
 10
218.3039159999999
 20
170.56471
 30
0.0
 40
2.799999999999999
  0
LINE
  5
147
330
18
100
AcDbEntity
  8
L-TYUSIN
  6
CENTER
 62
     1
100
AcDbLine
 10
221.453916
 20
170.56471
 30
0.0
 11
215.153916
 21
170.56471
 31
0.0
  0
LINE
  5
148
330
18
100
AcDbEntity
  8
L-ZISSEN
  6
CONTINUOUS
 62
     7
100
AcDbLine
 10
222.3039159999999
 20
175.56471
 30
0.0
 11
222.3039159999999
 21
147.56471
 31
0.0
  0
LINE
  5
149
330
18
100
AcDbEntity
  8
L-TYUSIN
  6
CENTER
 62
     1
100
AcDbLine
 10
190.3039159999999
 20
118.591704
 30
0.0
 11
190.3039159999999
 21
238.0
 31
0.0
  0
SOLID
  5
14C
330
18
100
AcDbEntity
  8
L-ZISSEN
100
AcDbTrace
 10
180.8042235856697
 20
152.9292735835356
 30
0.0
 11
180.4427268782706
 21
152.369126660859
 31
0.0
 12
182.303916
 22
151.56471
 32
0.0
 13
182.303916
 23
151.56471
 33
0.0
  0
LINE
  5
14D
330
18
100
AcDbEntity
  8
L-ZISSEN
100
AcDbLine
 10
180.6234752319701
 20
152.6492001221972
 30
0.0
 11
115.0
 21
195.0
 31
0.0
  0
LINE
  5
14E
330
18
100
AcDbEntity
  8
L-ZISSEN
100
AcDbLine
 10
192.167752
 20
-18.61457399999999
 30
0.0
 11
240.0
 21
0.0000000000000071
 31
0.0
  0
LINE
  5
14F
330
18
100
AcDbEntity
  8
L-ZISSEN
100
AcDbLine
 10
211.9039159999999
 20
34.660089
 30
0.0
 11
211.9039159999999
 21
-38.73991099999999
 31
0.0
  0
LINE
  5
150
330
18
100
AcDbEntity
  8
L-ZISSEN
100
AcDbLine
 10
203.8039159999999
 20
-13.74802799999999
 30
0.0
 11
195.895799
 21
-5.839910999999993
 31
0.0
  0
LINE
  5
151
330
18
100
AcDbEntity
  8
L-ZISSEN
100
AcDbLine
 10
184.712033
 20
-5.839910999999993
 30
0.0
 11
176.8039159999999
 21
-13.74802799999999
 31
0.0
  0
LINE
  5
152
330
18
100
AcDbEntity
  8
L-ZISSEN
100
AcDbLine
 10
210.3039159999999
 20
-40.33991099999999
 30
0.0
 11
210.3039159999999
 21
52.660089
 31
0.0
  0
LINE
  5
154
330
18
100
AcDbEntity
  8
L-TYUSIN
  6
CENTER
 62
     1
100
AcDbLine
 10
190.3039159999999
 20
-39.81510399999999
 30
0.0
 11
190.3039159999999
 21
64.13528199999999
 31
0.0
  0
LINE
  5
155
330
18
100
AcDbEntity
  8
L-ZISSEN
100
AcDbLine
 10
211.9039159999999
 20
-38.73991099999999
 30
0.0
 11
222.3039159999999
 21
-38.73991099999999
 31
0.0
  0
LINE
  5
156
330
18
100
AcDbEntity
  8
L-ZISSEN
100
AcDbLine
 10
210.3039159999999
 20
-40.33991099999999
 30
0.0
 11
222.3039159999999
 21
-40.33991099999999
 31
0.0
  0
LINE
  5
157
330
18
100
AcDbEntity
  8
L-ZISSEN
100
AcDbLine
 10
176.8039159999999
 20
-24.93179399999998
 30
0.0
 11
184.712033
 21
-32.83991099999999
 31
0.0
  0
LINE
  5
159
330
18
100
AcDbEntity
  8
L-ZISSEN
100
AcDbLine
 10
176.8039159999999
 20
-13.74802799999999
 30
0.0
 11
176.8039159999999
 21
-24.93179399999998
 31
0.0
  0
LINE
  5
15A
330
18
100
AcDbEntity
  8
L-TYUSIN
  6
CENTER
 62
     1
100
AcDbLine
 10
218.3039159999999
 20
-42.38796999999999
 30
0.0
 11
218.3039159999999
 21
-36.08796999999999
 31
0.0
  0
LINE
  5
15B
330
18
100
AcDbEntity
  8
L-ZISSEN
100
AcDbLine
 10
195.895799
 20
-32.83991099999999
 30
0.0
 11
203.8039159999999
 21
-24.93179399999998
 31
0.0
  0
LINE
  5
15C
330
18
100
AcDbEntity
  8
L-ZISSEN
100
AcDbLine
 10
184.712033
 20
-32.83991099999999
 30
0.0
 11
195.895799
 21
-32.83991099999999
 31
0.0
  0
SOLID
  5
15D
330
18
100
AcDbEntity
  8
L-ZISSEN
100
AcDbTrace
 10
192.2886419999999
 20
-18.92521299999999
 30
0.0
 11
192.046863
 21
-18.30393399999999
 31
0.0
 12
190.3039159999999
 22
-19.33991099999999
 32
0.0
 13
190.3039159999999
 23
-19.33991099999999
 33
0.0
  0
LINE
  5
15E
330
18
100
AcDbEntity
  8
L-ZISSEN
100
AcDbLine
 10
203.8039159999999
 20
-24.93179399999998
 30
0.0
 11
203.8039159999999
 21
-13.74802799999999
 31
0.0
  0
LINE
  5
15F
330
18
100
AcDbEntity
  8
L-ZISSEN
100
AcDbLine
 10
222.3039159999999
 20
-40.33991099999999
 30
0.0
 11
222.3039159999999
 21
-38.73991099999999
 31
0.0
  0
TEXT
  5
160
330
18
100
AcDbEntity
  8
L-ZISSEN
100
AcDbText
 10
174.0183909999999
 20
13.261008
 30
0.0
 40
4.5
  1
OUT
100
AcDbText
  0
LINE
  5
161
330
18
100
AcDbEntity
  8
L-TYUSIN
  6
CENTER
 62
     1
100
AcDbLine
 10
176.847666
 20
24.66008900000001
 30
0.0
 11
187.760166
 21
24.66008900000001
 31
0.0
  0
CIRCLE
  5
162
330
18
100
AcDbEntity
  8
L-ZISSEN
100
AcDbCircle
 10
182.303916
 20
24.66008900000001
 30
0.0
 40
4.863999999999999
  0
CIRCLE
  5
164
330
18
100
AcDbEntity
  8
L-ZISSEN
100
AcDbCircle
 10
174.3039159999999
 20
3.660089000000006
 30
0.0
 40
3.5
  0
CIRCLE
  5
165
330
18
100
AcDbEntity
  8
L-ZISSEN
100
AcDbCircle
 10
174.3039159999999
 20
35.660089
 30
0.0
 40
3.5
  0
LINE
  5
166
330
18
100
AcDbEntity
  8
L-ZISSEN
100
AcDbLine
 10
195.895799
 20
-5.839910999999993
 30
0.0
 11
184.712033
 21
-5.839910999999993
 31
0.0
  0
CIRCLE
  5
167
330
18
100
AcDbEntity
  8
L-ZISSEN
100
AcDbCircle
 10
206.3039159999999
 20
3.660089000000006
 30
0.0
 40
3.5
  0
LINE
  5
168
330
18
100
AcDbEntity
  8
L-ZISSEN
100
AcDbLine
 10
202.3246419999999
 20
34.160089
 30
0.0
 11
198.2831899999999
 21
34.160089
 31
0.0
  0
LINE
  5
169
330
18
100
AcDbEntity
  8
L-ZISSEN
100
AcDbLine
 10
198.2831899999999
 20
27.16008900000001
 30
0.0
 11
202.3246419999999
 21
27.16008900000001
 31
0.0
  0
LINE
  5
16A
330
18
100
AcDbEntity
  8
L-ZISSEN
100
AcDbLine
 10
196.2624639999999
 20
30.66008900000001
 30
0.0
 11
198.2831899999999
 21
27.16008900000001
 31
0.0
  0
LINE
  5
16B
330
18
100
AcDbEntity
  8
L-TYUSIN
  6
CENTER
 62
     1
100
AcDbLine
 10
182.303916
 20
19.203839
 30
0.0
 11
182.303916
 21
30.116339
 31
0.0
  0
LINE
  5
16C
330
18
100
AcDbEntity
  8
L-ZISSEN
100
AcDbLine
 10
198.2831899999999
 20
34.160089
 30
0.0
 11
196.2624639999999
 21
30.66008900000001
 31
0.0
  0
LINE
  5
16D
330
18
100
AcDbEntity
  8
L-ZISSEN
100
AcDbLine
 10
202.3246419999999
 20
27.16008900000001
 30
0.0
 11
204.345368
 21
30.66008900000001
 31
0.0
  0
LINE
  5
16E
330
18
100
AcDbEntity
  8
L-ZISSEN
100
AcDbLine
 10
210.3039159999999
 20
34.660089
 30
0.0
 11
211.9039159999999
 21
34.660089
 31
0.0
  0
LINE
  5
16F
330
18
100
AcDbEntity
  8
L-ZISSEN
100
AcDbLine
 10
204.345368
 20
30.66008900000001
 30
0.0
 11
202.3246419999999
 21
34.160089
 31
0.0
  0
CIRCLE
  5
170
330
18
100
AcDbEntity
  8
L-ZISSEN
100
AcDbCircle
 10
206.3039159999999
 20
35.660089
 30
0.0
 40
3.5
  0
LINE
  5
174
330
18
100
AcDbEntity
  8
L-ZISSEN
100
AcDbLine
 10
240.0
 20
0.0000000000000071
 30
0.0
 11
242.0
 21
0.0000000000000071
 31
0.0
  0
TEXT
  5
175
330
18
100
AcDbEntity
  8
L-ZISSEN
100
AcDbText
 10
244.0
 20
-2.249999999999992
 30
0.0
 40
4.5
  1
P.P
100
AcDbText
  0
SOLID
  5
176
330
18
100
AcDbEntity
  8
L-ZISSEN
100
AcDbTrace
 10
188.5377370779704
 20
40.65594196429227
 30
0.0
 11
188.3102268691205
 21
40.02929728880744
 31
0.0
 12
190.3039159999999
 22
39.660089
 32
0.0
 13
190.3039159999999
 23
39.660089
 33
0.0
  0
LINE
  5
177
330
18
100
AcDbEntity
  8
L-ZISSEN
100
AcDbLine
 10
188.4239819735455
 20
40.34261962654985
 30
0.0
 11
115.0
 21
67.00000000000001
 31
0.0
  0
SOLID
  5
178
330
18
100
AcDbEntity
  8
L-ZISSEN
100
AcDbTrace
 10
152.3292438096939
 20
-19.2442116040172
 30
0.0
 11
152.1887289888511
 21
-18.59252147092634
 31
0.0
 12
150.3039159999999
 22
-19.33991099999999
 32
0.0
 13
150.3039159999999
 23
-19.33991099999999
 33
0.0
  0
LINE
  5
179
330
18
100
AcDbEntity
  8
L-ZISSEN
100
AcDbLine
 10
152.2589863992725
 20
-18.91836653747177
 30
0.0
 11
240.0
 21
0.0000000000000142
 31
0.0
  0
LINE
  5
17A
330
18
100
AcDbEntity
  8
L-TYUSIN
  6
CENTER
 62
     1
100
AcDbLine
 10
115.4462623483542
 20
12.160089
 30
0.0
 11
225.1615696516457
 21
12.160089
 31
0.0
  0
ENDSEC
  0
SECTION
  2
OBJECTS
  0
DICTIONARY
  5
C
330
0
100
AcDbDictionary
  3
ACAD_GROUP
350
D
  3
ACAD_LAYOUT
350
181
  3
ACAD_MLINESTYLE
350
1B
  3
ACAD_PLOTSETTINGS
350
182
  3
ACAD_PLOTSTYLENAME
350
17F
  3
ACDBHEADERROUNDTRIPXREC
350
188
  0
DICTIONARY
  5
1AA
330
18
100
AcDbDictionary
280
     1
  3
ACAD_LAYOUTSELFREF
360
1AB
  0
DICTIONARY
  5
1A8
330
15
100
AcDbDictionary
280
     1
  3
ACAD_LAYOUTSELFREF
360
1A9
  0
DICTIONARY
  5
D
102
{ACAD_REACTORS
330
C
102
}
330
C
100
AcDbDictionary
  0
DICTIONARY
  5
181
102
{ACAD_REACTORS
330
C
102
}
330
C
100
AcDbDictionary
  0
DICTIONARY
  5
1B
102
{ACAD_REACTORS
330
C
102
}
330
C
100
AcDbDictionary
  3
STANDARD
350
1C
  0
DICTIONARY
  5
182
102
{ACAD_REACTORS
330
C
102
}
330
C
100
AcDbDictionary
  0
ACDBDICTIONARYWDFLT
  5
17F
102
{ACAD_REACTORS
330
C
102
}
330
C
100
AcDbDictionary
281
     1
  3
Normal
350
180
100
AcDbDictionaryWithDefault
340
180
  0
DICTIONARY
  5
188
102
{ACAD_REACTORS
330
C
102
}
330
C
100
AcDbDictionary
  3
CEPSNTYPE
350
192
  3
FINGERPRINTGUID
350
193
  3
HYPERLINKBASE
350
18B
  3
INSUNITS
350
191
  3
LAYOUTDICT
350
18D
  3
LWETCUNION
350
190
  3
PLOTSETDICT
350
18E
  3
PLOTSTYLNAMDICT
350
18F
  3
PSVPSCALE
350
195
  3
PUCSBASE
350
198
  3
PUCSORGBACK
350
19E
  3
PUCSORGBOTTOM
350
19A
  3
PUCSORGFRONT
350
19D
  3
PUCSORGLEFT
350
19B
  3
PUCSORGRIGHT
350
19C
  3
PUCSORGTOP
350
199
  3
PUCSORTHOREF
350
196
  3
PUCSORTHOVIEW
350
197
  3
STYLESHEET
350
18C
  3
TSTACKALIGN
350
189
  3
TSTACKSIZE
350
18A
  3
UCSBASE
350
1A1
  3
UCSORGBACK
350
1A7
  3
UCSORGBOTTOM
350
1A3
  3
UCSORGFRONT
350
1A6
  3
UCSORGLEFT
350
1A4
  3
UCSORGRIGHT
350
1A5
  3
UCSORGTOP
350
1A2
  3
UCSORTHOREF
350
19F
  3
UCSORTHOVIEW
350
1A0
  3
VERSIONGUID
350
194
  0
XRECORD
  5
1AB
102
{ACAD_REACTORS
330
1AA
102
}
330
1AA
100
AcDbXrecord
340
18
  0
XRECORD
  5
1A9
102
{ACAD_REACTORS
330
1A8
102
}
330
1A8
100
AcDbXrecord
340
15
  0
MLINESTYLE
  5
1C
102
{ACAD_REACTORS
330
1B
102
}
330
1B
100
AcDbMlineStyle
  2
STANDARD
 70
     0
  3

 62
   256
 51
90.0
 52
90.0
 71
     2
 49
0.5
 62
   256
  6
BYLAYER
 49
-0.5
 62
   256
  6
BYLAYER
  0
ACDBPLACEHOLDER
  5
180
102
{ACAD_REACTORS
330
17F
102
}
330
17F
100
AcDbPlaceHolder
280
     0
  0
XRECORD
  5
192
102
{ACAD_REACTORS
330
188
102
}
330
188
100
AcDbXrecord
 90
        0
  0
XRECORD
  5
193
102
{ACAD_REACTORS
330
188
102
}
330
188
100
AcDbXrecord
  1
{789F84E0-F884-11D6-A8E9-0040CA1DCE27}
  0
XRECORD
  5
18B
102
{ACAD_REACTORS
330
188
102
}
330
188
100
AcDbXrecord
  1

  0
XRECORD
  5
191
102
{ACAD_REACTORS
330
188
102
}
330
188
100
AcDbXrecord
 90
        0
  0
XRECORD
  5
18D
102
{ACAD_REACTORS
330
188
102
}
330
188
100
AcDbXrecord
340
181
  0
XRECORD
  5
190
102
{ACAD_REACTORS
330
188
102
}
330
188
100
AcDbXrecord
 90
    14877
  0
XRECORD
  5
18E
102
{ACAD_REACTORS
330
188
102
}
330
188
100
AcDbXrecord
340
182
  0
XRECORD
  5
18F
102
{ACAD_REACTORS
330
188
102
}
330
188
100
AcDbXrecord
340
17F
  0
XRECORD
  5
195
102
{ACAD_REACTORS
330
188
102
}
330
188
100
AcDbXrecord
 40
0.0
  0
XRECORD
  5
198
102
{ACAD_REACTORS
330
188
102
}
330
188
100
AcDbXrecord
340
0
  0
XRECORD
  5
19E
102
{ACAD_REACTORS
330
188
102
}
330
188
100
AcDbXrecord
 10
0.0
 20
0.0
 30
0.0
  0
XRECORD
  5
19A
102
{ACAD_REACTORS
330
188
102
}
330
188
100
AcDbXrecord
 10
0.0
 20
0.0
 30
0.0
  0
XRECORD
  5
19D
102
{ACAD_REACTORS
330
188
102
}
330
188
100
AcDbXrecord
 10
0.0
 20
0.0
 30
0.0
  0
XRECORD
  5
19B
102
{ACAD_REACTORS
330
188
102
}
330
188
100
AcDbXrecord
 10
0.0
 20
0.0
 30
0.0
  0
XRECORD
  5
19C
102
{ACAD_REACTORS
330
188
102
}
330
188
100
AcDbXrecord
 10
0.0
 20
0.0
 30
0.0
  0
XRECORD
  5
199
102
{ACAD_REACTORS
330
188
102
}
330
188
100
AcDbXrecord
 10
0.0
 20
0.0
 30
0.0
  0
XRECORD
  5
196
102
{ACAD_REACTORS
330
188
102
}
330
188
100
AcDbXrecord
340
0
  0
XRECORD
  5
197
102
{ACAD_REACTORS
330
188
102
}
330
188
100
AcDbXrecord
 70
     0
  0
XRECORD
  5
18C
102
{ACAD_REACTORS
330
188
102
}
330
188
100
AcDbXrecord
  1

  0
XRECORD
  5
189
102
{ACAD_REACTORS
330
188
102
}
330
188
100
AcDbXrecord
 90
        1
  0
XRECORD
  5
18A
102
{ACAD_REACTORS
330
188
102
}
330
188
100
AcDbXrecord
 90
       70
  0
XRECORD
  5
1A1
102
{ACAD_REACTORS
330
188
102
}
330
188
100
AcDbXrecord
340
0
  0
XRECORD
  5
1A7
102
{ACAD_REACTORS
330
188
102
}
330
188
100
AcDbXrecord
 10
0.0
 20
0.0
 30
0.0
  0
XRECORD
  5
1A3
102
{ACAD_REACTORS
330
188
102
}
330
188
100
AcDbXrecord
 10
0.0
 20
0.0
 30
0.0
  0
XRECORD
  5
1A6
102
{ACAD_REACTORS
330
188
102
}
330
188
100
AcDbXrecord
 10
0.0
 20
0.0
 30
0.0
  0
XRECORD
  5
1A4
102
{ACAD_REACTORS
330
188
102
}
330
188
100
AcDbXrecord
 10
0.0
 20
0.0
 30
0.0
  0
XRECORD
  5
1A5
102
{ACAD_REACTORS
330
188
102
}
330
188
100
AcDbXrecord
 10
0.0
 20
0.0
 30
0.0
  0
XRECORD
  5
1A2
102
{ACAD_REACTORS
330
188
102
}
330
188
100
AcDbXrecord
 10
0.0
 20
0.0
 30
0.0
  0
XRECORD
  5
19F
102
{ACAD_REACTORS
330
188
102
}
330
188
100
AcDbXrecord
340
0
  0
XRECORD
  5
1A0
102
{ACAD_REACTORS
330
188
102
}
330
188
100
AcDbXrecord
 70
     0
  0
XRECORD
  5
194
102
{ACAD_REACTORS
330
188
102
}
330
188
100
AcDbXrecord
  1
{789F84E4-F884-11D6-A8E9-0040CA1DCE27}
  0
ENDSEC
  0
EOF
