  0
SECTION
  2
HEADER
  9
$ACADVER
  1
AC1006
  9
$INSBASE
 10
-72.681858
 20
36.153703
 30
0.0
  9
$EXTMIN
 10
-153.0
 20
-50.009503
  9
$EXTMAX
 10
446.414383
 20
372.408668
  9
$LIMMIN
 10
0.0
 20
0.0
  9
$LIMMAX
 10
12.0
 20
9.0
  9
$ORTHOMODE
 70
     0
  9
$REGENMODE
 70
     1
  9
$FILLMODE
 70
     1
  9
$QTEXTMODE
 70
     0
  9
$MIRRTEXT
 70
     1
  9
$DRAGMODE
 70
     2
  9
$LTSCALE
 40
1.0
  9
$OSMODE
 70
     0
  9
$ATTMODE
 70
     1
  9
$TEXTSIZE
 40
4.5
  9
$TRACEWID
 40
0.05
  9
$TEXTSTYLE
  7
STANDARD
  9
$CLAYER
  8
L-ZISSEN
  9
$CELTYPE
  6
BYLAYER
  9
$CECOLOR
 62
   256
  9
$DIMSCALE
 40
1.0
  9
$DIMASZ
 40
2.0
  9
$DIMEXO
 40
0.0625
  9
$DIMDLI
 40
0.38
  9
$DIMRND
 40
0.0
  9
$DIMDLE
 40
0.0
  9
$DIMEXE
 40
0.18
  9
$DIMTP
 40
0.0
  9
$DIMTM
 40
0.0
  9
$DIMTXT
 40
4.5
  9
$DIMCEN
 40
0.09
  9
$DIMTSZ
 40
0.0
  9
$DIMTOL
 70
     0
  9
$DIMLIM
 70
     0
  9
$DIMTIH
 70
     1
  9
$DIMTOH
 70
     1
  9
$DIMSE1
 70
     0
  9
$DIMSE2
 70
     0
  9
$DIMTAD
 70
     0
  9
$DIMZIN
 70
     0
  9
$DIMBLK
  1

  9
$DIMASO
 70
     0
  9
$DIMSHO
 70
     0
  9
$DIMPOST
  1

  9
$DIMAPOST
  1

  9
$DIMALT
 70
     0
  9
$DIMALTD
 70
     2
  9
$DIMALTF
 40
25.4
  9
$DIMLFAC
 40
1.0
  9
$DIMTOFL
 70
     0
  9
$DIMTVP
 40
0.0
  9
$DIMTIX
 70
     0
  9
$DIMSOXD
 70
     0
  9
$DIMSAH
 70
     0
  9
$DIMBLK1
  1

  9
$DIMBLK2
  1

  9
$LUNITS
 70
     2
  9
$LUPREC
 70
     4
  9
$AXISMODE
 70
     0
  9
$AXISUNIT
 10
0.0
 20
0.0
  9
$SKETCHINC
 40
0.1
  9
$FILLETRAD
 40
0.0
  9
$AUNITS
 70
     0
  9
$AUPREC
 70
     0
  9
$MENU
  1
acad
  9
$ELEVATION
 40
0.0
  9
$THICKNESS
 40
0.0
  9
$LIMCHECK
 70
     0
  9
$BLIPMODE
 70
     1
  9
$CHAMFERA
 40
0.0
  9
$CHAMFERB
 40
0.0
  9
$SKPOLY
 70
     0
  9
$TDCREATE
 40
2449045.7497392362
  9
$TDUPDATE
 40
2449045.7497392362
  9
$TDINDWG
 40
0.0000000000
  9
$TDUSRTIMER
 40
0.0000000000
  9
$USRTIMER
 70
     1
  9
$ANGBASE
 50
0.0
  9
$ANGDIR
 70
     0
  9
$PDMODE
 70
     0
  9
$PDSIZE
 40
0.0
  9
$PLINEWID
 40
0.0
  9
$COORDS
 70
     0
  9
$SPLFRAME
 70
     0
  9
$SPLINETYPE
 70
     6
  9
$SPLINESEGS
 70
     8
  9
$ATTDIA
 70
     0
  9
$ATTREQ
 70
     1
  9
$HANDLING
 70
     0
  9
$HANDSEED
  5
0
  9
$SURFTAB1
 70
     6
  9
$SURFTAB2
 70
     6
  9
$SURFTYPE
 70
     6
  9
$SURFU
 70
     6
  9
$SURFV
 70
     6
  9
$FLATLAND
 70
     0
  9
$UCSNAME
  2

  9
$UCSORG
 10
0.0
 20
0.0
 30
0.0
  9
$UCSXDIR
 10
1.0
 20
0.0
 30
0.0
  9
$UCSYDIR
 10
0.0
 20
1.0
 30
0.0
  9
$USERI1
 70
     0
  9
$USERI2
 70
     0
  9
$USERI3
 70
     0
  9
$USERI4
 70
     0
  9
$USERI5
 70
     0
  9
$USERR1
 40
0.0
  9
$USERR2
 40
0.0
  9
$USERR3
 40
0.0
  9
$USERR4
 40
0.0
  9
$USERR5
 40
0.0
  9
$WORLDVIEW
 70
     1
  0
ENDSEC
  0
SECTION
  2
TABLES
  0
TABLE
  2
VPORT
 70
     2
  0
VPORT
  2
*ACTIVE
 70
     0
 10
0.0
 20
0.0
 11
1.0
 21
1.0
 12
189.843709
 22
162.530352
 13
0.0
 23
0.0
 14
5.0
 24
5.0
 15
0.0
 25
0.0
 16
0.0
 26
0.0
 36
1.0
 17
0.0
 27
0.0
 37
0.0
 40
478.105557
 41
1.5487
 42
50.0
 43
0.0
 44
0.0
 50
0.0
 51
0.0
 71
     0
 72
   100
 73
     1
 74
     0
 75
     0
 76
     0
 77
     0
 78
     0
  0
ENDTAB
  0
TABLE
  2
LTYPE
 70
     3
  0
LTYPE
  2
CONTINUOUS
 70
    64
  3
Solid line
 72
    65
 73
     0
 40
0.0
  0
LTYPE
  2
CENTER
 70
    64
  3
_____ _ _____ _ _____ _ _____
 72
    65
 73
     4
 40
60.0
 49
45.0
 49
-5.0
 49
5.0
 49
-5.0
  0
LTYPE
  2
PHANTOM
 70
    64
  3
____ _ _ ____ _ _ ____
 72
    65
 73
     6
 40
11.0
 49
3.0
 49
-2.0
 49
1.0
 49
-2.0
 49
1.0
 49
-2.0
  0
ENDTAB
  0
TABLE
  2
LAYER
 70
     3
  0
LAYER
  2
0
 70
     0
 62
     7
  6
CONTINUOUS
  0
LAYER
  2
L-ZISSEN
 70
    64
 62
     7
  6
CONTINUOUS
  0
LAYER
  2
L-TYUSIN
 70
    64
 62
     1
  6
CENTER
  0
ENDTAB
  0
TABLE
  2
STYLE
 70
     1
  0
STYLE
  2
STANDARD
 70
    64
 40
0.0
 41
1.0
 50
0.0
 71
     0
 42
4.5
  3
txt
  4

  0
ENDTAB
  0
TABLE
  2
VIEW
 70
     0
  0
ENDTAB
  0
TABLE
  2
UCS
 70
     0
  0
ENDTAB
  0
TABLE
  2
DWGMGR
 70
     0
  0
ENDTAB
  0
ENDSEC
  0
SECTION
  2
BLOCKS
  0
ENDSEC
  0
SECTION
  2
ENTITIES
  0
LINE
  8
L-TYUSIN
  6
CENTER
 62
     1
 10
-72.681858
 20
-40.995625
 30
0.0
 11
-72.681858
 21
180.226461
 31
0.0
  0
LINE
  8
L-ZISSEN
  6
CONTINUOUS
 62
     7
 10
-83.681858
 20
106.853703
 30
0.0
 11
-83.681858
 21
67.853703
 31
0.0
  0
LINE
  8
L-ZISSEN
  6
CONTINUOUS
 62
     7
 10
-61.681858
 20
106.853703
 30
0.0
 11
-61.681858
 21
67.853703
 31
0.0
  0
LINE
  8
L-ZISSEN
  6
CONTINUOUS
 62
     7
 10
-61.681858
 20
67.853703
 30
0.0
 11
-83.681858
 21
67.853703
 31
0.0
  0
LINE
  8
L-ZISSEN
  6
CONTINUOUS
 62
     7
 10
-101.681858
 20
36.153703
 30
0.0
 11
-91.865184
 21
36.153703
 31
0.0
  0
LINE
  8
L-ZISSEN
  6
CONTINUOUS
 62
     7
 10
-101.681858
 20
16.653703
 30
0.0
 11
-101.681858
 21
63.953703
 31
0.0
  0
LINE
  8
L-ZISSEN
  6
CONTINUOUS
 62
     7
 10
-43.681858
 20
63.953703
 30
0.0
 11
-43.681858
 21
16.653703
 31
0.0
  0
LINE
  8
L-ZISSEN
  6
CONTINUOUS
 62
     7
 10
-48.681858
 20
127.153703
 30
0.0
 11
-48.681858
 21
51.153703
 31
0.0
  0
LINE
  8
L-ZISSEN
  6
CONTINUOUS
 62
     7
 10
-55.681858
 20
51.153703
 30
0.0
 11
-45.681858
 21
51.153703
 31
0.0
  0
LINE
  8
L-ZISSEN
  6
CONTINUOUS
 62
     7
 10
-55.681858
 20
42.153703
 30
0.0
 11
-55.681858
 21
51.153703
 31
0.0
  0
LINE
  8
L-ZISSEN
  6
CONTINUOUS
 62
     7
 10
-45.681858
 20
51.153703
 30
0.0
 11
-45.681858
 21
42.153703
 31
0.0
  0
LINE
  8
L-ZISSEN
  6
CONTINUOUS
 62
     7
 10
-89.681858
 20
51.153703
 30
0.0
 11
-99.681858
 21
51.153703
 31
0.0
  0
LINE
  8
L-ZISSEN
  6
CONTINUOUS
 62
     7
 10
-89.681858
 20
42.153703
 30
0.0
 11
-89.681858
 21
51.153703
 31
0.0
  0
LINE
  8
L-ZISSEN
  6
CONTINUOUS
 62
     7
 10
-101.681858
 20
42.153703
 30
0.0
 11
-82.879897
 21
42.153703
 31
0.0
  0
LINE
  8
L-ZISSEN
  6
CONTINUOUS
 62
     7
 10
-96.681858
 20
51.153703
 30
0.0
 11
-96.681858
 21
127.153703
 31
0.0
  0
LINE
  8
L-ZISSEN
  6
CONTINUOUS
 62
     7
 10
-117.681858
 20
63.953703
 30
0.0
 11
-101.681858
 21
63.953703
 31
0.0
  0
LINE
  8
L-ZISSEN
  6
CONTINUOUS
 62
     7
 10
-117.681858
 20
61.553703
 30
0.0
 11
-101.681858
 21
61.553703
 31
0.0
  0
LINE
  8
L-ZISSEN
  6
CONTINUOUS
 62
     7
 10
-117.681858
 20
94.153703
 30
0.0
 11
-117.681858
 21
61.553703
 31
0.0
  0
ARC
  8
L-ZISSEN
  6
CONTINUOUS
 62
     7
 10
-107.681858
 20
84.153703
 30
0.0
 40
4.5
 50
90.0
 51
270.0
  0
LINE
  8
L-ZISSEN
  6
CONTINUOUS
 62
     7
 10
-97.681858
 20
79.653703
 30
0.0
 11
-107.681858
 21
79.653703
 31
0.0
  0
LINE
  8
L-TYUSIN
  6
CENTER
 62
     1
 10
-91.074302
 20
84.153703
 30
0.0
 11
-114.17118
 21
84.153703
 31
0.0
  0
LINE
  8
L-ZISSEN
  6
CONTINUOUS
 62
     7
 10
-96.681858
 20
94.153703
 30
0.0
 11
-117.681858
 21
94.153703
 31
0.0
  0
LINE
  8
L-TYUSIN
  6
CENTER
 62
     1
 10
-102.681858
 20
90.290394
 30
0.0
 11
-102.681858
 21
77.969321
 31
0.0
  0
LINE
  8
L-ZISSEN
  6
CONTINUOUS
 62
     7
 10
-107.681858
 20
88.653703
 30
0.0
 11
-97.681858
 21
88.653703
 31
0.0
  0
LINE
  8
L-ZISSEN
  6
CONTINUOUS
 62
     7
 10
-47.681858
 20
88.653703
 30
0.0
 11
-37.681858
 21
88.653703
 31
0.0
  0
LINE
  8
L-TYUSIN
  6
CENTER
 62
     1
 10
-30.365352
 20
84.153703
 30
0.0
 11
-54.339473
 21
84.153703
 31
0.0
  0
LINE
  8
L-TYUSIN
  6
CENTER
 62
     1
 10
-42.681858
 20
90.277452
 30
0.0
 11
-42.681858
 21
77.828241
 31
0.0
  0
LINE
  8
L-ZISSEN
  6
CONTINUOUS
 62
     7
 10
-37.681858
 20
79.653703
 30
0.0
 11
-47.681858
 21
79.653703
 31
0.0
  0
ARC
  8
L-ZISSEN
  6
CONTINUOUS
 62
     7
 10
-37.681858
 20
84.153703
 30
0.0
 40
4.5
 50
270.0
 51
90.0
  0
LINE
  8
L-ZISSEN
  6
CONTINUOUS
 62
     7
 10
-27.681858
 20
94.153703
 30
0.0
 11
-48.681858
 21
94.153703
 31
0.0
  0
LINE
  8
L-ZISSEN
  6
CONTINUOUS
 62
     7
 10
-27.681858
 20
94.153703
 30
0.0
 11
-27.681858
 21
61.768542
 31
0.0
  0
LINE
  8
L-ZISSEN
  6
CONTINUOUS
 62
     7
 10
-43.681858
 20
61.553703
 30
0.0
 11
-27.681858
 21
61.553703
 31
0.0
  0
LINE
  8
L-ZISSEN
  6
CONTINUOUS
 62
     7
 10
-43.681858
 20
63.953703
 30
0.0
 11
-27.681858
 21
63.953703
 31
0.0
  0
LINE
  8
L-ZISSEN
  6
CONTINUOUS
 62
     7
 10
-35.981858
 20
114.103703
 30
0.0
 11
-39.981858
 21
114.103703
 31
0.0
  0
LINE
  8
L-ZISSEN
  6
CONTINUOUS
 62
     7
 10
-35.981858
 20
114.103703
 30
0.0
 11
-35.981858
 21
120.603703
 31
0.0
  0
LINE
  8
L-ZISSEN
  6
CONTINUOUS
 62
     7
 10
-35.981858
 20
120.603703
 30
0.0
 11
-39.981858
 21
120.603703
 31
0.0
  0
LINE
  8
L-ZISSEN
  6
CONTINUOUS
 62
     7
 10
-93.681858
 20
118.853703
 30
0.0
 11
-51.681858
 21
118.853703
 31
0.0
  0
LINE
  8
L-ZISSEN
  6
CONTINUOUS
 62
     7
 10
-93.681858
 20
106.853703
 30
0.0
 11
-51.681858
 21
106.853703
 31
0.0
  0
LINE
  8
L-ZISSEN
  6
CONTINUOUS
 62
     7
 10
-93.681858
 20
106.853703
 30
0.0
 11
-93.681858
 21
127.153703
 31
0.0
  0
LINE
  8
L-ZISSEN
  6
CONTINUOUS
 62
     7
 10
-112.681858
 20
127.153703
 30
0.0
 11
-47.681858
 21
127.153703
 31
0.0
  0
LINE
  8
L-ZISSEN
  6
CONTINUOUS
 62
     7
 10
-112.681858
 20
166.153703
 30
0.0
 11
-112.681858
 21
127.153703
 31
0.0
  0
ARC
  8
L-ZISSEN
  6
CONTINUOUS
 62
     7
 10
-101.681858
 20
166.153703
 30
0.0
 40
11.0
 50
90.0
 51
180.0
  0
LINE
  8
L-ZISSEN
  6
CONTINUOUS
 62
     7
 10
-58.681858
 20
177.153703
 30
0.0
 11
-101.681858
 21
177.153703
 31
0.0
  0
ARC
  8
L-ZISSEN
  6
CONTINUOUS
 62
     7
 10
-58.681858
 20
166.153703
 30
0.0
 40
11.0
 50
0.0
 51
90.0
  0
LINE
  8
L-ZISSEN
  6
CONTINUOUS
 62
     7
 10
-47.681858
 20
127.153703
 30
0.0
 11
-47.681858
 21
166.153703
 31
0.0
  0
LINE
  8
L-ZISSEN
  6
CONTINUOUS
 62
     7
 10
-51.681858
 20
106.853703
 30
0.0
 11
-51.681858
 21
127.153703
 31
0.0
  0
LINE
  8
L-ZISSEN
  6
CONTINUOUS
 62
     7
 10
-42.481858
 20
113.353703
 30
0.0
 11
-42.481858
 21
121.353703
 31
0.0
  0
LINE
  8
L-ZISSEN
  6
CONTINUOUS
 62
     7
 10
-42.481858
 20
113.353703
 30
0.0
 11
-46.681858
 21
113.353703
 31
0.0
  0
LINE
  8
L-ZISSEN
  6
CONTINUOUS
 62
     7
 10
-42.481858
 20
121.353703
 30
0.0
 11
-46.681858
 21
121.353703
 31
0.0
  0
LINE
  8
L-ZISSEN
  6
CONTINUOUS
 62
     7
 10
-46.681858
 20
112.353703
 30
0.0
 11
-46.681858
 21
122.353703
 31
0.0
  0
LINE
  8
L-ZISSEN
  6
CONTINUOUS
 62
     7
 10
-46.681858
 20
122.353703
 30
0.0
 11
-48.673716
 21
123.503703
 31
0.0
  0
LINE
  8
L-ZISSEN
  6
CONTINUOUS
 62
     7
 10
-46.681858
 20
112.353703
 30
0.0
 11
-48.673716
 21
111.203703
 31
0.0
  0
LINE
  8
L-ZISSEN
  6
CONTINUOUS
 62
     7
 10
-39.981858
 20
120.603703
 30
0.0
 11
-39.981858
 21
114.103703
 31
0.0
  0
LINE
  8
L-ZISSEN
  6
CONTINUOUS
 62
     7
 10
255.186836
 20
106.853703
 30
0.0
 11
255.186836
 21
51.153703
 31
0.0
  0
LINE
  8
L-ZISSEN
  6
CONTINUOUS
 62
     7
 10
255.186836
 20
106.853703
 30
0.0
 11
268.686836
 21
106.853703
 31
0.0
  0
LINE
  8
L-ZISSEN
  6
CONTINUOUS
 62
     7
 10
259.686836
 20
119.353703
 30
0.0
 11
268.686836
 21
119.353703
 31
0.0
  0
LINE
  8
L-ZISSEN
  6
CONTINUOUS
 62
     7
 10
338.686836
 20
127.153703
 30
0.0
 11
258.686836
 21
127.153703
 31
0.0
  0
LINE
  8
L-ZISSEN
  6
CONTINUOUS
 62
     7
 10
268.686836
 20
106.853703
 30
0.0
 11
268.686836
 21
127.153703
 31
0.0
  0
LINE
  8
L-ZISSEN
  6
CONTINUOUS
 62
     7
 10
258.686836
 20
127.153703
 30
0.0
 11
258.686836
 21
166.153703
 31
0.0
  0
ARC
  8
L-ZISSEN
  6
CONTINUOUS
 62
     7
 10
269.686836
 20
166.153703
 30
0.0
 40
11.0
 50
90.0
 51
180.0
  0
LINE
  8
L-ZISSEN
  6
CONTINUOUS
 62
     7
 10
269.686836
 20
177.153703
 30
0.0
 11
327.686836
 21
177.153703
 31
0.0
  0
LINE
  8
L-TYUSIN
  6
CENTER
 62
     1
 10
280.686836
 20
-42.896242
 30
0.0
 11
280.686836
 21
180.868875
 31
0.0
  0
ARC
  8
L-ZISSEN
  6
CONTINUOUS
 62
     7
 10
327.686836
 20
166.153703
 30
0.0
 40
11.0
 50
0.0
 51
90.0
  0
LINE
  8
L-ZISSEN
  6
CONTINUOUS
 62
     7
 10
301.686836
 20
106.853703
 30
0.0
 11
301.686836
 21
119.353703
 31
0.0
  0
LINE
  8
L-ZISSEN
  6
CONTINUOUS
 62
     7
 10
301.686836
 20
119.353703
 30
0.0
 11
292.686836
 21
119.353703
 31
0.0
  0
LINE
  8
L-ZISSEN
  6
CONTINUOUS
 62
     7
 10
292.686836
 20
127.153703
 30
0.0
 11
292.686836
 21
106.853703
 31
0.0
  0
LINE
  8
L-ZISSEN
  6
CONTINUOUS
 62
     7
 10
292.686836
 20
106.853703
 30
0.0
 11
304.686836
 21
106.853703
 31
0.0
  0
LINE
  8
L-ZISSEN
  6
CONTINUOUS
 62
     7
 10
304.686836
 20
106.853703
 30
0.0
 11
304.686836
 21
57.153703
 31
0.0
  0
LINE
  8
L-ZISSEN
  6
CONTINUOUS
 62
     7
 10
253.686836
 20
51.153703
 30
0.0
 11
307.686836
 21
51.153703
 31
0.0
  0
LINE
  8
L-ZISSEN
  6
CONTINUOUS
 62
     7
 10
251.686836
 20
42.153703
 30
0.0
 11
310.686836
 21
42.153703
 31
0.0
  0
LINE
  8
L-ZISSEN
  6
CONTINUOUS
 62
     7
 10
251.686836
 20
36.153703
 30
0.0
 11
310.686836
 21
36.153703
 31
0.0
  0
LINE
  8
L-ZISSEN
  6
CONTINUOUS
 62
     7
 10
309.686836
 20
25.153703
 30
0.0
 11
251.686836
 21
25.153703
 31
0.0
  0
LINE
  8
L-ZISSEN
 10
251.686836
 20
42.153703
 30
0.0
 11
251.686836
 21
8.153703
 31
0.0
  0
LINE
  8
L-ZISSEN
  6
CONTINUOUS
 62
     7
 10
253.686836
 20
42.153703
 30
0.0
 11
253.686836
 21
51.153703
 31
0.0
  0
LINE
  8
L-ZISSEN
  6
CONTINUOUS
 62
     7
 10
307.686836
 20
51.153703
 30
0.0
 11
307.686836
 21
42.153703
 31
0.0
  0
LINE
  8
L-ZISSEN
  6
CONTINUOUS
 62
     7
 10
310.686836
 20
36.153703
 30
0.0
 11
310.686836
 21
64.178523
 31
0.0
  0
LINE
  8
L-ZISSEN
 10
309.686836
 20
36.153703
 30
0.0
 11
309.686836
 21
16.653703
 31
0.0
  0
LINE
  8
L-ZISSEN
  6
CONTINUOUS
 62
     7
 10
310.686836
 20
64.178523
 30
0.0
 11
344.386836
 21
64.178523
 31
0.0
  0
LINE
  8
L-ZISSEN
  6
CONTINUOUS
 62
     7
 10
346.686836
 20
61.831109
 30
0.0
 11
312.986836
 21
61.831109
 31
0.0
  0
LINE
  8
L-ZISSEN
  6
CONTINUOUS
 62
     7
 10
319.686836
 20
45.628703
 30
0.0
 11
312.986836
 21
45.628703
 31
0.0
  0
LINE
  8
L-ZISSEN
  6
CONTINUOUS
 62
     7
 10
319.686836
 20
56.678703
 30
0.0
 11
312.986836
 21
56.678703
 31
0.0
  0
LINE
  8
L-ZISSEN
  6
CONTINUOUS
 62
     7
 10
319.686836
 20
56.678703
 30
0.0
 11
319.686836
 21
45.628703
 31
0.0
  0
LINE
  8
L-ZISSEN
  6
CONTINUOUS
 62
     7
 10
312.986836
 20
61.831109
 30
0.0
 11
312.986836
 21
41.153703
 31
0.0
  0
LINE
  8
L-ZISSEN
  6
CONTINUOUS
 62
     7
 10
338.686836
 20
166.153703
 30
0.0
 11
338.686836
 21
127.153703
 31
0.0
  0
LINE
  8
L-ZISSEN
  6
CONTINUOUS
 62
     7
 10
344.386836
 20
64.178523
 30
0.0
 11
344.386836
 21
94.153703
 31
0.0
  0
LINE
  8
L-TYUSIN
  6
CENTER
 62
     1
 10
355.928808
 20
84.153703
 30
0.0
 11
336.47385
 21
84.153703
 31
0.0
  0
LINE
  8
L-ZISSEN
  6
CONTINUOUS
 62
     7
 10
346.686836
 20
94.153703
 30
0.0
 11
346.686836
 21
61.831109
 31
0.0
  0
LINE
  8
L-ZISSEN
  6
CONTINUOUS
 62
     7
 10
259.686836
 20
106.853703
 30
0.0
 11
259.686836
 21
119.353703
 31
0.0
  0
CIRCLE
  8
L-ZISSEN
  6
CONTINUOUS
 62
     7
 10
280.686836
 20
117.353703
 30
0.0
 40
5.0
  0
LINE
  8
L-ZISSEN
  6
CONTINUOUS
 62
     7
 10
-27.681858
 20
339.153703
 30
0.0
 11
-117.681858
 21
339.153703
 31
0.0
  0
LINE
  8
L-ZISSEN
  6
CONTINUOUS
 62
     7
 10
-27.681858
 20
336.853703
 30
0.0
 11
-117.681858
 21
336.853703
 31
0.0
  0
LINE
  8
L-ZISSEN
  6
CONTINUOUS
 62
     7
 10
-111.287994
 20
325.513008
 30
0.0
 11
-117.681858
 21
336.853703
 31
0.0
  0
ARC
  8
L-ZISSEN
  6
CONTINUOUS
 62
     7
 10
-101.681858
 20
320.153703
 30
0.0
 40
11.0
 50
90.0
 51
180.0
  0
LINE
  8
L-ZISSEN
  6
CONTINUOUS
 62
     7
 10
-58.681858
 20
331.153703
 30
0.0
 11
-101.681858
 21
331.153703
 31
0.0
  0
LINE
  8
L-TYUSIN
  6
CENTER
 62
     1
 10
-72.681858
 20
194.649998
 30
0.0
 11
-72.681858
 21
345.774004
 31
0.0
  0
ARC
  8
L-ZISSEN
  6
CONTINUOUS
 62
     7
 10
-58.681858
 20
320.153703
 30
0.0
 40
11.0
 50
0.0
 51
90.0
  0
LINE
  8
L-ZISSEN
  6
CONTINUOUS
 62
     7
 10
-47.681858
 20
262.153703
 30
0.0
 11
-47.681858
 21
320.153703
 31
0.0
  0
LINE
  8
L-ZISSEN
  6
CONTINUOUS
 62
     7
 10
-112.681858
 20
262.153703
 30
0.0
 11
-112.681858
 21
320.153703
 31
0.0
  0
LINE
  8
L-TYUSIN
  6
CENTER
 62
     1
 10
-124.681858
 20
273.153703
 30
0.0
 11
117.318142
 21
273.153703
 31
0.0
  0
ARC
  8
L-ZISSEN
  6
CONTINUOUS
 62
     7
 10
-101.681858
 20
262.153703
 30
0.0
 40
11.0
 50
180.0
 51
270.0
  0
LINE
  8
L-ZISSEN
  6
CONTINUOUS
 62
     7
 10
-101.681858
 20
251.153703
 30
0.0
 11
-58.681858
 21
251.153703
 31
0.0
  0
ARC
  8
L-ZISSEN
  6
CONTINUOUS
 62
     7
 10
-58.681858
 20
262.153703
 30
0.0
 40
11.0
 50
270.0
 51
0.0
  0
LINE
  8
L-ZISSEN
  6
CONTINUOUS
 62
     7
 10
-50.681858
 20
244.153703
 30
0.0
 11
-94.681858
 21
244.153703
 31
0.0
  0
ARC
  8
L-ZISSEN
  6
CONTINUOUS
 62
     7
 10
-50.681858
 20
251.153703
 30
0.0
 40
7.0
 50
270.0
 51
0.0
  0
LINE
  8
L-ZISSEN
  6
CONTINUOUS
 62
     7
 10
-43.681858
 20
251.153703
 30
0.0
 11
-43.681858
 21
269.689601
 31
0.0
  0
ARC
  8
L-ZISSEN
  6
CONTINUOUS
 62
     7
 10
-94.681858
 20
251.153703
 30
0.0
 40
7.0
 50
180.0
 51
270.0
  0
LINE
  8
L-ZISSEN
  6
CONTINUOUS
 62
     7
 10
-43.681858
 20
276.617805
 30
0.0
 11
-43.681858
 21
295.153703
 31
0.0
  0
LINE
  8
L-ZISSEN
  6
CONTINUOUS
 62
     7
 10
-46.681858
 20
303.153703
 30
0.0
 11
-38.681858
 21
317.343177
 31
0.0
  0
ARC
  8
L-ZISSEN
  6
CONTINUOUS
 62
     7
 10
-50.681858
 20
295.153703
 30
0.0
 40
7.0
 50
0.0
 51
64.623066
  0
LINE
  8
L-ZISSEN
  6
CONTINUOUS
 62
     7
 10
-27.681858
 20
339.153703
 30
0.0
 11
-27.681858
 21
336.853703
 31
0.0
  0
LINE
  8
L-ZISSEN
  6
CONTINUOUS
 62
     7
 10
-46.681858
 20
268.153703
 30
0.0
 11
-46.681858
 21
278.153703
 31
0.0
  0
LINE
  8
L-ZISSEN
  6
CONTINUOUS
 62
     7
 10
-46.681858
 20
278.153703
 30
0.0
 11
-47.681858
 21
278.731053
 31
0.0
  0
LINE
  8
L-ZISSEN
  6
CONTINUOUS
 62
     7
 10
-46.681858
 20
268.153703
 30
0.0
 11
-47.681858
 21
267.576353
 31
0.0
  0
LINE
  8
L-ZISSEN
  6
CONTINUOUS
 62
     7
 10
-46.681858
 20
269.689601
 30
0.0
 11
-42.481858
 21
269.689601
 31
0.0
  0
LINE
  8
L-ZISSEN
  6
CONTINUOUS
 62
     7
 10
-42.481858
 20
276.617805
 30
0.0
 11
-42.481858
 21
269.689601
 31
0.0
  0
LINE
  8
L-ZISSEN
  6
CONTINUOUS
 62
     7
 10
-42.481858
 20
276.617805
 30
0.0
 11
-46.681858
 21
276.617805
 31
0.0
  0
LINE
  8
L-ZISSEN
  6
CONTINUOUS
 62
     7
 10
-39.981858
 20
275.153703
 30
0.0
 11
-42.481858
 21
275.153703
 31
0.0
  0
LINE
  8
L-ZISSEN
  6
CONTINUOUS
 62
     7
 10
-39.981858
 20
271.153703
 30
0.0
 11
-42.481858
 21
271.153703
 31
0.0
  0
LINE
  8
L-ZISSEN
  6
CONTINUOUS
 62
     7
 10
-39.981858
 20
269.903703
 30
0.0
 11
-39.981858
 21
276.403703
 31
0.0
  0
LINE
  8
L-ZISSEN
  6
CONTINUOUS
 62
     7
 10
-35.981858
 20
276.403703
 30
0.0
 11
-35.981858
 21
269.903703
 31
0.0
  0
LINE
  8
L-ZISSEN
  6
CONTINUOUS
 62
     7
 10
-35.981858
 20
269.903703
 30
0.0
 11
-39.981858
 21
269.903703
 31
0.0
  0
LINE
  8
L-ZISSEN
  6
CONTINUOUS
 62
     7
 10
-35.981858
 20
276.403703
 30
0.0
 11
-39.981858
 21
276.403703
 31
0.0
  0
LINE
  8
L-ZISSEN
  6
CONTINUOUS
 62
     7
 10
-101.681858
 20
25.153703
 30
0.0
 11
-98.469452
 21
25.153703
 31
0.0
  0
LINE
  8
L-ZISSEN
  6
CONTINUOUS
 62
     7
 10
-99.681858
 20
51.153703
 30
0.0
 11
-99.681858
 21
42.153703
 31
0.0
  0
LINE
  8
L-ZISSEN
  6
CONTINUOUS
 62
     7
 10
-117.681858
 20
339.153703
 30
0.0
 11
-117.681858
 21
336.853703
 31
0.0
  0
LINE
  8
L-ZISSEN
  6
CONTINUOUS
 62
     7
 10
-39.981858
 20
115.353703
 30
0.0
 11
-42.481858
 21
115.353703
 31
0.0
  0
LINE
  8
L-ZISSEN
  6
CONTINUOUS
 62
     7
 10
-39.981858
 20
119.353703
 30
0.0
 11
-42.481858
 21
119.353703
 31
0.0
  0
LINE
  8
L-ZISSEN
 10
304.686836
 20
57.153703
 30
0.0
 11
310.686836
 21
57.153703
 31
0.0
  0
LINE
  8
L-ZISSEN
 10
344.386836
 20
94.153703
 30
0.0
 11
346.686836
 21
94.153703
 31
0.0
  0
LINE
  8
L-ZISSEN
 10
312.986836
 20
41.153703
 30
0.0
 11
310.686836
 21
41.153703
 31
0.0
  0
SOLID
  8
L-ZISSEN
 10
-104.58186
 20
128.823615
 30
0.0
 11
-105.061291
 21
128.360376
 31
0.0
 12
-103.431858
 22
127.153703
 32
0.0
 13
-103.431858
 23
127.153703
 33
0.0
  0
LINE
  8
L-ZISSEN
 10
-104.821576
 20
128.591995
 30
0.0
 11
-140.0
 21
165.0
 31
0.0
  0
LINE
  8
L-ZISSEN
 10
-140.0
 20
165.0
 30
0.0
 11
-142.0
 21
165.0
 31
0.0
  0
TEXT
  8
L-ZISSEN
 10
-153.0
 20
162.75
 30
0.0
 40
4.5
  1
P.P
  0
TEXT
  8
L-ZISSEN
 10
318.37018
 20
297.75
 30
0.0
 40
4.5
  1
P.P
  0
LINE
  8
L-ZISSEN
 10
331.37018
 20
300.0
 30
0.0
 11
329.37018
 21
300.0
 31
0.0
  0
LINE
  8
L-ZISSEN
 10
366.548604
 20
263.591995
 30
0.0
 11
331.37018
 21
300.0
 31
0.0
  0
SOLID
  8
L-ZISSEN
 10
366.78832
 20
263.823615
 30
0.0
 11
366.308889
 21
263.360376
 31
0.0
 12
367.938322
 22
262.153703
 32
0.0
 13
367.938322
 23
262.153703
 33
0.0
  0
POLYLINE
  8
L-ZISSEN
  6
CONTINUOUS
 62
     7
 66
     1
 10
0.0
 20
0.0
 30
0.0
  0
VERTEX
  8
L-ZISSEN
  6
CONTINUOUS
 62
     7
 10
367.938322
 20
258.153703
 30
0.0
 42
-0.126822
  0
VERTEX
  8
L-ZISSEN
  6
CONTINUOUS
 62
     7
 10
366.837564
 20
258.437469
 30
0.0
 42
-0.10607
  0
VERTEX
  8
L-ZISSEN
  6
CONTINUOUS
 62
     7
 10
365.817002
 20
259.325276
 30
0.0
 42
-0.085783
 70
     2
 50
53.130102
  0
VERTEX
  8
L-ZISSEN
  6
CONTINUOUS
 62
     7
 10
365.111662
 20
260.705774
 30
0.0
 42
-0.091282
  0
VERTEX
  8
L-ZISSEN
  6
CONTINUOUS
 62
     7
 10
364.938322
 20
262.153703
 30
0.0
 42
-0.075445
  0
SEQEND
  8
L-ZISSEN
  6
PHANTOM
 62
     2
  0
POLYLINE
  8
L-ZISSEN
  6
CONTINUOUS
 62
     7
 66
     1
 10
0.0
 20
0.0
 30
0.0
  0
VERTEX
  8
L-ZISSEN
  6
CONTINUOUS
 62
     7
 10
367.938322
 20
258.153703
 30
0.0
 42
0.126822
  0
VERTEX
  8
L-ZISSEN
  6
CONTINUOUS
 62
     7
 10
369.03908
 20
258.437469
 30
0.0
 42
0.10607
  0
VERTEX
  8
L-ZISSEN
  6
CONTINUOUS
 62
     7
 10
370.059643
 20
259.325276
 30
0.0
 42
0.085783
 70
     2
 50
53.130102
  0
VERTEX
  8
L-ZISSEN
  6
CONTINUOUS
 62
     7
 10
370.764982
 20
260.705774
 30
0.0
 42
0.091282
 50
53.130102
  0
VERTEX
  8
L-ZISSEN
  6
CONTINUOUS
 62
     7
 10
370.938322
 20
262.153703
 30
0.0
 42
0.075445
  0
SEQEND
  8
L-ZISSEN
  6
PHANTOM
 62
     2
  0
LINE
  8
L-ZISSEN
 10
-67.817858
 20
244.153703
 30
0.0
 11
-67.817858
 21
232.653703
 31
0.0
  0
LINE
  8
L-ZISSEN
 10
-77.545858
 20
244.153703
 30
0.0
 11
-77.545858
 21
232.653703
 31
0.0
  0
LINE
  8
L-ZISSEN
  6
CONTINUOUS
 62
     7
 10
-99.681858
 20
199.153703
 30
0.0
 11
-99.681858
 21
232.653703
 31
0.0
  0
LINE
  8
L-ZISSEN
  6
CONTINUOUS
 62
     7
 10
-99.681858
 20
232.653703
 30
0.0
 11
-45.681858
 21
232.653703
 31
0.0
  0
LINE
  8
L-ZISSEN
  6
CONTINUOUS
 62
     7
 10
-45.681858
 20
199.153703
 30
0.0
 11
-45.681858
 21
232.653703
 31
0.0
  0
LINE
  8
L-ZISSEN
  6
CONTINUOUS
 62
     7
 10
-45.681858
 20
199.153703
 30
0.0
 11
-99.681858
 21
199.153703
 31
0.0
  0
LINE
  8
L-TYUSIN
 10
216.414383
 20
354.723025
 30
0.0
 11
216.414383
 21
238.298063
 31
0.0
  0
LINE
  8
L-TYUSIN
 10
446.414383
 20
238.298063
 30
0.0
 11
446.414383
 21
354.723025
 31
0.0
  0
LINE
  8
L-TYUSIN
 10
216.414383
 20
238.298063
 30
0.0
 11
446.414383
 21
238.298063
 31
0.0
  0
TEXT
  8
L-ZISSEN
 10
248.077199
 20
344.132881
 30
0.0
 40
4.5
  1
PILOT LAMP
  0
LINE
  8
L-ZISSEN
  6
CONTINUOUS
 62
     7
 10
278.66611
 20
120.853703
 30
0.0
 11
276.645384
 21
117.353703
 31
0.0
  0
LINE
  8
L-ZISSEN
  6
CONTINUOUS
 62
     7
 10
276.645384
 20
117.353703
 30
0.0
 11
278.66611
 21
113.853703
 31
0.0
  0
LINE
  8
L-ZISSEN
  6
CONTINUOUS
 62
     7
 10
278.66611
 20
113.853703
 30
0.0
 11
282.707562
 21
113.853703
 31
0.0
  0
LINE
  8
L-ZISSEN
  6
CONTINUOUS
 62
     7
 10
282.707562
 20
113.853703
 30
0.0
 11
284.728288
 21
117.353703
 31
0.0
  0
LINE
  8
L-ZISSEN
  6
CONTINUOUS
 62
     7
 10
284.728288
 20
117.353703
 30
0.0
 11
282.707562
 21
120.853703
 31
0.0
  0
LINE
  8
L-ZISSEN
  6
CONTINUOUS
 62
     7
 10
282.707562
 20
120.853703
 30
0.0
 11
278.66611
 21
120.853703
 31
0.0
  0
LINE
  8
L-ZISSEN
 10
-43.681858
 20
16.653703
 30
0.0
 11
-45.686488
 21
16.653703
 31
0.0
  0
LINE
  8
L-ZISSEN
 10
-99.677228
 20
16.653703
 30
0.0
 11
-101.681858
 21
16.653703
 31
0.0
  0
LINE
  8
L-ZISSEN
 10
-43.681858
 20
23.653703
 30
0.0
 11
-40.681858
 21
23.653703
 31
0.0
  0
LINE
  8
L-ZISSEN
 10
-103.681858
 20
-36.846297
 30
0.0
 11
-61.681858
 21
-36.846297
 31
0.0
  0
LINE
  8
L-ZISSEN
 10
-40.681858
 20
23.653703
 30
0.0
 11
-40.681858
 21
-35.346297
 31
0.0
  0
LINE
  8
L-ZISSEN
 10
-101.681858
 20
23.653703
 30
0.0
 11
-114.681858
 21
23.653703
 31
0.0
  0
LINE
  8
L-ZISSEN
 10
-114.681858
 20
23.653703
 30
0.0
 11
-114.681858
 21
-35.346297
 31
0.0
  0
LINE
  8
L-TYUSIN
 10
-124.681858
 20
-9.846297
 30
0.0
 11
117.318142
 21
-9.846297
 31
0.0
  0
LINE
  8
L-TYUSIN
 10
-92.681858
 20
-40.479932
 30
0.0
 11
-92.681858
 21
-17.273755
 31
0.0
  0
LINE
  8
L-ZISSEN
 10
-114.681858
 20
-35.346297
 30
0.0
 11
-103.681858
 21
-35.346297
 31
0.0
  0
LINE
  8
L-ZISSEN
 10
-103.681858
 20
-36.846297
 30
0.0
 11
-103.681858
 21
-35.346297
 31
0.0
  0
LINE
  8
L-ZISSEN
 10
-61.681858
 20
-36.846297
 30
0.0
 11
-61.681858
 21
-35.346297
 31
0.0
  0
LINE
  8
L-ZISSEN
 10
-61.681858
 20
-35.346297
 30
0.0
 11
-40.681858
 21
-35.346297
 31
0.0
  0
LINE
  8
L-ZISSEN
 10
-45.681858
 20
16.653703
 30
0.0
 11
-45.681858
 21
9.153703
 31
0.0
  0
LINE
  8
L-ZISSEN
 10
-46.894264
 20
9.153703
 30
0.0
 11
-45.681858
 21
9.153703
 31
0.0
  0
LINE
  8
L-ZISSEN
 10
-98.469452
 20
9.153703
 30
0.0
 11
-99.681858
 21
9.153703
 31
0.0
  0
LINE
  8
L-ZISSEN
 10
-99.681858
 20
16.653703
 30
0.0
 11
-99.681858
 21
9.153703
 31
0.0
  0
LINE
  8
L-ZISSEN
 10
251.686836
 20
16.653703
 30
0.0
 11
273.686836
 21
16.653703
 31
0.0
  0
LINE
  8
L-ZISSEN
 10
251.686836
 20
8.153703
 30
0.0
 11
273.686836
 21
8.153703
 31
0.0
  0
LINE
  8
L-ZISSEN
 10
273.686836
 20
23.653703
 30
0.0
 11
287.686836
 21
23.653703
 31
0.0
  0
LINE
  8
L-ZISSEN
 10
287.686836
 20
23.653703
 30
0.0
 11
287.686836
 21
-0.099503
 31
0.0
  0
LINE
  8
L-ZISSEN
 10
273.686836
 20
23.653703
 30
0.0
 11
273.686836
 21
-0.099503
 31
0.0
  0
ARC
  8
L-ZISSEN
 10
280.686836
 20
-9.846297
 30
0.0
 40
12.0
 50
125.685335
 51
247.975687
  0
LINE
  8
L-ZISSEN
 10
269.686838
 20
-36.846297
 30
0.0
 11
305.686836
 21
-36.846297
 31
0.0
  0
ARC
  8
L-ZISSEN
 10
280.686836
 20
-30.846297
 30
0.0
 40
4.5
 50
180.0
 51
0.0
  0
LINE
  8
L-ZISSEN
 10
285.186836
 20
-30.846297
 30
0.0
 11
285.186836
 21
-20.970595
 31
0.0
  0
LINE
  8
L-ZISSEN
 10
276.186836
 20
-30.846297
 30
0.0
 11
276.186836
 21
-20.970595
 31
0.0
  0
ARC
  8
L-ZISSEN
 10
280.686836
 20
-9.846297
 30
0.0
 40
12.0
 50
292.024313
 51
54.314665
  0
CIRCLE
  8
L-ZISSEN
 10
280.686836
 20
-9.846297
 30
0.0
 40
8.9
  0
LINE
  8
L-ZISSEN
 10
287.686836
 20
16.653703
 30
0.0
 11
309.686836
 21
16.653703
 31
0.0
  0
LINE
  8
L-ZISSEN
 10
309.686836
 20
11.153703
 30
0.0
 11
309.686836
 21
-10.846297
 31
0.0
  0
LINE
  8
L-ZISSEN
 10
299.186836
 20
11.153703
 30
0.0
 11
299.186836
 21
16.653703
 31
0.0
  0
LINE
  8
L-ZISSEN
 10
309.686836
 20
11.153703
 30
0.0
 11
299.186836
 21
11.153703
 31
0.0
  0
LINE
  8
L-ZISSEN
 10
309.686836
 20
-10.846297
 30
0.0
 11
299.186836
 21
-10.846297
 31
0.0
  0
LINE
  8
L-ZISSEN
 10
299.186836
 20
-10.846297
 30
0.0
 11
299.186836
 21
-13.846297
 31
0.0
  0
LINE
  8
L-ZISSEN
 10
257.186836
 20
-29.346297
 30
0.0
 11
257.186836
 21
-11.346297
 31
0.0
  0
LINE
  8
L-ZISSEN
 10
257.186836
 20
-11.346297
 30
0.0
 11
268.780955
 21
-11.346297
 31
0.0
  0
LINE
  8
L-ZISSEN
 10
257.186836
 20
-29.346297
 30
0.0
 11
276.186836
 21
-29.346297
 31
0.0
  0
LINE
  8
L-ZISSEN
 10
269.686838
 20
-36.846297
 30
0.0
 11
269.686838
 21
-29.346297
 31
0.0
  0
LINE
  8
L-ZISSEN
 10
305.686836
 20
-36.846297
 30
0.0
 11
305.686836
 21
-21.846297
 31
0.0
  0
LINE
  8
L-ZISSEN
 10
305.686836
 20
-21.846297
 30
0.0
 11
303.543242
 21
-13.846297
 31
0.0
  0
LINE
  8
L-ZISSEN
 10
303.543242
 20
-13.846297
 30
0.0
 11
299.186836
 21
-13.846297
 31
0.0
  0
CIRCLE
  8
L-ZISSEN
 10
280.686836
 20
-9.846297
 30
0.0
 40
5.75
  0
ARC
  8
L-ZISSEN
 10
-72.681858
 20
-21.846297
 30
0.0
 40
9.0
 50
192.839588
 51
347.160412
  0
LINE
  8
L-TYUSIN
 10
294.686836
 20
-40.479932
 30
0.0
 11
294.686836
 21
-17.273755
 31
0.0
  0
LINE
  8
L-TYUSIN
  6
CENTER
 62
     1
 10
318.928808
 20
0.153703
 30
0.0
 11
299.47385
 21
0.153703
 31
0.0
  0
LINE
  8
L-ZISSEN
 10
-76.434635
 20
-15.346297
 30
0.0
 11
-79.032711
 21
-19.846297
 31
0.0
  0
LINE
  8
L-ZISSEN
 10
-79.032711
 20
-23.846297
 30
0.0
 11
-76.434635
 21
-28.346297
 31
0.0
  0
LINE
  8
L-ZISSEN
 10
-76.434635
 20
-28.346297
 30
0.0
 11
-68.929081
 21
-28.346297
 31
0.0
  0
LINE
  8
L-ZISSEN
 10
-68.929081
 20
-28.346297
 30
0.0
 11
-66.331005
 21
-23.846297
 31
0.0
  0
LINE
  8
L-ZISSEN
 10
-66.331005
 20
-19.846297
 30
0.0
 11
-68.929081
 21
-15.346297
 31
0.0
  0
LINE
  8
L-ZISSEN
 10
-68.929081
 20
-15.346297
 30
0.0
 11
-76.434635
 21
-15.346297
 31
0.0
  0
CIRCLE
  8
L-ZISSEN
 10
-72.681858
 20
-21.846297
 30
0.0
 40
4.0
  0
LINE
  8
L-ZISSEN
 10
-87.681858
 20
-19.846297
 30
0.0
 11
-76.145959
 21
-19.846297
 31
0.0
  0
LINE
  8
L-ZISSEN
 10
-57.681858
 20
-19.846297
 30
0.0
 11
-57.681858
 21
-23.846297
 31
0.0
  0
LINE
  8
L-ZISSEN
 10
-57.681858
 20
-23.846297
 30
0.0
 11
-69.217756
 21
-23.846297
 31
0.0
  0
LINE
  8
L-ZISSEN
 10
-87.681858
 20
-23.846297
 30
0.0
 11
-87.681858
 21
-19.846297
 31
0.0
  0
LINE
  8
L-ZISSEN
 10
-69.217756
 20
-19.846297
 30
0.0
 11
-57.681858
 21
-19.846297
 31
0.0
  0
LINE
  8
L-ZISSEN
 10
-76.145959
 20
-23.846297
 30
0.0
 11
-87.681858
 21
-23.846297
 31
0.0
  0
ARC
  8
L-ZISSEN
 10
-72.681858
 20
-21.846297
 30
0.0
 40
9.0
 50
12.839588
 51
167.160412
  0
LINE
  8
L-ZISSEN
 10
-114.681858
 20
266.153703
 30
0.0
 11
-114.681858
 21
280.153703
 31
0.0
  0
LINE
  8
L-ZISSEN
 10
-40.681858
 20
266.153703
 30
0.0
 11
-40.681858
 21
271.153703
 31
0.0
  0
LINE
  8
L-ZISSEN
 10
-114.681858
 20
280.153703
 30
0.0
 11
-112.681858
 21
280.153703
 31
0.0
  0
LINE
  8
L-ZISSEN
 10
-40.681858
 20
266.153703
 30
0.0
 11
-43.681858
 21
266.153703
 31
0.0
  0
LINE
  8
L-ZISSEN
 10
-43.681858
 20
280.153703
 30
0.0
 11
-40.681858
 21
280.153703
 31
0.0
  0
LINE
  8
L-ZISSEN
 10
-112.681858
 20
266.153703
 30
0.0
 11
-114.681858
 21
266.153703
 31
0.0
  0
LINE
  8
L-ZISSEN
 10
-40.681858
 20
275.153703
 30
0.0
 11
-40.681858
 21
280.153703
 31
0.0
  0
CIRCLE
  8
L-ZISSEN
 10
-72.681858
 20
17.153703
 30
0.0
 40
27.0
  0
LINE
  8
L-ZISSEN
 10
-65.61079
 20
24.224771
 30
0.0
 11
-86.823993
 21
3.011567
 31
0.0
  0
LINE
  8
L-ZISSEN
  6
CONTINUOUS
 62
     7
 10
-53.498532
 20
36.153703
 30
0.0
 11
-43.681858
 21
36.153703
 31
0.0
  0
LINE
  8
L-ZISSEN
  6
CONTINUOUS
 62
     7
 10
-46.894264
 20
25.153703
 30
0.0
 11
-43.681858
 21
25.153703
 31
0.0
  0
LINE
  8
L-ZISSEN
  6
CONTINUOUS
 62
     7
 10
-62.483819
 20
42.153703
 30
0.0
 11
-43.681858
 21
42.153703
 31
0.0
  0
LINE
  8
L-ZISSEN
  6
CONTINUOUS
 62
     7
 10
206.686836
 20
-9.846297
 30
0.0
 11
206.686836
 21
44.153703
 31
0.0
  0
LINE
  8
L-ZISSEN
  6
CONTINUOUS
 62
     7
 10
206.686836
 20
-9.846297
 30
0.0
 11
240.186836
 21
-9.846297
 31
0.0
  0
LINE
  8
L-ZISSEN
  6
CONTINUOUS
 62
     7
 10
240.186836
 20
44.153703
 30
0.0
 11
240.186836
 21
-9.846297
 31
0.0
  0
LINE
  8
L-ZISSEN
  6
CONTINUOUS
 62
     7
 10
206.686836
 20
44.153703
 30
0.0
 11
240.186836
 21
44.153703
 31
0.0
  0
LINE
  8
L-ZISSEN
 10
251.686836
 20
22.017703
 30
0.0
 11
240.186836
 21
22.017703
 31
0.0
  0
LINE
  8
L-ZISSEN
 10
251.686836
 20
12.289703
 30
0.0
 11
240.186836
 21
12.289703
 31
0.0
  0
LINE
  8
L-ZISSEN
 10
252.186836
 20
-13.846297
 30
0.0
 11
252.186836
 21
-26.846297
 31
0.0
  0
LINE
  8
L-ZISSEN
 10
241.186836
 20
-17.846297
 30
0.0
 11
249.186836
 21
-17.846297
 31
0.0
  0
LINE
  8
L-ZISSEN
 10
241.186836
 20
-22.846297
 30
0.0
 11
241.186836
 21
-17.846297
 31
0.0
  0
LINE
  8
L-ZISSEN
 10
241.186836
 20
-22.846297
 30
0.0
 11
249.186836
 21
-22.846297
 31
0.0
  0
CIRCLE
  8
L-ZISSEN
 10
244.686836
 20
-20.346297
 30
0.0
 40
2.0
  0
LINE
  8
L-ZISSEN
 10
249.186836
 20
-24.846297
 30
0.0
 11
249.186836
 21
-15.846297
 31
0.0
  0
LINE
  8
L-ZISSEN
 10
257.186836
 20
-20.346297
 30
0.0
 11
257.186836
 21
-15.846297
 31
0.0
  0
LINE
  8
L-ZISSEN
 10
252.186836
 20
-15.846297
 30
0.0
 11
249.186836
 21
-15.846297
 31
0.0
  0
LINE
  8
L-ZISSEN
 10
257.186836
 20
-20.346297
 30
0.0
 11
257.186836
 21
-13.846297
 31
0.0
  0
LINE
  8
L-ZISSEN
 10
257.186836
 20
-13.846297
 30
0.0
 11
252.186836
 21
-13.846297
 31
0.0
  0
LINE
  8
L-ZISSEN
 10
257.186836
 20
-26.846297
 30
0.0
 11
252.186836
 21
-26.846297
 31
0.0
  0
LINE
  8
L-ZISSEN
 10
252.186836
 20
-24.846297
 30
0.0
 11
249.186836
 21
-24.846297
 31
0.0
  0
LINE
  8
L-TYUSIN
  6
CENTER
 62
     1
 10
290.414315
 20
-9.846297
 30
0.0
 11
270.959357
 21
-9.846297
 31
0.0
  0
TEXT
  8
L-ZISSEN
 10
-139.805779
 20
367.908668
 30
0.0
 40
4.5
  1
MODEL NO.
  0
TEXT
  8
L-ZISSEN
 10
-139.805779
 20
353.306554
 30
0.0
 40
4.5
  1
AOL-112**
  0
SOLID
  8
L-ZISSEN
 10
-115.999618
 20
-11.387277
 30
0.0
 11
-115.428611
 21
-11.731362
 31
0.0
 12
-114.681858
 22
-9.846297
 32
0.0
 13
-114.681858
 23
-9.846297
 33
0.0
  0
LINE
  8
L-ZISSEN
 10
-115.714115
 20
-11.559319
 30
0.0
 11
-134.752603
 21
-43.153552
 31
0.0
  0
LINE
  8
L-ZISSEN
 10
-134.752603
 20
-43.153552
 30
0.0
 11
-136.752603
 21
-43.153552
 31
0.0
  0
TEXT
  8
L-ZISSEN
 10
-145.261229
 20
-41.367262
 30
0.0
 40
4.5
  1
IN
  0
TEXT
  8
L-ZISSEN
 10
-145.428506
 20
-50.009503
 30
0.0
 40
4.5
  1
Rc1/4
  0
LINE
  8
L-ZISSEN
  6
CONTINUOUS
 62
     7
 10
11.516181
 20
42.153703
 30
0.0
 11
30.318142
 21
42.153703
 31
0.0
  0
LINE
  8
L-ZISSEN
  6
CONTINUOUS
 62
     7
 10
27.105736
 20
25.153703
 30
0.0
 11
30.318142
 21
25.153703
 31
0.0
  0
LINE
  8
L-ZISSEN
  6
CONTINUOUS
 62
     7
 10
20.501468
 20
36.153703
 30
0.0
 11
30.318142
 21
36.153703
 31
0.0
  0
LINE
  8
L-ZISSEN
 10
8.38921
 20
24.224771
 30
0.0
 11
-12.823993
 21
3.011567
 31
0.0
  0
CIRCLE
  8
L-ZISSEN
 10
1.318142
 20
17.153703
 30
0.0
 40
27.0
  0
ARC
  8
L-ZISSEN
 10
1.318142
 20
-21.846297
 30
0.0
 40
9.0
 50
12.839588
 51
167.160412
  0
LINE
  8
L-ZISSEN
 10
-2.145959
 20
-23.846297
 30
0.0
 11
-13.681858
 21
-23.846297
 31
0.0
  0
LINE
  8
L-ZISSEN
 10
4.782244
 20
-19.846297
 30
0.0
 11
16.318142
 21
-19.846297
 31
0.0
  0
LINE
  8
L-ZISSEN
 10
-13.681858
 20
-23.846297
 30
0.0
 11
-13.681858
 21
-19.846297
 31
0.0
  0
LINE
  8
L-ZISSEN
 10
16.318142
 20
-23.846297
 30
0.0
 11
4.782244
 21
-23.846297
 31
0.0
  0
LINE
  8
L-ZISSEN
 10
16.318142
 20
-19.846297
 30
0.0
 11
16.318142
 21
-23.846297
 31
0.0
  0
LINE
  8
L-ZISSEN
 10
-13.681858
 20
-19.846297
 30
0.0
 11
-2.145959
 21
-19.846297
 31
0.0
  0
CIRCLE
  8
L-ZISSEN
 10
1.318142
 20
-21.846297
 30
0.0
 40
4.0
  0
LINE
  8
L-ZISSEN
 10
5.070919
 20
-15.346297
 30
0.0
 11
-2.434635
 21
-15.346297
 31
0.0
  0
LINE
  8
L-ZISSEN
 10
7.668995
 20
-19.846297
 30
0.0
 11
5.070919
 21
-15.346297
 31
0.0
  0
LINE
  8
L-ZISSEN
 10
5.070919
 20
-28.346297
 30
0.0
 11
7.668995
 21
-23.846297
 31
0.0
  0
LINE
  8
L-ZISSEN
 10
-2.434635
 20
-28.346297
 30
0.0
 11
5.070919
 21
-28.346297
 31
0.0
  0
LINE
  8
L-ZISSEN
 10
-5.032711
 20
-23.846297
 30
0.0
 11
-2.434635
 21
-28.346297
 31
0.0
  0
LINE
  8
L-ZISSEN
 10
-2.434635
 20
-15.346297
 30
0.0
 11
-5.032711
 21
-19.846297
 31
0.0
  0
ARC
  8
L-ZISSEN
 10
1.318142
 20
-21.846297
 30
0.0
 40
9.0
 50
192.839588
 51
347.160412
  0
LINE
  8
L-ZISSEN
 10
-25.681858
 20
16.653703
 30
0.0
 11
-25.681858
 21
9.153703
 31
0.0
  0
LINE
  8
L-ZISSEN
 10
-24.469452
 20
9.153703
 30
0.0
 11
-25.681858
 21
9.153703
 31
0.0
  0
LINE
  8
L-ZISSEN
 10
27.105736
 20
9.153703
 30
0.0
 11
28.318142
 21
9.153703
 31
0.0
  0
LINE
  8
L-ZISSEN
 10
28.318142
 20
16.653703
 30
0.0
 11
28.318142
 21
9.153703
 31
0.0
  0
LINE
  8
L-ZISSEN
 10
12.318142
 20
-35.346297
 30
0.0
 11
33.318142
 21
-35.346297
 31
0.0
  0
LINE
  8
L-ZISSEN
 10
12.318142
 20
-36.846297
 30
0.0
 11
12.318142
 21
-35.346297
 31
0.0
  0
LINE
  8
L-ZISSEN
 10
-29.681858
 20
-36.846297
 30
0.0
 11
-29.681858
 21
-35.346297
 31
0.0
  0
LINE
  8
L-TYUSIN
 10
-18.681858
 20
-40.479932
 30
0.0
 11
-18.681858
 21
-17.273755
 31
0.0
  0
LINE
  8
L-ZISSEN
 10
33.318142
 20
23.653703
 30
0.0
 11
33.318142
 21
-35.346297
 31
0.0
  0
LINE
  8
L-ZISSEN
 10
-29.681858
 20
-36.846297
 30
0.0
 11
12.318142
 21
-36.846297
 31
0.0
  0
LINE
  8
L-ZISSEN
 10
30.318142
 20
23.653703
 30
0.0
 11
33.318142
 21
23.653703
 31
0.0
  0
LINE
  8
L-ZISSEN
 10
-25.677228
 20
16.653703
 30
0.0
 11
-27.681858
 21
16.653703
 31
0.0
  0
LINE
  8
L-ZISSEN
 10
30.318142
 20
16.653703
 30
0.0
 11
28.313512
 21
16.653703
 31
0.0
  0
LINE
  8
L-ZISSEN
  6
CONTINUOUS
 62
     7
 10
-25.681858
 20
51.153703
 30
0.0
 11
-25.681858
 21
42.153703
 31
0.0
  0
LINE
  8
L-ZISSEN
  6
CONTINUOUS
 62
     7
 10
-27.681858
 20
25.153703
 30
0.0
 11
-24.469452
 21
25.153703
 31
0.0
  0
LINE
  8
L-ZISSEN
  6
CONTINUOUS
 62
     7
 10
-27.681858
 20
42.153703
 30
0.0
 11
-8.879897
 21
42.153703
 31
0.0
  0
LINE
  8
L-ZISSEN
  6
CONTINUOUS
 62
     7
 10
-15.681858
 20
42.153703
 30
0.0
 11
-15.681858
 21
51.153703
 31
0.0
  0
LINE
  8
L-ZISSEN
  6
CONTINUOUS
 62
     7
 10
-15.681858
 20
51.153703
 30
0.0
 11
-25.681858
 21
51.153703
 31
0.0
  0
LINE
  8
L-ZISSEN
  6
CONTINUOUS
 62
     7
 10
28.318142
 20
51.153703
 30
0.0
 11
28.318142
 21
42.153703
 31
0.0
  0
LINE
  8
L-ZISSEN
  6
CONTINUOUS
 62
     7
 10
18.318142
 20
42.153703
 30
0.0
 11
18.318142
 21
51.153703
 31
0.0
  0
LINE
  8
L-ZISSEN
  6
CONTINUOUS
 62
     7
 10
18.318142
 20
51.153703
 30
0.0
 11
28.318142
 21
51.153703
 31
0.0
  0
LINE
  8
L-ZISSEN
  6
CONTINUOUS
 62
     7
 10
-27.681858
 20
36.153703
 30
0.0
 11
-17.865184
 21
36.153703
 31
0.0
  0
LINE
  8
L-ZISSEN
  6
CONTINUOUS
 62
     7
 10
-22.681858
 20
51.153703
 30
0.0
 11
-22.681858
 21
127.153703
 31
0.0
  0
LINE
  8
L-ZISSEN
  6
CONTINUOUS
 62
     7
 10
-9.681858
 20
106.853703
 30
0.0
 11
-9.681858
 21
67.853703
 31
0.0
  0
LINE
  8
L-ZISSEN
  6
CONTINUOUS
 62
     7
 10
12.318142
 20
106.853703
 30
0.0
 11
12.318142
 21
67.853703
 31
0.0
  0
LINE
  8
L-ZISSEN
  6
CONTINUOUS
 62
     7
 10
12.318142
 20
67.853703
 30
0.0
 11
-9.681858
 21
67.853703
 31
0.0
  0
LINE
  8
L-ZISSEN
  6
CONTINUOUS
 62
     7
 10
34.018142
 20
119.353703
 30
0.0
 11
31.518142
 21
119.353703
 31
0.0
  0
LINE
  8
L-ZISSEN
  6
CONTINUOUS
 62
     7
 10
34.018142
 20
115.353703
 30
0.0
 11
31.518142
 21
115.353703
 31
0.0
  0
LINE
  8
L-ZISSEN
  6
CONTINUOUS
 62
     7
 10
34.018142
 20
120.603703
 30
0.0
 11
34.018142
 21
114.103703
 31
0.0
  0
LINE
  8
L-ZISSEN
  6
CONTINUOUS
 62
     7
 10
27.318142
 20
112.353703
 30
0.0
 11
25.326284
 21
111.203703
 31
0.0
  0
LINE
  8
L-ZISSEN
  6
CONTINUOUS
 62
     7
 10
27.318142
 20
122.353703
 30
0.0
 11
25.326284
 21
123.503703
 31
0.0
  0
LINE
  8
L-ZISSEN
  6
CONTINUOUS
 62
     7
 10
27.318142
 20
112.353703
 30
0.0
 11
27.318142
 21
122.353703
 31
0.0
  0
LINE
  8
L-ZISSEN
  6
CONTINUOUS
 62
     7
 10
31.518142
 20
121.353703
 30
0.0
 11
27.318142
 21
121.353703
 31
0.0
  0
LINE
  8
L-ZISSEN
  6
CONTINUOUS
 62
     7
 10
31.518142
 20
113.353703
 30
0.0
 11
27.318142
 21
113.353703
 31
0.0
  0
LINE
  8
L-ZISSEN
  6
CONTINUOUS
 62
     7
 10
31.518142
 20
113.353703
 30
0.0
 11
31.518142
 21
121.353703
 31
0.0
  0
LINE
  8
L-ZISSEN
  6
CONTINUOUS
 62
     7
 10
22.318142
 20
106.853703
 30
0.0
 11
22.318142
 21
127.153703
 31
0.0
  0
LINE
  8
L-ZISSEN
  6
CONTINUOUS
 62
     7
 10
26.318142
 20
127.153703
 30
0.0
 11
26.318142
 21
166.153703
 31
0.0
  0
ARC
  8
L-ZISSEN
  6
CONTINUOUS
 62
     7
 10
15.318142
 20
166.153703
 30
0.0
 40
11.0
 50
0.0
 51
90.0
  0
LINE
  8
L-ZISSEN
  6
CONTINUOUS
 62
     7
 10
15.318142
 20
177.153703
 30
0.0
 11
-27.681858
 21
177.153703
 31
0.0
  0
ARC
  8
L-ZISSEN
  6
CONTINUOUS
 62
     7
 10
-27.681858
 20
166.153703
 30
0.0
 40
11.0
 50
90.0
 51
180.0
  0
LINE
  8
L-ZISSEN
  6
CONTINUOUS
 62
     7
 10
-38.681858
 20
166.153703
 30
0.0
 11
-38.681858
 21
127.153703
 31
0.0
  0
LINE
  8
L-ZISSEN
  6
CONTINUOUS
 62
     7
 10
-38.681858
 20
127.153703
 30
0.0
 11
26.318142
 21
127.153703
 31
0.0
  0
LINE
  8
L-ZISSEN
  6
CONTINUOUS
 62
     7
 10
-19.681858
 20
106.853703
 30
0.0
 11
-19.681858
 21
127.153703
 31
0.0
  0
LINE
  8
L-ZISSEN
  6
CONTINUOUS
 62
     7
 10
-19.681858
 20
106.853703
 30
0.0
 11
22.318142
 21
106.853703
 31
0.0
  0
LINE
  8
L-ZISSEN
  6
CONTINUOUS
 62
     7
 10
-19.681858
 20
118.853703
 30
0.0
 11
22.318142
 21
118.853703
 31
0.0
  0
LINE
  8
L-ZISSEN
  6
CONTINUOUS
 62
     7
 10
38.018142
 20
120.603703
 30
0.0
 11
34.018142
 21
120.603703
 31
0.0
  0
LINE
  8
L-ZISSEN
  6
CONTINUOUS
 62
     7
 10
38.018142
 20
114.103703
 30
0.0
 11
38.018142
 21
120.603703
 31
0.0
  0
LINE
  8
L-ZISSEN
  6
CONTINUOUS
 62
     7
 10
38.018142
 20
114.103703
 30
0.0
 11
34.018142
 21
114.103703
 31
0.0
  0
LINE
  8
L-TYUSIN
  6
CENTER
 62
     1
 10
1.318142
 20
-40.995625
 30
0.0
 11
1.318142
 21
180.226461
 31
0.0
  0
LINE
  8
L-ZISSEN
  6
CONTINUOUS
 62
     7
 10
-27.681858
 20
16.653703
 30
0.0
 11
-27.681858
 21
42.153703
 31
0.0
  0
LINE
  8
L-ZISSEN
  6
CONTINUOUS
 62
     7
 10
30.318142
 20
42.153703
 30
0.0
 11
30.318142
 21
16.653703
 31
0.0
  0
LINE
  8
L-ZISSEN
  6
CONTINUOUS
 62
     7
 10
25.318142
 20
127.153703
 30
0.0
 11
25.318142
 21
51.153703
 31
0.0
  0
LINE
  8
L-ZISSEN
 10
-27.681858
 20
23.653703
 30
0.0
 11
-40.681858
 21
23.653703
 31
0.0
  0
LINE
  8
L-ZISSEN
 10
-40.681858
 20
-35.346297
 30
0.0
 11
-29.681858
 21
-35.346297
 31
0.0
  0
LINE
  8
L-ZISSEN
  6
CONTINUOUS
 62
     7
 10
85.516181
 20
42.153703
 30
0.0
 11
104.318142
 21
42.153703
 31
0.0
  0
LINE
  8
L-ZISSEN
  6
CONTINUOUS
 62
     7
 10
101.105736
 20
25.153703
 30
0.0
 11
104.318142
 21
25.153703
 31
0.0
  0
LINE
  8
L-ZISSEN
  6
CONTINUOUS
 62
     7
 10
94.501468
 20
36.153703
 30
0.0
 11
104.318142
 21
36.153703
 31
0.0
  0
LINE
  8
L-ZISSEN
 10
82.38921
 20
24.224771
 30
0.0
 11
61.176007
 21
3.011567
 31
0.0
  0
CIRCLE
  8
L-ZISSEN
 10
75.318142
 20
17.153703
 30
0.0
 40
27.0
  0
ARC
  8
L-ZISSEN
 10
75.318142
 20
-21.846297
 30
0.0
 40
9.0
 50
12.839588
 51
167.160412
  0
LINE
  8
L-ZISSEN
 10
71.854041
 20
-23.846297
 30
0.0
 11
60.318142
 21
-23.846297
 31
0.0
  0
LINE
  8
L-ZISSEN
 10
78.782244
 20
-19.846297
 30
0.0
 11
90.318142
 21
-19.846297
 31
0.0
  0
LINE
  8
L-ZISSEN
 10
60.318142
 20
-23.846297
 30
0.0
 11
60.318142
 21
-19.846297
 31
0.0
  0
LINE
  8
L-ZISSEN
 10
90.318142
 20
-23.846297
 30
0.0
 11
78.782244
 21
-23.846297
 31
0.0
  0
LINE
  8
L-ZISSEN
 10
90.318142
 20
-19.846297
 30
0.0
 11
90.318142
 21
-23.846297
 31
0.0
  0
LINE
  8
L-ZISSEN
 10
60.318142
 20
-19.846297
 30
0.0
 11
71.854041
 21
-19.846297
 31
0.0
  0
CIRCLE
  8
L-ZISSEN
 10
75.318142
 20
-21.846297
 30
0.0
 40
4.0
  0
LINE
  8
L-ZISSEN
 10
79.070919
 20
-15.346297
 30
0.0
 11
71.565365
 21
-15.346297
 31
0.0
  0
LINE
  8
L-ZISSEN
 10
81.668995
 20
-19.846297
 30
0.0
 11
79.070919
 21
-15.346297
 31
0.0
  0
LINE
  8
L-ZISSEN
 10
79.070919
 20
-28.346297
 30
0.0
 11
81.668995
 21
-23.846297
 31
0.0
  0
LINE
  8
L-ZISSEN
 10
71.565365
 20
-28.346297
 30
0.0
 11
79.070919
 21
-28.346297
 31
0.0
  0
LINE
  8
L-ZISSEN
 10
68.967289
 20
-23.846297
 30
0.0
 11
71.565365
 21
-28.346297
 31
0.0
  0
LINE
  8
L-ZISSEN
 10
71.565365
 20
-15.346297
 30
0.0
 11
68.967289
 21
-19.846297
 31
0.0
  0
ARC
  8
L-ZISSEN
 10
75.318142
 20
-21.846297
 30
0.0
 40
9.0
 50
192.839588
 51
347.160412
  0
LINE
  8
L-ZISSEN
 10
48.318142
 20
16.653703
 30
0.0
 11
48.318142
 21
9.153703
 31
0.0
  0
LINE
  8
L-ZISSEN
 10
49.530548
 20
9.153703
 30
0.0
 11
48.318142
 21
9.153703
 31
0.0
  0
LINE
  8
L-ZISSEN
 10
101.105736
 20
9.153703
 30
0.0
 11
102.318142
 21
9.153703
 31
0.0
  0
LINE
  8
L-ZISSEN
 10
102.318142
 20
16.653703
 30
0.0
 11
102.318142
 21
9.153703
 31
0.0
  0
LINE
  8
L-ZISSEN
 10
86.318142
 20
-36.846297
 30
0.0
 11
86.318142
 21
-35.346297
 31
0.0
  0
LINE
  8
L-ZISSEN
 10
44.318142
 20
-36.846297
 30
0.0
 11
44.318142
 21
-35.346297
 31
0.0
  0
LINE
  8
L-TYUSIN
 10
55.318142
 20
-40.479932
 30
0.0
 11
55.318142
 21
-17.273755
 31
0.0
  0
LINE
  8
L-ZISSEN
 10
44.318142
 20
-36.846297
 30
0.0
 11
86.318142
 21
-36.846297
 31
0.0
  0
LINE
  8
L-ZISSEN
 10
48.322772
 20
16.653703
 30
0.0
 11
46.318142
 21
16.653703
 31
0.0
  0
LINE
  8
L-ZISSEN
 10
104.318142
 20
16.653703
 30
0.0
 11
102.313512
 21
16.653703
 31
0.0
  0
LINE
  8
L-ZISSEN
  6
CONTINUOUS
 62
     7
 10
48.318142
 20
51.153703
 30
0.0
 11
48.318142
 21
42.153703
 31
0.0
  0
LINE
  8
L-ZISSEN
  6
CONTINUOUS
 62
     7
 10
46.318142
 20
25.153703
 30
0.0
 11
49.530548
 21
25.153703
 31
0.0
  0
LINE
  8
L-ZISSEN
  6
CONTINUOUS
 62
     7
 10
101.318142
 20
112.353703
 30
0.0
 11
99.326284
 21
111.203703
 31
0.0
  0
LINE
  8
L-ZISSEN
  6
CONTINUOUS
 62
     7
 10
101.318142
 20
122.353703
 30
0.0
 11
99.326284
 21
123.503703
 31
0.0
  0
LINE
  8
L-ZISSEN
  6
CONTINUOUS
 62
     7
 10
101.318142
 20
112.353703
 30
0.0
 11
101.318142
 21
122.353703
 31
0.0
  0
LINE
  8
L-ZISSEN
  6
CONTINUOUS
 62
     7
 10
105.518142
 20
121.353703
 30
0.0
 11
101.318142
 21
121.353703
 31
0.0
  0
LINE
  8
L-ZISSEN
  6
CONTINUOUS
 62
     7
 10
105.518142
 20
113.353703
 30
0.0
 11
101.318142
 21
113.353703
 31
0.0
  0
LINE
  8
L-ZISSEN
  6
CONTINUOUS
 62
     7
 10
105.518142
 20
113.353703
 30
0.0
 11
105.518142
 21
121.353703
 31
0.0
  0
LINE
  8
L-ZISSEN
  6
CONTINUOUS
 62
     7
 10
96.318142
 20
106.853703
 30
0.0
 11
96.318142
 21
127.153703
 31
0.0
  0
LINE
  8
L-ZISSEN
  6
CONTINUOUS
 62
     7
 10
100.318142
 20
127.153703
 30
0.0
 11
100.318142
 21
166.153703
 31
0.0
  0
ARC
  8
L-ZISSEN
  6
CONTINUOUS
 62
     7
 10
89.318142
 20
166.153703
 30
0.0
 40
11.0
 50
0.0
 51
90.0
  0
LINE
  8
L-ZISSEN
  6
CONTINUOUS
 62
     7
 10
89.318142
 20
177.153703
 30
0.0
 11
46.318142
 21
177.153703
 31
0.0
  0
LINE
  8
L-ZISSEN
  6
CONTINUOUS
 62
     7
 10
54.318142
 20
106.853703
 30
0.0
 11
54.318142
 21
127.153703
 31
0.0
  0
LINE
  8
L-ZISSEN
  6
CONTINUOUS
 62
     7
 10
54.318142
 20
106.853703
 30
0.0
 11
96.318142
 21
106.853703
 31
0.0
  0
LINE
  8
L-ZISSEN
  6
CONTINUOUS
 62
     7
 10
54.318142
 20
118.853703
 30
0.0
 11
96.318142
 21
118.853703
 31
0.0
  0
LINE
  8
L-TYUSIN
  6
CENTER
 62
     1
 10
105.318142
 20
90.277452
 30
0.0
 11
105.318142
 21
77.828241
 31
0.0
  0
LINE
  8
L-ZISSEN
  6
CONTINUOUS
 62
     7
 10
40.318142
 20
88.653703
 30
0.0
 11
50.318142
 21
88.653703
 31
0.0
  0
LINE
  8
L-TYUSIN
  6
CENTER
 62
     1
 10
45.318142
 20
90.290394
 30
0.0
 11
45.318142
 21
77.969321
 31
0.0
  0
LINE
  8
L-ZISSEN
  6
CONTINUOUS
 62
     7
 10
50.318142
 20
79.653703
 30
0.0
 11
40.318142
 21
79.653703
 31
0.0
  0
LINE
  8
L-ZISSEN
  6
CONTINUOUS
 62
     7
 10
51.318142
 20
51.153703
 30
0.0
 11
51.318142
 21
127.153703
 31
0.0
  0
LINE
  8
L-ZISSEN
  6
CONTINUOUS
 62
     7
 10
46.318142
 20
42.153703
 30
0.0
 11
65.120103
 21
42.153703
 31
0.0
  0
LINE
  8
L-ZISSEN
  6
CONTINUOUS
 62
     7
 10
58.318142
 20
42.153703
 30
0.0
 11
58.318142
 21
51.153703
 31
0.0
  0
LINE
  8
L-ZISSEN
  6
CONTINUOUS
 62
     7
 10
58.318142
 20
51.153703
 30
0.0
 11
48.318142
 21
51.153703
 31
0.0
  0
LINE
  8
L-ZISSEN
  6
CONTINUOUS
 62
     7
 10
102.318142
 20
51.153703
 30
0.0
 11
102.318142
 21
42.153703
 31
0.0
  0
LINE
  8
L-ZISSEN
  6
CONTINUOUS
 62
     7
 10
92.318142
 20
42.153703
 30
0.0
 11
92.318142
 21
51.153703
 31
0.0
  0
LINE
  8
L-ZISSEN
  6
CONTINUOUS
 62
     7
 10
92.318142
 20
51.153703
 30
0.0
 11
102.318142
 21
51.153703
 31
0.0
  0
LINE
  8
L-ZISSEN
  6
CONTINUOUS
 62
     7
 10
99.318142
 20
127.153703
 30
0.0
 11
99.318142
 21
51.153703
 31
0.0
  0
LINE
  8
L-ZISSEN
  6
CONTINUOUS
 62
     7
 10
104.318142
 20
63.953703
 30
0.0
 11
104.318142
 21
16.653703
 31
0.0
  0
LINE
  8
L-ZISSEN
  6
CONTINUOUS
 62
     7
 10
46.318142
 20
16.653703
 30
0.0
 11
46.318142
 21
63.953703
 31
0.0
  0
LINE
  8
L-ZISSEN
  6
CONTINUOUS
 62
     7
 10
46.318142
 20
36.153703
 30
0.0
 11
56.134816
 21
36.153703
 31
0.0
  0
LINE
  8
L-ZISSEN
  6
CONTINUOUS
 62
     7
 10
86.318142
 20
67.853703
 30
0.0
 11
64.318142
 21
67.853703
 31
0.0
  0
LINE
  8
L-ZISSEN
  6
CONTINUOUS
 62
     7
 10
86.318142
 20
106.853703
 30
0.0
 11
86.318142
 21
67.853703
 31
0.0
  0
LINE
  8
L-ZISSEN
  6
CONTINUOUS
 62
     7
 10
64.318142
 20
106.853703
 30
0.0
 11
64.318142
 21
67.853703
 31
0.0
  0
LINE
  8
L-TYUSIN
  6
CENTER
 62
     1
 10
75.318142
 20
-40.995625
 30
0.0
 11
75.318142
 21
180.226461
 31
0.0
  0
LINE
  8
L-ZISSEN
  6
CONTINUOUS
 62
     7
 10
104.318142
 20
63.953703
 30
0.0
 11
120.318142
 21
63.953703
 31
0.0
  0
LINE
  8
L-ZISSEN
  6
CONTINUOUS
 62
     7
 10
104.318142
 20
61.553703
 30
0.0
 11
120.318142
 21
61.553703
 31
0.0
  0
LINE
  8
L-ZISSEN
  6
CONTINUOUS
 62
     7
 10
120.318142
 20
94.153703
 30
0.0
 11
120.318142
 21
61.768542
 31
0.0
  0
LINE
  8
L-ZISSEN
  6
CONTINUOUS
 62
     7
 10
120.318142
 20
94.153703
 30
0.0
 11
99.318142
 21
94.153703
 31
0.0
  0
ARC
  8
L-ZISSEN
  6
CONTINUOUS
 62
     7
 10
110.318142
 20
84.153703
 30
0.0
 40
4.5
 50
270.0
 51
90.0
  0
LINE
  8
L-ZISSEN
  6
CONTINUOUS
 62
     7
 10
110.318142
 20
79.653703
 30
0.0
 11
100.318142
 21
79.653703
 31
0.0
  0
LINE
  8
L-TYUSIN
  6
CENTER
 62
     1
 10
117.634648
 20
84.153703
 30
0.0
 11
93.660527
 21
84.153703
 31
0.0
  0
LINE
  8
L-ZISSEN
  6
CONTINUOUS
 62
     7
 10
100.318142
 20
88.653703
 30
0.0
 11
110.318142
 21
88.653703
 31
0.0
  0
LINE
  8
L-ZISSEN
  6
CONTINUOUS
 62
     7
 10
51.318142
 20
94.153703
 30
0.0
 11
30.318142
 21
94.153703
 31
0.0
  0
LINE
  8
L-TYUSIN
  6
CENTER
 62
     1
 10
56.925698
 20
84.153703
 30
0.0
 11
33.82882
 21
84.153703
 31
0.0
  0
ARC
  8
L-ZISSEN
  6
CONTINUOUS
 62
     7
 10
40.318142
 20
84.153703
 30
0.0
 40
4.5
 50
90.0
 51
270.0
  0
LINE
  8
L-ZISSEN
  6
CONTINUOUS
 62
     7
 10
30.318142
 20
94.153703
 30
0.0
 11
30.318142
 21
61.553703
 31
0.0
  0
LINE
  8
L-ZISSEN
  6
CONTINUOUS
 62
     7
 10
30.318142
 20
61.553703
 30
0.0
 11
46.318142
 21
61.553703
 31
0.0
  0
LINE
  8
L-ZISSEN
  6
CONTINUOUS
 62
     7
 10
30.318142
 20
63.953703
 30
0.0
 11
46.318142
 21
63.953703
 31
0.0
  0
LINE
  8
L-ZISSEN
  6
CONTINUOUS
 62
     7
 10
108.018142
 20
119.353703
 30
0.0
 11
105.518142
 21
119.353703
 31
0.0
  0
LINE
  8
L-ZISSEN
  6
CONTINUOUS
 62
     7
 10
108.018142
 20
115.353703
 30
0.0
 11
105.518142
 21
115.353703
 31
0.0
  0
LINE
  8
L-ZISSEN
  6
CONTINUOUS
 62
     7
 10
108.018142
 20
120.603703
 30
0.0
 11
108.018142
 21
114.103703
 31
0.0
  0
LINE
  8
L-ZISSEN
  6
CONTINUOUS
 62
     7
 10
112.018142
 20
120.603703
 30
0.0
 11
108.018142
 21
120.603703
 31
0.0
  0
LINE
  8
L-ZISSEN
  6
CONTINUOUS
 62
     7
 10
112.018142
 20
114.103703
 30
0.0
 11
112.018142
 21
120.603703
 31
0.0
  0
LINE
  8
L-ZISSEN
  6
CONTINUOUS
 62
     7
 10
112.018142
 20
114.103703
 30
0.0
 11
108.018142
 21
114.103703
 31
0.0
  0
ARC
  8
L-ZISSEN
  6
CONTINUOUS
 62
     7
 10
46.318142
 20
166.153703
 30
0.0
 40
11.0
 50
90.0
 51
180.0
  0
LINE
  8
L-ZISSEN
  6
CONTINUOUS
 62
     7
 10
35.318142
 20
166.153703
 30
0.0
 11
35.318142
 21
127.153703
 31
0.0
  0
LINE
  8
L-ZISSEN
  6
CONTINUOUS
 62
     7
 10
35.318142
 20
127.153703
 30
0.0
 11
100.318142
 21
127.153703
 31
0.0
  0
LINE
  8
L-ZISSEN
 10
46.318142
 20
23.653703
 30
0.0
 11
33.318142
 21
23.653703
 31
0.0
  0
LINE
  8
L-ZISSEN
 10
33.318142
 20
-35.346297
 30
0.0
 11
44.318142
 21
-35.346297
 31
0.0
  0
LINE
  8
L-ZISSEN
 10
86.318142
 20
-35.346297
 30
0.0
 11
107.318142
 21
-35.346297
 31
0.0
  0
LINE
  8
L-ZISSEN
 10
107.318142
 20
23.653703
 30
0.0
 11
107.318142
 21
-35.346297
 31
0.0
  0
LINE
  8
L-ZISSEN
 10
104.318142
 20
23.653703
 30
0.0
 11
107.318142
 21
23.653703
 31
0.0
  0
CIRCLE
  8
L-ZISSEN
 10
280.686836
 20
7.153703
 30
0.0
 40
3.0
  0
LINE
  8
L-ZISSEN
 10
115.418142
 20
2.153703
 30
0.0
 11
115.418142
 21
12.153703
 31
0.0
  0
LINE
  8
L-ZISSEN
 10
115.418142
 20
12.153703
 30
0.0
 11
107.318142
 21
12.153703
 31
0.0
  0
LINE
  8
L-ZISSEN
 10
115.418142
 20
2.153703
 30
0.0
 11
107.318142
 21
2.153703
 31
0.0
  0
LINE
  8
L-ZISSEN
 10
115.418142
 20
4.153703
 30
0.0
 11
116.318142
 21
4.153703
 31
0.0
  0
LINE
  8
L-ZISSEN
 10
116.318142
 20
4.153703
 30
0.0
 11
116.318142
 21
10.153703
 31
0.0
  0
LINE
  8
L-ZISSEN
 10
115.418142
 20
10.153703
 30
0.0
 11
116.318142
 21
10.153703
 31
0.0
  0
LINE
  8
L-ZISSEN
 10
-122.781858
 20
10.153703
 30
0.0
 11
-123.681858
 21
10.153703
 31
0.0
  0
LINE
  8
L-ZISSEN
 10
-123.681858
 20
4.153703
 30
0.0
 11
-123.681858
 21
10.153703
 31
0.0
  0
LINE
  8
L-ZISSEN
 10
-122.781858
 20
4.153703
 30
0.0
 11
-123.681858
 21
4.153703
 31
0.0
  0
LINE
  8
L-ZISSEN
 10
-122.781858
 20
2.153703
 30
0.0
 11
-114.681858
 21
2.153703
 31
0.0
  0
LINE
  8
L-ZISSEN
 10
-122.781858
 20
12.153703
 30
0.0
 11
-114.681858
 21
12.153703
 31
0.0
  0
LINE
  8
L-ZISSEN
 10
-122.781858
 20
2.153703
 30
0.0
 11
-122.781858
 21
12.153703
 31
0.0
  0
LINE
  8
L-ZISSEN
 10
33.318142
 20
275.153703
 30
0.0
 11
33.318142
 21
280.153703
 31
0.0
  0
LINE
  8
L-ZISSEN
 10
-38.681858
 20
266.153703
 30
0.0
 11
-40.681858
 21
266.153703
 31
0.0
  0
LINE
  8
L-ZISSEN
 10
30.318142
 20
280.153703
 30
0.0
 11
33.318142
 21
280.153703
 31
0.0
  0
LINE
  8
L-ZISSEN
 10
33.318142
 20
266.153703
 30
0.0
 11
30.318142
 21
266.153703
 31
0.0
  0
LINE
  8
L-ZISSEN
 10
-40.681858
 20
280.153703
 30
0.0
 11
-38.681858
 21
280.153703
 31
0.0
  0
LINE
  8
L-ZISSEN
 10
33.318142
 20
266.153703
 30
0.0
 11
33.318142
 21
271.153703
 31
0.0
  0
LINE
  8
L-ZISSEN
  6
CONTINUOUS
 62
     7
 10
28.318142
 20
199.153703
 30
0.0
 11
-25.681858
 21
199.153703
 31
0.0
  0
LINE
  8
L-ZISSEN
  6
CONTINUOUS
 62
     7
 10
28.318142
 20
199.153703
 30
0.0
 11
28.318142
 21
232.653703
 31
0.0
  0
LINE
  8
L-ZISSEN
  6
CONTINUOUS
 62
     7
 10
-25.681858
 20
232.653703
 30
0.0
 11
28.318142
 21
232.653703
 31
0.0
  0
LINE
  8
L-ZISSEN
  6
CONTINUOUS
 62
     7
 10
-25.681858
 20
199.153703
 30
0.0
 11
-25.681858
 21
232.653703
 31
0.0
  0
LINE
  8
L-ZISSEN
 10
-3.545858
 20
244.153703
 30
0.0
 11
-3.545858
 21
232.653703
 31
0.0
  0
LINE
  8
L-ZISSEN
 10
6.182142
 20
244.153703
 30
0.0
 11
6.182142
 21
232.653703
 31
0.0
  0
LINE
  8
L-ZISSEN
  6
CONTINUOUS
 62
     7
 10
38.018142
 20
276.403703
 30
0.0
 11
34.018142
 21
276.403703
 31
0.0
  0
LINE
  8
L-ZISSEN
  6
CONTINUOUS
 62
     7
 10
38.018142
 20
269.903703
 30
0.0
 11
34.018142
 21
269.903703
 31
0.0
  0
LINE
  8
L-ZISSEN
  6
CONTINUOUS
 62
     7
 10
38.018142
 20
276.403703
 30
0.0
 11
38.018142
 21
269.903703
 31
0.0
  0
LINE
  8
L-ZISSEN
  6
CONTINUOUS
 62
     7
 10
34.018142
 20
269.903703
 30
0.0
 11
34.018142
 21
276.403703
 31
0.0
  0
LINE
  8
L-ZISSEN
  6
CONTINUOUS
 62
     7
 10
34.018142
 20
271.153703
 30
0.0
 11
31.518142
 21
271.153703
 31
0.0
  0
LINE
  8
L-ZISSEN
  6
CONTINUOUS
 62
     7
 10
34.018142
 20
275.153703
 30
0.0
 11
31.518142
 21
275.153703
 31
0.0
  0
LINE
  8
L-ZISSEN
  6
CONTINUOUS
 62
     7
 10
31.518142
 20
276.617805
 30
0.0
 11
27.318142
 21
276.617805
 31
0.0
  0
LINE
  8
L-ZISSEN
  6
CONTINUOUS
 62
     7
 10
31.518142
 20
276.617805
 30
0.0
 11
31.518142
 21
269.689601
 31
0.0
  0
LINE
  8
L-ZISSEN
  6
CONTINUOUS
 62
     7
 10
27.318142
 20
269.689601
 30
0.0
 11
31.518142
 21
269.689601
 31
0.0
  0
LINE
  8
L-ZISSEN
  6
CONTINUOUS
 62
     7
 10
27.318142
 20
268.153703
 30
0.0
 11
26.318142
 21
267.576353
 31
0.0
  0
LINE
  8
L-ZISSEN
  6
CONTINUOUS
 62
     7
 10
27.318142
 20
278.153703
 30
0.0
 11
26.318142
 21
278.731053
 31
0.0
  0
LINE
  8
L-ZISSEN
  6
CONTINUOUS
 62
     7
 10
27.318142
 20
268.153703
 30
0.0
 11
27.318142
 21
278.153703
 31
0.0
  0
ARC
  8
L-ZISSEN
  6
CONTINUOUS
 62
     7
 10
23.318142
 20
295.153703
 30
0.0
 40
7.0
 50
0.0
 51
64.623066
  0
LINE
  8
L-ZISSEN
  6
CONTINUOUS
 62
     7
 10
30.318142
 20
276.617805
 30
0.0
 11
30.318142
 21
295.153703
 31
0.0
  0
ARC
  8
L-ZISSEN
  6
CONTINUOUS
 62
     7
 10
-20.681858
 20
251.153703
 30
0.0
 40
7.0
 50
180.0
 51
270.0
  0
LINE
  8
L-ZISSEN
  6
CONTINUOUS
 62
     7
 10
30.318142
 20
251.153703
 30
0.0
 11
30.318142
 21
269.689601
 31
0.0
  0
ARC
  8
L-ZISSEN
  6
CONTINUOUS
 62
     7
 10
23.318142
 20
251.153703
 30
0.0
 40
7.0
 50
270.0
 51
0.0
  0
LINE
  8
L-ZISSEN
  6
CONTINUOUS
 62
     7
 10
23.318142
 20
244.153703
 30
0.0
 11
-20.681858
 21
244.153703
 31
0.0
  0
ARC
  8
L-ZISSEN
  6
CONTINUOUS
 62
     7
 10
15.318142
 20
262.153703
 30
0.0
 40
11.0
 50
270.0
 51
0.0
  0
LINE
  8
L-ZISSEN
  6
CONTINUOUS
 62
     7
 10
-27.681858
 20
251.153703
 30
0.0
 11
15.318142
 21
251.153703
 31
0.0
  0
ARC
  8
L-ZISSEN
  6
CONTINUOUS
 62
     7
 10
-27.681858
 20
262.153703
 30
0.0
 40
11.0
 50
180.0
 51
270.0
  0
LINE
  8
L-ZISSEN
  6
CONTINUOUS
 62
     7
 10
-38.681858
 20
262.153703
 30
0.0
 11
-38.681858
 21
269.903703
 31
0.0
  0
LINE
  8
L-ZISSEN
  6
CONTINUOUS
 62
     7
 10
26.318142
 20
262.153703
 30
0.0
 11
26.318142
 21
320.153703
 31
0.0
  0
ARC
  8
L-ZISSEN
  6
CONTINUOUS
 62
     7
 10
15.318142
 20
320.153703
 30
0.0
 40
11.0
 50
0.0
 51
90.0
  0
LINE
  8
L-ZISSEN
  6
CONTINUOUS
 62
     7
 10
15.318142
 20
331.153703
 30
0.0
 11
-27.681858
 21
331.153703
 31
0.0
  0
ARC
  8
L-ZISSEN
  6
CONTINUOUS
 62
     7
 10
-27.681858
 20
320.153703
 30
0.0
 40
11.0
 50
90.0
 51
180.0
  0
LINE
  8
L-TYUSIN
  6
CENTER
 62
     1
 10
1.318142
 20
194.649998
 30
0.0
 11
1.318142
 21
345.774004
 31
0.0
  0
LINE
  8
L-ZISSEN
  6
CONTINUOUS
 62
     7
 10
-38.681858
 20
276.403703
 30
0.0
 11
-38.681858
 21
320.153703
 31
0.0
  0
LINE
  8
L-ZISSEN
 10
107.318142
 20
275.153703
 30
0.0
 11
107.318142
 21
280.153703
 31
0.0
  0
LINE
  8
L-ZISSEN
 10
35.318142
 20
266.153703
 30
0.0
 11
33.318142
 21
266.153703
 31
0.0
  0
LINE
  8
L-ZISSEN
 10
104.318142
 20
280.153703
 30
0.0
 11
107.318142
 21
280.153703
 31
0.0
  0
LINE
  8
L-ZISSEN
 10
107.318142
 20
266.153703
 30
0.0
 11
104.318142
 21
266.153703
 31
0.0
  0
LINE
  8
L-ZISSEN
 10
33.318142
 20
280.153703
 30
0.0
 11
35.318142
 21
280.153703
 31
0.0
  0
LINE
  8
L-ZISSEN
 10
107.318142
 20
266.153703
 30
0.0
 11
107.318142
 21
271.153703
 31
0.0
  0
LINE
  8
L-ZISSEN
  6
CONTINUOUS
 62
     7
 10
102.318142
 20
199.153703
 30
0.0
 11
48.318142
 21
199.153703
 31
0.0
  0
LINE
  8
L-ZISSEN
  6
CONTINUOUS
 62
     7
 10
102.318142
 20
199.153703
 30
0.0
 11
102.318142
 21
232.653703
 31
0.0
  0
LINE
  8
L-ZISSEN
  6
CONTINUOUS
 62
     7
 10
48.318142
 20
232.653703
 30
0.0
 11
102.318142
 21
232.653703
 31
0.0
  0
LINE
  8
L-ZISSEN
  6
CONTINUOUS
 62
     7
 10
48.318142
 20
199.153703
 30
0.0
 11
48.318142
 21
232.653703
 31
0.0
  0
LINE
  8
L-ZISSEN
 10
70.454142
 20
244.153703
 30
0.0
 11
70.454142
 21
232.653703
 31
0.0
  0
LINE
  8
L-ZISSEN
 10
80.182142
 20
244.153703
 30
0.0
 11
80.182142
 21
232.653703
 31
0.0
  0
LINE
  8
L-ZISSEN
  6
CONTINUOUS
 62
     7
 10
30.318142
 20
339.153703
 30
0.0
 11
30.318142
 21
336.853703
 31
0.0
  0
LINE
  8
L-ZISSEN
  6
CONTINUOUS
 62
     7
 10
112.018142
 20
276.403703
 30
0.0
 11
108.018142
 21
276.403703
 31
0.0
  0
LINE
  8
L-ZISSEN
  6
CONTINUOUS
 62
     7
 10
112.018142
 20
269.903703
 30
0.0
 11
108.018142
 21
269.903703
 31
0.0
  0
LINE
  8
L-ZISSEN
  6
CONTINUOUS
 62
     7
 10
112.018142
 20
276.403703
 30
0.0
 11
112.018142
 21
269.903703
 31
0.0
  0
LINE
  8
L-ZISSEN
  6
CONTINUOUS
 62
     7
 10
108.018142
 20
269.903703
 30
0.0
 11
108.018142
 21
276.403703
 31
0.0
  0
LINE
  8
L-ZISSEN
  6
CONTINUOUS
 62
     7
 10
108.018142
 20
271.153703
 30
0.0
 11
105.518142
 21
271.153703
 31
0.0
  0
LINE
  8
L-ZISSEN
  6
CONTINUOUS
 62
     7
 10
108.018142
 20
275.153703
 30
0.0
 11
105.518142
 21
275.153703
 31
0.0
  0
LINE
  8
L-ZISSEN
  6
CONTINUOUS
 62
     7
 10
105.518142
 20
276.617805
 30
0.0
 11
101.318142
 21
276.617805
 31
0.0
  0
LINE
  8
L-ZISSEN
  6
CONTINUOUS
 62
     7
 10
105.518142
 20
276.617805
 30
0.0
 11
105.518142
 21
269.689601
 31
0.0
  0
LINE
  8
L-ZISSEN
  6
CONTINUOUS
 62
     7
 10
101.318142
 20
269.689601
 30
0.0
 11
105.518142
 21
269.689601
 31
0.0
  0
LINE
  8
L-ZISSEN
  6
CONTINUOUS
 62
     7
 10
101.318142
 20
268.153703
 30
0.0
 11
100.318142
 21
267.576353
 31
0.0
  0
LINE
  8
L-ZISSEN
  6
CONTINUOUS
 62
     7
 10
101.318142
 20
278.153703
 30
0.0
 11
100.318142
 21
278.731053
 31
0.0
  0
LINE
  8
L-ZISSEN
  6
CONTINUOUS
 62
     7
 10
101.318142
 20
268.153703
 30
0.0
 11
101.318142
 21
278.153703
 31
0.0
  0
LINE
  8
L-ZISSEN
  6
CONTINUOUS
 62
     7
 10
120.318142
 20
339.153703
 30
0.0
 11
120.318142
 21
336.853703
 31
0.0
  0
ARC
  8
L-ZISSEN
  6
CONTINUOUS
 62
     7
 10
97.318142
 20
295.153703
 30
0.0
 40
7.0
 50
0.0
 51
64.623066
  0
LINE
  8
L-ZISSEN
  6
CONTINUOUS
 62
     7
 10
101.318142
 20
303.153703
 30
0.0
 11
120.318142
 21
336.853703
 31
0.0
  0
LINE
  8
L-ZISSEN
  6
CONTINUOUS
 62
     7
 10
104.318142
 20
276.617805
 30
0.0
 11
104.318142
 21
295.153703
 31
0.0
  0
ARC
  8
L-ZISSEN
  6
CONTINUOUS
 62
     7
 10
53.318142
 20
251.153703
 30
0.0
 40
7.0
 50
180.0
 51
270.0
  0
LINE
  8
L-ZISSEN
  6
CONTINUOUS
 62
     7
 10
104.318142
 20
251.153703
 30
0.0
 11
104.318142
 21
269.689601
 31
0.0
  0
ARC
  8
L-ZISSEN
  6
CONTINUOUS
 62
     7
 10
97.318142
 20
251.153703
 30
0.0
 40
7.0
 50
270.0
 51
0.0
  0
LINE
  8
L-ZISSEN
  6
CONTINUOUS
 62
     7
 10
97.318142
 20
244.153703
 30
0.0
 11
53.318142
 21
244.153703
 31
0.0
  0
ARC
  8
L-ZISSEN
  6
CONTINUOUS
 62
     7
 10
89.318142
 20
262.153703
 30
0.0
 40
11.0
 50
270.0
 51
0.0
  0
LINE
  8
L-ZISSEN
  6
CONTINUOUS
 62
     7
 10
46.318142
 20
251.153703
 30
0.0
 11
89.318142
 21
251.153703
 31
0.0
  0
ARC
  8
L-ZISSEN
  6
CONTINUOUS
 62
     7
 10
46.318142
 20
262.153703
 30
0.0
 40
11.0
 50
180.0
 51
270.0
  0
LINE
  8
L-ZISSEN
  6
CONTINUOUS
 62
     7
 10
35.318142
 20
262.153703
 30
0.0
 11
35.318142
 21
269.903703
 31
0.0
  0
LINE
  8
L-ZISSEN
  6
CONTINUOUS
 62
     7
 10
100.318142
 20
262.153703
 30
0.0
 11
100.318142
 21
320.153703
 31
0.0
  0
ARC
  8
L-ZISSEN
  6
CONTINUOUS
 62
     7
 10
89.318142
 20
320.153703
 30
0.0
 40
11.0
 50
0.0
 51
90.0
  0
LINE
  8
L-TYUSIN
  6
CENTER
 62
     1
 10
75.318142
 20
194.649998
 30
0.0
 11
75.318142
 21
345.774004
 31
0.0
  0
LINE
  8
L-ZISSEN
  6
CONTINUOUS
 62
     7
 10
89.318142
 20
331.153703
 30
0.0
 11
46.318142
 21
331.153703
 31
0.0
  0
ARC
  8
L-ZISSEN
  6
CONTINUOUS
 62
     7
 10
46.318142
 20
320.153703
 30
0.0
 40
11.0
 50
90.0
 51
180.0
  0
LINE
  8
L-ZISSEN
  6
CONTINUOUS
 62
     7
 10
36.712006
 20
325.513008
 30
0.0
 11
30.318142
 21
336.853703
 31
0.0
  0
LINE
  8
L-ZISSEN
  6
CONTINUOUS
 62
     7
 10
120.318142
 20
336.853703
 30
0.0
 11
30.318142
 21
336.853703
 31
0.0
  0
LINE
  8
L-ZISSEN
  6
CONTINUOUS
 62
     7
 10
120.318142
 20
339.153703
 30
0.0
 11
30.318142
 21
339.153703
 31
0.0
  0
LINE
  8
L-ZISSEN
  6
CONTINUOUS
 62
     7
 10
-31.226282
 20
330.567015
 30
0.0
 11
-27.681858
 21
336.853703
 31
0.0
  0
LINE
  8
L-TYUSIN
  6
CENTER
 62
     1
 10
105.318142
 20
343.757528
 30
0.0
 11
105.318142
 21
331.308317
 31
0.0
  0
LINE
  8
L-TYUSIN
  6
CENTER
 62
     1
 10
45.318142
 20
343.77047
 30
0.0
 11
45.318142
 21
331.449396
 31
0.0
  0
LINE
  8
L-TYUSIN
  6
CENTER
 62
     1
 10
-42.681858
 20
343.757528
 30
0.0
 11
-42.681858
 21
331.308317
 31
0.0
  0
LINE
  8
L-TYUSIN
  6
CENTER
 62
     1
 10
-102.681858
 20
343.77047
 30
0.0
 11
-102.681858
 21
331.449396
 31
0.0
  0
LINE
  8
L-ZISSEN
  6
CONTINUOUS
 62
     7
 10
35.318142
 20
276.403703
 30
0.0
 11
35.318142
 21
320.153703
 31
0.0
  0
LINE
  8
L-ZISSEN
 10
-96.583249
 20
353.550197
 30
0.0
 11
-100.96982
 21
357.936767
 31
0.0
  0
LINE
  8
L-ZISSEN
 10
-100.96982
 20
353.550197
 30
0.0
 11
-96.583249
 21
357.936767
 31
0.0
  0
TEXT
  8
L-ZISSEN
 10
-93.572048
 20
353.711317
 30
0.0
 40
4.5
  1
N
  0
LINE
  8
L-ZISSEN
 10
277.800085
 20
12.153703
 30
0.0
 11
274.913333
 21
7.153703
 31
0.0
  0
LINE
  8
L-ZISSEN
 10
274.913333
 20
7.153703
 30
0.0
 11
277.800085
 21
2.153703
 31
0.0
  0
LINE
  8
L-ZISSEN
 10
277.800085
 20
2.153703
 30
0.0
 11
283.573587
 21
2.153703
 31
0.0
  0
LINE
  8
L-ZISSEN
 10
283.573587
 20
2.153703
 30
0.0
 11
286.460339
 21
7.153703
 31
0.0
  0
LINE
  8
L-ZISSEN
 10
286.460339
 20
7.153703
 30
0.0
 11
283.573587
 21
12.153703
 31
0.0
  0
LINE
  8
L-ZISSEN
 10
283.573587
 20
12.153703
 30
0.0
 11
277.800085
 21
12.153703
 31
0.0
  0
ENDSEC
  0
EOF
