  0
SECTION
  2
HEADER
  9
$ACADVER
  1
AC1006
  9
$INSBASE
 10
150.303916
 20
159.56471
 30
0.0
  9
$EXTMIN
 10
26.459958
 20
-68.142154
  9
$EXTMAX
 10
560.879758
 20
253.792267
  9
$LIMMIN
 10
0.0
 20
0.0
  9
$LIMMAX
 10
12.0
 20
9.0
  9
$ORTHOMODE
 70
     1
  9
$REGENMODE
 70
     1
  9
$FILLMODE
 70
     1
  9
$QTEXTMODE
 70
     0
  9
$MIRRTEXT
 70
     1
  9
$DRAGMODE
 70
     2
  9
$LTSCALE
 40
1.0
  9
$OSMODE
 70
     0
  9
$ATTMODE
 70
     1
  9
$TEXTSIZE
 40
4.5
  9
$TRACEWID
 40
0.05
  9
$TEXTSTYLE
  7
STANDARD
  9
$CLAYER
  8
L-ZISSEN
  9
$CELTYPE
  6
BYLAYER
  9
$CECOLOR
 62
   256
  9
$DIMSCALE
 40
1.0
  9
$DIMASZ
 40
2.0
  9
$DIMEXO
 40
0.0625
  9
$DIMDLI
 40
0.38
  9
$DIMRND
 40
0.0
  9
$DIMDLE
 40
0.0
  9
$DIMEXE
 40
0.18
  9
$DIMTP
 40
0.0
  9
$DIMTM
 40
0.0
  9
$DIMTXT
 40
4.5
  9
$DIMCEN
 40
0.09
  9
$DIMTSZ
 40
0.0
  9
$DIMTOL
 70
     0
  9
$DIMLIM
 70
     0
  9
$DIMTIH
 70
     1
  9
$DIMTOH
 70
     1
  9
$DIMSE1
 70
     0
  9
$DIMSE2
 70
     0
  9
$DIMTAD
 70
     0
  9
$DIMZIN
 70
     0
  9
$DIMBLK
  1

  9
$DIMASO
 70
     0
  9
$DIMSHO
 70
     0
  9
$DIMPOST
  1

  9
$DIMAPOST
  1

  9
$DIMALT
 70
     0
  9
$DIMALTD
 70
     2
  9
$DIMALTF
 40
25.4
  9
$DIMLFAC
 40
1.0
  9
$DIMTOFL
 70
     0
  9
$DIMTVP
 40
0.0
  9
$DIMTIX
 70
     0
  9
$DIMSOXD
 70
     0
  9
$DIMSAH
 70
     0
  9
$DIMBLK1
  1

  9
$DIMBLK2
  1

  9
$LUNITS
 70
     2
  9
$LUPREC
 70
     4
  9
$AXISMODE
 70
     0
  9
$AXISUNIT
 10
0.0
 20
0.0
  9
$SKETCHINC
 40
0.1
  9
$FILLETRAD
 40
0.0
  9
$AUNITS
 70
     0
  9
$AUPREC
 70
     0
  9
$MENU
  1
acad
  9
$ELEVATION
 40
0.0
  9
$THICKNESS
 40
0.0
  9
$LIMCHECK
 70
     0
  9
$BLIPMODE
 70
     1
  9
$CHAMFERA
 40
0.0
  9
$CHAMFERB
 40
0.0
  9
$SKPOLY
 70
     0
  9
$TDCREATE
 40
2449015.9351954861
  9
$TDUPDATE
 40
2449015.9351954861
  9
$TDINDWG
 40
0.0000000000
  9
$TDUSRTIMER
 40
0.0000000000
  9
$USRTIMER
 70
     1
  9
$ANGBASE
 50
0.0
  9
$ANGDIR
 70
     0
  9
$PDMODE
 70
     0
  9
$PDSIZE
 40
0.0
  9
$PLINEWID
 40
0.0
  9
$COORDS
 70
     2
  9
$SPLFRAME
 70
     0
  9
$SPLINETYPE
 70
     6
  9
$SPLINESEGS
 70
     8
  9
$ATTDIA
 70
     0
  9
$ATTREQ
 70
     1
  9
$HANDLING
 70
     0
  9
$HANDSEED
  5
0
  9
$SURFTAB1
 70
     6
  9
$SURFTAB2
 70
     6
  9
$SURFTYPE
 70
     6
  9
$SURFU
 70
     6
  9
$SURFV
 70
     6
  9
$FLATLAND
 70
     0
  9
$UCSNAME
  2

  9
$UCSORG
 10
0.0
 20
0.0
 30
0.0
  9
$UCSXDIR
 10
1.0
 20
0.0
 30
0.0
  9
$UCSYDIR
 10
0.0
 20
1.0
 30
0.0
  9
$USERI1
 70
     0
  9
$USERI2
 70
     0
  9
$USERI3
 70
     0
  9
$USERI4
 70
     0
  9
$USERI5
 70
     0
  9
$USERR1
 40
0.0
  9
$USERR2
 40
0.0
  9
$USERR3
 40
0.0
  9
$USERR4
 40
0.0
  9
$USERR5
 40
0.0
  9
$WORLDVIEW
 70
     1
  0
ENDSEC
  0
SECTION
  2
TABLES
  0
TABLE
  2
VPORT
 70
     2
  0
VPORT
  2
*ACTIVE
 70
     0
 10
0.0
 20
0.0
 11
1.0
 21
1.0
 12
315.52763
 22
75.773021
 13
0.0
 23
0.0
 14
5.0
 24
5.0
 15
0.0
 25
0.0
 16
0.0
 26
0.0
 36
1.0
 17
0.0
 27
0.0
 37
0.0
 40
404.132252
 41
1.5487
 42
50.0
 43
0.0
 44
0.0
 50
0.0
 51
0.0
 71
     0
 72
   100
 73
     1
 74
     0
 75
     0
 76
     0
 77
     0
 78
     0
  0
ENDTAB
  0
TABLE
  2
LTYPE
 70
     2
  0
LTYPE
  2
CONTINUOUS
 70
    64
  3
Solid line
 72
    65
 73
     0
 40
0.0
  0
LTYPE
  2
CENTER
 70
    64
  3
____ _ ____ _ ____ _ ____ _ ____ _ ____
 72
    65
 73
     4
 40
21.5
 49
15.0
 49
-2.5
 49
1.5
 49
-2.5
  0
ENDTAB
  0
TABLE
  2
LAYER
 70
     3
  0
LAYER
  2
0
 70
     0
 62
     7
  6
CONTINUOUS
  0
LAYER
  2
L-ZISSEN
 70
    64
 62
     7
  6
CONTINUOUS
  0
LAYER
  2
L-TYUSIN
 70
    64
 62
     1
  6
CENTER
  0
ENDTAB
  0
TABLE
  2
STYLE
 70
     1
  0
STYLE
  2
STANDARD
 70
    64
 40
0.0
 41
1.0
 50
0.0
 71
     0
 42
4.5
  3
txt
  4

  0
ENDTAB
  0
TABLE
  2
VIEW
 70
     0
  0
ENDTAB
  0
TABLE
  2
UCS
 70
     0
  0
ENDTAB
  0
TABLE
  2
DWGMGR
 70
     0
  0
ENDTAB
  0
ENDSEC
  0
SECTION
  2
BLOCKS
  0
ENDSEC
  0
SECTION
  2
ENTITIES
  0
LINE
  8
L-ZISSEN
 10
170.303916
 20
159.56471
 30
0.0
 11
130.303916
 21
159.56471
 31
0.0
  0
LINE
  8
L-ZISSEN
  6
CONTINUOUS
 62
     7
 10
130.303916
 20
178.56471
 30
0.0
 11
170.303916
 21
178.56471
 31
0.0
  0
LINE
  8
L-ZISSEN
  6
CONTINUOUS
 62
     7
 10
170.053916
 20
182.76471
 30
0.0
 11
130.553916
 21
182.76471
 31
0.0
  0
LINE
  8
L-ZISSEN
  6
CONTINUOUS
 62
     7
 10
131.553916
 20
182.76471
 30
0.0
 11
132.863212
 21
232.76471
 31
0.0
  0
LINE
  8
L-ZISSEN
  6
CONTINUOUS
 62
     7
 10
132.863212
 20
232.76471
 30
0.0
 11
167.74462
 21
232.76471
 31
0.0
  0
LINE
  8
L-ZISSEN
 10
130.303916
 20
126.56471
 30
0.0
 11
170.303916
 21
126.56471
 31
0.0
  0
CIRCLE
  8
L-ZISSEN
  6
CONTINUOUS
 62
     7
 10
142.303916
 20
151.56471
 30
0.0
 40
4.85
  0
LINE
  8
L-TYUSIN
  6
CENTER
 62
     1
 10
150.303916
 20
118.591704
 30
0.0
 11
150.303916
 21
238.0
 31
0.0
  0
LINE
  8
L-ZISSEN
 10
130.303916
 20
178.56471
 30
0.0
 11
130.303916
 21
126.56471
 31
0.0
  0
LINE
  8
L-ZISSEN
 10
170.303916
 20
126.56471
 30
0.0
 11
170.303916
 21
178.56471
 31
0.0
  0
LINE
  8
L-ZISSEN
  6
CONTINUOUS
 62
     7
 10
182.303916
 20
175.56471
 30
0.0
 11
182.303916
 21
147.56471
 31
0.0
  0
CIRCLE
  8
L-ZISSEN
  6
CONTINUOUS
 62
     7
 10
178.303916
 20
170.56471
 30
0.0
 40
2.8
  0
CIRCLE
  8
L-ZISSEN
  6
CONTINUOUS
 62
     7
 10
178.303916
 20
152.56471
 30
0.0
 40
2.8
  0
LINE
  8
L-TYUSIN
  6
CENTER
 62
     1
 10
181.453916
 20
152.56471
 30
0.0
 11
175.153916
 21
152.56471
 31
0.0
  0
LINE
  8
L-TYUSIN
  6
CENTER
 62
     1
 10
178.303916
 20
149.41471
 30
0.0
 11
178.303916
 21
155.71471
 31
0.0
  0
LINE
  8
L-TYUSIN
  6
CENTER
 62
     1
 10
181.453916
 20
170.56471
 30
0.0
 11
175.153916
 21
170.56471
 31
0.0
  0
LINE
  8
L-TYUSIN
  6
CENTER
 62
     1
 10
178.303916
 20
167.41471
 30
0.0
 11
178.303916
 21
173.71471
 31
0.0
  0
LINE
  8
L-ZISSEN
  6
CONTINUOUS
 62
     7
 10
118.303916
 20
175.56471
 30
0.0
 11
118.303916
 21
147.56471
 31
0.0
  0
CIRCLE
  8
L-ZISSEN
  6
CONTINUOUS
 62
     7
 10
122.303916
 20
170.56471
 30
0.0
 40
2.8
  0
LINE
  8
L-TYUSIN
  6
CENTER
 62
     1
 10
122.303916
 20
167.41471
 30
0.0
 11
122.303916
 21
173.71471
 31
0.0
  0
LINE
  8
L-TYUSIN
  6
CENTER
 62
     1
 10
119.153916
 20
170.56471
 30
0.0
 11
125.453916
 21
170.56471
 31
0.0
  0
LINE
  8
L-TYUSIN
  6
CENTER
 62
     1
 10
119.153916
 20
152.56471
 30
0.0
 11
125.453916
 21
152.56471
 31
0.0
  0
CIRCLE
  8
L-ZISSEN
  6
CONTINUOUS
 62
     7
 10
122.303916
 20
152.56471
 30
0.0
 40
2.8
  0
LINE
  8
L-TYUSIN
  6
CENTER
 62
     1
 10
122.303916
 20
149.41471
 30
0.0
 11
122.303916
 21
155.71471
 31
0.0
  0
LINE
  8
L-ZISSEN
  6
CONTINUOUS
 62
     7
 10
118.303916
 20
147.56471
 30
0.0
 11
130.303916
 21
147.56471
 31
0.0
  0
LINE
  8
L-ZISSEN
  6
CONTINUOUS
 62
     7
 10
182.303916
 20
147.56471
 30
0.0
 11
170.303916
 21
147.56471
 31
0.0
  0
LINE
  8
L-ZISSEN
  6
CONTINUOUS
 62
     7
 10
130.803916
 20
121.56471
 30
0.0
 11
130.803916
 21
126.56471
 31
0.0
  0
LINE
  8
L-ZISSEN
  6
CONTINUOUS
 62
     7
 10
137.803916
 20
121.56471
 30
0.0
 11
130.803916
 21
121.56471
 31
0.0
  0
LINE
  8
L-ZISSEN
  6
CONTINUOUS
 62
     7
 10
137.803916
 20
121.56471
 30
0.0
 11
137.803916
 21
126.56471
 31
0.0
  0
LINE
  8
L-ZISSEN
  6
CONTINUOUS
 62
     7
 10
162.803916
 20
121.56471
 30
0.0
 11
162.803916
 21
126.56471
 31
0.0
  0
LINE
  8
L-ZISSEN
  6
CONTINUOUS
 62
     7
 10
169.803916
 20
121.56471
 30
0.0
 11
169.803916
 21
126.56471
 31
0.0
  0
LINE
  8
L-ZISSEN
  6
CONTINUOUS
 62
     7
 10
162.803916
 20
121.56471
 30
0.0
 11
169.803916
 21
121.56471
 31
0.0
  0
CIRCLE
  8
L-ZISSEN
  6
CONTINUOUS
 62
     7
 10
160.303916
 20
134.56471
 30
0.0
 40
2.5
  0
LINE
  8
L-ZISSEN
  6
CONTINUOUS
 62
     7
 10
323.821294
 20
232.76471
 30
0.0
 11
244.44372
 21
232.76471
 31
0.0
  0
LINE
  8
L-TYUSIN
  6
CENTER
 62
     1
 10
280.132507
 20
118.591704
 30
0.0
 11
280.132507
 21
238.0
 31
0.0
  0
LINE
  8
L-ZISSEN
  6
CONTINUOUS
 62
     7
 10
242.300248
 20
208.26471
 30
0.0
 11
244.44372
 21
232.76471
 31
0.0
  0
LINE
  8
L-ZISSEN
  6
CONTINUOUS
 62
     7
 10
325.964766
 20
208.26471
 30
0.0
 11
323.821294
 21
232.76471
 31
0.0
  0
LINE
  8
L-ZISSEN
  6
CONTINUOUS
 62
     7
 10
326.632507
 20
182.76471
 30
0.0
 11
325.964766
 21
208.26471
 31
0.0
  0
LINE
  8
L-ZISSEN
  6
CONTINUOUS
 62
     7
 10
241.632507
 20
182.76471
 30
0.0
 11
242.300248
 21
208.26471
 31
0.0
  0
LINE
  8
L-ZISSEN
  6
CONTINUOUS
 62
     7
 10
240.632507
 20
182.76471
 30
0.0
 11
327.632507
 21
182.76471
 31
0.0
  0
LINE
  8
L-ZISSEN
  6
CONTINUOUS
 62
     7
 10
240.632507
 20
178.56471
 30
0.0
 11
240.632507
 21
182.76471
 31
0.0
  0
LINE
  8
L-ZISSEN
  6
CONTINUOUS
 62
     7
 10
327.632507
 20
182.76471
 30
0.0
 11
327.632507
 21
178.56471
 31
0.0
  0
LINE
  8
L-ZISSEN
  6
CONTINUOUS
 62
     7
 10
331.032507
 20
147.41471
 30
0.0
 11
331.032507
 21
175.56471
 31
0.0
  0
LINE
  8
L-ZISSEN
  6
CONTINUOUS
 62
     7
 10
332.632507
 20
175.56471
 30
0.0
 11
332.632507
 21
147.41471
 31
0.0
  0
LINE
  8
L-ZISSEN
  6
CONTINUOUS
 62
     7
 10
332.632507
 20
147.41471
 30
0.0
 11
320.632507
 21
147.41471
 31
0.0
  0
LINE
  8
L-ZISSEN
  6
CONTINUOUS
 62
     7
 10
320.632507
 20
147.41471
 30
0.0
 11
292.632507
 21
160.41471
 31
0.0
  0
LINE
  8
L-ZISSEN
  6
CONTINUOUS
 62
     7
 10
297.132507
 20
178.56471
 30
0.0
 11
297.132507
 21
175.56471
 31
0.0
  0
LINE
  8
L-ZISSEN
  6
CONTINUOUS
 62
     7
 10
324.132507
 20
125.56471
 30
0.0
 11
297.132507
 21
125.56471
 31
0.0
  0
LINE
  8
L-ZISSEN
  6
CONTINUOUS
 62
     7
 10
324.132507
 20
178.56471
 30
0.0
 11
324.132507
 21
175.56471
 31
0.0
  0
LINE
  8
L-ZISSEN
  6
CONTINUOUS
 62
     7
 10
285.132507
 20
121.56471
 30
0.0
 11
292.132507
 21
121.56471
 31
0.0
  0
LINE
  8
L-ZISSEN
  6
CONTINUOUS
 62
     7
 10
292.132507
 20
121.56471
 30
0.0
 11
292.132507
 21
126.56471
 31
0.0
  0
LINE
  8
L-ZISSEN
  6
CONTINUOUS
 62
     7
 10
285.132507
 20
121.56471
 30
0.0
 11
285.132507
 21
126.56471
 31
0.0
  0
LINE
  8
L-ZISSEN
  6
CONTINUOUS
 62
     7
 10
252.632507
 20
126.56471
 30
0.0
 11
292.632507
 21
126.56471
 31
0.0
  0
LINE
  8
L-ZISSEN
  6
CONTINUOUS
 62
     7
 10
292.632507
 20
178.56471
 30
0.0
 11
292.632507
 21
175.56471
 31
0.0
  0
LINE
  8
L-ZISSEN
  6
CONTINUOUS
 62
     7
 10
260.132507
 20
121.56471
 30
0.0
 11
260.132507
 21
126.56471
 31
0.0
  0
LINE
  8
L-ZISSEN
  6
CONTINUOUS
 62
     7
 10
260.132507
 20
121.56471
 30
0.0
 11
253.132507
 21
121.56471
 31
0.0
  0
LINE
  8
L-ZISSEN
  6
CONTINUOUS
 62
     7
 10
253.132507
 20
121.56471
 30
0.0
 11
253.132507
 21
126.56471
 31
0.0
  0
LINE
  8
L-ZISSEN
  6
CONTINUOUS
 62
     7
 10
252.632507
 20
138.56471
 30
0.0
 11
248.632507
 21
138.56471
 31
0.0
  0
LINE
  8
L-ZISSEN
  6
CONTINUOUS
 62
     7
 10
248.632507
 20
136.56471
 30
0.0
 11
245.159982
 21
136.56471
 31
0.0
  0
LINE
  8
L-ZISSEN
  6
CONTINUOUS
 62
     7
 10
245.159982
 20
132.56471
 30
0.0
 11
245.159982
 21
136.56471
 31
0.0
  0
LINE
  8
L-ZISSEN
  6
CONTINUOUS
 62
     7
 10
248.632507
 20
132.56471
 30
0.0
 11
245.159982
 21
132.56471
 31
0.0
  0
LINE
  8
L-ZISSEN
  6
CONTINUOUS
 62
     7
 10
252.632507
 20
130.56471
 30
0.0
 11
248.632507
 21
130.56471
 31
0.0
  0
LINE
  8
L-ZISSEN
  6
CONTINUOUS
 62
     7
 10
252.632507
 20
178.56471
 30
0.0
 11
252.632507
 21
126.56471
 31
0.0
  0
LINE
  8
L-ZISSEN
  6
CONTINUOUS
 62
     7
 10
252.632507
 20
159.56471
 30
0.0
 11
292.632507
 21
159.56471
 31
0.0
  0
LINE
  8
L-ZISSEN
  6
CONTINUOUS
 62
     7
 10
257.632507
 20
175.56471
 30
0.0
 11
257.632507
 21
160.41471
 31
0.0
  0
CIRCLE
  8
L-ZISSEN
  6
CONTINUOUS
 62
     7
 10
263.632507
 20
167.56471
 30
0.0
 40
3.5
  0
LINE
  8
L-ZISSEN
  6
CONTINUOUS
 62
     7
 10
257.632507
 20
160.41471
 30
0.0
 11
292.632507
 21
160.41471
 31
0.0
  0
CIRCLE
  8
L-ZISSEN
  6
CONTINUOUS
 62
     7
 10
281.632507
 20
167.56471
 30
0.0
 40
3.5
  0
LINE
  8
L-ZISSEN
  6
CONTINUOUS
 62
     7
 10
445.739528
 20
170.56471
 30
0.0
 11
469.739528
 21
170.56471
 31
0.0
  0
LINE
  8
L-ZISSEN
  6
CONTINUOUS
 62
     7
 10
445.739528
 20
132.56471
 30
0.0
 11
445.739528
 21
170.56471
 31
0.0
  0
LINE
  8
L-ZISSEN
  6
CONTINUOUS
 62
     7
 10
169.053916
 20
182.76471
 30
0.0
 11
167.74462
 21
232.76471
 31
0.0
  0
LINE
  8
L-ZISSEN
  6
CONTINUOUS
 62
     7
 10
157.994515
 20
138.56471
 30
0.0
 11
155.685114
 21
134.56471
 31
0.0
  0
LINE
  8
L-ZISSEN
  6
CONTINUOUS
 62
     7
 10
155.685114
 20
134.56471
 30
0.0
 11
157.994515
 21
130.56471
 31
0.0
  0
LINE
  8
L-ZISSEN
  6
CONTINUOUS
 62
     7
 10
157.994515
 20
130.56471
 30
0.0
 11
162.613317
 21
130.56471
 31
0.0
  0
LINE
  8
L-ZISSEN
  6
CONTINUOUS
 62
     7
 10
162.613317
 20
130.56471
 30
0.0
 11
164.922718
 21
134.56471
 31
0.0
  0
LINE
  8
L-ZISSEN
  6
CONTINUOUS
 62
     7
 10
164.922718
 20
134.56471
 30
0.0
 11
162.613317
 21
138.56471
 31
0.0
  0
LINE
  8
L-ZISSEN
  6
CONTINUOUS
 62
     7
 10
162.613317
 20
138.56471
 30
0.0
 11
157.994515
 21
138.56471
 31
0.0
  0
LINE
  8
L-ZISSEN
 10
130.553916
 20
182.76471
 30
0.0
 11
130.553916
 21
178.56471
 31
0.0
  0
LINE
  8
L-ZISSEN
 10
170.053916
 20
182.76471
 30
0.0
 11
170.053916
 21
178.56471
 31
0.0
  0
LINE
  8
L-ZISSEN
 10
240.632507
 20
178.56471
 30
0.0
 11
327.632507
 21
178.56471
 31
0.0
  0
LINE
  8
L-ZISSEN
 10
248.632507
 20
138.56471
 30
0.0
 11
248.632507
 21
130.56471
 31
0.0
  0
LINE
  8
L-TYUSIN
  6
CENTER
 62
     1
 10
150.303916
 20
-39.815104
 30
0.0
 11
150.303916
 21
64.135282
 31
0.0
  0
LINE
  8
L-ZISSEN
 10
130.303916
 20
-0.339911
 30
0.0
 11
170.303916
 21
-0.339911
 31
0.0
  0
LINE
  8
L-ZISSEN
 10
130.303916
 20
52.660089
 30
0.0
 11
130.303916
 21
-40.339911
 31
0.0
  0
LINE
  8
L-ZISSEN
 10
170.303916
 20
-40.339911
 30
0.0
 11
170.303916
 21
52.660089
 31
0.0
  0
LINE
  8
L-ZISSEN
 10
170.303916
 20
39.660089
 30
0.0
 11
130.303916
 21
39.660089
 31
0.0
  0
LINE
  8
L-TYUSIN
 10
118.464808
 20
12.160089
 30
0.0
 11
182.143024
 21
12.160089
 31
0.0
  0
LINE
  8
L-ZISSEN
 10
170.303916
 20
52.660089
 30
0.0
 11
130.303916
 21
52.660089
 31
0.0
  0
LINE
  8
L-ZISSEN
 10
170.303916
 20
-34.339911
 30
0.0
 11
130.303916
 21
-34.339911
 31
0.0
  0
CIRCLE
  8
L-ZISSEN
 10
142.303916
 20
24.660089
 30
0.0
 40
4.864
  0
CIRCLE
  8
L-ZISSEN
 10
134.303916
 20
35.660089
 30
0.0
 40
3.5
  0
CIRCLE
  8
L-ZISSEN
 10
166.303916
 20
35.660089
 30
0.0
 40
3.5
  0
CIRCLE
  8
L-ZISSEN
 10
134.303916
 20
3.660089
 30
0.0
 40
3.5
  0
CIRCLE
  8
L-ZISSEN
 10
166.303916
 20
3.660089
 30
0.0
 40
3.5
  0
LINE
  8
L-ZISSEN
 10
144.712033
 20
-5.839911
 30
0.0
 11
136.803916
 21
-13.748028
 31
0.0
  0
LINE
  8
L-ZISSEN
 10
136.803916
 20
-13.748028
 30
0.0
 11
136.803916
 21
-24.931794
 31
0.0
  0
LINE
  8
L-ZISSEN
 10
136.803916
 20
-24.931794
 30
0.0
 11
144.712033
 21
-32.839911
 31
0.0
  0
LINE
  8
L-ZISSEN
 10
144.712033
 20
-32.839911
 30
0.0
 11
155.895799
 21
-32.839911
 31
0.0
  0
LINE
  8
L-ZISSEN
 10
155.895799
 20
-32.839911
 30
0.0
 11
163.803916
 21
-24.931794
 31
0.0
  0
LINE
  8
L-ZISSEN
 10
163.803916
 20
-24.931794
 30
0.0
 11
163.803916
 21
-13.748028
 31
0.0
  0
LINE
  8
L-ZISSEN
 10
163.803916
 20
-13.748028
 30
0.0
 11
155.895799
 21
-5.839911
 31
0.0
  0
LINE
  8
L-ZISSEN
 10
155.895799
 20
-5.839911
 30
0.0
 11
144.712033
 21
-5.839911
 31
0.0
  0
LINE
  8
L-ZISSEN
 10
170.303916
 20
34.660089
 30
0.0
 11
171.903916
 21
34.660089
 31
0.0
  0
LINE
  8
L-ZISSEN
 10
171.903916
 20
34.660089
 30
0.0
 11
171.903916
 21
-38.739911
 31
0.0
  0
LINE
  8
L-ZISSEN
 10
170.303916
 20
-40.339911
 30
0.0
 11
182.303916
 21
-40.339911
 31
0.0
  0
LINE
  8
L-ZISSEN
 10
182.303916
 20
-40.339911
 30
0.0
 11
182.303916
 21
-38.739911
 31
0.0
  0
LINE
  8
L-ZISSEN
 10
171.903916
 20
-38.739911
 30
0.0
 11
182.303916
 21
-38.739911
 31
0.0
  0
LINE
  8
L-ZISSEN
 10
128.703916
 20
34.660089
 30
0.0
 11
128.703916
 21
-38.739911
 31
0.0
  0
LINE
  8
L-ZISSEN
 10
128.703916
 20
-38.739911
 30
0.0
 11
118.303916
 21
-38.739911
 31
0.0
  0
LINE
  8
L-ZISSEN
 10
130.303916
 20
-40.339911
 30
0.0
 11
118.303916
 21
-40.339911
 31
0.0
  0
LINE
  8
L-ZISSEN
 10
118.303916
 20
-40.339911
 30
0.0
 11
118.303916
 21
-38.739911
 31
0.0
  0
LINE
  8
L-ZISSEN
 10
130.303916
 20
34.660089
 30
0.0
 11
128.703916
 21
34.660089
 31
0.0
  0
LINE
  8
L-TYUSIN
  6
CENTER
 62
     1
 10
122.303916
 20
-42.38797
 30
0.0
 11
122.303916
 21
-36.08797
 31
0.0
  0
LINE
  8
L-TYUSIN
  6
CENTER
 62
     1
 10
178.303916
 20
-42.38797
 30
0.0
 11
178.303916
 21
-36.08797
 31
0.0
  0
LINE
  8
L-TYUSIN
  6
CENTER
 62
     1
 10
136.847666
 20
24.660089
 30
0.0
 11
147.760166
 21
24.660089
 31
0.0
  0
LINE
  8
L-TYUSIN
  6
CENTER
 62
     1
 10
142.303916
 20
19.203839
 30
0.0
 11
142.303916
 21
30.116339
 31
0.0
  0
CIRCLE
  8
L-ZISSEN
 10
280.132507
 20
148.56471
 30
0.0
 40
4.864
  0
LINE
  8
L-TYUSIN
  6
CENTER
 62
     1
 10
274.676257
 20
148.56471
 30
0.0
 11
285.588757
 21
148.56471
 31
0.0
  0
CIRCLE
  8
L-ZISSEN
 10
280.132507
 20
134.56471
 30
0.0
 40
2.75
  0
LINE
  8
L-ZISSEN
 10
158.28319
 20
34.160089
 30
0.0
 11
156.262464
 21
30.660089
 31
0.0
  0
LINE
  8
L-ZISSEN
 10
156.262464
 20
30.660089
 30
0.0
 11
158.28319
 21
27.160089
 31
0.0
  0
LINE
  8
L-ZISSEN
 10
158.28319
 20
27.160089
 30
0.0
 11
162.324642
 21
27.160089
 31
0.0
  0
LINE
  8
L-ZISSEN
 10
162.324642
 20
27.160089
 30
0.0
 11
164.345368
 21
30.660089
 31
0.0
  0
LINE
  8
L-ZISSEN
 10
164.345368
 20
30.660089
 30
0.0
 11
162.324642
 21
34.160089
 31
0.0
  0
LINE
  8
L-ZISSEN
 10
162.324642
 20
34.160089
 30
0.0
 11
158.28319
 21
34.160089
 31
0.0
  0
LINE
  8
L-ZISSEN
 10
171.903916
 20
147.56471
 30
0.0
 11
171.903916
 21
175.56471
 31
0.0
  0
LINE
  8
L-ZISSEN
 10
128.703916
 20
147.56471
 30
0.0
 11
128.703916
 21
175.56471
 31
0.0
  0
TEXT
  8
L-ZISSEN
 10
134.018391
 20
13.261008
 30
0.0
 40
4.5
  1
OUT
  0
TEXT
  8
L-ZISSEN
 10
266.064772
 20
142.250911
 30
0.0
 40
4.5
  1
IN
  0
LINE
  8
L-TYUSIN
  6
CENTER
 62
     1
 10
334.558406
 20
170.56471
 30
0.0
 11
328.258406
 21
170.56471
 31
0.0
  0
LINE
  8
L-TYUSIN
  6
CENTER
 62
     1
 10
334.558406
 20
152.56471
 30
0.0
 11
328.258406
 21
152.56471
 31
0.0
  0
LINE
  8
L-ZISSEN
  6
CONTINUOUS
 62
     7
 10
445.739528
 20
132.56471
 30
0.0
 11
469.739528
 21
132.56471
 31
0.0
  0
LINE
  8
L-ZISSEN
 10
469.739528
 20
170.56471
 30
0.0
 11
469.739528
 21
132.56471
 31
0.0
  0
LINE
  8
L-ZISSEN
 10
469.739528
 20
156.42871
 30
0.0
 11
480.739528
 21
156.42871
 31
0.0
  0
SOLID
  8
L-ZISSEN
 10
251.287059
 20
153.081575
 30
0.0
 11
250.867829
 21
152.56322
 31
0.0
 12
252.632507
 22
151.56471
 32
0.0
 13
252.632507
 23
151.56471
 33
0.0
  0
LINE
  8
L-ZISSEN
 10
251.077444
 20
152.822398
 30
0.0
 11
215.584163
 21
181.528284
 31
0.0
  0
LINE
  8
L-ZISSEN
 10
215.584163
 20
181.528284
 30
0.0
 11
213.584163
 21
181.528284
 31
0.0
  0
TEXT
  8
L-ZISSEN
 10
202.584163
 20
179.278284
 30
0.0
 40
4.5
  1
P.P
  0
SOLID
  8
L-ZISSEN
 10
482.329018
 20
152.823531
 30
0.0
 11
481.834833
 21
153.270997
 31
0.0
 12
480.739528
 22
151.56471
 32
0.0
 13
480.739528
 23
151.56471
 33
0.0
  0
LINE
  8
L-ZISSEN
 10
482.081926
 20
153.047264
 30
0.0
 11
501.959305
 21
175.0
 31
0.0
  0
LINE
  8
L-ZISSEN
 10
501.959305
 20
175.0
 30
0.0
 11
503.959305
 21
175.0
 31
0.0
  0
TEXT
  8
L-ZISSEN
 10
505.959305
 20
172.75
 30
0.0
 40
4.5
  1
P.P
  0
LINE
  8
L-ZISSEN
 10
469.739528
 20
146.70071
 30
0.0
 11
480.739528
 21
146.70071
 31
0.0
  0
CIRCLE
  8
L-ZISSEN
 10
405.567289
 20
151.56471
 30
0.0
 40
19.0
  0
LINE
  8
L-ZISSEN
 10
409.102823
 20
155.100244
 30
0.0
 11
394.960688
 21
140.958108
 31
0.0
  0
SOLID
  8
L-ZISSEN
 10
141.521732
 20
153.435351
 30
0.0
 11
140.957317
 21
153.080554
 31
0.0
 12
142.303916
 22
151.56471
 32
0.0
 13
142.303916
 23
151.56471
 33
0.0
  0
LINE
  8
L-ZISSEN
 10
141.239524
 20
153.257952
 30
0.0
 11
115.0
 21
195.0
 31
0.0
  0
LINE
  8
L-ZISSEN
 10
115.0
 20
195.0
 30
0.0
 11
113.0
 21
195.0
 31
0.0
  0
TEXT
  8
L-ZISSEN
 10
102.0
 20
192.75
 30
0.0
 40
4.5
  1
P.P
  0
SOLID
  8
L-ZISSEN
 10
404.477938
 20
153.274805
 30
0.0
 11
403.982197
 21
152.829064
 31
0.0
 12
405.567289
 22
151.56471
 32
0.0
 13
405.567289
 23
151.56471
 33
0.0
  0
LINE
  8
L-ZISSEN
 10
404.230067
 20
153.051934
 30
0.0
 11
380.0
 21
180.0
 31
0.0
  0
LINE
  8
L-ZISSEN
 10
380.0
 20
180.0
 30
0.0
 11
378.0
 21
180.0
 31
0.0
  0
TEXT
  8
L-ZISSEN
 10
367.0
 20
177.75
 30
0.0
 40
4.5
  1
P.P
  0
SOLID
  8
L-ZISSEN
 10
148.926733
 20
41.148201
 30
0.0
 11
148.518544
 21
40.621109
 31
0.0
 12
150.303916
 22
39.660089
 32
0.0
 13
150.303916
 23
39.660089
 33
0.0
  0
LINE
  8
L-ZISSEN
 10
148.722639
 20
40.884655
 30
0.0
 11
115.0
 21
67.0
 31
0.0
  0
LINE
  8
L-ZISSEN
 10
115.0
 20
67.0
 30
0.0
 11
113.0
 21
67.0
 31
0.0
  0
TEXT
  8
L-ZISSEN
 10
102.0
 20
64.75
 30
0.0
 40
4.5
  1
P.P
  0
LINE
  8
L-TYUSIN
  6
CENTER
 62
     1
 10
125.899671
 20
148.56471
 30
0.0
 11
174.70816
 21
148.56471
 31
0.0
  0
LINE
  8
L-ZISSEN
 10
158.303916
 20
116.56471
 30
0.0
 11
162.303916
 21
116.56471
 31
0.0
  0
LINE
  8
L-ZISSEN
 10
162.303916
 20
116.56471
 30
0.0
 11
162.303916
 21
124.06471
 31
0.0
  0
LINE
  8
L-ZISSEN
 10
158.303916
 20
116.56471
 30
0.0
 11
158.303916
 21
124.06471
 31
0.0
  0
LINE
  8
L-ZISSEN
 10
156.262464
 20
124.06471
 30
0.0
 11
156.262464
 21
126.56471
 31
0.0
  0
LINE
  8
L-ZISSEN
 10
156.262464
 20
124.06471
 30
0.0
 11
162.803916
 21
124.06471
 31
0.0
  0
LINE
  8
L-ZISSEN
 10
260.132507
 20
124.06471
 30
0.0
 11
265.673959
 21
124.06471
 31
0.0
  0
LINE
  8
L-ZISSEN
 10
259.632507
 20
116.56471
 30
0.0
 11
259.632507
 21
121.56471
 31
0.0
  0
LINE
  8
L-ZISSEN
 10
263.632507
 20
116.56471
 30
0.0
 11
263.632507
 21
124.06471
 31
0.0
  0
LINE
  8
L-ZISSEN
 10
259.632507
 20
116.56471
 30
0.0
 11
263.632507
 21
116.56471
 31
0.0
  0
LINE
  8
L-ZISSEN
 10
265.673959
 20
124.06471
 30
0.0
 11
265.673959
 21
126.56471
 31
0.0
  0
TEXT
  8
L-ZISSEN
 10
26.459958
 20
225.330927
 30
0.0
 40
4.5
  1
MODEL NO.
  0
TEXT
  8
L-ZISSEN
 10
30.523575
 20
215.407433
 30
0.0
 40
4.5
  1
S51-100-**0*
  0
LINE
  8
L-TYUSIN
 10
351.799515
 20
245.448283
 30
0.0
 11
351.799515
 21
-67.429149
 31
0.0
  0
LINE
  8
L-TYUSIN
 10
351.799515
 20
119.617142
 30
0.0
 11
528.188683
 21
119.617142
 31
0.0
  0
TEXT
  8
L-ZISSEN
 10
362.011519
 20
196.702886
 30
0.0
 40
4.5
  1
GAUGE
  0
LINE
  8
L-ZISSEN
 10
375.976152
 20
58.374134
 30
0.0
 11
375.976152
 21
52.374134
 31
0.0
  0
LINE
  8
L-ZISSEN
 10
375.976152
 20
52.374134
 30
0.0
 11
405.998366
 21
52.374134
 31
0.0
  0
LINE
  8
L-ZISSEN
 10
380.987259
 20
47.374134
 30
0.0
 11
403.487259
 21
47.374134
 31
0.0
  0
LINE
  8
L-ZISSEN
 10
375.976152
 20
52.374134
 30
0.0
 11
380.987259
 21
47.374134
 31
0.0
  0
LINE
  8
L-ZISSEN
 10
399.987259
 20
26.374134
 30
0.0
 11
383.987259
 21
26.374134
 31
0.0
  0
LINE
  8
L-ZISSEN
 10
380.987259
 20
47.374134
 30
0.0
 11
383.987259
 21
26.374134
 31
0.0
  0
LINE
  8
L-ZISSEN
 10
395.487259
 20
26.374134
 30
0.0
 11
395.487259
 21
21.374134
 31
0.0
  0
LINE
  8
L-ZISSEN
 10
386.487259
 20
21.374134
 30
0.0
 11
386.487259
 21
26.374134
 31
0.0
  0
LINE
  8
L-ZISSEN
 10
395.487259
 20
21.374134
 30
0.0
 11
386.487259
 21
21.374134
 31
0.0
  0
LINE
  8
L-ZISSEN
 10
405.998366
 20
52.374134
 30
0.0
 11
400.987259
 21
47.374134
 31
0.0
  0
LINE
  8
L-ZISSEN
 10
405.998366
 20
58.374134
 30
0.0
 11
405.998366
 21
52.374134
 31
0.0
  0
ARC
  8
L-ZISSEN
 10
390.987259
 20
-17.097896
 30
0.0
 40
9.5
 50
90.0
 51
270.0
  0
LINE
  8
L-ZISSEN
 10
403.487259
 20
-26.597896
 30
0.0
 11
403.487259
 21
-7.597896
 31
0.0
  0
LINE
  8
L-ZISSEN
 10
390.987259
 20
-7.597896
 30
0.0
 11
403.487259
 21
-7.597896
 31
0.0
  0
LINE
  8
L-ZISSEN
 10
390.987259
 20
-26.597896
 30
0.0
 11
403.487259
 21
-26.597896
 31
0.0
  0
LINE
  8
L-ZISSEN
 10
403.487259
 20
47.374134
 30
0.0
 11
399.987259
 21
26.374134
 31
0.0
  0
LINE
  8
L-ZISSEN
 10
383.481705
 20
-4.097896
 30
0.0
 11
375.976152
 21
-17.097896
 31
0.0
  0
LINE
  8
L-ZISSEN
 10
375.976152
 20
-17.097896
 30
0.0
 11
383.481705
 21
-30.097896
 31
0.0
  0
LINE
  8
L-ZISSEN
 10
383.481705
 20
-30.097896
 30
0.0
 11
398.492812
 21
-30.097896
 31
0.0
  0
LINE
  8
L-ZISSEN
 10
398.492812
 20
-30.097896
 30
0.0
 11
400.513538
 21
-26.597896
 31
0.0
  0
LINE
  8
L-ZISSEN
 10
405.998366
 20
-17.097896
 30
0.0
 11
403.487259
 21
-12.748531
 31
0.0
  0
LINE
  8
L-ZISSEN
 10
398.492812
 20
-4.097896
 30
0.0
 11
383.481705
 21
-4.097896
 31
0.0
  0
LINE
  8
L-ZISSEN
 10
403.487259
 20
-21.447261
 30
0.0
 11
405.998366
 21
-17.097896
 31
0.0
  0
LINE
  8
L-ZISSEN
 10
400.513538
 20
-7.597896
 30
0.0
 11
398.492812
 21
-4.097896
 31
0.0
  0
LINE
  8
L-ZISSEN
 10
481.571246
 20
-7.597896
 30
0.0
 11
479.55052
 21
-4.097896
 31
0.0
  0
LINE
  8
L-ZISSEN
 10
479.55052
 20
-4.097896
 30
0.0
 11
464.539413
 21
-4.097896
 31
0.0
  0
LINE
  8
L-ZISSEN
 10
479.55052
 20
-30.097896
 30
0.0
 11
481.571246
 21
-26.597896
 31
0.0
  0
LINE
  8
L-ZISSEN
 10
464.539413
 20
-30.097896
 30
0.0
 11
479.55052
 21
-30.097896
 31
0.0
  0
LINE
  8
L-ZISSEN
 10
457.033859
 20
-17.097896
 30
0.0
 11
464.539413
 21
-30.097896
 31
0.0
  0
LINE
  8
L-ZISSEN
 10
464.539413
 20
-4.097896
 30
0.0
 11
457.033859
 21
-17.097896
 31
0.0
  0
LINE
  8
L-ZISSEN
 10
487.056073
 20
58.374134
 30
0.0
 11
487.056073
 21
52.374134
 31
0.0
  0
LINE
  8
L-ZISSEN
 10
457.033859
 20
52.374134
 30
0.0
 11
487.056073
 21
52.374134
 31
0.0
  0
LINE
  8
L-ZISSEN
 10
457.033859
 20
58.374134
 30
0.0
 11
457.033859
 21
52.374134
 31
0.0
  0
LINE
  8
L-ZISSEN
 10
462.544966
 20
48.374134
 30
0.0
 11
462.544966
 21
34.374134
 31
0.0
  0
LINE
  8
L-ZISSEN
 10
462.544966
 20
48.374134
 30
0.0
 11
457.033859
 21
52.374134
 31
0.0
  0
LINE
  8
L-ZISSEN
 10
486.544966
 20
34.374134
 30
0.0
 11
462.544966
 21
34.374134
 31
0.0
  0
ARC
  8
L-ZISSEN
 10
472.044966
 20
-17.097896
 30
0.0
 40
9.5
 50
90.0
 51
270.0
  0
LINE
  8
L-ZISSEN
 10
486.544966
 20
-26.597896
 30
0.0
 11
486.544966
 21
-7.597896
 31
0.0
  0
LINE
  8
L-ZISSEN
 10
472.044966
 20
-7.597896
 30
0.0
 11
486.544966
 21
-7.597896
 31
0.0
  0
LINE
  8
L-ZISSEN
 10
472.044966
 20
-26.597896
 30
0.0
 11
486.544966
 21
-26.597896
 31
0.0
  0
LINE
  8
L-ZISSEN
 10
486.544966
 20
34.374134
 30
0.0
 11
486.544966
 21
48.374134
 31
0.0
  0
LINE
  8
L-ZISSEN
 10
481.544966
 20
48.374134
 30
0.0
 11
487.056073
 21
52.374134
 31
0.0
  0
LINE
  8
L-ZISSEN
 10
462.544966
 20
48.374134
 30
0.0
 11
486.544966
 21
48.374134
 31
0.0
  0
SOLID
  8
L-ZISSEN
 10
309.282353
 20
124.052031
 30
0.0
 11
309.845933
 21
123.69591
 31
0.0
 12
310.632507
 22
125.56471
 32
0.0
 13
310.632507
 23
125.56471
 33
0.0
  0
LINE
  8
L-ZISSEN
 10
309.564143
 20
123.873971
 30
0.0
 11
285.0
 21
85.0
 31
0.0
  0
LINE
  8
L-ZISSEN
 10
285.0
 20
85.0
 30
0.0
 11
283.0
 21
85.0
 31
0.0
  0
TEXT
  8
L-ZISSEN
 10
272.0
 20
82.75
 30
0.0
 40
4.5
  1
P.P
  0
SOLID
  8
L-ZISSEN
 10
152.288642
 20
-18.925213
 30
0.0
 11
152.046863
 21
-18.303934
 31
0.0
 12
150.303916
 22
-19.339911
 32
0.0
 13
150.303916
 23
-19.339911
 33
0.0
  0
LINE
  8
L-ZISSEN
 10
152.167752
 20
-18.614574
 30
0.0
 11
200.0
 21
-0.0
 31
0.0
  0
LINE
  8
L-ZISSEN
 10
200.0
 20
0.0
 30
0.0
 11
202.0
 21
0.0
 31
0.0
  0
TEXT
  8
L-ZISSEN
 10
204.0
 20
-2.25
 30
0.0
 40
4.5
  1
P.P
  0
SOLID
  8
L-ZISSEN
 10
392.420775
 20
59.808059
 30
0.0
 11
391.878231
 21
60.195474
 31
0.0
 12
390.987259
 22
58.374134
 32
0.0
 13
390.987259
 23
58.374134
 33
0.0
  0
LINE
  8
L-ZISSEN
 10
392.149503
 20
60.001767
 30
0.0
 11
410.0
 21
85.0
 31
0.0
  0
LINE
  8
L-ZISSEN
 10
410.0
 20
85.0
 30
0.0
 11
412.0
 21
85.0
 31
0.0
  0
TEXT
  8
L-ZISSEN
 10
414.0
 20
82.75
 30
0.0
 40
4.5
  1
P.P
  0
SOLID
  8
L-ZISSEN
 10
473.603363
 20
59.67125
 30
0.0
 11
473.098439
 21
60.106562
 31
0.0
 12
472.044966
 22
58.374134
 32
0.0
 13
472.044966
 23
58.374134
 33
0.0
  0
LINE
  8
L-ZISSEN
 10
473.350901
 20
59.888906
 30
0.0
 11
495.0
 21
85.0
 31
0.0
  0
LINE
  8
L-ZISSEN
 10
495.0
 20
85.0
 30
0.0
 11
497.0
 21
85.0
 31
0.0
  0
TEXT
  8
L-ZISSEN
 10
499.0
 20
82.75
 30
0.0
 40
4.5
  1
P.P
  0
SOLID
  8
L-ZISSEN
 10
392.544354
 20
-15.799218
 30
0.0
 11
392.038994
 21
-15.364413
 31
0.0
 12
390.987259
 22
-17.097896
 32
0.0
 13
390.987259
 23
-17.097896
 33
0.0
  0
LINE
  8
L-ZISSEN
 10
392.291674
 20
-15.581816
 30
0.0
 11
410.0
 21
5.0
 31
0.0
  0
LINE
  8
L-ZISSEN
 10
410.0
 20
5.0
 30
0.0
 11
412.0
 21
5.0
 31
0.0
  0
TEXT
  8
L-ZISSEN
 10
414.0
 20
2.75
 30
0.0
 40
4.5
  1
P.P
  0
SOLID
  8
L-ZISSEN
 10
473.602062
 20
-15.799218
 30
0.0
 11
473.096702
 21
-15.364413
 31
0.0
 12
472.044966
 22
-17.097896
 32
0.0
 13
472.044966
 23
-17.097896
 33
0.0
  0
LINE
  8
L-ZISSEN
 10
473.349382
 20
-15.581816
 30
0.0
 11
491.057708
 21
5.0
 31
0.0
  0
TEXT
  8
L-ZISSEN
 10
495.057708
 20
2.75
 30
0.0
 40
4.5
  1
P.P
  0
LINE
  8
L-ZISSEN
 10
491.057708
 20
5.0
 30
0.0
 11
493.057708
 21
5.0
 31
0.0
  0
LINE
  8
L-TYUSIN
 10
437.558871
 20
119.617142
 30
0.0
 11
437.558871
 21
-68.142154
 31
0.0
  0
TEXT
  8
L-ZISSEN
 10
363.678412
 20
100.168511
 30
0.0
 40
4.5
  1
S51-100-**1*
  0
TEXT
  8
L-ZISSEN
 10
451.893885
 20
100.168511
 30
0.0
 40
4.5
  1
S52-200-**2*
  0
LINE
  8
L-ZISSEN
 10
182.303916
 20
175.56471
 30
0.0
 11
170.303916
 21
175.56471
 31
0.0
  0
LINE
  8
L-ZISSEN
 10
118.303916
 20
175.56471
 30
0.0
 11
130.303916
 21
175.56471
 31
0.0
  0
LINE
  8
L-ZISSEN
 10
257.632507
 20
175.56471
 30
0.0
 11
332.632507
 21
175.56471
 31
0.0
  0
LINE
  8
L-ZISSEN
  6
CONTINUOUS
 62
     7
 10
324.132507
 20
147.41471
 30
0.0
 11
324.132507
 21
125.56471
 31
0.0
  0
LINE
  8
L-ZISSEN
  6
CONTINUOUS
 62
     7
 10
297.132507
 20
158.325424
 30
0.0
 11
297.132507
 21
125.56471
 31
0.0
  0
LINE
  8
L-ZISSEN
  6
CONTINUOUS
 62
     7
 10
292.632507
 20
160.41471
 30
0.0
 11
292.632507
 21
126.56471
 31
0.0
  0
ENDSEC
  0
EOF
