  0
SECTION
  2
HEADER
  9
$ACADVER
  1
AC1012
  9
$DWGCODEPAGE
  3
dos932
  9
$INSBASE
 10
0.0
 20
0.0
 30
0.0
  9
$EXTMIN
 10
46.99999999999636
 20
42.0
 30
0.0
  9
$EXTMAX
 10
355.0
 20
346.9999999999984
 30
0.0
  9
$LIMMIN
 10
0.0
 20
0.0
  9
$LIMMAX
 10
12.0
 20
9.0
  9
$ORTHOMODE
 70
     1
  9
$REGENMODE
 70
     1
  9
$FILLMODE
 70
     1
  9
$QTEXTMODE
 70
     0
  9
$MIRRTEXT
 70
     1
  9
$DRAGMODE
 70
     2
  9
$LTSCALE
 40
1.0
  9
$OSMODE
 70
    39
  9
$ATTMODE
 70
     1
  9
$TEXTSIZE
 40
4.5
  9
$TRACEWID
 40
0.05
  9
$TEXTSTYLE
  7
STANDARD
  9
$CLAYER
  8
L-ZISSEN
  9
$CELTYPE
  6
BYLAYER
  9
$CECOLOR
 62
   256
  9
$CELTSCALE
 40
1.0
  9
$DELOBJ
 70
     1
  9
$DISPSILH
 70
     0
  9
$DIMSCALE
 40
0.0
  9
$DIMASZ
 40
2.0
  9
$DIMEXO
 40
1.0
  9
$DIMDLI
 40
8.0
  9
$DIMRND
 40
0.0
  9
$DIMDLE
 40
0.0
  9
$DIMEXE
 40
1.0
  9
$DIMTP
 40
0.0
  9
$DIMTM
 40
0.0
  9
$DIMTXT
 40
4.5
  9
$DIMCEN
 40
1.5
  9
$DIMTSZ
 40
0.0
  9
$DIMTOL
 70
     0
  9
$DIMLIM
 70
     0
  9
$DIMTIH
 70
     0
  9
$DIMTOH
 70
     0
  9
$DIMSE1
 70
     0
  9
$DIMSE2
 70
     0
  9
$DIMTAD
 70
     1
  9
$DIMZIN
 70
     8
  9
$DIMBLK
  1

  9
$DIMASO
 70
     1
  9
$DIMSHO
 70
     0
  9
$DIMPOST
  1

  9
$DIMAPOST
  1

  9
$DIMALT
 70
     0
  9
$DIMALTD
 70
     2
  9
$DIMALTF
 40
25.4
  9
$DIMLFAC
 40
1.0
  9
$DIMTOFL
 70
     1
  9
$DIMTVP
 40
0.0
  9
$DIMTIX
 70
     1
  9
$DIMSOXD
 70
     0
  9
$DIMSAH
 70
     0
  9
$DIMBLK1
  1

  9
$DIMBLK2
  1

  9
$DIMSTYLE
  2
STANDARD
  9
$DIMCLRD
 70
     0
  9
$DIMCLRE
 70
     0
  9
$DIMCLRT
 70
     0
  9
$DIMTFAC
 40
1.0
  9
$DIMGAP
 40
1.399999999999999
  9
$DIMJUST
 70
     0
  9
$DIMSD1
 70
     0
  9
$DIMSD2
 70
     0
  9
$DIMTOLJ
 70
     1
  9
$DIMTZIN
 70
     8
  9
$DIMALTZ
 70
     0
  9
$DIMALTTZ
 70
     0
  9
$DIMFIT
 70
     3
  9
$DIMUPT
 70
     0
  9
$DIMUNIT
 70
     2
  9
$DIMDEC
 70
     4
  9
$DIMTDEC
 70
     4
  9
$DIMALTU
 70
     2
  9
$DIMALTTD
 70
     2
  9
$DIMTXSTY
  7
STANDARD
  9
$DIMAUNIT
 70
     0
  9
$LUNITS
 70
     2
  9
$LUPREC
 70
     4
  9
$SKETCHINC
 40
0.1
  9
$FILLETRAD
 40
0.0
  9
$AUNITS
 70
     0
  9
$AUPREC
 70
     0
  9
$MENU
  1
acad
  9
$ELEVATION
 40
0.0
  9
$PELEVATION
 40
0.0
  9
$THICKNESS
 40
0.0
  9
$LIMCHECK
 70
     0
  9
$BLIPMODE
 70
     0
  9
$CHAMFERA
 40
8.0
  9
$CHAMFERB
 40
8.0
  9
$CHAMFERC
 40
0.0
  9
$CHAMFERD
 40
0.0
  9
$SKPOLY
 70
     0
  9
$TDCREATE
 40
2450178.569598264
  9
$TDUPDATE
 40
2455065.534099386
  9
$TDINDWG
 40
0.7688909028
  9
$TDUSRTIMER
 40
0.7688907176
  9
$USRTIMER
 70
     1
  9
$ANGBASE
 50
0.0
  9
$ANGDIR
 70
     0
  9
$PDMODE
 70
     0
  9
$PDSIZE
 40
0.0
  9
$PLINEWID
 40
0.0
  9
$COORDS
 70
     2
  9
$SPLFRAME
 70
     0
  9
$SPLINETYPE
 70
     6
  9
$SPLINESEGS
 70
     8
  9
$ATTDIA
 70
     0
  9
$ATTREQ
 70
     1
  9
$HANDLING
 70
-16383
  9
$HANDSEED
  5
2DC
  9
$SURFTAB1
 70
     6
  9
$SURFTAB2
 70
     6
  9
$SURFTYPE
 70
     6
  9
$SURFU
 70
     6
  9
$SURFV
 70
     6
  9
$UCSNAME
  2

  9
$UCSORG
 10
0.0
 20
0.0
 30
0.0
  9
$UCSXDIR
 10
1.0
 20
0.0
 30
0.0
  9
$UCSYDIR
 10
0.0
 20
1.0
 30
0.0
  9
$PUCSNAME
  2

  9
$PUCSORG
 10
0.0
 20
0.0
 30
0.0
  9
$PUCSXDIR
 10
1.0
 20
0.0
 30
0.0
  9
$PUCSYDIR
 10
0.0
 20
1.0
 30
0.0
  9
$USERI1
 70
     0
  9
$USERI2
 70
     0
  9
$USERI3
 70
     0
  9
$USERI4
 70
     0
  9
$USERI5
 70
     0
  9
$USERR1
 40
0.0
  9
$USERR2
 40
0.0
  9
$USERR3
 40
0.0
  9
$USERR4
 40
0.0
  9
$USERR5
 40
0.0
  9
$WORLDVIEW
 70
     1
  9
$SHADEDGE
 70
     3
  9
$SHADEDIF
 70
    70
  9
$TILEMODE
 70
     1
  9
$MAXACTVP
 70
    16
  9
$PINSBASE
 10
0.0
 20
0.0
 30
0.0
  9
$PLIMCHECK
 70
     0
  9
$PEXTMIN
 10
1.000000000000000E+20
 20
1.000000000000000E+20
 30
1.000000000000000E+20
  9
$PEXTMAX
 10
-1.000000000000000E+20
 20
-1.000000000000000E+20
 30
-1.000000000000000E+20
  9
$PLIMMIN
 10
0.0
 20
0.0
  9
$PLIMMAX
 10
12.0
 20
9.0
  9
$UNITMODE
 70
     0
  9
$VISRETAIN
 70
     0
  9
$PLINEGEN
 70
     0
  9
$PSLTSCALE
 70
     0
  9
$TREEDEPTH
 70
  3020
  9
$PICKSTYLE
 70
     1
  9
$CMLSTYLE
  2
STANDARD
  9
$CMLJUST
 70
     0
  9
$CMLSCALE
 40
1.0
  9
$SAVEIMAGES
 70
     1
  0
ENDSEC
  0
SECTION
  2
CLASSES
  0
CLASS
  1
ACDBDICTIONARYWDFLT
  2
AcDbDictionaryWithDefault
  3
AutoCAD 2000
 90
    32768
280
     0
281
     0
  0
CLASS
  1
ACDBPLACEHOLDER
  2
AcDbPlaceHolder
  3
AutoCAD 2000
 90
    32768
280
     0
281
     0
  0
CLASS
  1
LAYOUT
  2
AcDbLayout
  3
AutoCAD 2000
 90
    32768
280
     0
281
     0
  0
CLASS
  1
LONG_TRANSACTION
  2
AcDbLongTransaction
  3
AutoCAD 2000
 90
    32768
280
     0
281
     0
  0
CLASS
  1
LWPOLYLINE
  2
AcDbPolyline
  3
AutoCAD 2000
 90
    32768
280
     0
281
     1
  0
CLASS
  1
HATCH
  2
AcDbHatch
  3
AutoCAD 2000
 90
    32768
280
     0
281
     1
  0
CLASS
  1
XRECORD
  2
AcDbXrecord
  3
AutoCAD 2000
 90
    32768
280
     0
281
     0
  0
CLASS
  1
LONG_TRANSACTION
  2
AcDbLongTransaction
  3
AutoCAD 2000
 90
    32768
280
     0
281
     0
  0
CLASS
  1
LWPOLYLINE
  2
AcDbPolyline
  3
AutoCAD 2000
 90
    32768
280
     0
281
     1
  0
CLASS
  1
HATCH
  2
AcDbHatch
  3
AutoCAD 2000
 90
    32768
280
     0
281
     1
  0
CLASS
  1
XRECORD
  2
AcDbXrecord
  3
AutoCAD 2000
 90
    32768
280
     0
281
     0
  0
CLASS
  1
LONG_TRANSACTION
  2
AcDbLongTransaction
  3
AutoCAD 2000
 90
    32768
280
     0
281
     0
  0
CLASS
  1
LWPOLYLINE
  2
AcDbPolyline
  3
AutoCAD 2000
 90
    32768
280
     0
281
     1
  0
CLASS
  1
HATCH
  2
AcDbHatch
  3
AutoCAD 2000
 90
    32768
280
     0
281
     1
  0
CLASS
  1
XRECORD
  2
AcDbXrecord
  3
AutoCAD 2000
 90
    32768
280
     0
281
     0
  0
CLASS
  1
LONG_TRANSACTION
  2
AcDbLongTransaction
  3
AutoCAD 2000
 90
    32768
280
     0
281
     0
  0
CLASS
  1
LWPOLYLINE
  2
AcDbPolyline
  3
AutoCAD 2000
 90
    32768
280
     0
281
     1
  0
CLASS
  1
HATCH
  2
AcDbHatch
  3
AutoCAD 2000
 90
    32768
280
     0
281
     1
  0
CLASS
  1
XRECORD
  2
AcDbXrecord
  3
AutoCAD 2000
 90
    32768
280
     0
281
     0
  0
CLASS
  1
LONG_TRANSACTION
  2
AcDbLongTransaction
  3
AutoCAD 2000
 90
    32768
280
     0
281
     0
  0
CLASS
  1
LWPOLYLINE
  2
AcDbPolyline
  3
AutoCAD 2000
 90
    32768
280
     0
281
     1
  0
CLASS
  1
HATCH
  2
AcDbHatch
  3
AutoCAD 2000
 90
    32768
280
     0
281
     1
  0
CLASS
  1
XRECORD
  2
AcDbXrecord
  3
AutoCAD 2000
 90
    32768
280
     0
281
     0
  0
CLASS
  1
LONG_TRANSACTION
  2
AcDbLongTransaction
  3
AutoCAD 2000
 90
    32768
280
     0
281
     0
  0
CLASS
  1
LWPOLYLINE
  2
AcDbPolyline
  3
AutoCAD 2000
 90
    32768
280
     0
281
     1
  0
CLASS
  1
HATCH
  2
AcDbHatch
  3
AutoCAD 2000
 90
    32768
280
     0
281
     1
  0
CLASS
  1
XRECORD
  2
AcDbXrecord
  3
AutoCAD 2000
 90
    32768
280
     0
281
     0
  0
CLASS
  1
LONG_TRANSACTION
  2
AcDbLongTransaction
  3
AutoCAD 2000
 90
    32768
280
     0
281
     0
  0
CLASS
  1
LWPOLYLINE
  2
AcDbPolyline
  3
AutoCAD 2000
 90
    32768
280
     0
281
     1
  0
CLASS
  1
HATCH
  2
AcDbHatch
  3
AutoCAD 2000
 90
    32768
280
     0
281
     1
  0
CLASS
  1
XRECORD
  2
AcDbXrecord
  3
AutoCAD 2000
 90
    32768
280
     0
281
     0
  0
CLASS
  1
LONG_TRANSACTION
  2
AcDbLongTransaction
  3
AutoCAD 2000
 90
    32768
280
     0
281
     0
  0
CLASS
  1
LWPOLYLINE
  2
AcDbPolyline
  3
AutoCAD 2000
 90
    32768
280
     0
281
     1
  0
CLASS
  1
HATCH
  2
AcDbHatch
  3
AutoCAD 2000
 90
    32768
280
     0
281
     1
  0
CLASS
  1
XRECORD
  2
AcDbXrecord
  3
AutoCAD 2000
 90
    32768
280
     0
281
     0
  0
CLASS
  1
LONG_TRANSACTION
  2
AcDbLongTransaction
  3
AutoCAD 2000
 90
    32768
280
     0
281
     0
  0
CLASS
  1
LWPOLYLINE
  2
AcDbPolyline
  3
AutoCAD 2000
 90
    32768
280
     0
281
     1
  0
CLASS
  1
HATCH
  2
AcDbHatch
  3
AutoCAD 2000
 90
    32768
280
     0
281
     1
  0
CLASS
  1
XRECORD
  2
AcDbXrecord
  3
AutoCAD 2000
 90
    32768
280
     0
281
     0
  0
CLASS
  1
LONG_TRANSACTION
  2
AcDbLongTransaction
  3
AutoCAD 2000
 90
    32768
280
     0
281
     0
  0
CLASS
  1
LWPOLYLINE
  2
AcDbPolyline
  3
AutoCAD 2000
 90
    32768
280
     0
281
     1
  0
CLASS
  1
HATCH
  2
AcDbHatch
  3
AutoCAD 2000
 90
    32768
280
     0
281
     1
  0
CLASS
  1
XRECORD
  2
AcDbXrecord
  3
AutoCAD 2000
 90
    32768
280
     0
281
     0
  0
CLASS
  1
LONG_TRANSACTION
  2
AcDbLongTransaction
  3
AutoCAD 2000
 90
    32768
280
     0
281
     0
  0
CLASS
  1
LWPOLYLINE
  2
AcDbPolyline
  3
AutoCAD 2000
 90
    32768
280
     0
281
     1
  0
CLASS
  1
HATCH
  2
AcDbHatch
  3
AutoCAD 2000
 90
    32768
280
     0
281
     1
  0
CLASS
  1
XRECORD
  2
AcDbXrecord
  3
AutoCAD 2000
 90
    32768
280
     0
281
     0
  0
CLASS
  1
LONG_TRANSACTION
  2
AcDbLongTransaction
  3
AutoCAD 2000
 90
    32768
280
     0
281
     0
  0
CLASS
  1
LWPOLYLINE
  2
AcDbPolyline
  3
AutoCAD 2000
 90
    32768
280
     0
281
     1
  0
CLASS
  1
HATCH
  2
AcDbHatch
  3
AutoCAD 2000
 90
    32768
280
     0
281
     1
  0
CLASS
  1
XRECORD
  2
AcDbXrecord
  3
AutoCAD 2000
 90
    32768
280
     0
281
     0
  0
CLASS
  1
LONG_TRANSACTION
  2
AcDbLongTransaction
  3
AutoCAD 2000
 90
    32768
280
     0
281
     0
  0
CLASS
  1
LWPOLYLINE
  2
AcDbPolyline
  3
AutoCAD 2000
 90
    32768
280
     0
281
     1
  0
CLASS
  1
HATCH
  2
AcDbHatch
  3
AutoCAD 2000
 90
    32768
280
     0
281
     1
  0
CLASS
  1
XRECORD
  2
AcDbXrecord
  3
AutoCAD 2000
 90
    32768
280
     0
281
     0
  0
CLASS
  1
LONG_TRANSACTION
  2
AcDbLongTransaction
  3
AutoCAD 2000
 90
    32768
280
     0
281
     0
  0
CLASS
  1
LWPOLYLINE
  2
AcDbPolyline
  3
AutoCAD 2000
 90
    32768
280
     0
281
     1
  0
CLASS
  1
HATCH
  2
AcDbHatch
  3
AutoCAD 2000
 90
    32768
280
     0
281
     1
  0
CLASS
  1
XRECORD
  2
AcDbXrecord
  3
AutoCAD 2000
 90
    32768
280
     0
281
     0
  0
CLASS
  1
LONG_TRANSACTION
  2
AcDbLongTransaction
  3
AutoCAD 2000
 90
    32768
280
     0
281
     0
  0
CLASS
  1
LWPOLYLINE
  2
AcDbPolyline
  3
AutoCAD 2000
 90
    32768
280
     0
281
     1
  0
CLASS
  1
HATCH
  2
AcDbHatch
  3
AutoCAD 2000
 90
    32768
280
     0
281
     1
  0
CLASS
  1
XRECORD
  2
AcDbXrecord
  3
AutoCAD 2000
 90
    32768
280
     0
281
     0
  0
CLASS
  1
LONG_TRANSACTION
  2
AcDbLongTransaction
  3
AutoCAD 2000
 90
    32768
280
     0
281
     0
  0
CLASS
  1
LWPOLYLINE
  2
AcDbPolyline
  3
AutoCAD 2000
 90
    32768
280
     0
281
     1
  0
CLASS
  1
HATCH
  2
AcDbHatch
  3
AutoCAD 2000
 90
    32768
280
     0
281
     1
  0
CLASS
  1
XRECORD
  2
AcDbXrecord
  3
AutoCAD 2000
 90
    32768
280
     0
281
     0
  0
CLASS
  1
LONG_TRANSACTION
  2
AcDbLongTransaction
  3
AutoCAD 2000
 90
    32768
280
     0
281
     0
  0
CLASS
  1
LWPOLYLINE
  2
AcDbPolyline
  3
AutoCAD 2000
 90
    32768
280
     0
281
     1
  0
CLASS
  1
HATCH
  2
AcDbHatch
  3
AutoCAD 2000
 90
    32768
280
     0
281
     1
  0
CLASS
  1
XRECORD
  2
AcDbXrecord
  3
AutoCAD 2000
 90
    32768
280
     0
281
     0
  0
CLASS
  1
LONG_TRANSACTION
  2
AcDbLongTransaction
  3
AutoCAD 2000
 90
    32768
280
     0
281
     0
  0
CLASS
  1
LWPOLYLINE
  2
AcDbPolyline
  3
AutoCAD 2000
 90
    32768
280
     0
281
     1
  0
CLASS
  1
HATCH
  2
AcDbHatch
  3
AutoCAD 2000
 90
    32768
280
     0
281
     1
  0
CLASS
  1
XRECORD
  2
AcDbXrecord
  3
AutoCAD 2000
 90
    32768
280
     0
281
     0
  0
CLASS
  1
LONG_TRANSACTION
  2
AcDbLongTransaction
  3
AutoCAD 2000
 90
    32768
280
     0
281
     0
  0
CLASS
  1
LWPOLYLINE
  2
AcDbPolyline
  3
AutoCAD 2000
 90
    32768
280
     0
281
     1
  0
CLASS
  1
HATCH
  2
AcDbHatch
  3
AutoCAD 2000
 90
    32768
280
     0
281
     1
  0
CLASS
  1
XRECORD
  2
AcDbXrecord
  3
AutoCAD 2000
 90
    32768
280
     0
281
     0
  0
CLASS
  1
LONG_TRANSACTION
  2
AcDbLongTransaction
  3
AutoCAD 2000
 90
    32768
280
     0
281
     0
  0
CLASS
  1
LWPOLYLINE
  2
AcDbPolyline
  3
AutoCAD 2000
 90
    32768
280
     0
281
     1
  0
CLASS
  1
HATCH
  2
AcDbHatch
  3
AutoCAD 2000
 90
    32768
280
     0
281
     1
  0
CLASS
  1
XRECORD
  2
AcDbXrecord
  3
AutoCAD 2000
 90
    32768
280
     0
281
     0
  0
CLASS
  1
LONG_TRANSACTION
  2
AcDbLongTransaction
  3
AutoCAD 2000
 90
    32768
280
     0
281
     0
  0
CLASS
  1
LWPOLYLINE
  2
AcDbPolyline
  3
AutoCAD 2000
 90
    32768
280
     0
281
     1
  0
CLASS
  1
HATCH
  2
AcDbHatch
  3
AutoCAD 2000
 90
    32768
280
     0
281
     1
  0
CLASS
  1
XRECORD
  2
AcDbXrecord
  3
AutoCAD 2000
 90
    32768
280
     0
281
     0
  0
CLASS
  1
LONG_TRANSACTION
  2
AcDbLongTransaction
  3
AutoCAD 2000
 90
    32768
280
     0
281
     0
  0
CLASS
  1
LWPOLYLINE
  2
AcDbPolyline
  3
AutoCAD 2000
 90
    32768
280
     0
281
     1
  0
CLASS
  1
HATCH
  2
AcDbHatch
  3
AutoCAD 2000
 90
    32768
280
     0
281
     1
  0
CLASS
  1
XRECORD
  2
AcDbXrecord
  3
AutoCAD 2000
 90
    32768
280
     0
281
     0
  0
ENDSEC
  0
SECTION
  2
TABLES
  0
TABLE
  2
VPORT
  5
20
330
0
100
AcDbSymbolTable
 70
     3
  0
VPORT
  5
2D0
330
20
100
AcDbSymbolTableRecord
100
AcDbViewportTableRecord
  2
*ACTIVE
 70
     0
 10
0.0
 20
0.0
 11
1.0
 21
1.0
 12
200.9993660312887
 22
194.4998179930363
 13
0.0
 23
0.0
 14
1.0
 24
1.0
 15
0.0
 25
0.0
 16
0.0
 26
0.0
 36
1.0
 17
0.0
 27
0.0
 37
0.0
 40
306.971342052121
 41
1.60759493670886
 42
50.0
 43
0.0
 44
0.0
 50
0.0
 51
0.0
 71
     0
 72
   100
 73
     1
 74
     0
 75
     0
 76
     0
 77
     0
 78
     0
  0
ENDTAB
  0
TABLE
  2
LTYPE
  5
1B
330
0
100
AcDbSymbolTable
 70
     3
  0
LTYPE
  5
1C
330
1B
100
AcDbSymbolTableRecord
100
AcDbLinetypeTableRecord
  2
BYBLOCK
 70
     0
  3

 72
    65
 73
     0
 40
0.0
  0
LTYPE
  5
1D
330
1B
100
AcDbSymbolTableRecord
100
AcDbLinetypeTableRecord
  2
BYLAYER
 70
     0
  3

 72
    65
 73
     0
 40
0.0
  0
LTYPE
  5
B
330
1B
100
AcDbSymbolTableRecord
100
AcDbLinetypeTableRecord
  2
CONTINUOUS
 70
     0
  3
Solid line
 72
    65
 73
     0
 40
0.0
  0
LTYPE
  5
2F
330
1B
100
AcDbSymbolTableRecord
100
AcDbLinetypeTableRecord
  2
CENTER
 70
     0
  3
----- - ----- - ----- - ----- - -----
 72
    65
 73
     4
 40
35.0
 49
30.0
 74
     0
 49
-1.5
 74
     0
 49
2.0
 74
     0
 49
-1.5
 74
     0
  0
LTYPE
  5
38
330
1B
100
AcDbSymbolTableRecord
100
AcDbLinetypeTableRecord
  2
PHANTOM
 70
     0
  3
----- - - ----- - - ----- - - ----- - - -----
 72
    65
 73
     6
 40
22.5
 49
15.0
 74
     0
 49
-1.5
 74
     0
 49
1.5
 74
     0
 49
-1.5
 74
     0
 49
1.5
 74
     0
 49
-1.5
 74
     0
  0
ENDTAB
  0
TABLE
  2
LAYER
  5
15
102
{ACAD_XDICTIONARY
360
16
102
}
330
0
100
AcDbSymbolTable
 70
     5
  0
LAYER
  5
6
330
15
100
AcDbSymbolTableRecord
100
AcDbLayerTableRecord
  2
0
 70
     0
 62
     7
  6
CONTINUOUS
  0
LAYER
  5
29
330
15
100
AcDbSymbolTableRecord
100
AcDbLayerTableRecord
  2
L-ZISSEN
 70
     0
 62
     7
  6
CONTINUOUS
  0
LAYER
  5
2E
330
15
100
AcDbSymbolTableRecord
100
AcDbLayerTableRecord
  2
L-TYUSIN
 70
     0
 62
     1
  6
CENTER
  0
LAYER
  5
68
330
15
100
AcDbSymbolTableRecord
100
AcDbLayerTableRecord
  2
L-SAISEN
 70
     0
 62
     6
  6
CONTINUOUS
  0
LAYER
  5
37
330
15
100
AcDbSymbolTableRecord
100
AcDbLayerTableRecord
  2
L-SOUZOU
 70
     0
 62
     2
  6
PHANTOM
  0
ENDTAB
  0
TABLE
  2
STYLE
  5
18
330
0
100
AcDbSymbolTable
 70
     1
  0
STYLE
  5
19
330
18
100
AcDbSymbolTableRecord
100
AcDbTextStyleTableRecord
  2
STANDARD
 70
     0
 40
0.0
 41
1.0
 50
0.0
 71
     0
 42
4.5
  3
txt.shx
  4

  0
ENDTAB
  0
TABLE
  2
VIEW
  5
1E
330
0
100
AcDbSymbolTable
 70
     0
  0
ENDTAB
  0
TABLE
  2
UCS
  5
1F
330
0
100
AcDbSymbolTable
 70
     0
  0
ENDTAB
  0
TABLE
  2
APPID
  5
22
330
0
100
AcDbSymbolTable
 70
     1
  0
APPID
  5
A
330
22
100
AcDbSymbolTableRecord
100
AcDbRegAppTableRecord
  2
ACAD
 70
     0
  0
ENDTAB
  0
TABLE
  2
DIMSTYLE
  5
23
330
0
100
AcDbSymbolTable
 70
     1
  0
DIMSTYLE
105
24
330
23
100
AcDbSymbolTableRecord
100
AcDbDimStyleTableRecord
  2
STANDARD
 70
     0
  3

  4

  5

  6

  7

 40
1.0
 41
0.18
 42
0.0625
 43
0.38
 44
0.18
 45
0.0
 46
0.0
 47
0.0
 48
0.0
140
0.18
141
0.09
142
0.0
143
25.4
144
1.0
145
0.0
146
1.0
147
0.09
 71
     0
 72
     0
 73
     1
 74
     1
 75
     0
 76
     0
 77
     0
 78
     0
170
     0
171
     2
172
     0
173
     0
174
     0
175
     0
176
     0
177
     0
178
     0
270
     2
271
     4
272
     4
273
     2
274
     2
340
19
275
     0
280
     0
281
     0
282
     0
283
     1
284
     0
285
     0
286
     0
287
     3
288
     0
  0
ENDTAB
  0
TABLE
  2
BLOCK_RECORD
  5
1
330
0
100
AcDbSymbolTable
 70
     0
  0
BLOCK_RECORD
  5
2
102
{ACAD_XDICTIONARY
360
3
102
}
330
1
100
AcDbSymbolTableRecord
100
AcDbBlockTableRecord
  2
*MODEL_SPACE
  0
BLOCK_RECORD
  5
F
102
{ACAD_XDICTIONARY
360
10
102
}
330
1
100
AcDbSymbolTableRecord
100
AcDbBlockTableRecord
  2
*PAPER_SPACE
  0
ENDTAB
  0
ENDSEC
  0
SECTION
  2
BLOCKS
  0
BLOCK
  5
5
330
2
100
AcDbEntity
  8
0
100
AcDbBlockBegin
  2
*MODEL_SPACE
 70
     0
 10
0.0
 20
0.0
 30
0.0
  3
*MODEL_SPACE
  1

  0
ENDBLK
  5
C
330
2
100
AcDbEntity
  8
0
100
AcDbBlockEnd
  0
BLOCK
  5
12
330
F
100
AcDbEntity
 67
     1
  8
0
100
AcDbBlockBegin
  2
*PAPER_SPACE
 70
     0
 10
0.0
 20
0.0
 30
0.0
  3
*PAPER_SPACE
  1

  0
ENDBLK
  5
13
330
F
100
AcDbEntity
 67
     1
  8
0
100
AcDbBlockEnd
  0
ENDSEC
  0
SECTION
  2
ENTITIES
  0
LINE
  5
2B
330
2
100
AcDbEntity
  8
L-ZISSEN
100
AcDbLine
 10
123.9999999999963
 20
217.6000000000008
 30
0.0
 11
124.7391289476394
 21
170.3359636814315
 31
0.0
  0
LINE
  5
2C
330
2
100
AcDbEntity
  8
L-ZISSEN
100
AcDbLine
 10
75.99999999999636
 20
217.6000000000008
 30
0.0
 11
75.26087105235319
 21
170.3359636814315
 31
0.0
  0
LINE
  5
2D
330
2
100
AcDbEntity
  8
L-TYUSIN
100
AcDbLine
 10
100.0
 20
45.38628176378188
 30
0.0
 11
100.0
 21
225.104516656148
 31
0.0
  0
ARC
  5
30
330
2
100
AcDbEntity
  8
L-ZISSEN
100
AcDbCircle
 10
78.78679656440363
 20
117.8680453825136
 30
0.0
 40
34.1319546174875
100
AcDbArc
 50
75.0820176392711
 51
104.9179823607288
  0
ARC
  5
31
330
2
100
AcDbEntity
  8
L-ZISSEN
100
AcDbCircle
 10
78.78679656440363
 20
180.1319546174885
 30
0.0
 40
34.1319546174875
100
AcDbArc
 50
255.082017639271
 51
284.9179823607288
  0
LINE
  5
32
330
2
100
AcDbEntity
  8
L-ZISSEN
100
AcDbLine
 10
66.6673025922737
 20
139.1325271002938
 30
0.0
 11
73.4095718247936
 21
139.1325271002932
 31
0.0
  0
LINE
  5
33
330
2
100
AcDbEntity
  8
L-ZISSEN
100
AcDbLine
 10
73.4095718247936
 20
137.9893931921901
 30
0.0
 11
66.6673025922737
 21
137.9893931921901
 31
0.0
  0
LINE
  5
34
330
2
100
AcDbEntity
  8
L-ZISSEN
100
AcDbLine
 10
75.0768744170673
 20
137.9893931921901
 30
0.0
 11
65.0
 21
137.9893931921901
 31
0.0
  0
ARC
  5
35
330
2
100
AcDbEntity
  8
L-ZISSEN
100
AcDbCircle
 10
70.70481122641831
 20
139.373813611885
 30
0.0
 40
2.715501624969247
100
AcDbArc
 50
354.9022474682888
 51
91.24326520780831
  0
LINE
  5
36
330
2
100
AcDbEntity
  8
L-SOUZOU
100
AcDbLine
 10
54.99999999999818
 20
146.0000000000009
 30
0.0
 11
134.999999999998
 21
146.0000000000009
 31
0.0
  0
LINE
  5
39
330
2
100
AcDbEntity
  8
L-ZISSEN
100
AcDbLine
 10
64.99999999999818
 20
132.0000000000009
 30
0.0
 11
134.999999999998
 21
132.0000000000009
 31
0.0
  0
LINE
  5
3A
330
2
100
AcDbEntity
  8
L-ZISSEN
100
AcDbLine
 10
65.00000000000182
 20
144.0000000000009
 30
0.0
 11
134.999999999998
 21
144.0000000000009
 31
0.0
  0
LINE
  5
3B
330
2
100
AcDbEntity
  8
L-SOUZOU
100
AcDbLine
 10
52.99999999999659
 20
144.0000000000009
 30
0.0
 11
134.999999999998
 21
144.0000000000009
 31
0.0
  0
LINE
  5
3C
330
2
100
AcDbEntity
  8
L-ZISSEN
100
AcDbLine
 10
73.5
 20
83.0
 30
0.0
 11
64.5
 21
83.0
 31
0.0
  0
LINE
  5
3D
330
2
100
AcDbEntity
  8
L-ZISSEN
100
AcDbLine
 10
55.0
 20
132.0000000000009
 30
0.0
 11
75.07687441706548
 21
131.9837202006719
 31
0.0
  0
LINE
  5
3E
330
2
100
AcDbEntity
  8
L-ZISSEN
100
AcDbLine
 10
73.0
 20
117.0
 30
0.0
 11
56.5
 21
117.0
 31
0.0
  0
LINE
  5
3F
330
2
100
AcDbEntity
  8
L-ZISSEN
100
AcDbLine
 10
70.0
 20
59.00000000000045
 30
0.0
 11
130.0
 21
59.00000000000045
 31
0.0
  0
LINE
  5
40
330
2
100
AcDbEntity
  8
L-ZISSEN
100
AcDbLine
 10
130.0
 20
65.0
 30
0.0
 11
70.0
 21
65.0
 31
0.0
  0
LINE
  5
41
330
2
100
AcDbEntity
  8
L-ZISSEN
100
AcDbLine
 10
58.0
 20
132.0000000000009
 30
0.0
 11
145.0
 21
132.0000000000009
 31
0.0
  0
LINE
  5
42
330
2
100
AcDbEntity
  8
L-ZISSEN
100
AcDbLine
 10
70.0
 20
59.00000000000045
 30
0.0
 11
70.0
 21
83.0
 31
0.0
  0
LINE
  5
43
330
2
100
AcDbEntity
  8
L-ZISSEN
100
AcDbLine
 10
55.0
 20
118.5000000000009
 30
0.0
 11
55.0
 21
132.0000000000009
 31
0.0
  0
LINE
  5
44
330
2
100
AcDbEntity
  8
L-ZISSEN
100
AcDbLine
 10
62.99999999999818
 20
84.50000000000091
 30
0.0
 11
62.99999999999818
 21
117.0
 31
0.0
  0
ARC
  5
45
330
2
100
AcDbEntity
  8
L-ZISSEN
100
AcDbCircle
 10
64.5
 20
84.50000000000091
 30
0.0
 40
1.50000000000034
100
AcDbArc
 50
180.0
 51
270.0
  0
ARC
  5
46
330
2
100
AcDbEntity
  8
L-ZISSEN
100
AcDbCircle
 10
56.5
 20
118.5000000000009
 30
0.0
 40
1.500000000000909
100
AcDbArc
 50
180.0
 51
270.0
  0
LINE
  5
47
330
2
100
AcDbEntity
  8
L-TYUSIN
100
AcDbLine
 10
57.99999999999818
 20
97.00000000000049
 30
0.0
 11
67.99999999999818
 21
97.00000000000045
 31
0.0
  0
LINE
  5
48
330
2
100
AcDbEntity
  8
L-SOUZOU
100
AcDbLine
 10
51.99999999999636
 20
171.0000000000009
 30
0.0
 11
51.99999999999636
 21
144.9837202006715
 31
0.0
  0
ARC
  5
49
330
2
100
AcDbEntity
  8
L-SOUZOU
100
AcDbCircle
 10
54.99999999999818
 20
147.0000000000013
 30
0.0
 40
1.000000000000227
100
AcDbArc
 50
180.0
 51
270.0
  0
ARC
  5
4A
330
2
100
AcDbEntity
  8
L-SOUZOU
100
AcDbCircle
 10
52.99999999999659
 20
145.0000000000013
 30
0.0
 40
1.000000000000227
100
AcDbArc
 50
180.0
 51
270.0
  0
LINE
  5
4B
330
2
100
AcDbEntity
  8
L-ZISSEN
100
AcDbLine
 10
65.00000000000182
 20
132.0000000000009
 30
0.0
 11
65.00000000000182
 21
144.0000000000009
 31
0.0
  0
ARC
  5
4C
330
2
100
AcDbEntity
  8
L-ZISSEN
100
AcDbCircle
 10
69.37206319065079
 20
139.373813611885
 30
0.0
 40
2.715501624969761
100
AcDbArc
 50
88.7567347921917
 51
185.097752531711
  0
LINE
  5
4D
330
2
100
AcDbEntity
  8
L-ZISSEN
100
AcDbLine
 10
66.6673025922737
 20
137.9893931921901
 30
0.0
 11
66.6673025922737
 21
139.1325271002938
 31
0.0
  0
LINE
  5
4E
330
2
100
AcDbEntity
  8
L-ZISSEN
100
AcDbLine
 10
70.64589198683825
 20
141.1036622334081
 30
0.0
 11
69.43098243022905
 21
141.1036622334081
 31
0.0
  0
LINE
  5
4F
330
2
100
AcDbEntity
  8
L-ZISSEN
100
AcDbLine
 10
69.43098243022905
 20
141.1036622334081
 30
0.0
 11
69.43098243022905
 21
142.088675965378
 31
0.0
  0
LINE
  5
50
330
2
100
AcDbEntity
  8
L-ZISSEN
100
AcDbLine
 10
70.64589198683825
 20
142.088675965378
 30
0.0
 11
70.64589198683825
 21
141.1036622334081
 31
0.0
  0
LINE
  5
51
330
2
100
AcDbEntity
  8
L-SOUZOU
100
AcDbLine
 10
54.0
 20
171.0000000000009
 30
0.0
 11
54.0
 21
146.8839194430734
 31
0.0
  0
LINE
  5
52
330
2
100
AcDbEntity
  8
L-TYUSIN
100
AcDbLine
 10
49.89770103310002
 20
160.9999999999945
 30
0.0
 11
56.70946303595702
 21
160.9999999999945
 31
0.0
  0
LINE
  5
53
330
2
100
AcDbEntity
  8
L-SOUZOU
100
AcDbLine
 10
51.99999999999636
 20
171.0000000000009
 30
0.0
 11
54.0
 21
171.0000000000009
 31
0.0
  0
LINE
  5
54
330
2
100
AcDbEntity
  8
L-ZISSEN
100
AcDbLine
 10
70.0
 20
150.8495937413458
 30
0.0
 11
70.0
 21
147.1504062586559
 31
0.0
  0
LINE
  5
55
330
2
100
AcDbEntity
  8
L-ZISSEN
100
AcDbLine
 10
130.0
 20
59.00000000000045
 30
0.0
 11
130.0
 21
83.0
 31
0.0
  0
LINE
  5
56
330
2
100
AcDbEntity
  8
L-ZISSEN
100
AcDbLine
 10
112.9999999999981
 20
52.0
 30
0.0
 11
87.0
 21
52.0
 31
0.0
  0
LINE
  5
57
330
2
100
AcDbEntity
  8
L-ZISSEN
100
AcDbLine
 10
86.5
 20
52.50000000000091
 30
0.0
 11
86.5
 21
59.00000000000045
 31
0.0
  0
ARC
  5
58
330
2
100
AcDbEntity
  8
L-ZISSEN
100
AcDbCircle
 10
87.0
 20
52.50000000000091
 30
0.0
 40
0.5000000000006822
100
AcDbArc
 50
179.9999999999479
 51
270.0
  0
LINE
  5
59
330
2
100
AcDbEntity
  8
L-ZISSEN
100
AcDbLine
 10
100.0
 20
52.0
 30
0.0
 11
100.0
 21
59.00000000000045
 31
0.0
  0
LINE
  5
5A
330
2
100
AcDbEntity
  8
L-ZISSEN
100
AcDbLine
 10
113.5
 20
52.50000000000091
 30
0.0
 11
113.5
 21
59.00000000000045
 31
0.0
  0
ARC
  5
5B
330
2
100
AcDbEntity
  8
L-ZISSEN
100
AcDbCircle
 10
112.9999999999981
 20
52.50000000000091
 30
0.0
 40
0.5000000000006822
100
AcDbArc
 50
270.0
 51
0.0
  0
LINE
  5
5C
330
2
100
AcDbEntity
  8
L-TYUSIN
100
AcDbLine
 10
132.0
 20
96.00000000000015
 30
0.0
 11
179.0
 21
96.0
 31
0.0
  0
ARC
  5
5D
330
2
100
AcDbEntity
  8
L-ZISSEN
100
AcDbCircle
 10
130.6279368093491
 20
139.373813611885
 30
0.0
 40
2.715501624969247
100
AcDbArc
 50
354.9022474682888
 51
91.24326520780831
  0
LINE
  5
5E
330
2
100
AcDbEntity
  8
L-ZISSEN
100
AcDbLine
 10
126.5904281752045
 20
139.1325271002938
 30
0.0
 11
133.332697407728
 21
139.1325271002932
 31
0.0
  0
LINE
  5
5F
330
2
100
AcDbEntity
  8
L-ZISSEN
100
AcDbLine
 10
133.332697407728
 20
137.9893931921901
 30
0.0
 11
126.5904281752045
 21
137.9893931921901
 31
0.0
  0
LINE
  5
60
330
2
100
AcDbEntity
  8
L-ZISSEN
100
AcDbLine
 10
124.9231255829345
 20
137.9893931921901
 30
0.0
 11
135.0
 21
137.9893931921901
 31
0.0
  0
LINE
  5
61
330
2
100
AcDbEntity
  8
L-ZISSEN
100
AcDbLine
 10
126.5
 20
83.0
 30
0.0
 11
135.499999999998
 21
83.0
 31
0.0
  0
LINE
  5
62
330
2
100
AcDbEntity
  8
L-ZISSEN
100
AcDbLine
 10
127.0
 20
117.0
 30
0.0
 11
143.499999999998
 21
117.0
 31
0.0
  0
LINE
  5
63
330
2
100
AcDbEntity
  8
L-ZISSEN
100
AcDbLine
 10
127.0
 20
83.99999999999954
 30
0.0
 11
127.0
 21
132.0000000000009
 31
0.0
  0
LINE
  5
64
330
2
100
AcDbEntity
  8
L-ZISSEN
100
AcDbLine
 10
73.0
 20
84.0
 30
0.0
 11
73.0
 21
132.0000000000009
 31
0.0
  0
LINE
  5
65
330
2
100
AcDbEntity
  8
L-TYUSIN
100
AcDbLine
 10
121.625
 20
100.0
 30
0.0
 11
78.375
 21
100.0
 31
0.0
  0
CIRCLE
  5
66
330
2
100
AcDbEntity
  8
L-ZISSEN
100
AcDbCircle
 10
100.0
 20
100.0
 30
0.0
 40
15.14499999999999
  0
CIRCLE
  5
67
330
2
100
AcDbEntity
  8
L-SAISEN
100
AcDbCircle
 10
100.0
 20
100.0
 30
0.0
 40
16.625
  0
LINE
  5
69
330
2
100
AcDbEntity
  8
L-ZISSEN
100
AcDbLine
 10
119.0
 20
75.99999999999955
 30
0.0
 11
81.0
 21
76.0
 31
0.0
  0
LINE
  5
6A
330
2
100
AcDbEntity
  8
L-ZISSEN
100
AcDbLine
 10
81.0
 20
76.0
 30
0.0
 11
73.0
 21
84.0
 31
0.0
  0
LINE
  5
6B
330
2
100
AcDbEntity
  8
L-ZISSEN
100
AcDbLine
 10
127.0
 20
83.99999999999954
 30
0.0
 11
119.0
 21
75.99999999999955
 31
0.0
  0
LINE
  5
6C
330
2
100
AcDbEntity
  8
L-ZISSEN
100
AcDbLine
 10
122.4394101357807
 20
168.0000000000009
 30
0.0
 11
77.56058986421201
 21
168.0000000000009
 31
0.0
  0
LINE
  5
6D
330
2
100
AcDbEntity
  8
L-ZISSEN
100
AcDbLine
 10
75.68865872680182
 20
157.0000000000009
 30
0.0
 11
124.3113412731927
 21
157.0000000000009
 31
0.0
  0
LINE
  5
6E
330
2
100
AcDbEntity
  8
L-ZISSEN
100
AcDbLine
 10
78.5
 20
166.0000000000009
 30
0.0
 11
121.5
 21
166.0000000000009
 31
0.0
  0
LINE
  5
6F
330
2
100
AcDbEntity
  8
L-ZISSEN
100
AcDbLine
 10
121.2132034355962
 20
152.0000000000009
 30
0.0
 11
78.78679656440363
 21
152.0000000000009
 31
0.0
  0
LINE
  5
70
330
2
100
AcDbEntity
  8
L-ZISSEN
100
AcDbLine
 10
121.2132034355962
 20
146.0000000000009
 30
0.0
 11
78.78679656440363
 21
146.0000000000009
 31
0.0
  0
ARC
  5
71
330
2
100
AcDbEntity
  8
L-ZISSEN
100
AcDbCircle
 10
100.0
 20
84.31129389435364
 30
0.0
 40
67.68870610564737
100
AcDbArc
 50
79.42154710243108
 51
100.5784528975689
  0
ARC
  5
72
330
2
100
AcDbEntity
  8
L-ZISSEN
100
AcDbCircle
 10
100.0
 20
213.688706105648
 30
0.0
 40
67.68870610564737
100
AcDbArc
 50
259.421547102431
 51
280.5784528975688
  0
LINE
  5
73
330
2
100
AcDbEntity
  8
L-ZISSEN
100
AcDbLine
 10
73.0
 20
124.0
 30
0.0
 11
127.0
 21
124.0
 31
0.0
  0
LINE
  5
74
330
2
100
AcDbEntity
  8
L-ZISSEN
100
AcDbLine
 10
73.0
 20
128.0000000000009
 30
0.0
 11
127.0
 21
128.0000000000009
 31
0.0
  0
LINE
  5
75
330
2
100
AcDbEntity
  8
L-ZISSEN
100
AcDbLine
 10
75.0768744170673
 20
144.0000000000009
 30
0.0
 11
75.0768744170673
 21
137.9893931921901
 31
0.0
  0
LINE
  5
76
330
2
100
AcDbEntity
  8
L-ZISSEN
100
AcDbLine
 10
73.4095718247936
 20
139.1325271002932
 30
0.0
 11
73.4095718247936
 21
137.9893931921901
 31
0.0
  0
LINE
  5
77
330
2
100
AcDbEntity
  8
L-ZISSEN
100
AcDbLine
 10
74.0
 20
146.337326277155
 30
0.0
 11
74.0
 21
144.0000000000009
 31
0.0
  0
LINE
  5
78
330
2
100
AcDbEntity
  8
L-SAISEN
100
AcDbLine
 10
75.68865872680182
 20
146.1408989123555
 30
0.0
 11
75.68865872680182
 21
144.0000000000009
 31
0.0
  0
LINE
  5
79
330
2
100
AcDbEntity
  8
L-ZISSEN
100
AcDbLine
 10
78.5
 20
166.0000000000009
 30
0.0
 11
78.5
 21
157.0162797993257
 31
0.0
  0
LINE
  5
7A
330
2
100
AcDbEntity
  8
L-ZISSEN
100
AcDbLine
 10
74.0
 20
156.2848419402921
 30
0.0
 11
74.0
 21
151.6626737228465
 31
0.0
  0
LINE
  5
7B
330
2
100
AcDbEntity
  8
L-SAISEN
100
AcDbLine
 10
75.68865872680182
 20
157.0162797993257
 30
0.0
 11
75.68865872680182
 21
151.8591010876461
 31
0.0
  0
LINE
  5
7C
330
2
100
AcDbEntity
  8
L-ZISSEN
100
AcDbLine
 10
75.68865872680182
 20
157.0000000000009
 30
0.0
 11
74.0
 21
156.2685621409673
 31
0.0
  0
ARC
  5
7D
330
2
100
AcDbEntity
  8
L-ZISSEN
100
AcDbCircle
 10
77.56058986421201
 20
170.3000000000009
 30
0.0
 40
2.299999999999998
100
AcDbArc
 50
179.104064722666
 51
270.0
  0
LINE
  5
7E
330
2
100
AcDbEntity
  8
L-ZISSEN
100
AcDbLine
 10
79.74999999999636
 20
168.0000000000009
 30
0.0
 11
79.74999999999636
 21
166.0000000000009
 31
0.0
  0
LINE
  5
7F
330
2
100
AcDbEntity
  8
L-ZISSEN
100
AcDbLine
 10
87.57359312880726
 20
150.8495937413458
 30
0.0
 11
87.57359312880726
 21
147.1504062586559
 31
0.0
  0
ARC
  5
80
330
2
100
AcDbEntity
  8
L-ZISSEN
100
AcDbCircle
 10
121.2132034355962
 20
180.1319546174885
 30
0.0
 40
34.1319546174875
100
AcDbArc
 50
255.082017639271
 51
284.9179823607288
  0
LINE
  5
81
330
2
100
AcDbEntity
  8
L-SAISEN
100
AcDbLine
 10
124.3113412731982
 20
146.1408989123555
 30
0.0
 11
124.3113412731982
 21
144.0000000000009
 31
0.0
  0
ARC
  5
82
330
2
100
AcDbEntity
  8
L-ZISSEN
100
AcDbCircle
 10
129.2951887735835
 20
139.373813611885
 30
0.0
 40
2.715501624970328
100
AcDbArc
 50
88.7567347921917
 51
185.097752531711
  0
LINE
  5
83
330
2
100
AcDbEntity
  8
L-ZISSEN
100
AcDbLine
 10
124.9231255829345
 20
144.0000000000009
 30
0.0
 11
124.9231255829345
 21
137.9893931921901
 31
0.0
  0
LINE
  5
84
330
2
100
AcDbEntity
  8
L-ZISSEN
100
AcDbLine
 10
126.5904281752045
 20
137.9893931921901
 30
0.0
 11
126.5904281752045
 21
139.1325271002938
 31
0.0
  0
LINE
  5
85
330
2
100
AcDbEntity
  8
L-ZISSEN
100
AcDbLine
 10
126.0
 20
146.337326277155
 30
0.0
 11
126.0
 21
144.0000000000009
 31
0.0
  0
LINE
  5
86
330
2
100
AcDbEntity
  8
L-ZISSEN
100
AcDbLine
 10
130.5690175697709
 20
142.088675965378
 30
0.0
 11
130.5690175697709
 21
141.1036622334081
 31
0.0
  0
LINE
  5
87
330
2
100
AcDbEntity
  8
L-ZISSEN
100
AcDbLine
 10
129.3541080131635
 20
141.1036622334081
 30
0.0
 11
129.3541080131635
 21
142.088675965378
 31
0.0
  0
LINE
  5
88
330
2
100
AcDbEntity
  8
L-ZISSEN
100
AcDbLine
 10
130.5690175697709
 20
141.1036622334081
 30
0.0
 11
129.3541080131635
 21
141.1036622334081
 31
0.0
  0
ARC
  5
89
330
2
100
AcDbEntity
  8
L-ZISSEN
100
AcDbCircle
 10
121.2132034355962
 20
117.8680453825136
 30
0.0
 40
34.1319546174875
100
AcDbArc
 50
75.0820176392711
 51
104.9179823607288
  0
LINE
  5
8A
330
2
100
AcDbEntity
  8
L-ZISSEN
100
AcDbLine
 10
112.4264068711926
 20
150.8495937413458
 30
0.0
 11
112.4264068711926
 21
147.1504062586559
 31
0.0
  0
LINE
  5
8B
330
2
100
AcDbEntity
  8
L-ZISSEN
100
AcDbLine
 10
121.5
 20
166.0000000000009
 30
0.0
 11
121.5
 21
157.0162797993257
 31
0.0
  0
LINE
  5
8C
330
2
100
AcDbEntity
  8
L-ZISSEN
100
AcDbLine
 10
124.3113412731927
 20
157.0000000000009
 30
0.0
 11
126.0
 21
156.2685621409673
 31
0.0
  0
LINE
  5
8D
330
2
100
AcDbEntity
  8
L-SAISEN
100
AcDbLine
 10
124.3113412731927
 20
157.0000000000009
 30
0.0
 11
124.3113412731927
 21
151.8591010876465
 31
0.0
  0
LINE
  5
8E
330
2
100
AcDbEntity
  8
L-ZISSEN
100
AcDbLine
 10
126.0
 20
156.2685621409673
 30
0.0
 11
126.0
 21
151.6626737228465
 31
0.0
  0
LINE
  5
8F
330
2
100
AcDbEntity
  8
L-ZISSEN
100
AcDbLine
 10
130.0
 20
150.8495937413458
 30
0.0
 11
130.0
 21
147.1504062586559
 31
0.0
  0
ARC
  5
90
330
2
100
AcDbEntity
  8
L-ZISSEN
100
AcDbCircle
 10
122.4394101357807
 20
170.3000000000009
 30
0.0
 40
2.299999999999998
100
AcDbArc
 50
270.0
 51
0.895935277333799
  0
LINE
  5
91
330
2
100
AcDbEntity
  8
L-ZISSEN
100
AcDbLine
 10
120.2499999999963
 20
168.0000000000009
 30
0.0
 11
120.2499999999963
 21
166.0000000000009
 31
0.0
  0
LINE
  5
92
330
2
100
AcDbEntity
  8
L-ZISSEN
100
AcDbLine
 10
145.0
 20
118.5000000000009
 30
0.0
 11
145.0
 21
132.0000000000009
 31
0.0
  0
LINE
  5
93
330
2
100
AcDbEntity
  8
L-SOUZOU
100
AcDbLine
 10
150.5
 20
116.4000000000002
 30
0.0
 11
165.0
 21
116.4000000000002
 31
0.0
  0
LINE
  5
94
330
2
100
AcDbEntity
  8
L-SOUZOU
100
AcDbLine
 10
150.5
 20
75.60000000000005
 30
0.0
 11
165.0
 21
75.60000000000005
 31
0.0
  0
LINE
  5
95
330
2
100
AcDbEntity
  8
L-SOUZOU
100
AcDbLine
 10
149.0
 20
114.9000000000002
 30
0.0
 11
149.0
 21
77.10000000000005
 31
0.0
  0
LINE
  5
96
330
2
100
AcDbEntity
  8
L-SOUZOU
100
AcDbLine
 10
137.0
 20
86.85930939220854
 30
0.0
 11
137.0
 21
105.1406906077912
 31
0.0
  0
LINE
  5
97
330
2
100
AcDbEntity
  8
L-SOUZOU
100
AcDbLine
 10
140.0
 20
102.7344452929036
 30
0.0
 11
140.0
 21
89.26555470709642
 31
0.0
  0
LINE
  5
98
330
2
100
AcDbEntity
  8
L-SOUZOU
100
AcDbLine
 10
141.5
 20
102.8
 30
0.0
 11
141.5
 21
89.19999999999996
 31
0.0
  0
LINE
  5
99
330
2
100
AcDbEntity
  8
L-ZISSEN
100
AcDbLine
 10
137.0
 20
84.50000000000091
 30
0.0
 11
137.0
 21
117.0
 31
0.0
  0
LINE
  5
9A
330
2
100
AcDbEntity
  8
L-SOUZOU
100
AcDbLine
 10
141.5
 20
89.20000000000019
 30
0.0
 11
149.0
 21
89.19999999999996
 31
0.0
  0
LINE
  5
9B
330
2
100
AcDbEntity
  8
L-SOUZOU
100
AcDbLine
 10
137.0
 20
90.21530939220877
 30
0.0
 11
140.0
 21
90.12155470709641
 31
0.0
  0
LINE
  5
9C
330
2
100
AcDbEntity
  8
L-SOUZOU
100
AcDbLine
 10
137.0
 20
89.3593093922086
 30
0.0
 11
141.4999999999998
 21
89.21867736454002
 31
0.0
  0
ARC
  5
9D
330
2
100
AcDbEntity
  8
L-ZISSEN
100
AcDbCircle
 10
135.499999999998
 20
84.50000000000091
 30
0.0
 40
1.50000000000034
100
AcDbArc
 50
270.0
 51
0.0
  0
LINE
  5
9E
330
2
100
AcDbEntity
  8
L-SOUZOU
100
AcDbLine
 10
140.0
 20
90.12155470709641
 30
0.0
 11
140.8836143276843
 21
89.2379403794122
 31
0.0
  0
ARC
  5
9F
330
2
100
AcDbEntity
  8
L-SOUZOU
100
AcDbCircle
 10
150.5
 20
77.10000000000005
 30
0.0
 40
1.5
100
AcDbArc
 50
180.0
 51
270.0
  0
LINE
  5
A0
330
2
100
AcDbEntity
  8
L-SOUZOU
100
AcDbLine
 10
141.5
 20
102.8
 30
0.0
 11
149.0
 21
102.8000000000003
 31
0.0
  0
LINE
  5
A1
330
2
100
AcDbEntity
  8
L-SOUZOU
100
AcDbLine
 10
137.0
 20
102.6406906077912
 30
0.0
 11
141.4999999999998
 21
102.7813226354598
 31
0.0
  0
LINE
  5
A2
330
2
100
AcDbEntity
  8
L-SOUZOU
100
AcDbLine
 10
137.0
 20
101.7846906077912
 30
0.0
 11
140.0
 21
101.8784452929035
 31
0.0
  0
LINE
  5
A3
330
2
100
AcDbEntity
  8
L-SOUZOU
100
AcDbLine
 10
140.0
 20
101.8784452929035
 30
0.0
 11
140.8836143276843
 21
102.7620596205879
 31
0.0
  0
ARC
  5
A4
330
2
100
AcDbEntity
  8
L-ZISSEN
100
AcDbCircle
 10
143.499999999998
 20
118.5000000000009
 30
0.0
 40
1.500000000000909
100
AcDbArc
 50
270.0
 51
0.0
  0
ARC
  5
A5
330
2
100
AcDbEntity
  8
L-SOUZOU
100
AcDbCircle
 10
150.5
 20
114.9000000000002
 30
0.0
 40
1.5
100
AcDbArc
 50
90.0
 51
180.0
  0
LINE
  5
A6
330
2
100
AcDbEntity
  8
L-SOUZOU
100
AcDbLine
 10
165.0
 20
117.0000000000001
 30
0.0
 11
165.0
 21
75.00000000000014
 31
0.0
  0
LINE
  5
A7
330
2
100
AcDbEntity
  8
L-SOUZOU
100
AcDbLine
 10
174.0
 20
115.5
 30
0.0
 11
174.0
 21
76.50000000000014
 31
0.0
  0
LINE
  5
A8
330
2
100
AcDbEntity
  8
L-SOUZOU
100
AcDbLine
 10
165.0
 20
75.00000000000014
 30
0.0
 11
172.5
 21
75.00000000000014
 31
0.0
  0
ARC
  5
A9
330
2
100
AcDbEntity
  8
L-SOUZOU
100
AcDbCircle
 10
172.5
 20
76.50000000000014
 30
0.0
 40
1.5
100
AcDbArc
 50
270.0
 51
0.0
  0
LINE
  5
AA
330
2
100
AcDbEntity
  8
L-SOUZOU
100
AcDbLine
 10
165.0
 20
117.0000000000001
 30
0.0
 11
172.5
 21
117.0000000000001
 31
0.0
  0
ARC
  5
AB
330
2
100
AcDbEntity
  8
L-SOUZOU
100
AcDbCircle
 10
172.5
 20
115.5
 30
0.0
 40
1.5
100
AcDbArc
 50
0.0
 51
90.0
  0
LINE
  5
AC
330
2
100
AcDbEntity
  8
L-ZISSEN
100
AcDbLine
 10
134.999999999998
 20
132.0000000000009
 30
0.0
 11
134.999999999998
 21
144.0000000000009
 31
0.0
  0
LINE
  5
AD
330
2
100
AcDbEntity
  8
L-ZISSEN
100
AcDbLine
 10
135.0
 20
137.9893931921901
 30
0.0
 11
135.0
 21
142.9999999999968
 31
0.0
  0
LINE
  5
AE
330
2
100
AcDbEntity
  8
L-ZISSEN
100
AcDbLine
 10
133.332697407728
 20
139.1325271002932
 30
0.0
 11
133.332697407728
 21
137.9893931921901
 31
0.0
  0
LINE
  5
AF
330
2
100
AcDbEntity
  8
L-SOUZOU
 48
0.5
100
AcDbLine
 10
134.999999999998
 20
146.0000000000009
 30
0.0
 11
134.999999999998
 21
144.0000000000009
 31
0.0
  0
LINE
  5
B0
330
2
100
AcDbEntity
  8
L-TYUSIN
100
AcDbLine
 10
179.0
 20
296.9999999999983
 30
0.0
 11
50.0
 21
296.9999999999983
 31
0.0
  0
LINE
  5
B1
330
2
100
AcDbEntity
  8
L-ZISSEN
100
AcDbLine
 10
55.00000000000003
 20
259.9905039275693
 30
0.0
 11
73.00000000000001
 21
255.9999999999964
 31
0.0
  0
LINE
  5
B2
330
2
100
AcDbEntity
  8
L-ZISSEN
100
AcDbLine
 10
55.00000000000003
 20
334.0094960724294
 30
0.0
 11
73.00000000000001
 21
338.0000000000023
 31
0.0
  0
LINE
  5
B3
330
2
100
AcDbEntity
  8
L-ZISSEN
100
AcDbLine
 10
82.0
 20
328.4999999999975
 30
0.0
 11
65.0
 21
324.7311907350674
 31
0.0
  0
CIRCLE
  5
B4
330
2
100
AcDbEntity
  8
L-ZISSEN
100
AcDbCircle
 10
70.0
 20
320.5000000000016
 30
0.0
 40
4.45
  0
LINE
  5
B5
330
2
100
AcDbEntity
  8
L-ZISSEN
100
AcDbLine
 10
82.0
 20
265.4999999999974
 30
0.0
 11
65.0
 21
269.2688092649276
 31
0.0
  0
CIRCLE
  5
B6
330
2
100
AcDbEntity
  8
L-ZISSEN
100
AcDbCircle
 10
70.0
 20
273.499999999998
 30
0.0
 40
4.45
  0
POLYLINE
  5
B7
330
2
100
AcDbEntity
  8
L-ZISSEN
100
AcDb2dPolyline
 66
     1
 10
0.0
 20
0.0
 30
0.0
 70
     1
  0
VERTEX
  5
2D3
330
B7
100
AcDbEntity
  8
L-ZISSEN
100
AcDbVertex
100
AcDb2dVertex
 10
87.57359312880726
 20
326.9999999999983
 30
0.0
  0
VERTEX
  5
2D4
330
B7
100
AcDbEntity
  8
L-ZISSEN
100
AcDbVertex
100
AcDb2dVertex
 10
70.0
 20
309.4264068711912
 30
0.0
  0
VERTEX
  5
2D5
330
B7
100
AcDbEntity
  8
L-ZISSEN
100
AcDbVertex
100
AcDb2dVertex
 10
70.0
 20
284.5735931288056
 30
0.0
  0
VERTEX
  5
2D6
330
B7
100
AcDbEntity
  8
L-ZISSEN
100
AcDbVertex
100
AcDb2dVertex
 10
87.57359312880703
 20
266.9999999999983
 30
0.0
  0
VERTEX
  5
2D7
330
B7
100
AcDbEntity
  8
L-ZISSEN
100
AcDbVertex
100
AcDb2dVertex
 10
112.4264068711926
 20
266.9999999999983
 30
0.0
  0
VERTEX
  5
2D8
330
B7
100
AcDbEntity
  8
L-ZISSEN
100
AcDbVertex
100
AcDb2dVertex
 10
130.0
 20
284.5735931288056
 30
0.0
  0
VERTEX
  5
2D9
330
B7
100
AcDbEntity
  8
L-ZISSEN
100
AcDbVertex
100
AcDb2dVertex
 10
130.0
 20
309.4264068711912
 30
0.0
  0
VERTEX
  5
2DA
330
B7
100
AcDbEntity
  8
L-ZISSEN
100
AcDbVertex
100
AcDb2dVertex
 10
112.4264068711929
 20
326.9999999999983
 30
0.0
  0
SEQEND
  5
2DB
330
B7
100
AcDbEntity
  8
L-ZISSEN
  0
CIRCLE
  5
B8
330
2
100
AcDbEntity
  8
L-ZISSEN
100
AcDbCircle
 10
100.0
 20
296.9999999999983
 30
0.0
 40
30.0
  0
LINE
  5
B9
330
2
100
AcDbEntity
  8
L-SOUZOU
100
AcDbLine
 10
53.99999999999636
 20
331.999999999997
 30
0.0
 11
103.9357563996327
 21
324.9744941252336
 31
0.0
  0
LINE
  5
BA
330
2
100
AcDbEntity
  8
L-SOUZOU
100
AcDbLine
 10
53.99999999999636
 20
262.0000000000006
 30
0.0
 11
103.9357563996327
 21
269.0255058747641
 31
0.0
  0
LINE
  5
BB
330
2
100
AcDbEntity
  8
L-ZISSEN
100
AcDbLine
 10
55.0
 20
334.0094960724294
 30
0.0
 11
55.0
 21
259.9905039275693
 31
0.0
  0
LINE
  5
BC
330
2
100
AcDbEntity
  8
L-SOUZOU
100
AcDbLine
 10
51.99999999999636
 20
262.0000000000006
 30
0.0
 11
51.99999999999636
 21
331.999999999997
 31
0.0
  0
LINE
  5
BD
330
2
100
AcDbEntity
  8
L-SOUZOU
100
AcDbLine
 10
53.99999999999636
 20
262.0000000000006
 30
0.0
 11
53.99999999999636
 21
331.999999999997
 31
0.0
  0
LINE
  5
BE
330
2
100
AcDbEntity
  8
L-ZISSEN
100
AcDbLine
 10
65.0
 20
324.7311907350674
 30
0.0
 11
65.0
 21
269.2688092649276
 31
0.0
  0
LINE
  5
BF
330
2
100
AcDbEntity
  8
L-TYUSIN
100
AcDbLine
 10
46.99999999999636
 20
269.9999999999974
 30
0.0
 11
58.99999999999636
 21
269.9999999999974
 31
0.0
  0
LINE
  5
C0
330
2
100
AcDbEntity
  8
L-SOUZOU
100
AcDbLine
 10
51.99999999999636
 20
262.0000000000006
 30
0.0
 11
53.99999999999636
 21
262.0000000000006
 31
0.0
  0
LINE
  5
C1
330
2
100
AcDbEntity
  8
L-TYUSIN
100
AcDbLine
 10
58.99999999999636
 20
323.9999999999974
 30
0.0
 11
46.99999999999636
 21
323.9999999999974
 31
0.0
  0
LINE
  5
C2
330
2
100
AcDbEntity
  8
L-SOUZOU
100
AcDbLine
 10
51.99999999999636
 20
331.999999999997
 30
0.0
 11
53.99999999999636
 21
331.999999999997
 31
0.0
  0
LINE
  5
C3
330
2
100
AcDbEntity
  8
L-SOUZOU
100
AcDbLine
 10
149.0
 20
315.8999999999986
 30
0.0
 11
149.0
 21
278.0999999999983
 31
0.0
  0
LINE
  5
C4
330
2
100
AcDbEntity
  8
L-SOUZOU
100
AcDbLine
 10
174.0
 20
316.4999999999985
 30
0.0
 11
174.0
 21
277.4999999999985
 31
0.0
  0
LINE
  5
C5
330
2
100
AcDbEntity
  8
L-SOUZOU
100
AcDbLine
 10
165.0
 20
317.9999999999985
 30
0.0
 11
165.0
 21
275.9999999999985
 31
0.0
  0
LINE
  5
C6
330
2
100
AcDbEntity
  8
L-ZISSEN
100
AcDbLine
 10
144.9999999999999
 20
259.9905039275693
 30
0.0
 11
144.9999999999999
 21
334.0094960724294
 31
0.0
  0
LINE
  5
C7
330
2
100
AcDbEntity
  8
L-TYUSIN
100
AcDbLine
 10
100.0
 20
246.9999999999984
 30
0.0
 11
100.0
 21
346.9999999999984
 31
0.0
  0
ARC
  5
C8
330
2
100
AcDbEntity
  8
L-SOUZOU
100
AcDbCircle
 10
100.0
 20
296.9999999999998
 30
0.0
 40
28.25
100
AcDbArc
 50
278.0084306809344
 51
81.99156931906562
  0
LINE
  5
C9
330
2
100
AcDbEntity
  8
L-ZISSEN
100
AcDbLine
 10
135.0
 20
269.2688092649276
 30
0.0
 11
135.0
 21
324.7311907350674
 31
0.0
  0
CIRCLE
  5
CA
330
2
100
AcDbEntity
  8
L-ZISSEN
100
AcDbCircle
 10
100.0
 20
296.9999999999983
 30
0.0
 40
23.96246809175248
  0
CIRCLE
  5
CB
330
2
100
AcDbEntity
  8
L-ZISSEN
100
AcDbCircle
 10
100.0
 20
296.9999999999983
 30
0.0
 40
24.77565943703641
  0
CIRCLE
  5
CC
330
2
100
AcDbEntity
  8
L-SOUZOU
100
AcDbCircle
 10
100.0
 20
296.9999999999998
 30
0.0
 40
26.0
  0
LINE
  5
CD
330
2
100
AcDbEntity
  8
L-ZISSEN
100
AcDbLine
 10
144.9999999999999
 20
259.9905039275693
 30
0.0
 11
126.9999999999999
 21
255.9999999999964
 31
0.0
  0
CIRCLE
  5
CE
330
2
100
AcDbEntity
  8
L-ZISSEN
100
AcDbCircle
 10
130.0
 20
273.499999999998
 30
0.0
 40
4.45
  0
LINE
  5
CF
330
2
100
AcDbEntity
  8
L-ZISSEN
100
AcDbLine
 10
118.0
 20
265.4999999999974
 30
0.0
 11
135.0
 21
269.2688092649276
 31
0.0
  0
LINE
  5
D0
330
2
100
AcDbEntity
  8
L-ZISSEN
100
AcDbLine
 10
122.0
 20
220.0000000000009
 30
0.0
 11
77.99999999999818
 21
220.0000000000009
 31
0.0
  0
LINE
  5
D1
330
2
100
AcDbEntity
  8
L-ZISSEN
100
AcDbLine
 10
75.99999999999636
 20
217.6000000000008
 30
0.0
 11
77.99999999999818
 21
220.0000000000009
 31
0.0
  0
LINE
  5
D2
330
2
100
AcDbEntity
  8
L-ZISSEN
100
AcDbLine
 10
123.9999999999963
 20
217.6000000000008
 30
0.0
 11
122.0
 21
220.0000000000009
 31
0.0
  0
LINE
  5
D3
330
2
100
AcDbEntity
  8
L-ZISSEN
100
AcDbLine
 10
127.0
 20
251.9999999999948
 30
0.0
 11
73.0
 21
251.9999999999948
 31
0.0
  0
LINE
  5
D4
330
2
100
AcDbEntity
  8
L-ZISSEN
100
AcDbLine
 10
82.0
 20
261.9999999999971
 30
0.0
 11
118.0
 21
261.9999999999975
 31
0.0
  0
LINE
  5
D5
330
2
100
AcDbEntity
  8
L-ZISSEN
100
AcDbLine
 10
73.00000000000001
 20
255.9999999999948
 30
0.0
 11
73.0
 21
251.9999999999948
 31
0.0
  0
LINE
  5
D6
330
2
100
AcDbEntity
  8
L-ZISSEN
100
AcDbLine
 10
82.0
 20
261.9999999999971
 30
0.0
 11
82.0
 21
265.4999999999974
 31
0.0
  0
LINE
  5
D7
330
2
100
AcDbEntity
  8
L-ZISSEN
100
AcDbLine
 10
127.0
 20
251.9999999999948
 30
0.0
 11
126.9999999999999
 21
255.9999999999948
 31
0.0
  0
LINE
  5
D8
330
2
100
AcDbEntity
  8
L-ZISSEN
100
AcDbLine
 10
118.0
 20
265.4999999999974
 30
0.0
 11
118.0
 21
261.9999999999975
 31
0.0
  0
LINE
  5
D9
330
2
100
AcDbEntity
  8
L-SOUZOU
100
AcDbLine
 10
150.5
 20
276.5999999999983
 30
0.0
 11
165.0
 21
276.5999999999983
 31
0.0
  0
ARC
  5
DA
330
2
100
AcDbEntity
  8
L-SOUZOU
100
AcDbCircle
 10
150.5
 20
278.0999999999983
 30
0.0
 40
1.5
100
AcDbArc
 50
180.0
 51
270.0
  0
LINE
  5
DB
330
2
100
AcDbEntity
  8
L-SOUZOU
100
AcDbLine
 10
165.0
 20
275.9999999999985
 30
0.0
 11
172.5
 21
275.9999999999985
 31
0.0
  0
ARC
  5
DC
330
2
100
AcDbEntity
  8
L-SOUZOU
100
AcDbCircle
 10
172.5
 20
277.4999999999985
 30
0.0
 40
1.5
100
AcDbArc
 50
270.0
 51
0.0
  0
LINE
  5
DD
330
2
100
AcDbEntity
  8
L-ZISSEN
100
AcDbLine
 10
144.9999999999999
 20
334.0094960724294
 30
0.0
 11
126.9999999999999
 21
338.0000000000023
 31
0.0
  0
CIRCLE
  5
DE
330
2
100
AcDbEntity
  8
L-ZISSEN
100
AcDbCircle
 10
130.0
 20
320.5000000000016
 30
0.0
 40
4.45
  0
LINE
  5
DF
330
2
100
AcDbEntity
  8
L-ZISSEN
100
AcDbLine
 10
118.0
 20
328.4999999999975
 30
0.0
 11
135.0
 21
324.7311907350674
 31
0.0
  0
LINE
  5
E0
330
2
100
AcDbEntity
  8
L-ZISSEN
100
AcDbLine
 10
118.0
 20
331.999999999997
 30
0.0
 11
82.0
 21
331.999999999997
 31
0.0
  0
LINE
  5
E1
330
2
100
AcDbEntity
  8
L-ZISSEN
100
AcDbLine
 10
82.0
 20
328.4999999999975
 30
0.0
 11
82.0
 21
331.999999999997
 31
0.0
  0
LINE
  5
E2
330
2
100
AcDbEntity
  8
L-ZISSEN
100
AcDbLine
 10
118.0
 20
331.999999999997
 30
0.0
 11
118.0
 21
328.4999999999975
 31
0.0
  0
LINE
  5
E3
330
2
100
AcDbEntity
  8
L-ZISSEN
100
AcDbLine
 10
127.0
 20
342.0000000000023
 30
0.0
 11
73.0
 21
342.0000000000025
 31
0.0
  0
LINE
  5
E4
330
2
100
AcDbEntity
  8
L-ZISSEN
100
AcDbLine
 10
73.00000000000001
 20
338.0000000000023
 30
0.0
 11
73.0
 21
342.0000000000023
 31
0.0
  0
LINE
  5
E5
330
2
100
AcDbEntity
  8
L-ZISSEN
100
AcDbLine
 10
127.0
 20
342.0000000000023
 30
0.0
 11
126.9999999999999
 21
338.0000000000023
 31
0.0
  0
LINE
  5
E6
330
2
100
AcDbEntity
  8
L-SOUZOU
100
AcDbLine
 10
150.5
 20
317.3999999999986
 30
0.0
 11
165.0
 21
317.3999999999986
 31
0.0
  0
LINE
  5
E7
330
2
100
AcDbEntity
  8
L-SOUZOU
100
AcDbLine
 10
144.9999999999999
 20
303.7999999999986
 30
0.0
 11
149.0
 21
303.7999999999986
 31
0.0
  0
LINE
  5
E8
330
2
100
AcDbEntity
  8
L-SOUZOU
100
AcDbLine
 10
144.9999999999999
 20
290.1999999999983
 30
0.0
 11
149.0
 21
290.1999999999983
 31
0.0
  0
ARC
  5
E9
330
2
100
AcDbEntity
  8
L-SOUZOU
100
AcDbCircle
 10
150.5
 20
315.8999999999986
 30
0.0
 40
1.5
100
AcDbArc
 50
90.0
 51
180.0
  0
LINE
  5
EA
330
2
100
AcDbEntity
  8
L-SOUZOU
100
AcDbLine
 10
165.0
 20
317.9999999999985
 30
0.0
 11
172.5
 21
317.9999999999985
 31
0.0
  0
ARC
  5
EB
330
2
100
AcDbEntity
  8
L-SOUZOU
100
AcDbCircle
 10
172.5
 20
316.4999999999985
 30
0.0
 40
1.5
100
AcDbArc
 50
0.0
 51
90.0
  0
LINE
  5
EC
330
2
100
AcDbEntity
  8
L-ZISSEN
100
AcDbLine
 10
323.9999999999962
 20
217.6000000000008
 30
0.0
 11
324.7391289476395
 21
170.3359636814315
 31
0.0
  0
LINE
  5
ED
330
2
100
AcDbEntity
  8
L-ZISSEN
100
AcDbLine
 10
275.9999999999962
 20
217.6000000000008
 30
0.0
 11
275.2608710523531
 21
170.3359636814315
 31
0.0
  0
LINE
  5
EE
330
2
100
AcDbEntity
  8
L-TYUSIN
100
AcDbLine
 10
300.0
 20
42.0
 30
0.0
 11
300.0
 21
225.0426939671805
 31
0.0
  0
CIRCLE
  5
EF
330
2
100
AcDbEntity
  8
L-SOUZOU
100
AcDbCircle
 10
300.0
 20
96.00000000000092
 30
0.0
 40
21.0
  0
CIRCLE
  5
F0
330
2
100
AcDbEntity
  8
L-SOUZOU
100
AcDbCircle
 10
300.0
 20
96.00000000000092
 30
0.0
 40
18.0
  0
LINE
  5
F1
330
2
100
AcDbEntity
  8
L-ZISSEN
100
AcDbLine
 10
265.0
 20
132.0000000000009
 30
0.0
 11
335.0
 21
132.0000000000009
 31
0.0
  0
ARC
  5
F2
330
2
100
AcDbEntity
  8
L-ZISSEN
100
AcDbCircle
 10
321.2132034355963
 20
117.8680453825136
 30
0.0
 40
34.1319546174875
100
AcDbArc
 50
75.0820176392711
 51
104.9179823607288
  0
ARC
  5
F3
330
2
100
AcDbEntity
  8
L-ZISSEN
100
AcDbCircle
 10
321.2132034355963
 20
180.1319546174885
 30
0.0
 40
34.1319546174875
100
AcDbArc
 50
255.082017639271
 51
284.9179823607288
  0
LINE
  5
F4
330
2
100
AcDbEntity
  8
L-SOUZOU
100
AcDbLine
 10
335.0
 20
144.0000000000009
 30
0.0
 11
265.0
 21
144.0000000000009
 31
0.0
  0
LINE
  5
F5
330
2
100
AcDbEntity
  8
L-SOUZOU
100
AcDbLine
 10
335.0
 20
146.0000000000009
 30
0.0
 11
265.0
 21
146.0000000000009
 31
0.0
  0
LINE
  5
F6
330
2
100
AcDbEntity
  8
L-ZISSEN
100
AcDbLine
 10
335.0
 20
144.0000000000009
 30
0.0
 11
265.0
 21
144.0000000000009
 31
0.0
  0
LINE
  5
F7
330
2
100
AcDbEntity
  8
L-ZISSEN
100
AcDbLine
 10
275.6886587268054
 20
155.9999999999971
 30
0.0
 11
324.3113412731945
 21
155.9999999999971
 31
0.0
  0
LINE
  5
F8
330
2
100
AcDbEntity
  8
L-ZISSEN
100
AcDbLine
 10
278.5
 20
166.0000000000009
 30
0.0
 11
321.5000000000018
 21
166.0000000000009
 31
0.0
  0
LINE
  5
F9
330
2
100
AcDbEntity
  8
L-ZISSEN
100
AcDbLine
 10
277.5605898642119
 20
168.0000000000009
 30
0.0
 11
322.4394101357806
 21
168.0000000000009
 31
0.0
  0
LINE
  5
FA
330
2
100
AcDbEntity
  8
L-ZISSEN
100
AcDbLine
 10
321.2132034355963
 20
146.0000000000009
 30
0.0
 11
278.7867965644036
 21
146.0000000000009
 31
0.0
  0
LINE
  5
FB
330
2
100
AcDbEntity
  8
L-ZISSEN
100
AcDbLine
 10
321.2132034355963
 20
152.0000000000009
 30
0.0
 11
278.7867965644036
 21
152.0000000000009
 31
0.0
  0
LINE
  5
FC
330
2
100
AcDbEntity
  8
L-ZISSEN
100
AcDbLine
 10
313.5
 20
52.0
 30
0.0
 11
286.4999999999982
 21
52.0
 31
0.0
  0
LINE
  5
FD
330
2
100
AcDbEntity
  8
L-TYUSIN
100
AcDbLine
 10
355.0
 20
100.0
 30
0.0
 11
245.0
 21
100.0
 31
0.0
  0
LINE
  5
FE
330
2
100
AcDbEntity
  8
L-ZISSEN
100
AcDbLine
 10
329.9999999999982
 20
59.0
 30
0.0
 11
269.999999999998
 21
59.0
 31
0.0
  0
LINE
  5
FF
330
2
100
AcDbEntity
  8
L-ZISSEN
100
AcDbLine
 10
273.0
 20
83.00000000000091
 30
0.0
 11
327.0000000000018
 21
83.00000000000091
 31
0.0
  0
LINE
  5
100
330
2
100
AcDbEntity
  8
L-ZISSEN
100
AcDbLine
 10
329.9999999999982
 20
65.0
 30
0.0
 11
269.999999999998
 21
65.0
 31
0.0
  0
LINE
  5
101
330
2
100
AcDbEntity
  8
L-ZISSEN
100
AcDbLine
 10
258.999999999998
 20
117.0
 30
0.0
 11
341.0
 21
117.0
 31
0.0
  0
LINE
  5
102
330
2
100
AcDbEntity
  8
L-ZISSEN
100
AcDbLine
 10
255.0
 20
132.0000000000009
 30
0.0
 11
345.0
 21
132.0000000000009
 31
0.0
  0
LINE
  5
103
330
2
100
AcDbEntity
  8
L-ZISSEN
100
AcDbLine
 10
269.999999999998
 20
59.0
 30
0.0
 11
269.999999999998
 21
76.0
 31
0.0
  0
LINE
  5
104
330
2
100
AcDbEntity
  8
L-ZISSEN
100
AcDbLine
 10
286.4999999999982
 20
52.0
 30
0.0
 11
286.4999999999982
 21
59.0
 31
0.0
  0
LINE
  5
105
330
2
100
AcDbEntity
  8
L-ZISSEN
100
AcDbLine
 10
300.0
 20
52.0
 30
0.0
 11
300.0
 21
59.0
 31
0.0
  0
LINE
  5
106
330
2
100
AcDbEntity
  8
L-ZISSEN
100
AcDbLine
 10
263.999999999998
 20
117.0
 30
0.0
 11
263.999999999998
 21
132.0000000000009
 31
0.0
  0
LINE
  5
107
330
2
100
AcDbEntity
  8
L-ZISSEN
100
AcDbLine
 10
258.999999999998
 20
117.0
 30
0.0
 11
258.999999999998
 21
132.0000000000009
 31
0.0
  0
LINE
  5
108
330
2
100
AcDbEntity
  8
L-ZISSEN
100
AcDbLine
 10
258.999999999998
 20
83.0
 30
0.0
 11
258.999999999998
 21
132.0000000000009
 31
0.0
  0
LINE
  5
109
330
2
100
AcDbEntity
  8
L-ZISSEN
100
AcDbLine
 10
255.0
 20
76.0
 30
0.0
 11
255.0
 21
124.0
 31
0.0
  0
LINE
  5
10A
330
2
100
AcDbEntity
  8
L-ZISSEN
100
AcDbLine
 10
273.0
 20
83.00000000000091
 30
0.0
 11
273.0
 21
117.0
 31
0.0
  0
LINE
  5
10B
330
2
100
AcDbEntity
  8
L-ZISSEN
100
AcDbLine
 10
277.499999999998
 20
83.00000000000091
 30
0.0
 11
277.499999999998
 21
117.0
 31
0.0
  0
LINE
  5
10C
330
2
100
AcDbEntity
  8
L-ZISSEN
100
AcDbLine
 10
260.249999999998
 20
79.00000000000045
 30
0.0
 11
260.249999999998
 21
117.0
 31
0.0
  0
LINE
  5
10D
330
2
100
AcDbEntity
  8
L-ZISSEN
100
AcDbLine
 10
274.999999999998
 20
76.0
 30
0.0
 11
255.0
 21
76.0
 31
0.0
  0
LINE
  5
10E
330
2
100
AcDbEntity
  8
L-ZISSEN
100
AcDbLine
 10
278.0
 20
79.00000000000045
 30
0.0
 11
260.249999999998
 21
79.00000000000045
 31
0.0
  0
LINE
  5
10F
330
2
100
AcDbEntity
  8
L-ZISSEN
100
AcDbLine
 10
258.999999999998
 20
83.0
 30
0.0
 11
260.249999999998
 21
79.00000000000045
 31
0.0
  0
LINE
  5
110
330
2
100
AcDbEntity
  8
L-ZISSEN
100
AcDbLine
 10
255.0
 20
83.0
 30
0.0
 11
258.999999999998
 21
83.0
 31
0.0
  0
LINE
  5
111
330
2
100
AcDbEntity
  8
L-ZISSEN
100
AcDbLine
 10
274.999999999998
 20
76.0
 30
0.0
 11
278.0
 21
79.00000000000045
 31
0.0
  0
LINE
  5
112
330
2
100
AcDbEntity
  8
L-ZISSEN
100
AcDbLine
 10
278.0
 20
79.00000000000045
 30
0.0
 11
278.0
 21
83.0
 31
0.0
  0
CIRCLE
  5
113
330
2
100
AcDbEntity
  8
L-ZISSEN
100
AcDbCircle
 10
300.0
 20
96.00000000000092
 30
0.0
 40
5.724999999999998
  0
CIRCLE
  5
114
330
2
100
AcDbEntity
  8
L-SAISEN
100
AcDbCircle
 10
300.0
 20
96.00000000000092
 30
0.0
 40
6.58
  0
LINE
  5
115
330
2
100
AcDbEntity
  8
L-SOUZOU
100
AcDbLine
 10
299.3143999999971
 20
94.12160000000083
 30
0.0
 11
289.2519999999961
 21
84.66880000000106
 31
0.0
  0
LINE
  5
116
330
2
100
AcDbEntity
  8
L-SOUZOU
100
AcDbLine
 10
308.4215999999956
 20
104.421600000001
 30
0.0
 11
287.6983999999938
 21
83.69840000000136
 31
0.0
  0
LINE
  5
117
330
2
100
AcDbEntity
  8
L-SOUZOU
100
AcDbLine
 10
298.1215999999956
 20
95.31440000000086
 30
0.0
 11
288.6687999999965
 21
85.25200000000131
 31
0.0
  0
LINE
  5
118
330
2
100
AcDbEntity
  8
L-SOUZOU
100
AcDbLine
 10
288.6863999999943
 20
84.68640000000096
 30
0.0
 11
288.6775999999954
 21
84.6952000000015
 31
0.0
  0
LINE
  5
119
330
2
100
AcDbEntity
  8
L-SOUZOU
100
AcDbLine
 10
288.6863999999943
 20
84.68640000000096
 30
0.0
 11
288.6951999999931
 21
84.67760000000067
 31
0.0
  0
ARC
  5
11A
330
2
100
AcDbEntity
  8
L-SOUZOU
100
AcDbCircle
 10
288.9775999999954
 20
84.96080000000096
 30
0.0
 40
0.4
100
AcDbArc
 50
225.0000000001013
 51
313.2099999998256
  0
ARC
  5
11B
330
2
100
AcDbEntity
  8
L-SOUZOU
100
AcDbCircle
 10
288.9607999999948
 20
84.97760000000061
 30
0.0
 40
0.4
100
AcDbArc
 50
136.7899999998975
 51
225.0000000001013
  0
LINE
  5
11C
330
2
100
AcDbEntity
  8
L-TYUSIN
100
AcDbLine
 10
288.42
 20
96.00000000000092
 30
0.0
 11
311.5799999999998
 21
96.00000000000092
 31
0.0
  0
ARC
  5
11D
330
2
100
AcDbEntity
  8
L-SOUZOU
100
AcDbCircle
 10
300.0
 20
96.00000000000092
 30
0.0
 40
2.0
100
AcDbArc
 50
73.51949999986479
 51
200.0599999999713
  0
LINE
  5
11E
330
2
100
AcDbEntity
  8
L-SOUZOU
100
AcDbLine
 10
305.9399999999964
 20
103.636800000001
 30
0.0
 11
300.5671999999961
 21
97.91760000000092
 31
0.0
  0
LINE
  5
11F
330
2
100
AcDbEntity
  8
L-SOUZOU
100
AcDbLine
 10
307.6367999999959
 20
101.9400000000009
 30
0.0
 11
301.9175999999976
 21
96.56720000000088
 31
0.0
  0
ARC
  5
120
330
2
100
AcDbEntity
  8
L-SOUZOU
100
AcDbCircle
 10
300.0
 20
96.00000000000092
 30
0.0
 40
2.0
100
AcDbArc
 50
249.939999999777
 51
16.48050000006905
  0
CIRCLE
  5
121
330
2
100
AcDbEntity
  8
L-SOUZOU
100
AcDbCircle
 10
300.0
 20
96.00000000000092
 30
0.0
 40
1.199999999999999
  0
LINE
  5
122
330
2
100
AcDbEntity
  8
L-SOUZOU
100
AcDbLine
 10
305.9399999999964
 20
103.636800000001
 30
0.0
 11
307.6367999999959
 21
101.9400000000009
 31
0.0
  0
ARC
  5
123
330
2
100
AcDbEntity
  8
L-ZISSEN
100
AcDbCircle
 10
278.7867965644036
 20
180.1319546174885
 30
0.0
 40
34.1319546174875
100
AcDbArc
 50
255.082017639271
 51
284.9179823607288
  0
ARC
  5
124
330
2
100
AcDbEntity
  8
L-ZISSEN
100
AcDbCircle
 10
278.7867965644036
 20
117.8680453825136
 30
0.0
 40
34.1319546174875
100
AcDbArc
 50
75.0820176392711
 51
104.9179823607288
  0
LINE
  5
125
330
2
100
AcDbEntity
  8
L-SOUZOU
100
AcDbLine
 10
265.0
 20
144.0000000000009
 30
0.0
 11
265.0
 21
170.0000000000013
 31
0.0
  0
LINE
  5
126
330
2
100
AcDbEntity
  8
L-ZISSEN
100
AcDbLine
 10
281.5384372085317
 20
137.9893931921901
 30
0.0
 11
265.0
 21
137.9893931921901
 31
0.0
  0
LINE
  5
127
330
2
100
AcDbEntity
  8
L-ZISSEN
100
AcDbLine
 10
264.9999999999997
 20
144.0000000000009
 30
0.0
 11
265.0
 21
132.0000000000009
 31
0.0
  0
LINE
  5
128
330
2
100
AcDbEntity
  8
L-ZISSEN
100
AcDbLine
 10
258.0
 20
128.0000000000009
 30
0.0
 11
258.0
 21
124.0
 31
0.0
  0
LINE
  5
129
330
2
100
AcDbEntity
  8
L-ZISSEN
100
AcDbLine
 10
258.0
 20
124.0
 30
0.0
 11
255.0
 21
124.0
 31
0.0
  0
LINE
  5
12A
330
2
100
AcDbEntity
  8
L-ZISSEN
100
AcDbLine
 10
255.0
 20
128.0000000000009
 30
0.0
 11
258.0
 21
128.0000000000009
 31
0.0
  0
LINE
  5
12B
330
2
100
AcDbEntity
  8
L-ZISSEN
100
AcDbLine
 10
255.0
 20
128.0000000000009
 30
0.0
 11
255.0
 21
132.0000000000009
 31
0.0
  0
ARC
  5
12C
330
2
100
AcDbEntity
  8
L-ZISSEN
100
AcDbCircle
 10
275.8336259821171
 20
139.373813611885
 30
0.0
 40
2.715501624969247
100
AcDbArc
 50
88.7567347921917
 51
185.097752531711
  0
LINE
  5
12D
330
2
100
AcDbEntity
  8
L-ZISSEN
100
AcDbLine
 10
273.1288653837381
 20
137.9893931921901
 30
0.0
 11
279.8711346162616
 21
137.9893931921901
 31
0.0
  0
LINE
  5
12E
330
2
100
AcDbEntity
  8
L-ZISSEN
100
AcDbLine
 10
279.8711346162616
 20
139.1325271002938
 30
0.0
 11
273.1288653837381
 21
139.1325271002932
 31
0.0
  0
LINE
  5
12F
330
2
100
AcDbEntity
  8
L-ZISSEN
100
AcDbLine
 10
273.1288653837381
 20
139.1325271002932
 30
0.0
 11
273.1288653837381
 21
137.9893931921901
 31
0.0
  0
LINE
  5
130
330
2
100
AcDbEntity
  8
L-ZISSEN
100
AcDbLine
 10
274.0
 20
146.337326277155
 30
0.0
 11
274.0
 21
144.0000000000009
 31
0.0
  0
ARC
  5
131
330
2
100
AcDbEntity
  8
L-ZISSEN
100
AcDbCircle
 10
277.1663740178827
 20
139.373813611885
 30
0.0
 40
2.715501624970328
100
AcDbArc
 50
354.9022474682888
 51
91.24326520780831
  0
LINE
  5
132
330
2
100
AcDbEntity
  8
L-ZISSEN
100
AcDbLine
 10
281.5384372085317
 20
144.0000000000009
 30
0.0
 11
281.5384372085317
 21
137.9893931921901
 31
0.0
  0
LINE
  5
133
330
2
100
AcDbEntity
  8
L-ZISSEN
100
AcDbLine
 10
279.8711346162616
 20
137.9893931921901
 30
0.0
 11
279.8711346162616
 21
139.1325271002938
 31
0.0
  0
LINE
  5
134
330
2
100
AcDbEntity
  8
L-SAISEN
100
AcDbLine
 10
275.6886587268017
 20
146.1408989123555
 30
0.0
 11
275.6886587268017
 21
144.0000000000009
 31
0.0
  0
LINE
  5
135
330
2
100
AcDbEntity
  8
L-ZISSEN
100
AcDbLine
 10
277.1074547783026
 20
141.1036622334081
 30
0.0
 11
277.1074547783026
 21
142.088675965378
 31
0.0
  0
LINE
  5
136
330
2
100
AcDbEntity
  8
L-ZISSEN
100
AcDbLine
 10
275.8925452216954
 20
142.088675965378
 30
0.0
 11
275.8925452216954
 21
141.1036622334081
 31
0.0
  0
LINE
  5
137
330
2
100
AcDbEntity
  8
L-ZISSEN
100
AcDbLine
 10
275.8925452216954
 20
141.1036622334081
 30
0.0
 11
277.1074547783026
 21
141.1036622334081
 31
0.0
  0
LINE
  5
138
330
2
100
AcDbEntity
  8
L-TYUSIN
 48
0.5
100
AcDbLine
 10
280.5000000000018
 20
160.9999999999945
 30
0.0
 11
265.5000000000018
 21
160.9999999999945
 31
0.0
  0
LINE
  5
139
330
2
100
AcDbEntity
  8
L-SOUZOU
100
AcDbLine
 10
275.2549499339201
 20
171.0000000000009
 30
0.0
 11
266.0000000000018
 21
171.0000000000009
 31
0.0
  0
LINE
  5
13A
330
2
100
AcDbEntity
  8
L-SOUZOU
100
AcDbLine
 10
266.0000000000018
 20
171.0000000000009
 30
0.0
 11
265.0
 21
170.0000000000013
 31
0.0
  0
LINE
  5
13B
330
2
100
AcDbEntity
  8
L-ZISSEN
100
AcDbLine
 10
278.5
 20
165.9999999999963
 30
0.0
 11
278.5
 21
155.9999999999971
 31
0.0
  0
LINE
  5
13C
330
2
100
AcDbEntity
  8
L-TYUSIN
100
AcDbLine
 10
273.0000000000035
 20
167.4999999999941
 30
0.0
 11
273.0000000000035
 21
154.4999999999945
 31
0.0
  0
ARC
  5
13D
330
2
100
AcDbEntity
  8
L-SOUZOU
100
AcDbCircle
 10
274.0500000000035
 20
160.9999999999945
 30
0.0
 40
4.199999999999987
100
AcDbArc
 50
270.0
 51
90.0
  0
ARC
  5
13E
330
2
100
AcDbEntity
  8
L-SOUZOU
100
AcDbCircle
 10
271.9500000000035
 20
160.9999999999945
 30
0.0
 40
4.199999999999987
100
AcDbArc
 50
90.0
 51
270.0
  0
LINE
  5
13F
330
2
100
AcDbEntity
  8
L-ZISSEN
100
AcDbLine
 10
275.6886587268054
 20
155.9999999999971
 30
0.0
 11
274.0000000000018
 21
155.2685621409622
 31
0.0
  0
LINE
  5
140
330
2
100
AcDbEntity
  8
L-ZISSEN
100
AcDbLine
 10
274.0000000000018
 20
155.2685621409622
 30
0.0
 11
274.0000000000018
 21
151.6626737228465
 31
0.0
  0
LINE
  5
141
330
2
100
AcDbEntity
  8
L-ZISSEN
100
AcDbLine
 10
270.0
 20
150.8495937413458
 30
0.0
 11
270.0
 21
147.1504062586559
 31
0.0
  0
LINE
  5
142
330
2
100
AcDbEntity
  8
L-SOUZOU
100
AcDbLine
 10
274.0500000000035
 20
156.7999999999946
 30
0.0
 11
271.9500000000035
 21
156.7999999999946
 31
0.0
  0
LINE
  5
143
330
2
100
AcDbEntity
  8
L-SAISEN
100
AcDbLine
 10
275.6886587268054
 20
155.9999999999971
 30
0.0
 11
275.6886587268054
 21
151.8591010876465
 31
0.0
  0
ARC
  5
144
330
2
100
AcDbEntity
  8
L-ZISSEN
100
AcDbCircle
 10
277.5605898642119
 20
170.3000000000009
 30
0.0
 40
2.299999999999998
100
AcDbArc
 50
179.104064722666
 51
270.0
  0
LINE
  5
145
330
2
100
AcDbEntity
  8
L-SOUZOU
100
AcDbLine
 10
274.0500000000035
 20
165.1999999999943
 30
0.0
 11
271.9500000000035
 21
165.1999999999943
 31
0.0
  0
LINE
  5
146
330
2
100
AcDbEntity
  8
L-ZISSEN
100
AcDbLine
 10
279.7500000000018
 20
168.0000000000009
 30
0.0
 11
279.7500000000018
 21
165.9999999999963
 31
0.0
  0
ARC
  5
147
330
2
100
AcDbEntity
  8
L-ZISSEN
100
AcDbCircle
 10
300.0
 20
213.688706105648
 30
0.0
 40
67.68870610564737
100
AcDbArc
 50
259.421547102431
 51
280.5784528975688
  0
ARC
  5
148
330
2
100
AcDbEntity
  8
L-ZISSEN
100
AcDbCircle
 10
300.0
 20
84.31129389435364
 30
0.0
 40
67.68870610564737
100
AcDbArc
 50
79.42154710243108
 51
100.5784528975689
  0
LINE
  5
149
330
2
100
AcDbEntity
  8
L-ZISSEN
100
AcDbLine
 10
287.5735931288072
 20
150.8495937413458
 30
0.0
 11
287.5735931288072
 21
147.1504062586559
 31
0.0
  0
LINE
  5
14A
330
2
100
AcDbEntity
  8
L-ZISSEN
100
AcDbLine
 10
312.4264068711926
 20
150.8495937413458
 30
0.0
 11
312.4264068711926
 21
147.1504062586559
 31
0.0
  0
LINE
  5
14B
330
2
100
AcDbEntity
  8
L-ZISSEN
100
AcDbLine
 10
329.9999999999982
 20
59.0
 30
0.0
 11
329.9999999999982
 21
76.0
 31
0.0
  0
LINE
  5
14C
330
2
100
AcDbEntity
  8
L-ZISSEN
100
AcDbLine
 10
313.5
 20
52.0
 30
0.0
 11
313.5
 21
59.0
 31
0.0
  0
TEXT
  5
14D
330
2
100
AcDbEntity
  8
L-ZISSEN
100
AcDbText
 10
213.1226832263703
 20
111.1010930917925
 30
0.0
 40
4.5
  1
Rc1
100
AcDbText
  0
TEXT
  5
14E
330
2
100
AcDbEntity
  8
L-ZISSEN
100
AcDbText
 10
213.1226832263703
 20
118.6010930917925
 30
0.0
 40
4.5
  1
Rc3/4
100
AcDbText
  0
LINE
  5
14F
330
2
100
AcDbEntity
  8
L-ZISSEN
100
AcDbLine
 10
212.2566729428846
 20
125.0623582153665
 30
0.0
 11
237.2961537181422
 21
125.0623582153665
 31
0.0
  0
LINE
  5
150
330
2
100
AcDbEntity
  8
L-ZISSEN
100
AcDbLine
 10
253.8460781433713
 20
101.6335434946135
 30
0.0
 11
237.2961537181422
 21
125.0623582153665
 31
0.0
  0
LINE
  5
151
330
2
100
AcDbEntity
  8
L-ZISSEN
100
AcDbLine
 10
336.0
 20
117.0
 30
0.0
 11
336.0
 21
132.0000000000009
 31
0.0
  0
LINE
  5
152
330
2
100
AcDbEntity
  8
L-ZISSEN
100
AcDbLine
 10
345.0
 20
124.0
 30
0.0
 11
345.0
 21
76.0
 31
0.0
  0
LINE
  5
153
330
2
100
AcDbEntity
  8
L-ZISSEN
100
AcDbLine
 10
341.0
 20
83.0
 30
0.0
 11
341.0
 21
132.0000000000009
 31
0.0
  0
LINE
  5
154
330
2
100
AcDbEntity
  8
L-ZISSEN
100
AcDbLine
 10
345.0
 20
83.0
 30
0.0
 11
341.0
 21
83.0
 31
0.0
  0
LINE
  5
155
330
2
100
AcDbEntity
  8
L-ZISSEN
100
AcDbLine
 10
345.0
 20
76.0
 30
0.0
 11
324.9999999999981
 21
76.0
 31
0.0
  0
LINE
  5
156
330
2
100
AcDbEntity
  8
L-ZISSEN
100
AcDbLine
 10
339.7499999999999
 20
79.00000000000045
 30
0.0
 11
339.7499999999999
 21
117.0
 31
0.0
  0
LINE
  5
157
330
2
100
AcDbEntity
  8
L-ZISSEN
100
AcDbLine
 10
327.0000000000018
 20
83.00000000000091
 30
0.0
 11
327.0000000000018
 21
117.0
 31
0.0
  0
LINE
  5
158
330
2
100
AcDbEntity
  8
L-ZISSEN
100
AcDbLine
 10
322.5
 20
83.00000000000091
 30
0.0
 11
322.5
 21
117.0
 31
0.0
  0
LINE
  5
159
330
2
100
AcDbEntity
  8
L-ZISSEN
100
AcDbLine
 10
339.7499999999999
 20
79.00000000000045
 30
0.0
 11
321.9999999999981
 21
79.0
 31
0.0
  0
LINE
  5
15A
330
2
100
AcDbEntity
  8
L-ZISSEN
100
AcDbLine
 10
324.9999999999981
 20
76.0
 30
0.0
 11
321.9999999999981
 21
79.0
 31
0.0
  0
LINE
  5
15B
330
2
100
AcDbEntity
  8
L-ZISSEN
100
AcDbLine
 10
321.9999999999981
 20
79.0
 30
0.0
 11
321.9999999999981
 21
83.0
 31
0.0
  0
LINE
  5
15C
330
2
100
AcDbEntity
  8
L-ZISSEN
100
AcDbLine
 10
341.0
 20
83.0
 30
0.0
 11
339.7499999999999
 21
79.00000000000045
 31
0.0
  0
SOLID
  5
15D
330
2
100
AcDbEntity
  8
L-ZISSEN
100
AcDbTrace
 10
253.5738208942689
 20
101.4412231851754
 30
0.0
 11
254.1183353924735
 21
101.8258638040517
 31
0.0
 12
255.0
 22
100.0
 32
0.0
 13
255.0
 23
100.0
 33
0.0
  0
LINE
  5
15E
330
2
100
AcDbEntity
  8
L-ZISSEN
100
AcDbLine
 10
345.0
 20
128.0000000000009
 30
0.0
 11
342.0000000000018
 21
128.0000000000009
 31
0.0
  0
LINE
  5
15F
330
2
100
AcDbEntity
  8
L-ZISSEN
100
AcDbLine
 10
342.0000000000018
 20
124.0
 30
0.0
 11
345.0
 21
124.0
 31
0.0
  0
LINE
  5
160
330
2
100
AcDbEntity
  8
L-SOUZOU
100
AcDbLine
 10
335.0
 20
142.9999999999968
 30
0.0
 11
335.0
 21
170.0000000000013
 31
0.0
  0
ARC
  5
161
330
2
100
AcDbEntity
  8
L-ZISSEN
100
AcDbCircle
 10
324.1663740178827
 20
139.373813611885
 30
0.0
 40
2.715501624969247
100
AcDbArc
 50
354.9022474682888
 51
91.24326520780831
  0
LINE
  5
162
330
2
100
AcDbEntity
  8
L-ZISSEN
100
AcDbLine
 10
318.4615627914681
 20
137.9893931921901
 30
0.0
 11
335.0
 21
137.9893931921901
 31
0.0
  0
ARC
  5
163
330
2
100
AcDbEntity
  8
L-ZISSEN
100
AcDbCircle
 10
322.833625982117
 20
139.373813611885
 30
0.0
 40
2.715501624970328
100
AcDbArc
 50
88.7567347921917
 51
185.097752531711
  0
LINE
  5
164
330
2
100
AcDbEntity
  8
L-ZISSEN
100
AcDbLine
 10
318.4615627914681
 20
144.0000000000009
 30
0.0
 11
318.4615627914681
 21
137.9893931921901
 31
0.0
  0
LINE
  5
165
330
2
100
AcDbEntity
  8
L-ZISSEN
100
AcDbLine
 10
320.1288653837381
 20
139.1325271002938
 30
0.0
 11
326.8711346162616
 21
139.1325271002932
 31
0.0
  0
LINE
  5
166
330
2
100
AcDbEntity
  8
L-ZISSEN
100
AcDbLine
 10
326.8711346162616
 20
137.9893931921901
 30
0.0
 11
320.1288653837381
 21
137.9893931921901
 31
0.0
  0
LINE
  5
167
330
2
100
AcDbEntity
  8
L-ZISSEN
100
AcDbLine
 10
320.1288653837381
 20
137.9893931921901
 30
0.0
 11
320.1288653837381
 21
139.1325271002938
 31
0.0
  0
LINE
  5
168
330
2
100
AcDbEntity
  8
L-ZISSEN
100
AcDbLine
 10
326.8711346162616
 20
139.1325271002932
 30
0.0
 11
326.8711346162616
 21
137.9893931921901
 31
0.0
  0
LINE
  5
169
330
2
100
AcDbEntity
  8
L-ZISSEN
100
AcDbLine
 10
324.1074547783046
 20
141.1036622334081
 30
0.0
 11
322.8925452216972
 21
141.1036622334081
 31
0.0
  0
LINE
  5
16A
330
2
100
AcDbEntity
  8
L-ZISSEN
100
AcDbLine
 10
322.8925452216972
 20
141.1036622334081
 30
0.0
 11
322.8925452216972
 21
142.088675965378
 31
0.0
  0
LINE
  5
16B
330
2
100
AcDbEntity
  8
L-ZISSEN
100
AcDbLine
 10
326.0
 20
146.337326277155
 30
0.0
 11
326.0
 21
144.0000000000009
 31
0.0
  0
LINE
  5
16C
330
2
100
AcDbEntity
  8
L-SAISEN
100
AcDbLine
 10
324.3113412731982
 20
146.1408989123555
 30
0.0
 11
324.3113412731982
 21
144.0000000000009
 31
0.0
  0
LINE
  5
16D
330
2
100
AcDbEntity
  8
L-ZISSEN
100
AcDbLine
 10
324.1074547783046
 20
142.088675965378
 30
0.0
 11
324.1074547783046
 21
141.1036622334081
 31
0.0
  0
LINE
  5
16E
330
2
100
AcDbEntity
  8
L-ZISSEN
100
AcDbLine
 10
335.0
 20
142.9999999999968
 30
0.0
 11
335.0
 21
132.0000000000009
 31
0.0
  0
LINE
  5
16F
330
2
100
AcDbEntity
  8
L-ZISSEN
100
AcDbLine
 10
342.0000000000018
 20
128.0000000000009
 30
0.0
 11
342.0000000000018
 21
124.0
 31
0.0
  0
LINE
  5
170
330
2
100
AcDbEntity
  8
L-SOUZOU
100
AcDbLine
 10
325.9499999999963
 20
156.7999999999946
 30
0.0
 11
328.0499999999963
 21
156.7999999999946
 31
0.0
  0
LINE
  5
171
330
2
100
AcDbEntity
  8
L-SOUZOU
100
AcDbLine
 10
325.9499999999963
 20
165.1999999999943
 30
0.0
 11
328.0499999999963
 21
165.1999999999943
 31
0.0
  0
LINE
  5
172
330
2
100
AcDbEntity
  8
L-TYUSIN
 48
0.5
100
AcDbLine
 10
334.5
 20
160.9999999999945
 30
0.0
 11
319.5
 21
160.9999999999945
 31
0.0
  0
LINE
  5
173
330
2
100
AcDbEntity
  8
L-SOUZOU
100
AcDbLine
 10
334.0000000000018
 20
171.0000000000009
 30
0.0
 11
324.7450500660816
 21
171.0000000000009
 31
0.0
  0
LINE
  5
174
330
2
100
AcDbEntity
  8
L-TYUSIN
100
AcDbLine
 10
327.0000000000018
 20
167.4999999999936
 30
0.0
 11
327.0000000000018
 21
154.4999999999945
 31
0.0
  0
LINE
  5
175
330
2
100
AcDbEntity
  8
L-ZISSEN
100
AcDbLine
 10
321.5000000000018
 20
165.9999999999963
 30
0.0
 11
321.5000000000018
 21
155.9999999999971
 31
0.0
  0
ARC
  5
176
330
2
100
AcDbEntity
  8
L-SOUZOU
100
AcDbCircle
 10
325.9499999999963
 20
160.9999999999945
 30
0.0
 40
4.199999999999987
100
AcDbArc
 50
90.0
 51
270.0
  0
LINE
  5
177
330
2
100
AcDbEntity
  8
L-ZISSEN
100
AcDbLine
 10
326.0
 20
155.2685621409622
 30
0.0
 11
326.0
 21
151.6626737228465
 31
0.0
  0
LINE
  5
178
330
2
100
AcDbEntity
  8
L-SAISEN
100
AcDbLine
 10
324.3113412731945
 20
155.9999999999971
 30
0.0
 11
324.3113412731945
 21
151.8591010876465
 31
0.0
  0
LINE
  5
179
330
2
100
AcDbEntity
  8
L-ZISSEN
100
AcDbLine
 10
324.3113412731945
 20
155.9999999999971
 30
0.0
 11
326.0
 21
155.2685621409622
 31
0.0
  0
LINE
  5
17A
330
2
100
AcDbEntity
  8
L-ZISSEN
100
AcDbLine
 10
320.2500000000018
 20
168.0000000000009
 30
0.0
 11
320.2500000000018
 21
165.9999999999963
 31
0.0
  0
ARC
  5
17B
330
2
100
AcDbEntity
  8
L-ZISSEN
100
AcDbCircle
 10
322.4394101357806
 20
170.3000000000009
 30
0.0
 40
2.299999999999998
100
AcDbArc
 50
270.0
 51
0.895935277333799
  0
ARC
  5
17C
330
2
100
AcDbEntity
  8
L-SOUZOU
100
AcDbCircle
 10
328.0499999999963
 20
160.9999999999945
 30
0.0
 40
4.199999999999987
100
AcDbArc
 50
270.0
 51
90.0
  0
LINE
  5
17D
330
2
100
AcDbEntity
  8
L-ZISSEN
100
AcDbLine
 10
330.0
 20
150.8495937413458
 30
0.0
 11
330.0
 21
147.1504062586559
 31
0.0
  0
LINE
  5
17E
330
2
100
AcDbEntity
  8
L-SOUZOU
100
AcDbLine
 10
334.0000000000018
 20
171.0000000000009
 30
0.0
 11
335.0
 21
170.0000000000013
 31
0.0
  0
LINE
  5
17F
330
2
100
AcDbEntity
  8
L-ZISSEN
100
AcDbLine
 10
345.0
 20
132.0000000000009
 30
0.0
 11
345.0
 21
128.0000000000009
 31
0.0
  0
TEXT
  5
180
330
2
100
AcDbEntity
  8
L-ZISSEN
100
AcDbText
 10
213.1226832263703
 20
126.1010930917925
 30
0.0
 40
4.5
  1
IN
100
AcDbText
  0
TEXT
  5
181
330
2
100
AcDbEntity
  8
L-ZISSEN
100
AcDbText
 10
220.8754025419048
 20
316.4898759065803
 30
0.0
 40
4.5
  1
MODEL NO. R68- 00-0***
100
AcDbText
  0
LINE
  5
182
330
2
100
AcDbEntity
  8
L-ZISSEN
100
AcDbLine
 10
322.0
 20
220.0000000000009
 30
0.0
 11
277.9999999999982
 21
220.0000000000009
 31
0.0
  0
LINE
  5
183
330
2
100
AcDbEntity
  8
L-ZISSEN
100
AcDbLine
 10
275.9999999999962
 20
217.6000000000008
 30
0.0
 11
277.9999999999982
 21
220.0000000000009
 31
0.0
  0
LINE
  5
184
330
2
100
AcDbEntity
  8
L-ZISSEN
100
AcDbLine
 10
323.9999999999962
 20
217.6000000000008
 30
0.0
 11
322.0
 21
220.0000000000009
 31
0.0
  0
TEXT
  5
189
330
2
100
AcDbEntity
  8
L-ZISSEN
100
AcDbText
 10
280.9237073783264
 20
319.30692131317
 30
0.0
 40
4.5
  1
6
100
AcDbText
  0
TEXT
  5
18A
330
2
100
AcDbEntity
  8
L-ZISSEN
100
AcDbText
 10
280.9237073783264
 20
313.5899274447396
 30
0.0
 40
4.5
  1
8
100
AcDbText
  0
ENDSEC
  0
SECTION
  2
OBJECTS
  0
DICTIONARY
  5
9
330
0
100
AcDbDictionary
  3
ACAD_GROUP
350
26
  3
ACAD_LAYOUT
350
E
  3
ACAD_MLINESTYLE
350
27
  3
ACAD_PLOTSETTINGS
350
28
1001
ACAD
1000
TREAT_AS_HARD
1070
     0
1000
TREAT_AS_HARD
1070
     0
  0
DICTIONARY
  5
16
330
15
100
AcDbDictionary
  3
ACAD_LAYERSTATES
350
17
1001
ACAD
1000
TREAT_AS_HARD
1070
     1
1000
TREAT_AS_HARD
1070
     0
  0
DICTIONARY
  5
3
330
2
100
AcDbDictionary
  3
ACAD_LAYOUTSELFREF
350
2D1
1001
ACAD
1000
TREAT_AS_HARD
1070
     1
1000
TREAT_AS_HARD
1070
     0
  0
DICTIONARY
  5
10
330
F
100
AcDbDictionary
  3
ACAD_LAYOUTSELFREF
350
2D2
1001
ACAD
1000
TREAT_AS_HARD
1070
     1
1000
TREAT_AS_HARD
1070
     0
  0
DICTIONARY
  5
26
102
{ACAD_REACTORS
330
9
102
}
330
9
100
AcDbDictionary
1001
ACAD
1000
TREAT_AS_HARD
1070
     0
1000
TREAT_AS_HARD
1070
     0
  0
DICTIONARY
  5
E
102
{ACAD_REACTORS
330
9
102
}
330
9
100
AcDbDictionary
1001
ACAD
1000
TREAT_AS_HARD
1070
     0
1000
TREAT_AS_HARD
1070
     0
  0
DICTIONARY
  5
27
102
{ACAD_REACTORS
330
9
102
}
330
9
100
AcDbDictionary
  3
STANDARD
350
2A
1001
ACAD
1000
TREAT_AS_HARD
1070
     0
1000
TREAT_AS_HARD
1070
     0
  0
DICTIONARY
  5
28
102
{ACAD_REACTORS
330
9
102
}
330
9
100
AcDbDictionary
1001
ACAD
1000
TREAT_AS_HARD
1070
     0
1000
TREAT_AS_HARD
1070
     0
  0
DICTIONARY
  5
17
102
{ACAD_REACTORS
330
16
102
}
330
16
100
AcDbDictionary
1001
ACAD
1000
TREAT_AS_HARD
1070
     0
1000
TREAT_AS_HARD
1070
     0
  0
XRECORD
  5
2D1
102
{ACAD_REACTORS
330
3
102
}
330
3
100
AcDbXrecord
340
2
  0
XRECORD
  5
2D2
102
{ACAD_REACTORS
330
10
102
}
330
10
100
AcDbXrecord
340
F
  0
MLINESTYLE
  5
2A
102
{ACAD_REACTORS
330
27
102
}
330
27
100
AcDbMlineStyle
  2
STANDARD
 70
     0
  3

 62
     0
 51
90.0
 52
90.0
 71
     2
 49
0.5
 62
   256
  6
BYLAYER
 49
-0.5
 62
   256
  6
BYLAYER
  0
ENDSEC
  0
EOF
