  0
SECTION
  2
HEADER
  9
$ACADVER
  1
AC1012
  9
$DWGCODEPAGE
  3
dos932
  9
$INSBASE
 10
0.0
 20
0.0
 30
0.0
  9
$EXTMIN
 10
46.24667316357431
 20
60.75803312275036
 30
-0.0000000349181948
  9
$EXTMAX
 10
280.3028231343617
 20
330.7825161123838
 30
0.0000000814935746
  9
$LIMMIN
 10
0.0
 20
0.0
  9
$LIMMAX
 10
12.0
 20
9.0
  9
$ORTHOMODE
 70
     1
  9
$REGENMODE
 70
     1
  9
$FILLMODE
 70
     1
  9
$QTEXTMODE
 70
     0
  9
$MIRRTEXT
 70
     1
  9
$DRAGMODE
 70
     2
  9
$LTSCALE
 40
1.0
  9
$OSMODE
 70
    39
  9
$ATTMODE
 70
     1
  9
$TEXTSIZE
 40
4.5
  9
$TRACEWID
 40
0.05
  9
$TEXTSTYLE
  7
STANDARD
  9
$CLAYER
  8
L-ZISSEN
  9
$CELTYPE
  6
BYLAYER
  9
$CECOLOR
 62
   256
  9
$CELTSCALE
 40
1.0
  9
$DELOBJ
 70
     1
  9
$DISPSILH
 70
     0
  9
$DIMSCALE
 40
0.0
  9
$DIMASZ
 40
2.0
  9
$DIMEXO
 40
1.0
  9
$DIMDLI
 40
8.0
  9
$DIMRND
 40
0.0
  9
$DIMDLE
 40
0.0
  9
$DIMEXE
 40
1.0
  9
$DIMTP
 40
0.0
  9
$DIMTM
 40
0.0
  9
$DIMTXT
 40
4.5
  9
$DIMCEN
 40
1.5
  9
$DIMTSZ
 40
0.0
  9
$DIMTOL
 70
     0
  9
$DIMLIM
 70
     0
  9
$DIMTIH
 70
     0
  9
$DIMTOH
 70
     0
  9
$DIMSE1
 70
     0
  9
$DIMSE2
 70
     0
  9
$DIMTAD
 70
     1
  9
$DIMZIN
 70
     8
  9
$DIMBLK
  1

  9
$DIMASO
 70
     1
  9
$DIMSHO
 70
     0
  9
$DIMPOST
  1

  9
$DIMAPOST
  1

  9
$DIMALT
 70
     0
  9
$DIMALTD
 70
     2
  9
$DIMALTF
 40
25.4
  9
$DIMLFAC
 40
1.0
  9
$DIMTOFL
 70
     1
  9
$DIMTVP
 40
0.0
  9
$DIMTIX
 70
     1
  9
$DIMSOXD
 70
     0
  9
$DIMSAH
 70
     0
  9
$DIMBLK1
  1

  9
$DIMBLK2
  1

  9
$DIMSTYLE
  2
STANDARD
  9
$DIMCLRD
 70
     0
  9
$DIMCLRE
 70
     0
  9
$DIMCLRT
 70
     0
  9
$DIMTFAC
 40
1.0
  9
$DIMGAP
 40
1.399999999999999
  9
$DIMJUST
 70
     0
  9
$DIMSD1
 70
     0
  9
$DIMSD2
 70
     0
  9
$DIMTOLJ
 70
     1
  9
$DIMTZIN
 70
     8
  9
$DIMALTZ
 70
     0
  9
$DIMALTTZ
 70
     0
  9
$DIMFIT
 70
     3
  9
$DIMUPT
 70
     0
  9
$DIMUNIT
 70
     2
  9
$DIMDEC
 70
     4
  9
$DIMTDEC
 70
     4
  9
$DIMALTU
 70
     2
  9
$DIMALTTD
 70
     2
  9
$DIMTXSTY
  7
STANDARD
  9
$DIMAUNIT
 70
     0
  9
$LUNITS
 70
     2
  9
$LUPREC
 70
     4
  9
$SKETCHINC
 40
0.1
  9
$FILLETRAD
 40
0.0
  9
$AUNITS
 70
     0
  9
$AUPREC
 70
     0
  9
$MENU
  1
acad
  9
$ELEVATION
 40
0.0
  9
$PELEVATION
 40
0.0
  9
$THICKNESS
 40
0.0
  9
$LIMCHECK
 70
     0
  9
$BLIPMODE
 70
     0
  9
$CHAMFERA
 40
1.0
  9
$CHAMFERB
 40
1.0
  9
$CHAMFERC
 40
0.0
  9
$CHAMFERD
 40
0.0
  9
$SKPOLY
 70
     0
  9
$TDCREATE
 40
2450178.569598264
  9
$TDUPDATE
 40
2455065.479076967
  9
$TDINDWG
 40
0.8948126620
  9
$TDUSRTIMER
 40
0.8948126620
  9
$USRTIMER
 70
     1
  9
$ANGBASE
 50
0.0
  9
$ANGDIR
 70
     0
  9
$PDMODE
 70
     0
  9
$PDSIZE
 40
0.0
  9
$PLINEWID
 40
0.0
  9
$COORDS
 70
     2
  9
$SPLFRAME
 70
     0
  9
$SPLINETYPE
 70
     6
  9
$SPLINESEGS
 70
     8
  9
$ATTDIA
 70
     0
  9
$ATTREQ
 70
     1
  9
$HANDLING
 70
-16383
  9
$HANDSEED
  5
350F
  9
$SURFTAB1
 70
     6
  9
$SURFTAB2
 70
     6
  9
$SURFTYPE
 70
     6
  9
$SURFU
 70
     6
  9
$SURFV
 70
     6
  9
$UCSNAME
  2

  9
$UCSORG
 10
0.0
 20
0.0
 30
0.0
  9
$UCSXDIR
 10
1.0
 20
0.0
 30
0.0
  9
$UCSYDIR
 10
0.0
 20
1.0
 30
0.0
  9
$PUCSNAME
  2

  9
$PUCSORG
 10
0.0
 20
0.0
 30
0.0
  9
$PUCSXDIR
 10
1.0
 20
0.0
 30
0.0
  9
$PUCSYDIR
 10
0.0
 20
1.0
 30
0.0
  9
$USERI1
 70
     0
  9
$USERI2
 70
     0
  9
$USERI3
 70
     0
  9
$USERI4
 70
     0
  9
$USERI5
 70
     0
  9
$USERR1
 40
0.0
  9
$USERR2
 40
0.0
  9
$USERR3
 40
0.0
  9
$USERR4
 40
0.0
  9
$USERR5
 40
0.0
  9
$WORLDVIEW
 70
     1
  9
$SHADEDGE
 70
     3
  9
$SHADEDIF
 70
    70
  9
$TILEMODE
 70
     1
  9
$MAXACTVP
 70
    16
  9
$PINSBASE
 10
0.0
 20
0.0
 30
0.0
  9
$PLIMCHECK
 70
     0
  9
$PEXTMIN
 10
1.000000000000000E+20
 20
1.000000000000000E+20
 30
1.000000000000000E+20
  9
$PEXTMAX
 10
-1.000000000000000E+20
 20
-1.000000000000000E+20
 30
-1.000000000000000E+20
  9
$PLIMMIN
 10
0.0
 20
0.0
  9
$PLIMMAX
 10
12.0
 20
9.0
  9
$UNITMODE
 70
     0
  9
$VISRETAIN
 70
     0
  9
$PLINEGEN
 70
     0
  9
$PSLTSCALE
 70
     0
  9
$TREEDEPTH
 70
  3020
  9
$PICKSTYLE
 70
     1
  9
$CMLSTYLE
  2
STANDARD
  9
$CMLJUST
 70
     0
  9
$CMLSCALE
 40
1.0
  9
$SAVEIMAGES
 70
     1
  0
ENDSEC
  0
SECTION
  2
CLASSES
  0
CLASS
  1
ACDBDICTIONARYWDFLT
  2
AcDbDictionaryWithDefault
  3
AutoCAD 2000
 90
    32768
280
     0
281
     0
  0
CLASS
  1
ACDBPLACEHOLDER
  2
AcDbPlaceHolder
  3
AutoCAD 2000
 90
    32768
280
     0
281
     0
  0
CLASS
  1
LAYOUT
  2
AcDbLayout
  3
AutoCAD 2000
 90
    32768
280
     0
281
     0
  0
CLASS
  1
LONG_TRANSACTION
  2
AcDbLongTransaction
  3
AutoCAD 2000
 90
    32768
280
     0
281
     0
  0
CLASS
  1
LWPOLYLINE
  2
AcDbPolyline
  3
AutoCAD 2000
 90
    32768
280
     0
281
     1
  0
CLASS
  1
HATCH
  2
AcDbHatch
  3
AutoCAD 2000
 90
    32768
280
     0
281
     1
  0
CLASS
  1
XRECORD
  2
AcDbXrecord
  3
AutoCAD 2000
 90
    32768
280
     0
281
     0
  0
CLASS
  1
LONG_TRANSACTION
  2
AcDbLongTransaction
  3
AutoCAD 2000
 90
    32768
280
     0
281
     0
  0
CLASS
  1
LWPOLYLINE
  2
AcDbPolyline
  3
AutoCAD 2000
 90
    32768
280
     0
281
     1
  0
CLASS
  1
HATCH
  2
AcDbHatch
  3
AutoCAD 2000
 90
    32768
280
     0
281
     1
  0
CLASS
  1
XRECORD
  2
AcDbXrecord
  3
AutoCAD 2000
 90
    32768
280
     0
281
     0
  0
CLASS
  1
LONG_TRANSACTION
  2
AcDbLongTransaction
  3
AutoCAD 2000
 90
    32768
280
     0
281
     0
  0
CLASS
  1
LWPOLYLINE
  2
AcDbPolyline
  3
AutoCAD 2000
 90
    32768
280
     0
281
     1
  0
CLASS
  1
HATCH
  2
AcDbHatch
  3
AutoCAD 2000
 90
    32768
280
     0
281
     1
  0
CLASS
  1
XRECORD
  2
AcDbXrecord
  3
AutoCAD 2000
 90
    32768
280
     0
281
     0
  0
CLASS
  1
LONG_TRANSACTION
  2
AcDbLongTransaction
  3
AutoCAD 2000
 90
    32768
280
     0
281
     0
  0
CLASS
  1
LWPOLYLINE
  2
AcDbPolyline
  3
AutoCAD 2000
 90
    32768
280
     0
281
     1
  0
CLASS
  1
HATCH
  2
AcDbHatch
  3
AutoCAD 2000
 90
    32768
280
     0
281
     1
  0
CLASS
  1
XRECORD
  2
AcDbXrecord
  3
AutoCAD 2000
 90
    32768
280
     0
281
     0
  0
CLASS
  1
LONG_TRANSACTION
  2
AcDbLongTransaction
  3
AutoCAD 2000
 90
    32768
280
     0
281
     0
  0
CLASS
  1
LWPOLYLINE
  2
AcDbPolyline
  3
AutoCAD 2000
 90
    32768
280
     0
281
     1
  0
CLASS
  1
HATCH
  2
AcDbHatch
  3
AutoCAD 2000
 90
    32768
280
     0
281
     1
  0
CLASS
  1
XRECORD
  2
AcDbXrecord
  3
AutoCAD 2000
 90
    32768
280
     0
281
     0
  0
CLASS
  1
LONG_TRANSACTION
  2
AcDbLongTransaction
  3
AutoCAD 2000
 90
    32768
280
     0
281
     0
  0
CLASS
  1
LWPOLYLINE
  2
AcDbPolyline
  3
AutoCAD 2000
 90
    32768
280
     0
281
     1
  0
CLASS
  1
HATCH
  2
AcDbHatch
  3
AutoCAD 2000
 90
    32768
280
     0
281
     1
  0
CLASS
  1
XRECORD
  2
AcDbXrecord
  3
AutoCAD 2000
 90
    32768
280
     0
281
     0
  0
CLASS
  1
LONG_TRANSACTION
  2
AcDbLongTransaction
  3
AutoCAD 2000
 90
    32768
280
     0
281
     0
  0
CLASS
  1
LWPOLYLINE
  2
AcDbPolyline
  3
AutoCAD 2000
 90
    32768
280
     0
281
     1
  0
CLASS
  1
HATCH
  2
AcDbHatch
  3
AutoCAD 2000
 90
    32768
280
     0
281
     1
  0
CLASS
  1
XRECORD
  2
AcDbXrecord
  3
AutoCAD 2000
 90
    32768
280
     0
281
     0
  0
CLASS
  1
LONG_TRANSACTION
  2
AcDbLongTransaction
  3
AutoCAD 2000
 90
    32768
280
     0
281
     0
  0
CLASS
  1
LWPOLYLINE
  2
AcDbPolyline
  3
AutoCAD 2000
 90
    32768
280
     0
281
     1
  0
CLASS
  1
HATCH
  2
AcDbHatch
  3
AutoCAD 2000
 90
    32768
280
     0
281
     1
  0
CLASS
  1
XRECORD
  2
AcDbXrecord
  3
AutoCAD 2000
 90
    32768
280
     0
281
     0
  0
CLASS
  1
LONG_TRANSACTION
  2
AcDbLongTransaction
  3
AutoCAD 2000
 90
    32768
280
     0
281
     0
  0
CLASS
  1
LWPOLYLINE
  2
AcDbPolyline
  3
AutoCAD 2000
 90
    32768
280
     0
281
     1
  0
CLASS
  1
HATCH
  2
AcDbHatch
  3
AutoCAD 2000
 90
    32768
280
     0
281
     1
  0
CLASS
  1
XRECORD
  2
AcDbXrecord
  3
AutoCAD 2000
 90
    32768
280
     0
281
     0
  0
CLASS
  1
LONG_TRANSACTION
  2
AcDbLongTransaction
  3
AutoCAD 2000
 90
    32768
280
     0
281
     0
  0
CLASS
  1
LWPOLYLINE
  2
AcDbPolyline
  3
AutoCAD 2000
 90
    32768
280
     0
281
     1
  0
CLASS
  1
HATCH
  2
AcDbHatch
  3
AutoCAD 2000
 90
    32768
280
     0
281
     1
  0
CLASS
  1
XRECORD
  2
AcDbXrecord
  3
AutoCAD 2000
 90
    32768
280
     0
281
     0
  0
CLASS
  1
LONG_TRANSACTION
  2
AcDbLongTransaction
  3
AutoCAD 2000
 90
    32768
280
     0
281
     0
  0
CLASS
  1
LWPOLYLINE
  2
AcDbPolyline
  3
AutoCAD 2000
 90
    32768
280
     0
281
     1
  0
CLASS
  1
HATCH
  2
AcDbHatch
  3
AutoCAD 2000
 90
    32768
280
     0
281
     1
  0
CLASS
  1
XRECORD
  2
AcDbXrecord
  3
AutoCAD 2000
 90
    32768
280
     0
281
     0
  0
CLASS
  1
LONG_TRANSACTION
  2
AcDbLongTransaction
  3
AutoCAD 2000
 90
    32768
280
     0
281
     0
  0
CLASS
  1
LWPOLYLINE
  2
AcDbPolyline
  3
AutoCAD 2000
 90
    32768
280
     0
281
     1
  0
CLASS
  1
HATCH
  2
AcDbHatch
  3
AutoCAD 2000
 90
    32768
280
     0
281
     1
  0
CLASS
  1
XRECORD
  2
AcDbXrecord
  3
AutoCAD 2000
 90
    32768
280
     0
281
     0
  0
CLASS
  1
LONG_TRANSACTION
  2
AcDbLongTransaction
  3
AutoCAD 2000
 90
    32768
280
     0
281
     0
  0
CLASS
  1
LWPOLYLINE
  2
AcDbPolyline
  3
AutoCAD 2000
 90
    32768
280
     0
281
     1
  0
CLASS
  1
HATCH
  2
AcDbHatch
  3
AutoCAD 2000
 90
    32768
280
     0
281
     1
  0
CLASS
  1
XRECORD
  2
AcDbXrecord
  3
AutoCAD 2000
 90
    32768
280
     0
281
     0
  0
CLASS
  1
LONG_TRANSACTION
  2
AcDbLongTransaction
  3
AutoCAD 2000
 90
    32768
280
     0
281
     0
  0
CLASS
  1
LWPOLYLINE
  2
AcDbPolyline
  3
AutoCAD 2000
 90
    32768
280
     0
281
     1
  0
CLASS
  1
HATCH
  2
AcDbHatch
  3
AutoCAD 2000
 90
    32768
280
     0
281
     1
  0
CLASS
  1
XRECORD
  2
AcDbXrecord
  3
AutoCAD 2000
 90
    32768
280
     0
281
     0
  0
CLASS
  1
LONG_TRANSACTION
  2
AcDbLongTransaction
  3
AutoCAD 2000
 90
    32768
280
     0
281
     0
  0
CLASS
  1
LWPOLYLINE
  2
AcDbPolyline
  3
AutoCAD 2000
 90
    32768
280
     0
281
     1
  0
CLASS
  1
HATCH
  2
AcDbHatch
  3
AutoCAD 2000
 90
    32768
280
     0
281
     1
  0
CLASS
  1
XRECORD
  2
AcDbXrecord
  3
AutoCAD 2000
 90
    32768
280
     0
281
     0
  0
CLASS
  1
LONG_TRANSACTION
  2
AcDbLongTransaction
  3
AutoCAD 2000
 90
    32768
280
     0
281
     0
  0
CLASS
  1
LWPOLYLINE
  2
AcDbPolyline
  3
AutoCAD 2000
 90
    32768
280
     0
281
     1
  0
CLASS
  1
HATCH
  2
AcDbHatch
  3
AutoCAD 2000
 90
    32768
280
     0
281
     1
  0
CLASS
  1
XRECORD
  2
AcDbXrecord
  3
AutoCAD 2000
 90
    32768
280
     0
281
     0
  0
CLASS
  1
LONG_TRANSACTION
  2
AcDbLongTransaction
  3
AutoCAD 2000
 90
    32768
280
     0
281
     0
  0
CLASS
  1
LWPOLYLINE
  2
AcDbPolyline
  3
AutoCAD 2000
 90
    32768
280
     0
281
     1
  0
CLASS
  1
HATCH
  2
AcDbHatch
  3
AutoCAD 2000
 90
    32768
280
     0
281
     1
  0
CLASS
  1
XRECORD
  2
AcDbXrecord
  3
AutoCAD 2000
 90
    32768
280
     0
281
     0
  0
CLASS
  1
LONG_TRANSACTION
  2
AcDbLongTransaction
  3
AutoCAD 2000
 90
    32768
280
     0
281
     0
  0
CLASS
  1
LWPOLYLINE
  2
AcDbPolyline
  3
AutoCAD 2000
 90
    32768
280
     0
281
     1
  0
CLASS
  1
HATCH
  2
AcDbHatch
  3
AutoCAD 2000
 90
    32768
280
     0
281
     1
  0
CLASS
  1
XRECORD
  2
AcDbXrecord
  3
AutoCAD 2000
 90
    32768
280
     0
281
     0
  0
CLASS
  1
LONG_TRANSACTION
  2
AcDbLongTransaction
  3
AutoCAD 2000
 90
    32768
280
     0
281
     0
  0
CLASS
  1
LWPOLYLINE
  2
AcDbPolyline
  3
AutoCAD 2000
 90
    32768
280
     0
281
     1
  0
CLASS
  1
HATCH
  2
AcDbHatch
  3
AutoCAD 2000
 90
    32768
280
     0
281
     1
  0
CLASS
  1
XRECORD
  2
AcDbXrecord
  3
AutoCAD 2000
 90
    32768
280
     0
281
     0
  0
CLASS
  1
LONG_TRANSACTION
  2
AcDbLongTransaction
  3
AutoCAD 2000
 90
    32768
280
     0
281
     0
  0
CLASS
  1
LWPOLYLINE
  2
AcDbPolyline
  3
AutoCAD 2000
 90
    32768
280
     0
281
     1
  0
CLASS
  1
HATCH
  2
AcDbHatch
  3
AutoCAD 2000
 90
    32768
280
     0
281
     1
  0
CLASS
  1
XRECORD
  2
AcDbXrecord
  3
AutoCAD 2000
 90
    32768
280
     0
281
     0
  0
CLASS
  1
LONG_TRANSACTION
  2
AcDbLongTransaction
  3
AutoCAD 2000
 90
    32768
280
     0
281
     0
  0
CLASS
  1
LWPOLYLINE
  2
AcDbPolyline
  3
AutoCAD 2000
 90
    32768
280
     0
281
     1
  0
CLASS
  1
HATCH
  2
AcDbHatch
  3
AutoCAD 2000
 90
    32768
280
     0
281
     1
  0
CLASS
  1
XRECORD
  2
AcDbXrecord
  3
AutoCAD 2000
 90
    32768
280
     0
281
     0
  0
CLASS
  1
LONG_TRANSACTION
  2
AcDbLongTransaction
  3
AutoCAD 2000
 90
    32768
280
     0
281
     0
  0
CLASS
  1
LWPOLYLINE
  2
AcDbPolyline
  3
AutoCAD 2000
 90
    32768
280
     0
281
     1
  0
CLASS
  1
HATCH
  2
AcDbHatch
  3
AutoCAD 2000
 90
    32768
280
     0
281
     1
  0
CLASS
  1
XRECORD
  2
AcDbXrecord
  3
AutoCAD 2000
 90
    32768
280
     0
281
     0
  0
CLASS
  1
LONG_TRANSACTION
  2
AcDbLongTransaction
  3
AutoCAD 2000
 90
    32768
280
     0
281
     0
  0
CLASS
  1
LWPOLYLINE
  2
AcDbPolyline
  3
AutoCAD 2000
 90
    32768
280
     0
281
     1
  0
CLASS
  1
HATCH
  2
AcDbHatch
  3
AutoCAD 2000
 90
    32768
280
     0
281
     1
  0
CLASS
  1
XRECORD
  2
AcDbXrecord
  3
AutoCAD 2000
 90
    32768
280
     0
281
     0
  0
CLASS
  1
LONG_TRANSACTION
  2
AcDbLongTransaction
  3
AutoCAD 2000
 90
    32768
280
     0
281
     0
  0
CLASS
  1
LWPOLYLINE
  2
AcDbPolyline
  3
AutoCAD 2000
 90
    32768
280
     0
281
     1
  0
CLASS
  1
HATCH
  2
AcDbHatch
  3
AutoCAD 2000
 90
    32768
280
     0
281
     1
  0
CLASS
  1
XRECORD
  2
AcDbXrecord
  3
AutoCAD 2000
 90
    32768
280
     0
281
     0
  0
CLASS
  1
LONG_TRANSACTION
  2
AcDbLongTransaction
  3
AutoCAD 2000
 90
    32768
280
     0
281
     0
  0
CLASS
  1
LWPOLYLINE
  2
AcDbPolyline
  3
AutoCAD 2000
 90
    32768
280
     0
281
     1
  0
CLASS
  1
HATCH
  2
AcDbHatch
  3
AutoCAD 2000
 90
    32768
280
     0
281
     1
  0
CLASS
  1
XRECORD
  2
AcDbXrecord
  3
AutoCAD 2000
 90
    32768
280
     0
281
     0
  0
CLASS
  1
LONG_TRANSACTION
  2
AcDbLongTransaction
  3
AutoCAD 2000
 90
    32768
280
     0
281
     0
  0
CLASS
  1
LWPOLYLINE
  2
AcDbPolyline
  3
AutoCAD 2000
 90
    32768
280
     0
281
     1
  0
CLASS
  1
HATCH
  2
AcDbHatch
  3
AutoCAD 2000
 90
    32768
280
     0
281
     1
  0
CLASS
  1
XRECORD
  2
AcDbXrecord
  3
AutoCAD 2000
 90
    32768
280
     0
281
     0
  0
CLASS
  1
LONG_TRANSACTION
  2
AcDbLongTransaction
  3
AutoCAD 2000
 90
    32768
280
     0
281
     0
  0
CLASS
  1
LWPOLYLINE
  2
AcDbPolyline
  3
AutoCAD 2000
 90
    32768
280
     0
281
     1
  0
CLASS
  1
HATCH
  2
AcDbHatch
  3
AutoCAD 2000
 90
    32768
280
     0
281
     1
  0
CLASS
  1
XRECORD
  2
AcDbXrecord
  3
AutoCAD 2000
 90
    32768
280
     0
281
     0
  0
ENDSEC
  0
SECTION
  2
TABLES
  0
TABLE
  2
VPORT
  5
12
330
0
100
AcDbSymbolTable
 70
     3
  0
VPORT
  5
350C
330
12
100
AcDbSymbolTableRecord
100
AcDbViewportTableRecord
  2
*ACTIVE
 70
     0
 10
0.0
 20
0.0
 11
1.0
 21
1.0
 12
163.274748148968
 22
195.770274617567
 13
0.0
 23
0.0
 14
1.0
 24
1.0
 15
0.0
 25
0.0
 16
0.0
 26
0.0
 36
1.0
 17
0.0
 27
0.0
 37
0.0
 40
271.7316978452054
 41
1.60759493670886
 42
50.0
 43
0.0
 44
0.0
 50
0.0
 51
0.0
 71
     0
 72
   100
 73
     1
 74
     0
 75
     0
 76
     0
 77
     0
 78
     0
  0
ENDTAB
  0
TABLE
  2
LTYPE
  5
D
330
0
100
AcDbSymbolTable
 70
     3
  0
LTYPE
  5
E
330
D
100
AcDbSymbolTableRecord
100
AcDbLinetypeTableRecord
  2
BYBLOCK
 70
     0
  3

 72
    65
 73
     0
 40
0.0
  0
LTYPE
  5
F
330
D
100
AcDbSymbolTableRecord
100
AcDbLinetypeTableRecord
  2
BYLAYER
 70
     0
  3

 72
    65
 73
     0
 40
0.0
  0
LTYPE
  5
5
330
D
100
AcDbSymbolTableRecord
100
AcDbLinetypeTableRecord
  2
CONTINUOUS
 70
     0
  3
Solid line
 72
    65
 73
     0
 40
0.0
  0
LTYPE
  5
30
330
D
100
AcDbSymbolTableRecord
100
AcDbLinetypeTableRecord
  2
CENTER
 70
     0
  3
----- - ----- - ----- - ----- - -----
 72
    65
 73
     4
 40
35.0
 49
30.0
 74
     0
 49
-1.5
 74
     0
 49
2.0
 74
     0
 49
-1.5
 74
     0
  0
LTYPE
  5
2D
330
D
100
AcDbSymbolTableRecord
100
AcDbLinetypeTableRecord
  2
PHANTOM
 70
     0
  3
----- - - ----- - - ----- - - ----- - - -----
 72
    65
 73
     6
 40
22.5
 49
15.0
 74
     0
 49
-1.5
 74
     0
 49
1.5
 74
     0
 49
-1.5
 74
     0
 49
1.5
 74
     0
 49
-1.5
 74
     0
  0
ENDTAB
  0
TABLE
  2
LAYER
  5
A
102
{ACAD_XDICTIONARY
360
9CB
102
}
330
0
100
AcDbSymbolTable
 70
     6
  0
LAYER
  5
4
330
A
100
AcDbSymbolTableRecord
100
AcDbLayerTableRecord
  2
0
 70
     0
 62
     7
  6
CONTINUOUS
  0
LAYER
  5
23
330
A
100
AcDbSymbolTableRecord
100
AcDbLayerTableRecord
  2
L-ZISSEN
 70
     0
 62
     7
  6
CONTINUOUS
  0
LAYER
  5
2F
330
A
100
AcDbSymbolTableRecord
100
AcDbLayerTableRecord
  2
L-TYUSIN
 70
     0
 62
     1
  6
CENTER
  0
LAYER
  5
25
330
A
100
AcDbSymbolTableRecord
100
AcDbLayerTableRecord
  2
L-SAISEN
 70
     0
 62
     6
  6
CONTINUOUS
  0
LAYER
  5
2C
330
A
100
AcDbSymbolTableRecord
100
AcDbLayerTableRecord
  2
L-SOUZOU
 70
     0
 62
     2
  6
PHANTOM
  0
LAYER
  5
3413
330
A
100
AcDbSymbolTableRecord
100
AcDbLayerTableRecord
  2
DEFPOINTS
 70
     0
 62
     7
  6
CONTINUOUS
  0
ENDTAB
  0
TABLE
  2
STYLE
  5
B
330
0
100
AcDbSymbolTable
 70
     1
  0
STYLE
  5
C
330
B
100
AcDbSymbolTableRecord
100
AcDbTextStyleTableRecord
  2
STANDARD
 70
     0
 40
0.0
 41
1.0
 50
0.0
 71
     0
 42
4.5
  3
txt.shx
  4

  0
ENDTAB
  0
TABLE
  2
VIEW
  5
10
330
0
100
AcDbSymbolTable
 70
     0
  0
ENDTAB
  0
TABLE
  2
UCS
  5
11
330
0
100
AcDbSymbolTable
 70
     0
  0
ENDTAB
  0
TABLE
  2
APPID
  5
14
330
0
100
AcDbSymbolTable
 70
     1
  0
APPID
  5
15
330
14
100
AcDbSymbolTableRecord
100
AcDbRegAppTableRecord
  2
ACAD
 70
     0
  0
ENDTAB
  0
TABLE
  2
DIMSTYLE
  5
16
330
0
100
AcDbSymbolTable
 70
     1
  0
DIMSTYLE
105
1E
330
16
100
AcDbSymbolTableRecord
100
AcDbDimStyleTableRecord
  2
STANDARD
 70
     0
  3

  4

  5

  6

  7

 40
1.0
 41
0.18
 42
0.0625
 43
0.38
 44
0.18
 45
0.0
 46
0.0
 47
0.0
 48
0.0
140
0.18
141
0.09
142
0.0
143
25.4
144
1.0
145
0.0
146
1.0
147
0.09
 71
     0
 72
     0
 73
     1
 74
     1
 75
     0
 76
     0
 77
     0
 78
     0
170
     0
171
     2
172
     0
173
     0
174
     0
175
     0
176
     0
177
     0
178
     0
270
     2
271
     4
272
     4
273
     2
274
     2
340
C
275
     0
280
     0
281
     0
282
     0
283
     1
284
     0
285
     0
286
     0
287
     3
288
     0
  0
ENDTAB
  0
TABLE
  2
BLOCK_RECORD
  5
1
330
0
100
AcDbSymbolTable
 70
     0
  0
BLOCK_RECORD
  5
2
102
{ACAD_XDICTIONARY
360
FC4
102
}
330
1
100
AcDbSymbolTableRecord
100
AcDbBlockTableRecord
  2
*MODEL_SPACE
  0
BLOCK_RECORD
  5
7
102
{ACAD_XDICTIONARY
360
FC6
102
}
330
1
100
AcDbSymbolTableRecord
100
AcDbBlockTableRecord
  2
*PAPER_SPACE
  0
ENDTAB
  0
ENDSEC
  0
SECTION
  2
BLOCKS
  0
BLOCK
  5
3
330
2
100
AcDbEntity
  8
0
100
AcDbBlockBegin
  2
*MODEL_SPACE
 70
     0
 10
0.0
 20
0.0
 30
0.0
  3
*MODEL_SPACE
  1

  0
ENDBLK
  5
6
330
2
100
AcDbEntity
  8
0
100
AcDbBlockEnd
  0
BLOCK
  5
8
330
7
100
AcDbEntity
 67
     1
  8
0
100
AcDbBlockBegin
  2
*PAPER_SPACE
 70
     0
 10
0.0
 20
0.0
 30
0.0
  3
*PAPER_SPACE
  1

  0
ENDBLK
  5
9
330
7
100
AcDbEntity
 67
     1
  8
0
100
AcDbBlockEnd
  0
ENDSEC
  0
SECTION
  2
ENTITIES
  0
LINE
  5
2327
330
2
100
AcDbEntity
  8
L-ZISSEN
100
AcDbLine
 10
223.5000000000006
 20
87.14089756234875
 30
0.0
 11
223.5000000000004
 21
91.30518327663525
 31
0.0
  0
LINE
  5
2328
330
2
100
AcDbEntity
  8
L-ZISSEN
100
AcDbLine
 10
234.4785714285746
 20
88.27661184806332
 30
0.0
 11
233.6655525376591
 21
86.76232613377736
 31
0.0
  0
LINE
  5
2329
330
2
100
AcDbEntity
  8
L-ZISSEN
100
AcDbLine
 10
265.5214285714316
 20
88.27661184806332
 30
0.0
 11
266.3344474623432
 21
86.76232613377736
 31
0.0
  0
LINE
  5
232A
330
2
100
AcDbEntity
  8
L-ZISSEN
100
AcDbLine
 10
113.6285714285713
 20
90.92661184806321
 30
0.0
 11
109.4642857142844
 21
86.76232613377761
 31
0.0
  0
LINE
  5
232B
330
2
100
AcDbEntity
  8
L-ZISSEN
100
AcDbLine
 10
119.6857142857143
 20
77.06232613377733
 30
0.0
 11
119.6857142857143
 21
90.92661184806321
 31
0.0
  0
LINE
  5
232F
330
2
100
AcDbEntity
  8
L-ZISSEN
100
AcDbLine
 10
223.5000000000004
 20
114.2623261337769
 30
0.0
 11
223.5000000000004
 21
87.14089756234828
 31
0.0
  0
LINE
  5
2330
330
2
100
AcDbEntity
  8
L-ZISSEN
100
AcDbLine
 10
276.5000000000004
 20
87.14089756234875
 30
0.0
 11
276.5000000000006
 21
114.2623261337769
 31
0.0
  0
LINE
  5
2331
330
2
100
AcDbEntity
  8
L-TYUSIN
100
AcDbLine
 10
250.0
 20
61.21428571428578
 30
0.0
 11
250.0
 21
192.7623261337771
 31
0.0
  0
LINE
  5
2333
330
2
100
AcDbEntity
  8
L-ZISSEN
100
AcDbLine
 10
80.31428571428387
 20
77.06232613377733
 30
0.0
 11
80.31428571428568
 21
90.92661184806321
 31
0.0
  0
LINE
  5
2334
330
2
100
AcDbEntity
  8
L-ZISSEN
100
AcDbLine
 10
86.37142857142725
 20
90.92661184806321
 30
0.0
 11
90.53571428571286
 21
86.76232613377761
 31
0.0
  0
LINE
  5
2335
330
2
100
AcDbEntity
  8
L-TYUSIN
100
AcDbLine
 10
100.0
 20
60.76232613377715
 30
0.0
 11
100.0
 21
192.7623261337771
 31
0.0
  0
LINE
  5
233A
330
2
100
AcDbEntity
  8
L-ZISSEN
100
AcDbLine
 10
73.87857142857001
 20
109.098040419492
 30
0.0
 11
86.37142857142725
 21
109.098040419492
 31
0.0
  0
LINE
  5
233C
330
2
100
AcDbEntity
  8
L-ZISSEN
100
AcDbLine
 10
81.12963348720814
 20
127.762326133779
 30
0.0
 11
73.49999999999863
 21
127.762326133779
 31
0.0
  0
LINE
  5
233D
330
2
100
AcDbEntity
  8
L-SOUZOU
100
AcDbLine
 10
51.75714285714437
 20
132.7623261337757
 30
0.0
 11
126.4999999999986
 21
132.7623261337798
 31
0.0
  0
LINE
  5
233E
330
2
100
AcDbEntity
  8
L-ZISSEN
100
AcDbLine
 10
79.86724723877092
 20
127.762326133779
 30
0.0
 11
74.76238624843176
 21
127.762326133779
 31
0.0
  0
LINE
  5
233F
330
2
100
AcDbEntity
  8
L-ZISSEN
100
AcDbLine
 10
74.76238624843176
 20
128.627841807057
 30
0.0
 11
79.86724723877228
 21
128.627841807057
 31
0.0
  0
ARC
  5
2340
330
2
100
AcDbEntity
  8
L-ZISSEN
100
AcDbCircle
 10
76.81027641577566
 20
128.8105301658334
 30
0.0
 40
2.056022658905709
100
AcDbArc
 50
88.75673479208753
 51
185.0977525317111
  0
LINE
  5
2341
330
2
100
AcDbEntity
  8
L-ZISSEN
100
AcDbLine
 10
73.49999999999863
 20
121.262326133779
 30
0.0
 11
126.4999999999986
 21
121.262326133779
 31
0.0
  0
LINE
  5
2343
330
2
100
AcDbEntity
  8
L-SOUZOU
100
AcDbLine
 10
53.27142857143005
 20
134.2010484173094
 30
0.0
 11
126.4999999999986
 21
134.2010484173094
 31
0.0
  0
LINE
  5
2344
330
2
100
AcDbEntity
  8
L-SOUZOU
100
AcDbLine
 10
52.51428571428844
 20
154.7623261337766
 30
0.0
 11
52.51428571428844
 21
134.9581912744526
 31
0.0
  0
LINE
  5
2345
330
2
100
AcDbEntity
  8
L-SOUZOU
100
AcDbLine
 10
50.99999999999997
 20
154.7623261337766
 30
0.0
 11
50.99999999999997
 21
133.5194689909196
 31
0.0
  0
LINE
  5
2348
330
2
100
AcDbEntity
  8
L-TYUSIN
100
AcDbLine
 10
49.40825935363566
 20
145.7623261337771
 30
0.0
 11
54.565736298656
 21
145.7623261337771
 31
0.0
  0
LINE
  5
2349
330
2
100
AcDbEntity
  8
L-ZISSEN
100
AcDbLine
 10
73.49999999999863
 20
118.1837547052064
 30
0.0
 11
73.49999999999863
 21
109.4766118480633
 31
0.0
  0
LINE
  5
234A
330
2
100
AcDbEntity
  8
L-ZISSEN
100
AcDbLine
 10
73.49999999999863
 20
127.3422196536639
 30
0.0
 11
73.49999999999863
 21
118.1837547052064
 31
0.0
  0
LINE
  5
234B
330
2
100
AcDbEntity
  8
L-ZISSEN
100
AcDbLine
 10
73.49999999999841
 20
127.3422196536639
 30
0.0
 11
73.49999999999866
 21
132.7623261337769
 31
0.0
  0
LINE
  5
234C
330
2
100
AcDbEntity
  8
L-ZISSEN
100
AcDbLine
 10
74.76238624843176
 20
127.762326133779
 30
0.0
 11
74.76238624843176
 21
128.627841807057
 31
0.0
  0
ARC
  5
234D
330
2
100
AcDbEntity
  8
L-ZISSEN
100
AcDbCircle
 10
73.87857142857001
 20
109.4766118480633
 30
0.0
 40
0.3785714285715134
100
AcDbArc
 50
180.0
 51
270.0
  0
ARC
  5
234E
330
2
100
AcDbEntity
  8
L-ZISSEN
100
AcDbCircle
 10
73.87857142857001
 20
109.4766118480633
 30
0.0
 40
0.3785714285715134
100
AcDbArc
 50
180.0
 51
270.0
  0
ARC
  5
234F
330
2
100
AcDbEntity
  8
L-SOUZOU
100
AcDbCircle
 10
51.75714285714432
 20
133.5194689909196
 30
0.0
 40
0.7571428571430269
100
AcDbArc
 50
180.0
 51
270.0
  0
ARC
  5
2350
330
2
100
AcDbEntity
  8
L-SOUZOU
100
AcDbCircle
 10
53.27142857143005
 20
134.9581912744526
 30
0.0
 40
0.7571428571430269
100
AcDbArc
 50
180.0
 51
270.0
  0
LINE
  5
2354
330
2
100
AcDbEntity
  8
L-ZISSEN
100
AcDbLine
 10
118.1714285714258
 20
185.945183276634
 30
0.0
 11
118.7392857142829
 21
149.6332234902665
 31
0.0
  0
LINE
  5
2358
330
2
100
AcDbEntity
  8
L-ZISSEN
100
AcDbLine
 10
81.82857142856869
 20
185.945183276634
 30
0.0
 11
81.26071428571163
 21
149.6332234902665
 31
0.0
  0
LINE
  5
2360
330
2
100
AcDbEntity
  8
L-ZISSEN
100
AcDbLine
 10
116.6571428571428
 20
187.7623261337771
 30
0.0
 11
83.34285714285579
 21
187.7623261337771
 31
0.0
  0
LINE
  5
2365
330
2
100
AcDbEntity
  8
L-ZISSEN
100
AcDbLine
 10
81.82857142856869
 20
185.945183276634
 30
0.0
 11
83.34285714285579
 21
187.7623261337771
 31
0.0
  0
LINE
  5
236C
330
2
100
AcDbEntity
  8
L-ZISSEN
100
AcDbLine
 10
118.1714285714258
 20
185.945183276634
 30
0.0
 11
116.6571428571428
 21
187.7623261337771
 31
0.0
  0
LINE
  5
2372
330
2
100
AcDbEntity
  8
L-ZISSEN
100
AcDbLine
 10
86.37142857142725
 20
116.290897562349
 30
0.0
 11
113.6285714285686
 21
116.290897562349
 31
0.0
  0
LINE
  5
2373
330
2
100
AcDbEntity
  8
L-ZISSEN
100
AcDbLine
 10
113.6285714285686
 20
113.6408975623489
 30
0.0
 11
86.37142857142725
 21
113.6408975623489
 31
0.0
  0
LINE
  5
2374
330
2
100
AcDbEntity
  8
L-ZISSEN
100
AcDbLine
 10
117.6866713731596
 20
148.0880404194917
 30
0.0
 11
100.0
 21
148.0880404194917
 31
0.0
  0
LINE
  5
2377
330
2
100
AcDbEntity
  8
L-ZISSEN
100
AcDbLine
 10
80.27855589315414
 20
142.185076796521
 30
0.0
 11
119.7214441068458
 21
142.1850767965211
 31
0.0
  0
LINE
  5
2378
330
2
100
AcDbEntity
  8
L-ZISSEN
100
AcDbLine
 10
83.72142857142852
 20
146.8766120540417
 30
0.0
 11
116.2785714285714
 21
146.8766120540417
 31
0.0
  0
LINE
  5
237C
330
2
100
AcDbEntity
  8
L-ZISSEN
100
AcDbLine
 10
82.31332862683757
 20
148.0880404194917
 30
0.0
 11
100.0
 21
148.0880404194917
 31
0.0
  0
LINE
  5
237F
330
2
100
AcDbEntity
  8
L-ZISSEN
100
AcDbLine
 10
83.72142857142852
 20
146.8766120540412
 30
0.0
 11
83.72142857142852
 21
142.1850767965211
 31
0.0
  0
LINE
  5
2381
330
2
100
AcDbEntity
  8
L-ZISSEN
100
AcDbLine
 10
84.66785714285448
 20
148.1203446766348
 30
0.0
 11
84.66785714285448
 21
146.8766120540417
 31
0.0
  0
ARC
  5
2382
330
2
100
AcDbEntity
  8
L-ZISSEN
100
AcDbCircle
 10
83.00611274512357
 20
149.6911050541857
 30
0.0
 40
1.746357940845932
100
AcDbArc
 50
181.899368244253
 51
246.6278188173623
  0
CIRCLE
  5
2391
330
2
100
AcDbEntity
  8
L-SAISEN
100
AcDbCircle
 10
100.0
 20
100.7623261337771
 30
0.0
 40
7.934857142857117
  0
CIRCLE
  5
2392
330
2
100
AcDbEntity
  8
L-ZISSEN
100
AcDbCircle
 10
100.0
 20
100.7623261337771
 30
0.0
 40
7.052785714285691
  0
LINE
  5
2395
330
2
100
AcDbEntity
  8
L-ZISSEN
100
AcDbLine
 10
76.37857142857138
 20
90.92661184806322
 30
0.0
 11
86.37142857142725
 21
90.92661184806321
 31
0.0
  0
ARC
  5
2396
330
2
100
AcDbEntity
  8
L-ZISSEN
100
AcDbCircle
 10
76.37857142857138
 20
91.30518327663457
 30
0.0
 40
0.3785714285715134
100
AcDbArc
 50
180.0
 51
270.0
  0
ARC
  5
2397
330
2
100
AcDbEntity
  8
L-ZISSEN
100
AcDbCircle
 10
77.81935707142816
 20
128.8105301658334
 30
0.0
 40
2.05602265890528
100
AcDbArc
 50
354.9022474682888
 51
91.24326520780833
  0
LINE
  5
2398
330
2
100
AcDbEntity
  8
L-ZISSEN
100
AcDbLine
 10
77.77474679003467
 20
130.8660688049068
 30
0.0
 11
77.77474679003467
 21
130.1202726935581
 31
0.0
  0
LINE
  5
2399
330
2
100
AcDbEntity
  8
L-ZISSEN
100
AcDbLine
 10
76.8548866971721
 20
130.1202726935581
 30
0.0
 11
76.8548866971721
 21
130.8660688049068
 31
0.0
  0
LINE
  5
239A
330
2
100
AcDbEntity
  8
L-ZISSEN
100
AcDbLine
 10
77.77474679003467
 20
130.1202726935581
 30
0.0
 11
76.8548866971721
 21
130.1202726935581
 31
0.0
  0
LINE
  5
239B
330
2
100
AcDbEntity
  8
L-ZISSEN
100
AcDbLine
 10
86.37142857142725
 20
113.6408975623489
 30
0.0
 11
86.37142857142725
 21
116.290897562349
 31
0.0
  0
LINE
  5
239C
330
2
100
AcDbEntity
  8
L-ZISSEN
100
AcDbLine
 10
81.12963348720814
 20
132.7623261337773
 30
0.0
 11
81.12963348720814
 21
127.762326133779
 31
0.0
  0
LINE
  5
239D
330
2
100
AcDbEntity
  8
L-ZISSEN
100
AcDbLine
 10
79.86724723877228
 20
128.627841807057
 30
0.0
 11
79.86724723877092
 21
127.762326133779
 31
0.0
  0
LINE
  5
239F
330
2
100
AcDbEntity
  8
L-ZISSEN
100
AcDbLine
 10
86.37142857142727
 20
121.2623261337791
 30
0.0
 11
86.37142857142725
 21
90.92661184806321
 31
0.0
  0
LINE
  5
23A0
330
2
100
AcDbEntity
  8
L-ZISSEN
100
AcDbLine
 10
76.0
 20
109.098040419492
 30
0.0
 11
76.0
 21
91.30518327663457
 31
0.0
  0
LINE
  5
23A3
330
2
100
AcDbEntity
  8
L-SAISEN
100
AcDbLine
 10
119.7214441068458
 20
142.1850767965211
 30
0.0
 11
119.7214441068458
 21
141.1514905996985
 31
0.0
  0
LINE
  5
23A4
330
2
100
AcDbEntity
  8
L-ZISSEN
100
AcDbLine
 10
121.0
 20
141.6312738461097
 30
0.0
 11
121.0
 21
141.0699636796552
 31
0.0
  0
LINE
  5
23A5
330
2
100
AcDbEntity
  8
L-ZISSEN
100
AcDbLine
 10
116.2785714285716
 20
146.8766120540412
 30
0.0
 11
116.2785714285714
 21
142.1850767965211
 31
0.0
  0
LINE
  5
23A7
330
2
100
AcDbEntity
  8
L-ZISSEN
100
AcDbLine
 10
115.33214285714
 20
148.1203446766348
 30
0.0
 11
115.33214285714
 21
146.8766120540417
 31
0.0
  0
ARC
  5
23A8
330
2
100
AcDbEntity
  8
L-ZISSEN
100
AcDbCircle
 10
116.9938872548736
 20
149.6911050541857
 30
0.0
 40
1.746357940846056
100
AcDbArc
 50
293.3721811826377
 51
358.100631755747
  0
LINE
  5
23A9
330
2
100
AcDbEntity
  8
L-ZISSEN
100
AcDbLine
 10
119.7214441068458
 20
142.1850767965211
 30
0.0
 11
121.0
 21
141.6312738461097
 31
0.0
  0
LINE
  5
23AB
330
2
100
AcDbEntity
  8
L-SOUZOU
 48
0.5
100
AcDbLine
 10
126.4999999999986
 20
134.2010484173094
 30
0.0
 11
126.4999999999986
 21
132.7746522675549
 31
0.0
  0
ARC
  5
23AE
330
2
100
AcDbEntity
  8
L-ZISSEN
100
AcDbCircle
 10
123.6214285714284
 20
91.30518327663457
 30
0.0
 40
0.3785714285715134
100
AcDbArc
 50
270.0
 51
0.0
  0
LINE
  5
23B0
330
2
100
AcDbEntity
  8
L-ZISSEN
100
AcDbLine
 10
126.4999999999988
 20
127.3422196536639
 30
0.0
 11
126.4999999999986
 21
118.1837547052064
 31
0.0
  0
LINE
  5
23B1
330
2
100
AcDbEntity
  8
L-ZISSEN
100
AcDbLine
 10
126.4999999999986
 20
132.7623261337795
 30
0.0
 11
73.49999999999861
 21
132.7623261337795
 31
0.0
  0
LINE
  5
23B2
330
2
100
AcDbEntity
  8
L-ZISSEN
100
AcDbLine
 10
118.8703665127891
 20
132.7623261337795
 30
0.0
 11
118.8703665127891
 21
127.762326133779
 31
0.0
  0
LINE
  5
23B3
330
2
100
AcDbEntity
  8
L-ZISSEN
100
AcDbLine
 10
118.8703665127891
 20
127.762326133779
 30
0.0
 11
126.4999999999986
 21
127.762326133779
 31
0.0
  0
LINE
  5
23B4
330
2
100
AcDbEntity
  8
L-ZISSEN
100
AcDbLine
 10
126.4999999999986
 20
127.3422196536639
 30
0.0
 11
126.4999999999986
 21
132.7623261337795
 31
0.0
  0
LINE
  5
23B6
330
2
100
AcDbEntity
  8
L-ZISSEN
100
AcDbLine
 10
123.1451133028251
 20
130.8660688049068
 30
0.0
 11
123.1451133028251
 21
130.1202726935581
 31
0.0
  0
LINE
  5
23B7
330
2
100
AcDbEntity
  8
L-ZISSEN
100
AcDbLine
 10
122.2252532099653
 20
130.1202726935581
 30
0.0
 11
122.2252532099653
 21
130.8660688049068
 31
0.0
  0
LINE
  5
23B8
330
2
100
AcDbEntity
  8
L-ZISSEN
100
AcDbLine
 10
123.1451133028251
 20
130.1202726935581
 30
0.0
 11
122.2252532099653
 21
130.1202726935581
 31
0.0
  0
LINE
  5
23B9
330
2
100
AcDbEntity
  8
L-ZISSEN
100
AcDbLine
 10
125.2376137515627
 20
127.762326133779
 30
0.0
 11
120.1327527612249
 21
127.762326133779
 31
0.0
  0
LINE
  5
23BA
330
2
100
AcDbEntity
  8
L-ZISSEN
100
AcDbLine
 10
120.1327527612249
 20
127.762326133779
 30
0.0
 11
120.1327527612249
 21
128.627841807057
 31
0.0
  0
LINE
  5
23BB
330
2
100
AcDbEntity
  8
L-ZISSEN
100
AcDbLine
 10
120.1327527612249
 20
128.627841807057
 30
0.0
 11
125.2376137515627
 21
128.627841807057
 31
0.0
  0
LINE
  5
23BC
330
2
100
AcDbEntity
  8
L-ZISSEN
100
AcDbLine
 10
125.2376137515627
 20
128.627841807057
 30
0.0
 11
125.2376137515627
 21
127.762326133779
 31
0.0
  0
ARC
  5
23BF
330
2
100
AcDbEntity
  8
L-ZISSEN
100
AcDbCircle
 10
123.1897235842216
 20
128.8105301658334
 30
0.0
 40
2.056022658904637
100
AcDbArc
 50
354.9022474682888
 51
91.24326520780833
  0
ARC
  5
23C0
330
2
100
AcDbEntity
  8
L-ZISSEN
100
AcDbCircle
 10
122.1806429285691
 20
128.8105301658334
 30
0.0
 40
2.056022658905709
100
AcDbArc
 50
88.7567347921917
 51
185.0977525317111
  0
LINE
  5
23C6
330
2
100
AcDbEntity
  8
L-ZISSEN
100
AcDbLine
 10
124.0
 20
109.098040419492
 30
0.0
 11
124.0
 21
91.30518327663457
 31
0.0
  0
LINE
  5
23C7
330
2
100
AcDbEntity
  8
L-ZISSEN
100
AcDbLine
 10
113.6285714285686
 20
116.290897562349
 30
0.0
 11
113.6285714285686
 21
113.6408975623489
 31
0.0
  0
LINE
  5
23C8
330
2
100
AcDbEntity
  8
L-ZISSEN
100
AcDbLine
 10
113.6285714285683
 20
121.2623261337791
 30
0.0
 11
113.6285714285713
 21
90.92661184806321
 31
0.0
  0
LINE
  5
23C9
330
2
100
AcDbEntity
  8
L-ZISSEN
100
AcDbLine
 10
123.6214285714284
 20
90.92661184806321
 30
0.0
 11
113.6285714285713
 21
90.92661184806321
 31
0.0
  0
LINE
  5
23CA
330
2
100
AcDbEntity
  8
L-ZISSEN
100
AcDbLine
 10
126.1214285714272
 20
109.098040419492
 30
0.0
 11
113.6285714285713
 21
109.098040419492
 31
0.0
  0
LINE
  5
23D0
330
2
100
AcDbEntity
  8
L-ZISSEN
100
AcDbLine
 10
272.7142857142862
 20
88.27661184806332
 30
0.0
 11
265.5214285714316
 21
88.27661184806332
 31
0.0
  0
LINE
  5
23D2
330
2
100
AcDbEntity
  8
L-TYUSIN
 48
0.5
100
AcDbLine
 10
276.121428571429
 20
145.7623261337771
 30
0.0
 11
264.7642857142861
 21
145.7623261337771
 31
0.0
  0
LINE
  5
23D5
330
2
100
AcDbEntity
  8
L-TYUSIN
100
AcDbLine
 10
219.7142857142862
 20
100.7623261337771
 30
0.0
 11
280.2857142857174
 21
100.7623261337771
 31
0.0
  0
LINE
  5
23D6
330
2
100
AcDbEntity
  8
L-ZISSEN
100
AcDbLine
 10
223.5000000000004
 20
121.262326133779
 30
0.0
 11
276.5000000000004
 21
121.262326133779
 31
0.0
  0
LINE
  5
23D7
330
2
100
AcDbEntity
  8
L-SOUZOU
100
AcDbLine
 10
276.5000000000004
 20
132.7623261337766
 30
0.0
 11
223.5000000000004
 21
132.7623261337766
 31
0.0
  0
LINE
  5
23D9
330
2
100
AcDbEntity
  8
L-SOUZOU
100
AcDbLine
 10
276.5000000000004
 20
134.2010484173088
 30
0.0
 11
223.5000000000004
 21
134.2010484173088
 31
0.0
  0
LINE
  5
23DA
330
2
100
AcDbEntity
  8
L-ZISSEN
100
AcDbLine
 10
274.2285714285733
 20
109.0980404194917
 30
0.0
 11
250.0000000000004
 21
109.0980404194917
 31
0.0
  0
LINE
  5
23DD
330
2
100
AcDbEntity
  8
L-ZISSEN
100
AcDbLine
 10
267.6866713731628
 20
148.1203446766351
 30
0.0
 11
250.0000000000004
 21
148.1203446766351
 31
0.0
  0
LINE
  5
23DE
330
2
100
AcDbEntity
  8
L-ZISSEN
100
AcDbLine
 10
266.6840630714307
 20
187.7623261337778
 30
0.0
 11
233.3159369285742
 21
187.7623261337778
 31
0.0
  0
LINE
  5
23EE
330
2
100
AcDbEntity
  8
L-ZISSEN
100
AcDbLine
 10
231.8285714285732
 20
185.9774875337773
 30
0.0
 11
233.3159369285742
 21
187.7623261337778
 31
0.0
  0
LINE
  5
23FB
330
2
100
AcDbEntity
  8
L-TYUSIN
 48
0.5
100
AcDbLine
 10
235.235714285716
 20
145.7623261337771
 30
0.0
 11
223.8785714285731
 21
145.7623261337771
 31
0.0
  0
LINE
  5
23FC
330
2
100
AcDbEntity
  8
L-ZISSEN
100
AcDbLine
 10
227.2857142857146
 20
88.27661184806332
 30
0.0
 11
234.4785714285746
 21
88.27661184806332
 31
0.0
  0
LINE
  5
23FD
330
2
100
AcDbEntity
  8
L-ZISSEN
100
AcDbLine
 10
225.7714285714318
 20
109.0980404194917
 30
0.0
 11
250.0000000000004
 21
109.0980404194917
 31
0.0
  0
LINE
  5
2403
330
2
100
AcDbEntity
  8
L-SOUZOU
100
AcDbLine
 10
223.5000000000004
 20
132.7623261337766
 30
0.0
 11
223.5000000000004
 21
154.0051832766343
 31
0.0
  0
LINE
  5
2405
330
2
100
AcDbEntity
  8
L-TYUSIN
100
AcDbLine
 10
229.5571428571461
 20
150.6837547052055
 30
0.0
 11
229.5571428571461
 21
140.8408975623483
 31
0.0
  0
LINE
  5
2407
330
2
100
AcDbEntity
  8
L-SOUZOU
100
AcDbLine
 10
224.2571428571447
 20
154.7623261337766
 30
0.0
 11
223.5000000000004
 21
154.0051832766343
 31
0.0
  0
LINE
  5
240E
330
2
100
AcDbEntity
  8
L-ZISSEN
100
AcDbLine
 10
231.1296334872086
 20
132.7623261337766
 30
0.0
 11
231.1296334872086
 21
127.3422196536637
 31
0.0
  0
LINE
  5
240F
330
2
100
AcDbEntity
  8
L-ZISSEN
100
AcDbLine
 10
225.7714285714318
 20
91.30518327663525
 30
0.0
 11
227.2857142857146
 21
88.27661184806332
 31
0.0
  0
LINE
  5
2410
330
2
100
AcDbEntity
  8
L-ZISSEN
100
AcDbLine
 10
223.5000000000004
 20
91.30518327663525
 30
0.0
 11
225.7714285714318
 21
91.30518327663525
 31
0.0
  0
LINE
  5
2411
330
2
100
AcDbEntity
  8
L-ZISSEN
100
AcDbLine
 10
226.1500000000005
 20
121.262326133779
 30
0.0
 11
226.1500000000005
 21
109.0980404194917
 31
0.0
  0
LINE
  5
2412
330
2
100
AcDbEntity
  8
L-ZISSEN
100
AcDbLine
 10
225.3091089210024
 20
116.912326133777
 30
0.0
 11
225.3091089210024
 21
114.2623261337769
 31
0.0
  0
LINE
  5
2413
330
2
100
AcDbEntity
  8
L-ZISSEN
100
AcDbLine
 10
223.5000000000004
 20
116.912326133777
 30
0.0
 11
225.3091089210024
 21
116.912326133777
 31
0.0
  0
LINE
  5
2414
330
2
100
AcDbEntity
  8
L-ZISSEN
100
AcDbLine
 10
223.5000000000004
 20
121.0980404194917
 30
0.0
 11
223.5000000000004
 21
116.912326133777
 31
0.0
  0
LINE
  5
2415
330
2
100
AcDbEntity
  8
L-ZISSEN
100
AcDbLine
 10
223.5000000000004
 20
114.2623261337769
 30
0.0
 11
225.3091089210024
 21
114.2623261337769
 31
0.0
  0
LINE
  5
2416
330
2
100
AcDbEntity
  8
L-ZISSEN
100
AcDbLine
 10
229.1785714285718
 20
109.0980404194917
 30
0.0
 11
229.1785714285718
 21
121.262326133779
 31
0.0
  0
LINE
  5
2417
330
2
100
AcDbEntity
  8
L-ZISSEN
100
AcDbLine
 10
229.1785714285718
 20
118.1837547052057
 30
0.0
 11
229.1785714285718
 21
109.0980404194917
 31
0.0
  0
LINE
  5
2418
330
2
100
AcDbEntity
  8
L-ZISSEN
100
AcDbLine
 10
223.5000000000004
 20
128.6694689909211
 30
0.0
 11
223.5000000000004
 21
121.0980404194917
 31
0.0
  0
LINE
  5
2419
330
2
100
AcDbEntity
  8
L-ZISSEN
100
AcDbLine
 10
223.5000000000004
 20
128.5484744991815
 30
0.0
 11
223.5000000000004
 21
132.7623261337766
 31
0.0
  0
LINE
  5
241A
330
2
100
AcDbEntity
  8
L-ZISSEN
100
AcDbLine
 10
227.7747467900353
 20
130.4459623247914
 30
0.0
 11
227.7747467900353
 21
129.7001662134428
 31
0.0
  0
LINE
  5
241B
330
2
100
AcDbEntity
  8
L-ZISSEN
100
AcDbLine
 10
226.8548866971741
 20
129.7001662134428
 30
0.0
 11
226.8548866971741
 21
130.4459623247914
 31
0.0
  0
LINE
  5
241C
330
2
100
AcDbEntity
  8
L-ZISSEN
100
AcDbLine
 10
227.7747467900353
 20
129.7001662134428
 30
0.0
 11
226.8548866971741
 21
129.7001662134428
 31
0.0
  0
LINE
  5
241D
330
2
100
AcDbEntity
  8
L-ZISSEN
100
AcDbLine
 10
229.8672472387729
 20
127.3422196536637
 30
0.0
 11
224.7623862484365
 21
127.3422196536637
 31
0.0
  0
LINE
  5
241E
330
2
100
AcDbEntity
  8
L-ZISSEN
100
AcDbLine
 10
224.7623862484365
 20
127.3422196536637
 30
0.0
 11
224.7623862484365
 21
128.2077353269421
 31
0.0
  0
LINE
  5
241F
330
2
100
AcDbEntity
  8
L-ZISSEN
100
AcDbLine
 10
224.7623862484365
 20
128.2077353269421
 30
0.0
 11
229.8672472387729
 21
128.2077353269416
 31
0.0
  0
LINE
  5
2420
330
2
100
AcDbEntity
  8
L-ZISSEN
100
AcDbLine
 10
229.8672472387729
 20
128.2077353269416
 30
0.0
 11
229.8672472387729
 21
127.3422196536637
 31
0.0
  0
ARC
  5
2421
330
2
100
AcDbEntity
  8
L-ZISSEN
100
AcDbCircle
 10
227.8193570714317
 20
128.3904236857181
 30
0.0
 40
2.056022658905287
100
AcDbArc
 50
354.9022474682888
 51
91.24326520780833
  0
ARC
  5
2422
330
2
100
AcDbEntity
  8
L-ZISSEN
100
AcDbCircle
 10
226.810276415779
 20
128.3904236857181
 30
0.0
 40
2.056022658905677
100
AcDbArc
 50
88.7567347921917
 51
185.0977525317111
  0
LINE
  5
2424
330
2
100
AcDbEntity
  8
L-ZISSEN
100
AcDbLine
 10
225.7714285714318
 20
91.30518327663525
 30
0.0
 11
225.7714285714318
 21
109.0980404194917
 31
0.0
  0
LINE
  5
2425
330
2
100
AcDbEntity
  8
L-ZISSEN
100
AcDbLine
 10
227.2857142857146
 20
88.27661184806332
 30
0.0
 11
227.2857142857146
 21
109.0980404194917
 31
0.0
  0
LINE
  5
2426
330
2
100
AcDbEntity
  8
L-ZISSEN
100
AcDbLine
 10
231.1296334872088
 20
127.3422196536637
 30
0.0
 11
223.5000000000006
 21
127.3422196536637
 31
0.0
  0
LINE
  5
242B
330
2
100
AcDbEntity
  8
L-ZISSEN
100
AcDbLine
 10
232.3133286268407
 20
148.1203446766351
 30
0.0
 11
250.0000000000004
 21
148.1203446766351
 31
0.0
  0
LINE
  5
242D
330
2
100
AcDbEntity
  8
L-ZISSEN
100
AcDbLine
 10
233.7214285714289
 20
146.8766120540415
 30
0.0
 11
266.2785714285732
 21
146.8766120540415
 31
0.0
  0
LINE
  5
2433
330
2
100
AcDbEntity
  8
L-ZISSEN
100
AcDbLine
 10
233.7214285714289
 20
146.8766120540415
 30
0.0
 11
233.7214285714289
 21
142.1850767965208
 31
0.0
  0
LINE
  5
2435
330
2
100
AcDbEntity
  8
L-ZISSEN
100
AcDbLine
 10
234.667857142859
 20
148.1203446766351
 30
0.0
 11
234.667857142859
 21
146.8766120540415
 31
0.0
  0
LINE
  5
2437
330
2
100
AcDbEntity
  8
L-ZISSEN
100
AcDbLine
 10
266.2785714285732
 20
146.8766120540415
 30
0.0
 11
266.2785714285732
 21
142.1850767965208
 31
0.0
  0
LINE
  5
2438
330
2
100
AcDbEntity
  8
L-ZISSEN
100
AcDbLine
 10
265.3321428571446
 20
148.1203446766351
 30
0.0
 11
265.3321428571446
 21
146.8766120540415
 31
0.0
  0
LINE
  5
2441
330
2
100
AcDbEntity
  8
L-ZISSEN
100
AcDbLine
 10
234.4785714285746
 20
90.92661184806342
 30
0.0
 11
250.0000000000004
 21
90.92661184806342
 31
0.0
  0
LINE
  5
2442
330
2
100
AcDbEntity
  8
L-ZISSEN
100
AcDbLine
 10
234.4785714285746
 20
109.0980404194917
 30
0.0
 11
265.5214285714316
 21
109.0980404194917
 31
0.0
  0
LINE
  5
2443
330
2
100
AcDbEntity
  8
L-ZISSEN
100
AcDbLine
 10
265.5214285714316
 20
109.0980404194917
 30
0.0
 11
234.4785714285746
 21
109.0980404194917
 31
0.0
  0
LINE
  5
2446
330
2
100
AcDbEntity
  8
L-ZISSEN
100
AcDbLine
 10
236.3714285714304
 20
109.0980404194917
 30
0.0
 11
263.6285714285745
 21
109.0980404194917
 31
0.0
  0
LINE
  5
2447
330
2
100
AcDbEntity
  8
L-ZISSEN
100
AcDbLine
 10
263.6285714285745
 20
109.0980404194917
 30
0.0
 11
236.3714285714304
 21
109.0980404194917
 31
0.0
  0
LINE
  5
244B
330
2
100
AcDbEntity
  8
L-ZISSEN
100
AcDbLine
 10
234.4785714285746
 20
109.0980404194917
 30
0.0
 11
234.4785714285746
 21
88.27661184806332
 31
0.0
  0
LINE
  5
244C
330
2
100
AcDbEntity
  8
L-ZISSEN
100
AcDbLine
 10
234.4785714285746
 20
109.0980404194917
 30
0.0
 11
234.4785714285746
 21
90.92661184806342
 31
0.0
  0
LINE
  5
244D
330
2
100
AcDbEntity
  8
L-ZISSEN
100
AcDbLine
 10
236.3714285714304
 20
109.0980404194917
 30
0.0
 11
236.3714285714304
 21
90.92661184806342
 31
0.0
  0
LINE
  5
2450
330
2
100
AcDbEntity
  8
L-ZISSEN
100
AcDbLine
 10
263.6285714285745
 20
109.0980404194917
 30
0.0
 11
263.6285714285745
 21
90.92661184806342
 31
0.0
  0
LINE
  5
2451
330
2
100
AcDbEntity
  8
L-ZISSEN
100
AcDbLine
 10
265.5214285714316
 20
109.0980404194917
 30
0.0
 11
265.5214285714316
 21
88.27661184806332
 31
0.0
  0
LINE
  5
2452
330
2
100
AcDbEntity
  8
L-ZISSEN
100
AcDbLine
 10
265.5214285714316
 20
90.92661184806342
 30
0.0
 11
250.0000000000004
 21
90.92661184806342
 31
0.0
  0
LINE
  5
2454
330
2
100
AcDbEntity
  8
L-ZISSEN
100
AcDbLine
 10
268.1714285714304
 20
185.9774875337773
 30
0.0
 11
268.7392857142861
 21
149.6655277474094
 31
0.0
  0
LINE
  5
2456
330
2
100
AcDbEntity
  8
L-ZISSEN
100
AcDbLine
 10
268.1714285714304
 20
185.9774875337773
 30
0.0
 11
266.6840630714307
 21
187.7623261337778
 31
0.0
  0
LINE
  5
2459
330
2
100
AcDbEntity
  8
L-SOUZOU
100
AcDbLine
 10
276.5000000000004
 20
132.7623261337766
 30
0.0
 11
276.5000000000002
 21
154.0051832766348
 31
0.0
  0
LINE
  5
245B
330
2
100
AcDbEntity
  8
L-TYUSIN
100
AcDbLine
 10
270.4428571428588
 20
150.683754705205
 30
0.0
 11
270.4428571428588
 21
140.8408975623483
 31
0.0
  0
LINE
  5
245C
330
2
100
AcDbEntity
  8
L-SOUZOU
100
AcDbLine
 10
275.742857142859
 20
154.7623261337766
 30
0.0
 11
276.5000000000004
 21
154.0051832766343
 31
0.0
  0
ARC
  5
2460
330
2
100
AcDbEntity
  8
L-ZISSEN
100
AcDbCircle
 10
266.9938872548768
 20
149.7234093113286
 30
0.0
 40
1.746357940845507
100
AcDbArc
 50
293.3721811826377
 51
358.100631755747
  0
LINE
  5
2465
330
2
100
AcDbEntity
  8
L-ZISSEN
100
AcDbLine
 10
274.2285714285733
 20
91.30518327663525
 30
0.0
 11
272.7142857142862
 21
88.27661184806332
 31
0.0
  0
LINE
  5
2466
330
2
100
AcDbEntity
  8
L-ZISSEN
100
AcDbLine
 10
276.5000000000004
 20
91.30518327663525
 30
0.0
 11
274.2285714285733
 21
91.30518327663525
 31
0.0
  0
LINE
  5
2467
330
2
100
AcDbEntity
  8
L-ZISSEN
100
AcDbLine
 10
273.8500000000017
 20
121.262326133779
 30
0.0
 11
273.8500000000017
 21
109.0980404194917
 31
0.0
  0
LINE
  5
2468
330
2
100
AcDbEntity
  8
L-ZISSEN
100
AcDbLine
 10
270.8214285714291
 20
121.262326133779
 30
0.0
 11
270.8214285714291
 21
109.0980404194917
 31
0.0
  0
LINE
  5
2469
330
2
100
AcDbEntity
  8
L-ZISSEN
100
AcDbLine
 10
274.6908910790025
 20
116.912326133777
 30
0.0
 11
274.6908910790025
 21
114.2623261337769
 31
0.0
  0
LINE
  5
246A
330
2
100
AcDbEntity
  8
L-ZISSEN
100
AcDbLine
 10
276.5000000000004
 20
116.912326133777
 30
0.0
 11
276.5000000000004
 21
121.0980404194917
 31
0.0
  0
LINE
  5
246B
330
2
100
AcDbEntity
  8
L-ZISSEN
100
AcDbLine
 10
276.5000000000004
 20
116.912326133777
 30
0.0
 11
274.6908910790025
 21
116.912326133777
 31
0.0
  0
LINE
  5
246C
330
2
100
AcDbEntity
  8
L-ZISSEN
100
AcDbLine
 10
276.5000000000004
 20
114.2623261337769
 30
0.0
 11
274.6908910790025
 21
114.2623261337769
 31
0.0
  0
LINE
  5
246D
330
2
100
AcDbEntity
  8
L-ZISSEN
100
AcDbLine
 10
276.5000000000004
 20
128.6694689909211
 30
0.0
 11
276.5000000000004
 21
121.0980404194917
 31
0.0
  0
LINE
  5
246E
330
2
100
AcDbEntity
  8
L-ZISSEN
100
AcDbLine
 10
276.5000000000004
 20
128.5484744991815
 30
0.0
 11
276.5000000000004
 21
132.7623261337766
 31
0.0
  0
LINE
  5
246F
330
2
100
AcDbEntity
  8
L-ZISSEN
100
AcDbLine
 10
273.145113302827
 20
130.4459623247914
 30
0.0
 11
273.145113302827
 21
129.7001662134428
 31
0.0
  0
LINE
  5
2470
330
2
100
AcDbEntity
  8
L-ZISSEN
100
AcDbLine
 10
272.2252532099671
 20
129.7001662134428
 30
0.0
 11
272.2252532099671
 21
130.4459623247914
 31
0.0
  0
LINE
  5
2471
330
2
100
AcDbEntity
  8
L-ZISSEN
100
AcDbLine
 10
273.145113302827
 20
129.7001662134428
 30
0.0
 11
272.2252532099671
 21
129.7001662134428
 31
0.0
  0
LINE
  5
2472
330
2
100
AcDbEntity
  8
L-ZISSEN
100
AcDbLine
 10
275.2376137515659
 20
127.3422196536637
 30
0.0
 11
270.1327527612268
 21
127.3422196536637
 31
0.0
  0
LINE
  5
2473
330
2
100
AcDbEntity
  8
L-ZISSEN
100
AcDbLine
 10
270.1327527612268
 20
127.3422196536637
 30
0.0
 11
270.1327527612268
 21
128.2077353269421
 31
0.0
  0
LINE
  5
2474
330
2
100
AcDbEntity
  8
L-ZISSEN
100
AcDbLine
 10
270.1327527612268
 20
128.2077353269421
 30
0.0
 11
275.2376137515659
 21
128.2077353269416
 31
0.0
  0
LINE
  5
2475
330
2
100
AcDbEntity
  8
L-ZISSEN
100
AcDbLine
 10
275.2376137515659
 20
128.2077353269416
 30
0.0
 11
275.2376137515659
 21
127.3422196536637
 31
0.0
  0
ARC
  5
2476
330
2
100
AcDbEntity
  8
L-ZISSEN
100
AcDbCircle
 10
273.189723584222
 20
128.3904236857181
 30
0.0
 40
2.056022658905287
100
AcDbArc
 50
354.9022474682888
 51
91.24326520780833
  0
LINE
  5
2478
330
2
100
AcDbEntity
  8
L-ZISSEN
100
AcDbLine
 10
274.2285714285733
 20
91.30518327663525
 30
0.0
 11
274.2285714285733
 21
109.0980404194917
 31
0.0
  0
LINE
  5
2479
330
2
100
AcDbEntity
  8
L-ZISSEN
100
AcDbLine
 10
272.7142857142862
 20
88.27661184806332
 30
0.0
 11
272.7142857142862
 21
109.0980404194917
 31
0.0
  0
LINE
  5
247A
330
2
100
AcDbEntity
  8
L-ZISSEN
100
AcDbLine
 10
268.8703665127937
 20
132.7623261337767
 30
0.0
 11
268.8703665127937
 21
127.3422196536641
 31
0.0
  0
LINE
  5
247C
330
2
100
AcDbEntity
  8
L-ZISSEN
100
AcDbLine
 10
268.8703665127937
 20
127.3422196536637
 30
0.0
 11
276.5000000000004
 21
127.3422196536637
 31
0.0
  0
ARC
  5
247D
330
2
100
AcDbEntity
  8
L-ZISSEN
100
AcDbCircle
 10
272.1806429285709
 20
128.3904236857181
 30
0.0
 40
2.056022658906106
100
AcDbArc
 50
88.7567347921917
 51
185.0977525317111
  0
LINE
  5
247E
330
2
100
AcDbEntity
  8
L-ZISSEN
100
AcDbLine
 10
80.69285714285683
 20
76.68375470520641
 30
0.0
 11
119.3071428571413
 21
76.68375470520641
 31
0.0
  0
LINE
  5
247F
330
2
100
AcDbEntity
  8
L-ZISSEN
100
AcDbLine
 10
118.5499999999972
 20
71.7623261337776
 30
0.0
 11
81.44999999999845
 21
71.7623261337776
 31
0.0
  0
LINE
  5
2480
330
2
100
AcDbEntity
  8
L-ZISSEN
100
AcDbLine
 10
90.91428571428423
 20
66.51946899092036
 30
0.0
 11
99.99999999999864
 21
66.51946899092036
 31
0.0
  0
LINE
  5
2481
330
2
100
AcDbEntity
  8
L-ZISSEN
100
AcDbLine
 10
90.53571428571286
 20
86.76232613377761
 30
0.0
 11
100.0
 21
86.76232613377761
 31
0.0
  0
LINE
  5
2482
330
2
100
AcDbEntity
  8
L-ZISSEN
100
AcDbLine
 10
108.3285714285686
 20
65.76232613377715
 30
0.0
 11
91.67142857142584
 21
65.76232613377715
 31
0.0
  0
LINE
  5
2483
330
2
100
AcDbEntity
  8
L-ZISSEN
100
AcDbLine
 10
91.67142857142584
 20
65.76232613377715
 30
0.0
 11
90.91428571428423
 21
66.51946899092036
 31
0.0
  0
LINE
  5
2484
330
2
100
AcDbEntity
  8
L-ZISSEN
100
AcDbLine
 10
90.91428571428423
 20
66.51946899092036
 30
0.0
 11
90.91428571428606
 21
71.7623261337776
 31
0.0
  0
LINE
  5
2485
330
2
100
AcDbEntity
  8
L-ZISSEN
100
AcDbLine
 10
80.31428571428387
 20
76.68375470520641
 30
0.0
 11
80.31428571428387
 21
72.89804041949219
 31
0.0
  0
ARC
  5
2486
330
2
100
AcDbEntity
  8
L-ZISSEN
100
AcDbCircle
 10
80.69285714285683
 20
77.06232613377733
 30
0.0
 40
0.3785714285723742
100
AcDbArc
 50
180.0
 51
270.0
  0
LINE
  5
2487
330
2
100
AcDbEntity
  8
L-ZISSEN
100
AcDbLine
 10
80.31428571428387
 20
72.89804041949219
 30
0.0
 11
81.44999999999823
 21
71.7623261337776
 31
0.0
  0
LINE
  5
2488
330
2
100
AcDbEntity
  8
L-ZISSEN
100
AcDbLine
 10
108.3285714285686
 20
65.76232613377715
 30
0.0
 11
109.0857142857116
 21
66.51946899092036
 31
0.0
  0
LINE
  5
2489
330
2
100
AcDbEntity
  8
L-ZISSEN
100
AcDbLine
 10
109.0857142857116
 20
66.51946899092036
 30
0.0
 11
109.0857142857116
 21
71.7623261337776
 31
0.0
  0
LINE
  5
248A
330
2
100
AcDbEntity
  8
L-ZISSEN
100
AcDbLine
 10
99.99999999999864
 20
65.76232613377715
 30
0.0
 11
99.99999999999728
 21
71.7623261337776
 31
0.0
  0
LINE
  5
248B
330
2
100
AcDbEntity
  8
L-ZISSEN
100
AcDbLine
 10
99.99999999999864
 20
66.51946899092036
 30
0.0
 11
109.0857142857116
 21
66.51946899092036
 31
0.0
  0
LINE
  5
248C
330
2
100
AcDbEntity
  8
L-ZISSEN
100
AcDbLine
 10
109.4642857142844
 20
86.76232613377761
 30
0.0
 11
100.0
 21
86.76232613377761
 31
0.0
  0
LINE
  5
248E
330
2
100
AcDbEntity
  8
L-ZISSEN
100
AcDbLine
 10
119.6857142857129
 20
72.89804041949219
 30
0.0
 11
119.6857142857129
 21
76.68375470520641
 31
0.0
  0
ARC
  5
248F
330
2
100
AcDbEntity
  8
L-ZISSEN
100
AcDbCircle
 10
119.3071428571413
 20
77.06232613377733
 30
0.0
 40
0.3785714285719438
100
AcDbArc
 50
270.0
 51
0.0
  0
LINE
  5
2490
330
2
100
AcDbEntity
  8
L-ZISSEN
100
AcDbLine
 10
118.5499999999972
 20
71.7623261337776
 30
0.0
 11
119.6857142857129
 21
72.89804041949219
 31
0.0
  0
LINE
  5
2494
330
2
100
AcDbEntity
  8
L-ZISSEN
100
AcDbLine
 10
266.3344474623432
 20
86.76232613377736
 30
0.0
 11
276.1214285714304
 21
86.76232613377736
 31
0.0
  0
LINE
  5
2495
330
2
100
AcDbEntity
  8
L-ZISSEN
100
AcDbLine
 10
231.4500000000032
 20
76.68375470520526
 30
0.0
 11
268.5500000000017
 21
76.68375470520526
 31
0.0
  0
LINE
  5
2496
330
2
100
AcDbEntity
  8
L-ZISSEN
100
AcDbLine
 10
230.4500000000032
 20
76.68375470520526
 30
0.0
 11
269.5500000000017
 21
76.68375470520526
 31
0.0
  0
LINE
  5
2497
330
2
100
AcDbEntity
  8
L-ZISSEN
100
AcDbLine
 10
268.7928571428578
 20
71.76232613377691
 30
0.0
 11
231.2071428571446
 21
71.76232613377736
 31
0.0
  0
ARC
  5
2498
330
2
100
AcDbEntity
  8
L-ZISSEN
100
AcDbCircle
 10
230.4500000000032
 20
77.06232613377709
 30
0.0
 40
0.378571428571945
100
AcDbArc
 50
180.0
 51
270.0
  0
LINE
  5
2499
330
2
100
AcDbEntity
  8
L-ZISSEN
100
AcDbLine
 10
230.0714285714291
 20
72.89804041949103
 30
0.0
 11
231.2071428571446
 21
71.76232613377736
 31
0.0
  0
LINE
  5
249A
330
2
100
AcDbEntity
  8
L-ZISSEN
100
AcDbLine
 10
223.8785714285718
 20
86.76232613377736
 30
0.0
 11
233.6655525376591
 21
86.76232613377736
 31
0.0
  0
LINE
  5
249B
330
2
100
AcDbEntity
  8
L-ZISSEN
100
AcDbLine
 10
230.0714285714291
 20
76.68375470520526
 30
0.0
 11
230.0714285714291
 21
72.89804041949103
 31
0.0
  0
LINE
  5
249C
330
2
100
AcDbEntity
  8
L-ZISSEN
100
AcDbLine
 10
230.0714285714291
 20
86.7623261337769
 30
0.0
 11
230.0714285714291
 21
77.06232613377709
 31
0.0
  0
LINE
  5
249D
330
2
100
AcDbEntity
  8
L-ZISSEN
100
AcDbLine
 10
223.8785714285718
 20
86.76232613377736
 30
0.0
 11
225.7714285714318
 21
86.76232613377736
 31
0.0
  0
LINE
  5
249E
330
2
100
AcDbEntity
  8
L-ZISSEN
100
AcDbLine
 10
223.8785714285718
 20
86.76232613377736
 30
0.0
 11
227.2857142857146
 21
86.76232613377736
 31
0.0
  0
ARC
  5
249F
330
2
100
AcDbEntity
  8
L-ZISSEN
100
AcDbCircle
 10
223.8785714285718
 20
87.14089756234875
 30
0.0
 40
0.3785714285715147
100
AcDbArc
 50
180.0
 51
270.0
  0
LINE
  5
24A0
330
2
100
AcDbEntity
  8
L-ZISSEN
100
AcDbLine
 10
240.9142857142858
 20
66.51946899092012
 30
0.0
 11
250.0
 21
66.51946899092012
 31
0.0
  0
LINE
  5
24A1
330
2
100
AcDbEntity
  8
L-ZISSEN
100
AcDbLine
 10
258.3285714285727
 20
65.76232613377782
 30
0.0
 11
241.6714285714299
 21
65.7623261337769
 31
0.0
  0
LINE
  5
24A2
330
2
100
AcDbEntity
  8
L-ZISSEN
100
AcDbLine
 10
240.9142857142858
 20
66.51946899092012
 30
0.0
 11
241.6714285714299
 21
65.7623261337769
 31
0.0
  0
LINE
  5
24A3
330
2
100
AcDbEntity
  8
L-ZISSEN
100
AcDbLine
 10
240.9142857142858
 20
66.51946899092012
 30
0.0
 11
240.9142857142858
 21
71.76232613377782
 31
0.0
  0
LINE
  5
24A4
330
2
100
AcDbEntity
  8
L-ZISSEN
100
AcDbLine
 10
258.3285714285727
 20
65.76232613377782
 30
0.0
 11
259.0857142857141
 21
66.51946899092012
 31
0.0
  0
LINE
  5
24A5
330
2
100
AcDbEntity
  8
L-ZISSEN
100
AcDbLine
 10
259.0857142857141
 20
66.51946899092012
 30
0.0
 11
259.0857142857139
 21
71.76232613377782
 31
0.0
  0
LINE
  5
24A6
330
2
100
AcDbEntity
  8
L-ZISSEN
100
AcDbLine
 10
250.0
 20
65.7623261337769
 30
0.0
 11
250.0000000000011
 21
71.76232613377736
 31
0.0
  0
LINE
  5
24A7
330
2
100
AcDbEntity
  8
L-ZISSEN
100
AcDbLine
 10
250.0
 20
66.51946899092012
 30
0.0
 11
259.0857142857141
 21
66.51946899092012
 31
0.0
  0
ARC
  5
24A8
330
2
100
AcDbEntity
  8
L-ZISSEN
100
AcDbCircle
 10
276.1214285714304
 20
87.14089756234875
 30
0.0
 40
0.378571428571945
100
AcDbArc
 50
270.0
 51
0.0
  0
LINE
  5
24A9
330
2
100
AcDbEntity
  8
L-ZISSEN
100
AcDbLine
 10
269.9285714285717
 20
72.89804041949103
 30
0.0
 11
269.9285714285717
 21
76.68375470520526
 31
0.0
  0
LINE
  5
24AA
330
2
100
AcDbEntity
  8
L-ZISSEN
100
AcDbLine
 10
269.9285714285717
 20
77.06232613377709
 30
0.0
 11
269.9285714285717
 21
86.7623261337769
 31
0.0
  0
ARC
  5
24AB
330
2
100
AcDbEntity
  8
L-ZISSEN
100
AcDbCircle
 10
269.5500000000017
 20
77.06232613377709
 30
0.0
 40
0.3785714285715147
100
AcDbArc
 50
270.0
 51
0.0
  0
LINE
  5
24AC
330
2
100
AcDbEntity
  8
L-ZISSEN
100
AcDbLine
 10
268.7928571428576
 20
71.76232613377736
 30
0.0
 11
269.9285714285717
 21
72.89804041949103
 31
0.0
  0
CIRCLE
  5
263D
330
2
100
AcDbEntity
  8
L-SAISEN
100
AcDbCircle
 10
250.0000000000018
 20
100.7623261337771
 30
0.0
 40
4.863999999999999
  0
CIRCLE
  5
263E
330
2
100
AcDbEntity
  8
L-ZISSEN
100
AcDbCircle
 10
250.0000000000018
 20
100.7623261337771
 30
0.0
 40
4.283
  0
LINE
  5
26D9
330
2
100
AcDbEntity
  8
L-SOUZOU
100
AcDbLine
 10
275.7428571428595
 20
154.7623261337766
 30
0.0
 11
224.2571428571436
 21
154.7623261337766
 31
0.0
  0
LINE
  5
28FA
330
2
100
AcDbEntity
  8
L-TYUSIN
100
AcDbLine
 10
71.0
 20
100.7623261337771
 30
0.0
 11
164.5
 21
100.7623261337771
 31
0.0
  0
LINE
  5
328B
330
2
100
AcDbEntity
  8
L-ZISSEN
100
AcDbLine
 10
231.8285714285696
 20
185.9774875337773
 30
0.0
 11
231.2607142857138
 21
149.6655277474094
 31
0.0
  0
ARC
  5
328C
330
2
100
AcDbEntity
  8
L-ZISSEN
100
AcDbCircle
 10
233.0061127451231
 20
149.7234093113286
 30
0.0
 40
1.746357940845507
100
AcDbArc
 50
181.899368244253
 51
246.6278188173623
  0
LINE
  5
328D
330
2
100
AcDbEntity
  8
L-ZISSEN
100
AcDbLine
 10
126.5000000000013
 20
118.1837547052064
 30
0.0
 11
126.5000000000013
 21
109.4766118480633
 31
0.0
  0
LINE
  5
328E
330
2
100
AcDbEntity
  8
L-TYUSIN
100
AcDbLine
 10
46.24999999999998
 20
300.7623261337776
 30
0.0
 11
164.5
 21
300.7623261337776
 31
0.0
  0
CIRCLE
  5
328F
330
2
100
AcDbEntity
  8
L-ZISSEN
100
AcDbCircle
 10
100.0
 20
300.7623261337776
 30
0.0
 40
16.65714285714284
  0
CIRCLE
  5
3291
330
2
100
AcDbEntity
  8
L-ZISSEN
100
AcDbCircle
 10
100.0
 20
300.7623261337776
 30
0.0
 40
18.73928571428837
  0
LINE
  5
3293
330
2
100
AcDbEntity
  8
L-TYUSIN
100
AcDbLine
 10
100.0
 20
270.7623261337776
 30
0.0
 11
100.0
 21
330.7623261337776
 31
0.0
  0
LINE
  5
3297
330
2
100
AcDbEntity
  8
L-ZISSEN
100
AcDbLine
 10
125.0
 20
136.8243081754197
 30
0.0
 11
124.9999999999999
 21
140.5604275105646
 31
0.0
  0
LINE
  5
3298
330
2
100
AcDbEntity
  8
L-ZISSEN
100
AcDbLine
 10
80.27855589315413
 20
142.1850767965211
 30
0.0
 11
78.99999999999998
 21
141.6312738461097
 31
0.0
  0
LINE
  5
3299
330
2
100
AcDbEntity
  8
L-ZISSEN
100
AcDbLine
 10
78.99999999999998
 20
141.6312738461097
 30
0.0
 11
78.99999999999998
 21
141.0699636796552
 31
0.0
  0
LINE
  5
329A
330
2
100
AcDbEntity
  8
L-SAISEN
100
AcDbLine
 10
80.27855589315413
 20
142.1850767965211
 30
0.0
 11
80.27855589315413
 21
141.1514905996985
 31
0.0
  0
CIRCLE
  5
329B
330
2
100
AcDbEntity
  8
L-ZISSEN
100
AcDbCircle
 10
100.0
 20
300.7623261337776
 30
0.0
 40
21.0
  0
LINE
  5
329D
330
2
100
AcDbEntity
  8
L-ZISSEN
100
AcDbLine
 10
89.64466094067262
 20
325.7623261337776
 30
0.0
 11
75.0
 21
311.1176651931049
 31
0.0
  0
LINE
  5
329E
330
2
100
AcDbEntity
  8
L-ZISSEN
100
AcDbLine
 10
75.0
 20
311.1176651931049
 30
0.0
 11
75.0
 21
290.4069870744502
 31
0.0
  0
LINE
  5
329F
330
2
100
AcDbEntity
  8
L-ZISSEN
100
AcDbLine
 10
75.0
 20
290.4069870744502
 30
0.0
 11
89.6446609406726
 21
275.7623261337776
 31
0.0
  0
LINE
  5
32A0
330
2
100
AcDbEntity
  8
L-ZISSEN
100
AcDbLine
 10
89.6446609406726
 20
275.7623261337776
 30
0.0
 11
110.3553390593273
 21
275.7623261337776
 31
0.0
  0
LINE
  5
32A1
330
2
100
AcDbEntity
  8
L-ZISSEN
100
AcDbLine
 10
110.3553390593273
 20
275.7623261337776
 30
0.0
 11
125.0
 21
290.4069870744502
 31
0.0
  0
LINE
  5
32A2
330
2
100
AcDbEntity
  8
L-ZISSEN
100
AcDbLine
 10
125.0
 20
290.4069870744502
 30
0.0
 11
125.0
 21
311.1176651931049
 31
0.0
  0
LINE
  5
32A3
330
2
100
AcDbEntity
  8
L-ZISSEN
100
AcDbLine
 10
125.0
 20
311.1176651931049
 30
0.0
 11
110.3553390593273
 21
325.7623261337776
 31
0.0
  0
LINE
  5
32A4
330
2
100
AcDbEntity
  8
L-ZISSEN
100
AcDbLine
 10
110.3553390593273
 20
325.7623261337776
 30
0.0
 11
89.64466094067262
 21
325.7623261337776
 31
0.0
  0
LINE
  5
32A5
330
2
100
AcDbEntity
  8
L-ZISSEN
100
AcDbLine
 10
125.0
 20
140.5604275105646
 30
0.0
 11
125.0
 21
134.8416693240544
 31
0.0
  0
LINE
  5
32A6
330
2
100
AcDbEntity
  8
L-ZISSEN
100
AcDbLine
 10
110.3553390593273
 20
140.5604275105646
 30
0.0
 11
110.3553390593273
 21
134.8416693240544
 31
0.0
  0
LINE
  5
32AA
330
2
100
AcDbEntity
  8
L-ZISSEN
100
AcDbLine
 10
117.6776695296636
 20
141.2010484173094
 30
0.0
 11
82.32233047033638
 21
141.2010484173095
 31
0.0
  0
CIRCLE
  5
32AB
330
2
100
AcDbEntity
  8
L-ZISSEN
100
AcDbCircle
 10
100.0
 20
300.7623261337776
 30
0.0
 40
25.0
  0
ARC
  5
32B3
330
2
100
AcDbEntity
  8
L-ZISSEN
100
AcDbCircle
 10
117.6776695296636
 20
99.03342783691385
 30
0.0
 40
42.16762058039566
100
AcDbArc
 50
79.99999999999987
 51
100.0000000000001
  0
ARC
  5
32B6
330
2
100
AcDbEntity
  8
L-ZISSEN
100
AcDbCircle
 10
117.6776695296636
 20
176.3686689977051
 30
0.0
 40
42.16762058039566
100
AcDbArc
 50
259.9999999999998
 51
280.0000000000001
  0
ARC
  5
32B8
330
2
100
AcDbEntity
  8
L-ZISSEN
100
AcDbCircle
 10
100.0
 20
57.18611770989148
 30
0.0
 40
84.01493070741805
100
AcDbArc
 50
82.91995048528717
 51
97.08004951471291
  0
ARC
  5
32B9
330
2
100
AcDbEntity
  8
L-ZISSEN
100
AcDbCircle
 10
100.0
 20
218.2159791247275
 30
0.0
 40
84.01493070741805
100
AcDbArc
 50
262.919950485287
 51
277.0800495147128
  0
LINE
  5
32BA
330
2
100
AcDbEntity
  8
L-ZISSEN
100
AcDbLine
 10
117.6776695296636
 20
134.2010484173095
 30
0.0
 11
82.32233047033638
 21
134.2010484173094
 31
0.0
  0
ARC
  5
32BB
330
2
100
AcDbEntity
  8
L-ZISSEN
100
AcDbCircle
 10
82.32233047033629
 20
99.03342783691385
 30
0.0
 40
42.16762058039566
100
AcDbArc
 50
79.99999999999989
 51
100.0000000000001
  0
ARC
  5
32BC
330
2
100
AcDbEntity
  8
L-ZISSEN
100
AcDbCircle
 10
82.32233047033629
 20
176.3686689977051
 30
0.0
 40
42.16762058039566
100
AcDbArc
 50
259.9999999999998
 51
280.0000000000001
  0
LINE
  5
32BD
330
2
100
AcDbEntity
  8
L-ZISSEN
100
AcDbLine
 10
75.0
 20
140.5604275105646
 30
0.0
 11
75.0
 21
134.8416693240544
 31
0.0
  0
LINE
  5
32BF
330
2
100
AcDbEntity
  8
L-ZISSEN
100
AcDbLine
 10
89.64466094067262
 20
140.5604275105646
 30
0.0
 11
89.64466094067264
 21
134.8416693240544
 31
0.0
  0
LINE
  5
32C3
330
2
100
AcDbEntity
  8
L-ZISSEN
100
AcDbLine
 10
85.0
 20
274.2623261337775
 30
0.0
 11
115.0
 21
274.2623261337775
 31
0.0
  0
LINE
  5
32C5
330
2
100
AcDbEntity
  8
L-ZISSEN
100
AcDbLine
 10
126.5
 20
320.7623261337776
 30
0.0
 11
126.5
 21
280.7623261337776
 31
0.0
  0
LINE
  5
32C7
330
2
100
AcDbEntity
  8
L-ZISSEN
100
AcDbLine
 10
73.49999999999998
 20
280.7623261337776
 30
0.0
 11
73.49999999999998
 21
320.7623261337776
 31
0.0
  0
LINE
  5
32C9
330
2
100
AcDbEntity
  8
L-ZISSEN
100
AcDbLine
 10
115.0
 20
274.2623261337775
 30
0.0
 11
115.0
 21
276.7623261337776
 31
0.0
  0
LINE
  5
32CB
330
2
100
AcDbEntity
  8
L-ZISSEN
100
AcDbLine
 10
85.0
 20
276.7623261337776
 30
0.0
 11
85.0
 21
274.2623261337775
 31
0.0
  0
LINE
  5
32D3
330
2
100
AcDbEntity
  8
L-ZISSEN
100
AcDbLine
 10
115.0
 20
276.7623261337776
 30
0.0
 11
126.4999999999999
 21
280.7623261337776
 31
0.0
  0
LINE
  5
32D4
330
2
100
AcDbEntity
  8
L-ZISSEN
100
AcDbLine
 10
85.0
 20
276.7623261337776
 30
0.0
 11
73.49999999999998
 21
280.7623261337776
 31
0.0
  0
LINE
  5
32D5
330
2
100
AcDbEntity
  8
L-ZISSEN
100
AcDbLine
 10
85.0
 20
324.7623261337776
 30
0.0
 11
73.49999999999998
 21
320.7623261337776
 31
0.0
  0
LINE
  5
32D6
330
2
100
AcDbEntity
  8
L-ZISSEN
100
AcDbLine
 10
85.0
 20
324.7623261337776
 30
0.0
 11
85.0
 21
327.2623261337776
 31
0.0
  0
LINE
  5
32D7
330
2
100
AcDbEntity
  8
L-ZISSEN
100
AcDbLine
 10
85.0
 20
327.2623261337776
 30
0.0
 11
115.0
 21
327.2623261337776
 31
0.0
  0
LINE
  5
32D8
330
2
100
AcDbEntity
  8
L-ZISSEN
100
AcDbLine
 10
115.0
 20
327.2623261337776
 30
0.0
 11
115.0
 21
324.7623261337776
 31
0.0
  0
LINE
  5
32D9
330
2
100
AcDbEntity
  8
L-ZISSEN
100
AcDbLine
 10
115.0
 20
324.7623261337776
 30
0.0
 11
126.4999999999999
 21
320.7623261337776
 31
0.0
  0
CIRCLE
  5
32DF
330
2
100
AcDbEntity
  8
L-ZISSEN
100
AcDbCircle
 10
123.0
 20
283.2623261337776
 30
0.0
 40
3.25
  0
CIRCLE
  5
32E0
330
2
100
AcDbEntity
  8
L-ZISSEN
100
AcDbCircle
 10
77.0
 20
283.2623261337776
 30
0.0
 40
3.25
  0
CIRCLE
  5
32E1
330
2
100
AcDbEntity
  8
L-ZISSEN
100
AcDbCircle
 10
77.0
 20
318.2623261337776
 30
0.0
 40
3.25
  0
CIRCLE
  5
32E2
330
2
100
AcDbEntity
  8
L-ZISSEN
100
AcDbCircle
 10
123.0
 20
318.2623261337776
 30
0.0
 40
3.25
  0
LINE
  5
3300
330
2
100
AcDbEntity
  8
L-ZISSEN
100
AcDbLine
 10
252.8083636542651
 20
187.7946303909202
 30
0.0
 11
239.0483611278887
 21
187.7946303909202
 31
0.0
  0
LINE
  5
3313
330
2
100
AcDbEntity
  8
L-ZISSEN
100
AcDbLine
 10
267.6776695296636
 20
134.2010484173095
 30
0.0
 11
232.3223304703363
 21
134.2010484173094
 31
0.0
  0
LINE
  5
3314
330
2
100
AcDbEntity
  8
L-ZISSEN
100
AcDbLine
 10
267.6776695296636
 20
141.2010484173094
 30
0.0
 11
232.3223304703363
 21
141.2010484173095
 31
0.0
  0
ARC
  5
3315
330
2
100
AcDbEntity
  8
L-ZISSEN
100
AcDbCircle
 10
267.6776695296637
 20
99.03342783691385
 30
0.0
 40
42.16762058039566
100
AcDbArc
 50
79.99999999999987
 51
100.0000000000001
  0
ARC
  5
3316
330
2
100
AcDbEntity
  8
L-ZISSEN
100
AcDbCircle
 10
267.6776695296637
 20
176.3686689977051
 30
0.0
 40
42.16762058039566
100
AcDbArc
 50
259.9999999999998
 51
280.0000000000001
  0
LINE
  5
3317
330
2
100
AcDbEntity
  8
L-ZISSEN
100
AcDbLine
 10
230.2785558931541
 20
142.185076796521
 30
0.0
 11
269.7214441068458
 21
142.1850767965211
 31
0.0
  0
ARC
  5
3318
330
2
100
AcDbEntity
  8
L-ZISSEN
100
AcDbCircle
 10
232.3223304703363
 20
99.03342783691385
 30
0.0
 40
42.16762058039566
100
AcDbArc
 50
79.99999999999989
 51
100.0000000000001
  0
ARC
  5
3319
330
2
100
AcDbEntity
  8
L-ZISSEN
100
AcDbCircle
 10
232.3223304703363
 20
176.3686689977051
 30
0.0
 40
42.16762058039566
100
AcDbArc
 50
259.9999999999998
 51
280.0000000000001
  0
LINE
  5
331A
330
2
100
AcDbEntity
  8
L-ZISSEN
100
AcDbLine
 10
225.0
 20
140.5604275105646
 30
0.0
 11
225.0
 21
134.8416693240544
 31
0.0
  0
LINE
  5
331B
330
2
100
AcDbEntity
  8
L-SAISEN
100
AcDbLine
 10
230.2785558931541
 20
142.1850767965211
 30
0.0
 11
230.2785558931541
 21
141.1514905996985
 31
0.0
  0
LINE
  5
331C
330
2
100
AcDbEntity
  8
L-ZISSEN
100
AcDbLine
 10
229.0
 20
141.6312738461097
 30
0.0
 11
229.0
 21
141.0699636796552
 31
0.0
  0
LINE
  5
331D
330
2
100
AcDbEntity
  8
L-ZISSEN
100
AcDbLine
 10
230.2785558931541
 20
142.1850767965211
 30
0.0
 11
229.0
 21
141.6312738461097
 31
0.0
  0
ARC
  5
331E
330
2
100
AcDbEntity
  8
L-ZISSEN
100
AcDbCircle
 10
250.0
 20
57.18611770989148
 30
0.0
 40
84.01493070741805
100
AcDbArc
 50
82.91995048528717
 51
97.08004951471291
  0
ARC
  5
331F
330
2
100
AcDbEntity
  8
L-ZISSEN
100
AcDbCircle
 10
250.0
 20
218.2159791247275
 30
0.0
 40
84.01493070741805
100
AcDbArc
 50
262.919950485287
 51
277.0800495147128
  0
LINE
  5
3320
330
2
100
AcDbEntity
  8
L-ZISSEN
100
AcDbLine
 10
239.6446609406726
 20
140.5604275105646
 30
0.0
 11
239.6446609406726
 21
134.8416693240544
 31
0.0
  0
LINE
  5
3321
330
2
100
AcDbEntity
  8
L-ZISSEN
100
AcDbLine
 10
260.3553390593273
 20
140.5604275105646
 30
0.0
 11
260.3553390593273
 21
134.8416693240544
 31
0.0
  0
LINE
  5
3322
330
2
100
AcDbEntity
  8
L-ZISSEN
100
AcDbLine
 10
275.0
 20
140.5604275105646
 30
0.0
 11
275.0
 21
134.8416693240544
 31
0.0
  0
LINE
  5
3323
330
2
100
AcDbEntity
  8
L-SAISEN
100
AcDbLine
 10
269.7214441068458
 20
142.1850767965211
 30
0.0
 11
269.7214441068458
 21
141.1514905996985
 31
0.0
  0
LINE
  5
3324
330
2
100
AcDbEntity
  8
L-ZISSEN
100
AcDbLine
 10
271.0
 20
141.6312738461097
 30
0.0
 11
271.0
 21
141.0699636796552
 31
0.0
  0
LINE
  5
3325
330
2
100
AcDbEntity
  8
L-ZISSEN
100
AcDbLine
 10
269.7214441068458
 20
142.1850767965211
 30
0.0
 11
271.0
 21
141.6312738461097
 31
0.0
  0
LINE
  5
3326
330
2
100
AcDbEntity
  8
L-ZISSEN
100
AcDbLine
 10
275.0
 20
136.8243081754197
 30
0.0
 11
275.0
 21
140.5604275105646
 31
0.0
  0
LINE
  5
332F
330
2
100
AcDbEntity
  8
L-SOUZOU
100
AcDbLine
 10
50.99999999999998
 20
274.2623261337775
 30
0.0
 11
50.99999999999998
 21
327.2623261337776
 31
0.0
  0
CIRCLE
  5
333C
330
2
100
AcDbEntity
  8
L-SOUZOU
100
AcDbCircle
 10
100.0
 20
300.7623261337776
 30
0.0
 40
21.25
  0
LINE
  5
334B
330
2
100
AcDbEntity
  8
L-SOUZOU
100
AcDbLine
 10
50.99999999999999
 20
327.2623261337776
 30
0.0
 11
60.03556087744765
 21
327.2623261337777
 31
0.0
  0
ARC
  5
334E
330
2
100
AcDbEntity
  8
L-SOUZOU
100
AcDbCircle
 10
100.0
 20
300.7623261337776
 30
0.0
 40
24.75
100
AcDbArc
 50
270.0
 51
87.52573000806862
  0
LINE
  5
334F
330
2
100
AcDbEntity
  8
L-SOUZOU
100
AcDbLine
 10
60.03556087744782
 20
327.2623261337777
 30
0.0
 11
101.0684757418164
 21
325.489251935202
 31
0.0
  0
LINE
  5
3350
330
2
100
AcDbEntity
  8
L-SOUZOU
100
AcDbLine
 10
60.03556087744826
 20
274.2623261337775
 30
0.0
 11
101.0684757418164
 21
276.035400332353
 31
0.0
  0
LINE
  5
3354
330
2
100
AcDbEntity
  8
L-SOUZOU
100
AcDbLine
 10
50.99999999999999
 20
274.2623261337775
 30
0.0
 11
60.03556087744843
 21
274.2623261337775
 31
0.0
  0
ARC
  5
3357
330
2
100
AcDbEntity
  8
L-SOUZOU
100
AcDbCircle
 10
228.7071428571461
 20
145.7623261337771
 30
0.0
 40
3.149999999999999
100
AcDbArc
 50
90.0
 51
269.9999999999989
  0
LINE
  5
335C
330
2
100
AcDbEntity
  8
L-SOUZOU
100
AcDbLine
 10
228.7071428571461
 20
148.9123261337771
 30
0.0
 11
230.407142857146
 21
148.9123261337771
 31
0.0
  0
ARC
  5
335E
330
2
100
AcDbEntity
  8
L-SOUZOU
100
AcDbCircle
 10
230.407142857146
 20
145.7623261337771
 30
0.0
 40
3.149999999999999
100
AcDbArc
 50
269.9999999999989
 51
90.0
  0
LINE
  5
335F
330
2
100
AcDbEntity
  8
L-SOUZOU
100
AcDbLine
 10
228.7071428571461
 20
142.6123261337771
 30
0.0
 11
230.407142857146
 21
142.6123261337771
 31
0.0
  0
ARC
  5
3360
330
2
100
AcDbEntity
  8
L-SOUZOU
100
AcDbCircle
 10
269.5928571428539
 20
145.7623261337771
 30
0.0
 40
3.149999999999999
100
AcDbArc
 50
90.0
 51
270.000000000001
  0
LINE
  5
3361
330
2
100
AcDbEntity
  8
L-SOUZOU
100
AcDbLine
 10
271.2928571428538
 20
148.9123261337771
 30
0.0
 11
269.5928571428539
 21
148.9123261337771
 31
0.0
  0
ARC
  5
3362
330
2
100
AcDbEntity
  8
L-SOUZOU
100
AcDbCircle
 10
271.2928571428538
 20
145.7623261337771
 30
0.0
 40
3.149999999999999
100
AcDbArc
 50
270.000000000001
 51
90.0
  0
LINE
  5
3363
330
2
100
AcDbEntity
  8
L-SOUZOU
100
AcDbLine
 10
271.2928571428538
 20
142.6123261337771
 30
0.0
 11
269.5928571428539
 21
142.6123261337771
 31
0.0
  0
ARC
  5
3397
330
2
100
AcDbEntity
  8
L-SOUZOU
100
AcDbCircle
 10
250.0000000000018
 20
100.7623261337771
 30
0.0
 40
2.0
100
AcDbArc
 50
73.51949999986479
 51
200.0599999999713
  0
LINE
  5
3398
330
2
100
AcDbEntity
  8
L-SOUZOU
100
AcDbLine
 10
255.9399999999983
 20
108.3991261337773
 30
0.0
 11
250.567199999998
 21
102.6799261337771
 31
0.0
  0
LINE
  5
3399
330
2
100
AcDbEntity
  8
L-SOUZOU
100
AcDbLine
 10
257.6367999999977
 20
106.7023261337772
 30
0.0
 11
251.9175999999995
 21
101.3295261337771
 31
0.0
  0
LINE
  5
339A
330
2
100
AcDbEntity
  8
L-SOUZOU
100
AcDbLine
 10
255.9399999999983
 20
108.3991261337773
 30
0.0
 11
257.6367999999977
 21
106.7023261337772
 31
0.0
  0
LINE
  5
339B
330
2
100
AcDbEntity
  8
L-SOUZOU
100
AcDbLine
 10
150.5
 20
121.7623261337771
 30
0.0
 11
158.0
 21
121.7623261337771
 31
0.0
  0
ARC
  5
339C
330
2
100
AcDbEntity
  8
L-SOUZOU
100
AcDbCircle
 10
158.0
 20
120.2623261337771
 30
0.0
 40
1.5
100
AcDbArc
 50
0.0
 51
90.0
  0
ARC
  5
339D
330
2
100
AcDbEntity
  8
L-SOUZOU
100
AcDbCircle
 10
136.0
 20
119.6623261337772
 30
0.0
 40
1.5
100
AcDbArc
 50
90.0
 51
180.0
  0
LINE
  5
339E
330
2
100
AcDbEntity
  8
L-SOUZOU
100
AcDbLine
 10
134.4999999999999
 20
106.112326133777
 30
0.0
 11
128.4999999999999
 21
106.112326133777
 31
0.0
  0
LINE
  5
33A0
330
2
100
AcDbEntity
  8
L-SOUZOU
100
AcDbLine
 10
124.0
 20
105.0725152423324
 30
0.0
 11
127.0
 21
105.1662699274447
 31
0.0
  0
LINE
  5
33A1
330
2
100
AcDbEntity
  8
L-SOUZOU
100
AcDbLine
 10
127.0
 20
105.1662699274447
 30
0.0
 11
127.6049042009613
 21
105.771174128406
 31
0.0
  0
LINE
  5
33A2
330
2
100
AcDbEntity
  8
L-SOUZOU
100
AcDbLine
 10
124.0
 20
105.6585152423324
 30
0.0
 11
128.4999999999999
 21
105.7991472700009
 31
0.0
  0
LINE
  5
33A3
330
2
100
AcDbEntity
  8
L-SOUZOU
100
AcDbLine
 10
136.0
 20
121.1623261337772
 30
0.0
 11
150.5
 21
121.1623261337772
 31
0.0
  0
LINE
  5
33A5
330
2
100
AcDbEntity
  8
L-SOUZOU
100
AcDbLine
 10
249.3143999999989
 20
98.8839261337771
 30
0.0
 11
239.2519999999979
 21
89.43112613377731
 31
0.0
  0
ARC
  5
33A6
330
2
100
AcDbEntity
  8
L-SOUZOU
100
AcDbCircle
 10
238.9775999999972
 20
89.72312613377722
 30
0.0
 40
0.4
100
AcDbArc
 50
225.0000000001013
 51
313.2099999998256
  0
ARC
  5
33A7
330
2
100
AcDbEntity
  8
L-SOUZOU
100
AcDbCircle
 10
238.9607999999967
 20
89.73992613377687
 30
0.0
 40
0.4
100
AcDbArc
 50
136.7899999998975
 51
225.0000000001013
  0
LINE
  5
33A8
330
2
100
AcDbEntity
  8
L-SOUZOU
100
AcDbLine
 10
238.6863999999961
 20
89.44872613377722
 30
0.0
 11
238.695199999995
 21
89.43992613377693
 31
0.0
  0
LINE
  5
33A9
330
2
100
AcDbEntity
  8
L-SOUZOU
100
AcDbLine
 10
238.6863999999961
 20
89.44872613377722
 30
0.0
 11
238.6775999999972
 21
89.45752613377774
 31
0.0
  0
LINE
  5
33AA
330
2
100
AcDbEntity
  8
L-SOUZOU
100
AcDbLine
 10
150.5
 20
79.76232613377715
 30
0.0
 11
158.0
 21
79.76232613377715
 31
0.0
  0
ARC
  5
33AB
330
2
100
AcDbEntity
  8
L-SOUZOU
100
AcDbCircle
 10
158.0
 20
81.26232613377714
 30
0.0
 40
1.5
100
AcDbArc
 50
270.0
 51
0.0
  0
ARC
  5
33AC
330
2
100
AcDbEntity
  8
L-SOUZOU
100
AcDbCircle
 10
136.0
 20
81.86232613377706
 30
0.0
 40
1.5
100
AcDbArc
 50
180.0
 51
270.0
  0
LINE
  5
33AD
330
2
100
AcDbEntity
  8
L-SOUZOU
100
AcDbLine
 10
128.4999999999999
 20
95.41232613377724
 30
0.0
 11
134.4999999999999
 21
95.41232613377724
 31
0.0
  0
LINE
  5
33AF
330
2
100
AcDbEntity
  8
L-SOUZOU
100
AcDbLine
 10
124.0
 20
96.4521370252218
 30
0.0
 11
127.0
 21
96.35838234010954
 31
0.0
  0
LINE
  5
33B0
330
2
100
AcDbEntity
  8
L-SOUZOU
100
AcDbLine
 10
127.0
 20
96.35838234010954
 30
0.0
 11
127.6049042009613
 21
95.75347813914822
 31
0.0
  0
LINE
  5
33B1
330
2
100
AcDbEntity
  8
L-SOUZOU
100
AcDbLine
 10
124.0
 20
95.86613702522186
 30
0.0
 11
128.4999999999999
 21
95.72550499755335
 31
0.0
  0
LINE
  5
33B2
330
2
100
AcDbEntity
  8
L-SOUZOU
100
AcDbLine
 10
136.0
 20
80.36232613377706
 30
0.0
 11
150.5
 21
80.36232613377706
 31
0.0
  0
LINE
  5
33B3
330
2
100
AcDbEntity
  8
L-SOUZOU
100
AcDbLine
 10
258.4215999999975
 20
109.1839261337772
 30
0.0
 11
237.6983999999956
 21
88.46072613377762
 31
0.0
  0
LINE
  5
33B4
330
2
100
AcDbEntity
  8
L-SOUZOU
100
AcDbLine
 10
248.1215999999974
 20
100.0767261337771
 30
0.0
 11
238.6687999999983
 21
90.01432613377756
 31
0.0
  0
ARC
  5
33B5
330
2
100
AcDbEntity
  8
L-SOUZOU
100
AcDbCircle
 10
250.0000000000018
 20
100.7623261337771
 30
0.0
 40
2.0
100
AcDbArc
 50
249.9399999997831
 51
16.4805000000672
  0
CIRCLE
  5
33B6
330
2
100
AcDbEntity
  8
L-SOUZOU
100
AcDbCircle
 10
250.0000000000018
 20
100.7623261337771
 30
0.0
 40
1.2
  0
LINE
  5
33B7
330
2
100
AcDbEntity
  8
L-SOUZOU
100
AcDbLine
 10
159.4999999999999
 20
120.2623261337771
 30
0.0
 11
159.4999999999999
 21
81.26232613377714
 31
0.0
  0
LINE
  5
33B8
330
2
100
AcDbEntity
  8
L-SOUZOU
100
AcDbLine
 10
150.5
 20
121.7623261337771
 30
0.0
 11
150.5
 21
79.76232613377715
 31
0.0
  0
LINE
  5
33B9
330
2
100
AcDbEntity
  8
L-SOUZOU
100
AcDbLine
 10
134.4999999999999
 20
119.6623261337772
 30
0.0
 11
134.4999999999999
 21
81.86232613377706
 31
0.0
  0
LINE
  5
33BA
330
2
100
AcDbEntity
  8
L-SOUZOU
100
AcDbLine
 10
128.4999999999999
 20
106.112326133777
 30
0.0
 11
128.4999999999999
 21
95.41232613377724
 31
0.0
  0
LINE
  5
33BB
330
2
100
AcDbEntity
  8
L-SOUZOU
100
AcDbLine
 10
127.0
 20
105.7522699274445
 30
0.0
 11
126.9999999999998
 21
95.77238234010975
 31
0.0
  0
LINE
  5
33BF
330
2
100
AcDbEntity
  8
L-SOUZOU
100
AcDbLine
 10
124.0
 20
108.1585152423324
 30
0.0
 11
124.0
 21
93.36613702522186
 31
0.0
  0
CIRCLE
  5
33C0
330
2
100
AcDbEntity
  8
L-SOUZOU
100
AcDbCircle
 10
250.0000000000018
 20
100.7623261337771
 30
0.0
 40
21.0
  0
CIRCLE
  5
33C1
330
2
100
AcDbEntity
  8
L-SOUZOU
100
AcDbCircle
 10
250.0000000000018
 20
100.7623261337771
 30
0.0
 40
18.0
  0
LINE
  5
33C5
330
2
100
AcDbEntity
  8
L-SOUZOU
100
AcDbLine
 10
159.4999999999999
 20
320.2623261337776
 30
0.0
 11
159.4999999999999
 21
281.2623261337776
 31
0.0
  0
LINE
  5
33C6
330
2
100
AcDbEntity
  8
L-SOUZOU
100
AcDbLine
 10
150.5
 20
321.7623261337775
 30
0.0
 11
150.5
 21
279.7623261337776
 31
0.0
  0
LINE
  5
33C7
330
2
100
AcDbEntity
  8
L-SOUZOU
100
AcDbLine
 10
134.4999999999999
 20
319.6623261337776
 30
0.0
 11
134.4999999999999
 21
281.8623261337775
 31
0.0
  0
LINE
  5
33C8
330
2
100
AcDbEntity
  8
L-SOUZOU
100
AcDbLine
 10
136.0
 20
280.3623261337775
 30
0.0
 11
150.5
 21
280.3623261337775
 31
0.0
  0
ARC
  5
33C9
330
2
100
AcDbEntity
  8
L-SOUZOU
100
AcDbCircle
 10
136.0
 20
281.8623261337775
 30
0.0
 40
1.5
100
AcDbArc
 50
180.0
 51
270.0
  0
LINE
  5
33CA
330
2
100
AcDbEntity
  8
L-SOUZOU
100
AcDbLine
 10
150.5
 20
279.7623261337776
 30
0.0
 11
158.0
 21
279.7623261337776
 31
0.0
  0
ARC
  5
33CB
330
2
100
AcDbEntity
  8
L-SOUZOU
100
AcDbCircle
 10
158.0
 20
281.2623261337776
 30
0.0
 40
1.5
100
AcDbArc
 50
270.0
 51
0.0
  0
LINE
  5
33CC
330
2
100
AcDbEntity
  8
L-SOUZOU
100
AcDbLine
 10
136.0
 20
321.1623261337777
 30
0.0
 11
150.5
 21
321.1623261337777
 31
0.0
  0
ARC
  5
33CD
330
2
100
AcDbEntity
  8
L-SOUZOU
100
AcDbCircle
 10
136.0
 20
319.6623261337776
 30
0.0
 40
1.5
100
AcDbArc
 50
90.0
 51
180.0
  0
LINE
  5
33CE
330
2
100
AcDbEntity
  8
L-SOUZOU
100
AcDbLine
 10
150.5
 20
321.7623261337775
 30
0.0
 11
158.0
 21
321.7623261337775
 31
0.0
  0
ARC
  5
33CF
330
2
100
AcDbEntity
  8
L-SOUZOU
100
AcDbCircle
 10
158.0
 20
320.2623261337776
 30
0.0
 40
1.5
100
AcDbArc
 50
0.0
 51
90.0
  0
LINE
  5
33D0
330
2
100
AcDbEntity
  8
L-SOUZOU
100
AcDbLine
 10
134.4999999999999
 20
306.1123261337775
 30
0.0
 11
128.4999999999999
 21
306.1123261337775
 31
0.0
  0
LINE
  5
33D1
330
2
100
AcDbEntity
  8
L-SOUZOU
100
AcDbLine
 10
128.4999999999999
 20
295.4123261337776
 30
0.0
 11
134.4999999999999
 21
295.4123261337776
 31
0.0
  0
LINE
  5
33D2
330
2
100
AcDbEntity
  8
L-SOUZOU
100
AcDbLine
 10
124.0
 20
295.8661370252223
 30
0.0
 11
128.4999999999999
 21
295.7255049975537
 31
0.0
  0
LINE
  5
33D3
330
2
100
AcDbEntity
  8
L-SOUZOU
100
AcDbLine
 10
124.0
 20
296.4521370252222
 30
0.0
 11
127.0
 21
296.35838234011
 31
0.0
  0
LINE
  5
33D4
330
2
100
AcDbEntity
  8
L-SOUZOU
100
AcDbLine
 10
124.0
 20
305.0725152423329
 30
0.0
 11
127.0
 21
305.1662699274452
 31
0.0
  0
LINE
  5
33D5
330
2
100
AcDbEntity
  8
L-SOUZOU
100
AcDbLine
 10
124.0
 20
305.6585152423329
 30
0.0
 11
128.4999999999999
 21
305.7991472700014
 31
0.0
  0
LINE
  5
33D6
330
2
100
AcDbEntity
  8
L-SOUZOU
100
AcDbLine
 10
128.4999999999999
 20
306.1123261337775
 30
0.0
 11
128.4999999999999
 21
295.4123261337776
 31
0.0
  0
LINE
  5
33D7
330
2
100
AcDbEntity
  8
L-SOUZOU
100
AcDbLine
 10
127.0
 20
305.1662699274452
 30
0.0
 11
127.6049042009613
 21
305.7711741284065
 31
0.0
  0
LINE
  5
33D8
330
2
100
AcDbEntity
  8
L-SOUZOU
100
AcDbLine
 10
127.0
 20
296.35838234011
 30
0.0
 11
127.6049042009613
 21
295.7534781391487
 31
0.0
  0
LINE
  5
33D9
330
2
100
AcDbEntity
  8
L-SOUZOU
100
AcDbLine
 10
127.0
 20
305.752269927445
 30
0.0
 11
126.9999999999998
 21
295.7723823401101
 31
0.0
  0
TEXT
  5
33DC
330
2
100
AcDbEntity
  8
L-ZISSEN
100
AcDbText
 10
184.8014387205666
 20
305.1677866696213
 30
0.0
 40
4.5
  1
MODEL NO. R63- 00-0***
100
AcDbText
  0
TEXT
  5
33E5
330
2
100
AcDbEntity
  8
L-ZISSEN
100
AcDbText
 10
244.8975659693189
 20
307.8652987218515
 30
0.0
 40
4.5
  1
2
100
AcDbText
  0
TEXT
  5
33E6
330
2
100
AcDbEntity
  8
L-ZISSEN
100
AcDbText
 10
244.8975659693189
 20
302.5167027810932
 30
0.0
 40
4.5
  1
3
100
AcDbText
  0
LINE
  5
3411
330
2
100
AcDbEntity
  8
L-SOUZOU
100
AcDbLine
 10
52.51428571428844
 20
154.7623261337767
 30
0.0
 11
50.99999999999997
 21
154.7623261337766
 31
0.0
  0
LINE
  5
3479
330
2
100
AcDbEntity
  8
L-ZISSEN
100
AcDbLine
 10
126.4999999999986
 20
132.7746522675549
 30
0.0
 11
126.4999999999986
 21
134.7746522675549
 31
0.0
  0
LINE
  5
347B
330
2
100
AcDbEntity
  8
L-SOUZOU
100
AcDbLine
 10
52.99999999999998
 20
274.2623261337775
 30
0.0
 11
52.99999999999998
 21
327.2623261337776
 31
0.0
  0
ARC
  5
34AD
330
2
100
AcDbEntity
  8
L-ZISSEN
100
AcDbCircle
 10
126.1214285714299
 20
109.4766118480633
 30
0.0
 40
0.3785714285715134
100
AcDbArc
 50
270.0
 51
0.000000000000007
  0
ARC
  5
34AE
330
2
100
AcDbEntity
  8
L-ZISSEN
100
AcDbCircle
 10
126.1214285714299
 20
109.4766118480633
 30
0.0
 40
0.3785714285715134
100
AcDbArc
 50
270.0
 51
0.000000000000007
  0
ENDSEC
  0
SECTION
  2
OBJECTS
  0
DICTIONARY
  5
1A
330
0
100
AcDbDictionary
  3
ACAD_GROUP
350
18
  3
ACAD_LAYOUT
350
41
  3
ACAD_MLINESTYLE
350
19
  3
ACAD_PLOTSETTINGS
350
42
  3
ACADDIM
350
2AC1
1001
ACAD
1000
TREAT_AS_HARD
1070
     0
  0
DICTIONARY
  5
9CB
330
A
100
AcDbDictionary
  3
ACAD_LAYERSTATES
350
9CC
1001
ACAD
1000
TREAT_AS_HARD
1070
     1
  0
DICTIONARY
  5
FC4
330
2
100
AcDbDictionary
  3
ACAD_LAYOUTSELFREF
350
350D
1001
ACAD
1000
TREAT_AS_HARD
1070
     1
  0
DICTIONARY
  5
FC6
330
7
100
AcDbDictionary
  3
ACAD_LAYOUTSELFREF
350
350E
1001
ACAD
1000
TREAT_AS_HARD
1070
     1
  0
DICTIONARY
  5
18
102
{ACAD_REACTORS
330
1A
102
}
330
1A
100
AcDbDictionary
1001
ACAD
1000
TREAT_AS_HARD
1070
     0
  0
DICTIONARY
  5
41
102
{ACAD_REACTORS
330
1A
102
}
330
1A
100
AcDbDictionary
1001
ACAD
1000
TREAT_AS_HARD
1070
     0
  0
DICTIONARY
  5
19
102
{ACAD_REACTORS
330
1A
102
}
330
1A
100
AcDbDictionary
  3
STANDARD
350
1D
1001
ACAD
1000
TREAT_AS_HARD
1070
     0
  0
DICTIONARY
  5
42
102
{ACAD_REACTORS
330
1A
102
}
330
1A
100
AcDbDictionary
1001
ACAD
1000
TREAT_AS_HARD
1070
     0
  0
XRECORD
  5
2AC1
102
{ACAD_REACTORS
330
1A
102
}
330
1A
100
AcDbXrecord
 90
   990106
  3

 60
     0
 61
     0
 62
     1
 63
     3
 64
     0
 65
     0
 66
     0
 67
     3
 68
     1
 69
     0
 70
     0
 71
     0
 72
     0
 40
0.0
170
     0
  0
DICTIONARY
  5
9CC
102
{ACAD_REACTORS
330
9CB
102
}
330
9CB
100
AcDbDictionary
1001
ACAD
1000
TREAT_AS_HARD
1070
     0
  0
XRECORD
  5
350D
102
{ACAD_REACTORS
330
FC4
102
}
330
FC4
100
AcDbXrecord
340
2
  0
XRECORD
  5
350E
102
{ACAD_REACTORS
330
FC6
102
}
330
FC6
100
AcDbXrecord
340
7
  0
MLINESTYLE
  5
1D
102
{ACAD_REACTORS
330
19
102
}
330
19
100
AcDbMlineStyle
  2
STANDARD
 70
     0
  3

 62
     0
 51
90.0
 52
90.0
 71
     2
 49
0.5
 62
   256
  6
BYLAYER
 49
-0.5
 62
   256
  6
BYLAYER
  0
ENDSEC
  0
EOF
