  0
SECTION
  2
HEADER
  9
$ACADVER
  1
AC1032
  9
$ACADMAINTVER
 90
        4
  9
$DWGCODEPAGE
  3
ANSI_932
  9
$LASTSAVEDBY
  1
a-ooshima
  9
$REQUIREDVERSIONS
160
                 0
  9
$INSBASE
 10
0.0
 20
0.0
 30
0.0
  9
$EXTMIN
 10
1412.676029785923
 20
-1479.997939535144
 30
0.0
  9
$EXTMAX
 10
2280.684316108654
 20
-963.9305556835384
 30
0.0
  9
$LIMMIN
 10
0.0
 20
0.0
  9
$LIMMAX
 10
841.0
 20
594.0
  9
$ORTHOMODE
 70
     0
  9
$REGENMODE
 70
     1
  9
$FILLMODE
 70
     1
  9
$QTEXTMODE
 70
     0
  9
$MIRRTEXT
 70
     1
  9
$LTSCALE
 40
1.0
  9
$ATTMODE
 70
     1
  9
$TEXTSIZE
 40
4.5
  9
$TRACEWID
 40
0.05
  9
$TEXTSTYLE
  7
STANDARD
  9
$CLAYER
  8
L-ZISSEN
  9
$CELTYPE
  6
ByLayer
  9
$CECOLOR
 62
   256
  9
$CELTSCALE
 40
1.0
  9
$DISPSILH
 70
     0
  9
$DIMSCALE
 40
1.0
  9
$DIMASZ
 40
2.0
  9
$DIMEXO
 40
1.0
  9
$DIMDLI
 40
0.38
  9
$DIMRND
 40
0.0
  9
$DIMDLE
 40
1.0
  9
$DIMEXE
 40
1.0
  9
$DIMTP
 40
0.0
  9
$DIMTM
 40
0.0
  9
$DIMTXT
 40
4.5
  9
$DIMCEN
 40
0.09
  9
$DIMTSZ
 40
0.0
  9
$DIMTOL
 70
     0
  9
$DIMLIM
 70
     0
  9
$DIMTIH
 70
     0
  9
$DIMTOH
 70
     0
  9
$DIMSE1
 70
     0
  9
$DIMSE2
 70
     0
  9
$DIMTAD
 70
     1
  9
$DIMZIN
 70
     0
  9
$DIMBLK
  1

  9
$DIMASO
 70
     0
  9
$DIMSHO
 70
     0
  9
$DIMPOST
  1

  9
$DIMAPOST
  1

  9
$DIMALT
 70
     0
  9
$DIMALTD
 70
     2
  9
$DIMALTF
 40
25.4
  9
$DIMLFAC
 40
1.0
  9
$DIMTOFL
 70
     1
  9
$DIMTVP
 40
0.0
  9
$DIMTIX
 70
     1
  9
$DIMSOXD
 70
     0
  9
$DIMSAH
 70
     0
  9
$DIMBLK1
  1

  9
$DIMBLK2
  1

  9
$DIMSTYLE
  2
Standard
  9
$DIMCLRD
 70
     0
  9
$DIMCLRE
 70
     0
  9
$DIMCLRT
 70
     0
  9
$DIMTFAC
 40
1.0
  9
$DIMGAP
 40
0.09
  9
$DIMJUST
 70
     0
  9
$DIMSD1
 70
     0
  9
$DIMSD2
 70
     0
  9
$DIMTOLJ
 70
     1
  9
$DIMTZIN
 70
     0
  9
$DIMALTZ
 70
     0
  9
$DIMALTTZ
 70
     0
  9
$DIMUPT
 70
     0
  9
$DIMDEC
 70
     4
  9
$DIMTDEC
 70
     4
  9
$DIMALTU
 70
     2
  9
$DIMALTTD
 70
     2
  9
$DIMTXSTY
  7
STANDARD
  9
$DIMAUNIT
 70
     0
  9
$DIMADEC
 70
     0
  9
$DIMALTRND
 40
0.0
  9
$DIMAZIN
 70
     0
  9
$DIMDSEP
 70
    46
  9
$DIMATFIT
 70
     3
  9
$DIMFRAC
 70
     0
  9
$DIMLDRBLK
  1

  9
$DIMLUNIT
 70
     2
  9
$DIMLWD
 70
    -2
  9
$DIMLWE
 70
    -2
  9
$DIMTMOVE
 70
     2
  9
$DIMFXL
 40
1.0
  9
$DIMFXLON
 70
     0
  9
$DIMJOGANG
 40
0.7853981633974483
  9
$DIMTFILL
 70
     0
  9
$DIMTFILLCLR
 70
     0
  9
$DIMARCSYM
 70
     0
  9
$DIMLTYPE
  6

  9
$DIMLTEX1
  6

  9
$DIMLTEX2
  6

  9
$DIMTXTDIRECTION
 70
     0
  9
$LUNITS
 70
     2
  9
$LUPREC
 70
     4
  9
$SKETCHINC
 40
0.1
  9
$FILLETRAD
 40
5.0
  9
$AUNITS
 70
     0
  9
$AUPREC
 70
     0
  9
$MENU
  1
acad
  9
$ELEVATION
 40
0.0
  9
$PELEVATION
 40
0.0
  9
$THICKNESS
 40
0.0
  9
$LIMCHECK
 70
     0
  9
$CHAMFERA
 40
1.0
  9
$CHAMFERB
 40
1.0
  9
$CHAMFERC
 40
0.0
  9
$CHAMFERD
 40
0.0
  9
$SKPOLY
 70
     0
  9
$TDCREATE
 40
2449258.8162875
  9
$TDUCREATE
 40
2449258.4412875
  9
$TDUPDATE
 40
2459516.674709653
  9
$TDUUPDATE
 40
2459516.299709653
  9
$TDINDWG
 40
0.0971071181
  9
$TDUSRTIMER
 40
0.0864462731
  9
$USRTIMER
 70
     1
  9
$ANGBASE
 50
0.0
  9
$ANGDIR
 70
     0
  9
$PDMODE
 70
     0
  9
$PDSIZE
 40
0.0
  9
$PLINEWID
 40
0.0
  9
$SPLFRAME
 70
     0
  9
$SPLINETYPE
 70
     6
  9
$SPLINESEGS
 70
     8
  9
$HANDSEED
  5
34CA
  9
$SURFTAB1
 70
     6
  9
$SURFTAB2
 70
     6
  9
$SURFTYPE
 70
     6
  9
$SURFU
 70
     6
  9
$SURFV
 70
     6
  9
$UCSBASE
  2

  9
$UCSNAME
  2

  9
$UCSORG
 10
0.0
 20
0.0
 30
0.0
  9
$UCSXDIR
 10
1.0
 20
0.0
 30
0.0
  9
$UCSYDIR
 10
0.0
 20
1.0
 30
0.0
  9
$UCSORTHOREF
  2

  9
$UCSORTHOVIEW
 70
     0
  9
$UCSORGTOP
 10
0.0
 20
0.0
 30
0.0
  9
$UCSORGBOTTOM
 10
0.0
 20
0.0
 30
0.0
  9
$UCSORGLEFT
 10
0.0
 20
0.0
 30
0.0
  9
$UCSORGRIGHT
 10
0.0
 20
0.0
 30
0.0
  9
$UCSORGFRONT
 10
0.0
 20
0.0
 30
0.0
  9
$UCSORGBACK
 10
0.0
 20
0.0
 30
0.0
  9
$PUCSBASE
  2

  9
$PUCSNAME
  2

  9
$PUCSORG
 10
0.0
 20
0.0
 30
0.0
  9
$PUCSXDIR
 10
1.0
 20
0.0
 30
0.0
  9
$PUCSYDIR
 10
0.0
 20
1.0
 30
0.0
  9
$PUCSORTHOREF
  2

  9
$PUCSORTHOVIEW
 70
     0
  9
$PUCSORGTOP
 10
0.0
 20
0.0
 30
0.0
  9
$PUCSORGBOTTOM
 10
0.0
 20
0.0
 30
0.0
  9
$PUCSORGLEFT
 10
0.0
 20
0.0
 30
0.0
  9
$PUCSORGRIGHT
 10
0.0
 20
0.0
 30
0.0
  9
$PUCSORGFRONT
 10
0.0
 20
0.0
 30
0.0
  9
$PUCSORGBACK
 10
0.0
 20
0.0
 30
0.0
  9
$USERI1
 70
     0
  9
$USERI2
 70
     0
  9
$USERI3
 70
     0
  9
$USERI4
 70
     0
  9
$USERI5
 70
     0
  9
$USERR1
 40
0.0
  9
$USERR2
 40
0.0
  9
$USERR3
 40
0.0
  9
$USERR4
 40
0.0
  9
$USERR5
 40
0.0
  9
$WORLDVIEW
 70
     1
  9
$SHADEDGE
 70
     3
  9
$SHADEDIF
 70
    70
  9
$TILEMODE
 70
     1
  9
$MAXACTVP
 70
    64
  9
$PINSBASE
 10
0.0
 20
0.0
 30
0.0
  9
$PLIMCHECK
 70
     0
  9
$PEXTMIN
 10
1.000000000000000E+20
 20
1.000000000000000E+20
 30
1.000000000000000E+20
  9
$PEXTMAX
 10
-1.000000000000000E+20
 20
-1.000000000000000E+20
 30
-1.000000000000000E+20
  9
$PLIMMIN
 10
0.0
 20
0.0
  9
$PLIMMAX
 10
0.0
 20
0.0
  9
$UNITMODE
 70
     0
  9
$VISRETAIN
 70
     1
  9
$PLINEGEN
 70
     0
  9
$PSLTSCALE
 70
     0
  9
$TREEDEPTH
 70
  3020
  9
$CMLSTYLE
  2
Standard
  9
$CMLJUST
 70
     0
  9
$CMLSCALE
 40
1.0
  9
$PROXYGRAPHICS
 70
     1
  9
$MEASUREMENT
 70
     0
  9
$CELWEIGHT
370
    -1
  9
$ENDCAPS
280
     0
  9
$JOINSTYLE
280
     0
  9
$LWDISPLAY
290
     0
  9
$INSUNITS
 70
     0
  9
$HYPERLINKBASE
  1

  9
$STYLESHEET
  1

  9
$XEDIT
290
     1
  9
$CEPSNTYPE
380
     0
  9
$PSTYLEMODE
290
     1
  9
$FINGERPRINTGUID
  2
{9b7e0ad6-801a-4489-9f42-b53583e32c9b}
  9
$VERSIONGUID
  2
{FAEB1C32-E019-11D5-929B-00C0DF256EC4}
  9
$EXTNAMES
290
     1
  9
$PSVPSCALE
 40
0.0
  9
$OLESTARTUP
290
     0
  9
$SORTENTS
280
   127
  9
$INDEXCTL
280
     0
  9
$HIDETEXT
280
     1
  9
$XCLIPFRAME
280
     2
  9
$HALOGAP
280
     0
  9
$OBSCOLOR
 70
   257
  9
$OBSLTYPE
280
     0
  9
$INTERSECTIONDISPLAY
280
     0
  9
$INTERSECTIONCOLOR
 70
   257
  9
$DIMASSOC
280
     2
  9
$PROJECTNAME
  1

  9
$CAMERADISPLAY
290
     0
  9
$LENSLENGTH
 40
50.0
  9
$CAMERAHEIGHT
 40
0.0
  9
$STEPSPERSEC
 40
2.0
  9
$STEPSIZE
 40
6.0
  9
$3DDWFPREC
 40
2.0
  9
$PSOLWIDTH
 40
0.25
  9
$PSOLHEIGHT
 40
4.0
  9
$LOFTANG1
 40
1.570796326794897
  9
$LOFTANG2
 40
1.570796326794897
  9
$LOFTMAG1
 40
0.0
  9
$LOFTMAG2
 40
0.0
  9
$LOFTPARAM
 70
     7
  9
$LOFTNORMALS
280
     1
  9
$LATITUDE
 40
37.795
  9
$LONGITUDE
 40
-122.394
  9
$NORTHDIRECTION
 40
0.0
  9
$TIMEZONE
 70
 -8000
  9
$LIGHTGLYPHDISPLAY
280
     1
  9
$TILEMODELIGHTSYNCH
280
     1
  9
$SOLIDHIST
280
     0
  9
$SHOWHIST
280
     1
  9
$DWFFRAME
280
     2
  9
$DGNFRAME
280
     2
  9
$REALWORLDSCALE
290
     1
  9
$INTERFERECOLOR
 62
   256
  9
$CSHADOW
280
     0
  9
$SHADOWPLANELOCATION
 40
0.0
  0
ENDSEC
  0
SECTION
  2
CLASSES
  0
CLASS
  1
ACDBDICTIONARYWDFLT
  2
AcDbDictionaryWithDefault
  3
ObjectDBX Classes
 90
        0
 91
        3
280
     0
281
     0
  0
CLASS
  1
SCALE
  2
AcDbScale
  3
ObjectDBX Classes
 90
     1153
 91
        3
280
     0
281
     0
  0
CLASS
  1
VISUALSTYLE
  2
AcDbVisualStyle
  3
ObjectDBX Classes
 90
     4095
 91
        3
280
     0
281
     0
  0
CLASS
  1
MATERIAL
  2
AcDbMaterial
  3
ObjectDBX Classes
 90
     1153
 91
        3
280
     0
281
     0
  0
CLASS
  1
TABLESTYLE
  2
AcDbTableStyle
  3
ObjectDBX Classes
 90
     4095
 91
        3
280
     0
281
     0
  0
CLASS
  1
MLEADERSTYLE
  2
AcDbMLeaderStyle
  3
ACDB_MLEADERSTYLE_CLASS
 90
     4095
 91
        3
280
     0
281
     0
  0
CLASS
  1
DIMASSOC
  2
AcDbDimAssoc
  3
"AcDbDimAssoc|Product Desc:     AcDim ARX App For Dimension|Company:          Autodesk, Inc.|WEB Address:      www.autodesk.com"
 90
        0
 91
        3
280
     0
281
     0
  0
CLASS
  1
DICTIONARYVAR
  2
AcDbDictionaryVar
  3
ObjectDBX Classes
 90
        0
 91
        3
280
     0
281
     0
  0
CLASS
  1
SUN
  2
AcDbSun
  3
SCENEOE
 90
     1153
 91
        3
280
     0
281
     0
  0
CLASS
  1
CELLSTYLEMAP
  2
AcDbCellStyleMap
  3
ObjectDBX Classes
 90
     1152
 91
        3
280
     0
281
     0
  0
ENDSEC
  0
SECTION
  2
TABLES
  0
TABLE
  2
VPORT
  5
8
330
0
100
AcDbSymbolTable
 70
     1
  0
VPORT
  5
21
330
8
100
AcDbSymbolTableRecord
100
AcDbViewportTableRecord
  2
*ACTIVE
 70
     0
 10
0.0
 20
0.0
 11
1.0
 21
1.0
 12
1889.270208757267
 22
-1211.268685599038
 13
0.0
 23
0.0
 14
5.0
 24
5.0
 15
0.0
 25
0.0
 16
0.0
 26
0.0
 36
1.0
 17
0.0
 27
0.0
 37
0.0
 40
657.9859144107953
 41
1.978319783197832
 42
50.0
 43
0.0
 44
0.0
 50
0.0
 51
0.0
 71
    16
 72
   100
 73
     1
 74
     0
 75
     0
 76
     0
 77
     0
 78
     0
281
     0
 65
     0
110
0.0
120
0.0
130
0.0
111
1.0
121
0.0
131
0.0
112
0.0
122
1.0
132
0.0
 79
     0
146
0.0
348
2B0
 60
     3
 61
     5
292
     1
282
     1
141
0.0
142
0.0
 63
   256
361
34B7
  0
ENDTAB
  0
TABLE
  2
LTYPE
  5
5
330
0
100
AcDbSymbolTable
 70
     4
  0
LTYPE
  5
10
330
5
100
AcDbSymbolTableRecord
100
AcDbLinetypeTableRecord
  2
ByBlock
 70
     0
  3

 72
    65
 73
     0
 40
0.0
  0
LTYPE
  5
11
330
5
100
AcDbSymbolTableRecord
100
AcDbLinetypeTableRecord
  2
ByLayer
 70
     0
  3

 72
    65
 73
     0
 40
0.0
  0
LTYPE
  5
1B
330
5
100
AcDbSymbolTableRecord
100
AcDbLinetypeTableRecord
  2
CONTINUOUS
 70
     0
  3
Solid line
 72
    65
 73
     0
 40
0.0
  0
LTYPE
  5
1C
330
5
100
AcDbSymbolTableRecord
100
AcDbLinetypeTableRecord
  2
CENTER
 70
     0
  3
____ _ ____ _ ____ _ ____ _ 
 72
    65
 73
     4
 40
60.0
 49
45.0
 74
     0
 49
-5.0
 74
     0
 49
5.0
 74
     0
 49
-5.0
 74
     0
  0
LTYPE
  5
2D7
330
5
100
AcDbSymbolTableRecord
100
AcDbLinetypeTableRecord
  2
PHANTOM
 70
     0
  3
Phantom ______  __  __  ______  __  __  ______
 72
    65
 73
     6
 40
12.7
 49
6.35
 74
     0
 49
-1.27
 74
     0
 49
1.27
 74
     0
 49
-1.27
 74
     0
 49
1.27
 74
     0
 49
-1.27
 74
     0
  0
LTYPE
  5
2D9
330
5
100
AcDbSymbolTableRecord
100
AcDbLinetypeTableRecord
  2
HIDDEN
 70
     0
  3
- - - - - - - - - - - - - - - - - - - - - -
 72
    65
 73
     2
 40
2.0
 49
1.0
 74
     0
 49
-1.0
 74
     0
  0
ENDTAB
  0
TABLE
  2
LAYER
  5
2
102
{ACAD_XDICTIONARY
360
A85
102
}
330
0
100
AcDbSymbolTable
 70
    10
  0
LAYER
  5
1D
330
2
100
AcDbSymbolTableRecord
100
AcDbLayerTableRecord
  2
0
 70
     0
 62
     7
  6
CONTINUOUS
370
    -3
390
F
347
2C7
348
0
  0
LAYER
  5
1E
330
2
100
AcDbSymbolTableRecord
100
AcDbLayerTableRecord
  2
L-ZISSEN
 70
     0
 62
     7
  6
CONTINUOUS
370
    -3
390
F
347
2C7
348
0
  0
LAYER
  5
1F
330
2
100
AcDbSymbolTableRecord
100
AcDbLayerTableRecord
  2
L-TYUSIN
 70
     0
 62
     1
  6
CENTER
370
    -3
390
F
347
2C7
348
0
  0
LAYER
  5
2CE
330
2
100
AcDbSymbolTableRecord
100
AcDbLayerTableRecord
  2
Defpoints
 70
     0
 62
     7
  6
CONTINUOUS
290
     0
370
    -3
390
F
347
2C7
348
0
  0
LAYER
  5
2D1
330
2
100
AcDbSymbolTableRecord
100
AcDbLayerTableRecord
  2
L-MOJI
 70
     0
 62
     4
  6
CONTINUOUS
370
    -3
390
F
347
2C7
348
0
  0
LAYER
  5
2D4
330
2
100
AcDbSymbolTableRecord
100
AcDbLayerTableRecord
  2
SUNPOU
 70
     0
 62
     3
  6
CONTINUOUS
370
    -3
390
F
347
2C7
348
0
  0
LAYER
  5
2D5
330
2
100
AcDbSymbolTableRecord
100
AcDbLayerTableRecord
  2
L-SAISEN
 70
     0
 62
     6
  6
CONTINUOUS
370
    -3
390
F
347
2C7
348
0
  0
LAYER
  5
2D6
330
2
100
AcDbSymbolTableRecord
100
AcDbLayerTableRecord
  2
L-SOUZOU
 70
     0
 62
     2
  6
PHANTOM
370
    -3
390
F
347
2C7
348
0
  0
LAYER
  5
2D8
330
2
100
AcDbSymbolTableRecord
100
AcDbLayerTableRecord
  2
L-HASEN
 70
     0
 62
   150
  6
HIDDEN
370
    -3
390
F
347
2C7
348
0
  0
LAYER
  5
2DA
330
2
100
AcDbSymbolTableRecord
100
AcDbLayerTableRecord
  2
WAKU
 70
     0
 62
     6
  6
CONTINUOUS
370
    -3
390
F
347
2C7
348
0
  0
ENDTAB
  0
TABLE
  2
STYLE
  5
3
330
0
100
AcDbSymbolTable
 70
     4
  0
STYLE
  5
22
330
3
100
AcDbSymbolTableRecord
100
AcDbTextStyleTableRecord
  2
STANDARD
 70
     0
 40
0.0
 41
1.0
 50
0.0
 71
     0
 42
4.5
  3
TXT
  4

  0
STYLE
  5
2DD
330
3
100
AcDbSymbolTableRecord
100
AcDbTextStyleTableRecord
  2
KANJI
 70
     0
 40
0.0
 41
0.8
 50
0.0
 71
     0
 42
4.5
  3
C:\Program Files\AutoCAD LT\ROMANS
  4
BIGFONT
  0
STYLE
  5
2DE
330
3
100
AcDbSymbolTableRecord
100
AcDbTextStyleTableRecord
  2
SIMPLEX
 70
     0
 40
1.5
 41
1.0
 50
0.0
 71
     0
 42
4.5
  3
SIMPLEX
  4

  0
STYLE
  5
2DF
330
3
100
AcDbSymbolTableRecord
100
AcDbTextStyleTableRecord
  2
ｽﾀｲﾙ2
 70
     0
 40
0.0
 41
1.0
 50
0.0
 71
     0
 42
4.5
  3
@MS PGothic.ttf
  4

1001
ACAD
1000
@ＭＳ Ｐゴシック
1071
    32818
  0
ENDTAB
  0
TABLE
  2
VIEW
  5
6
330
0
100
AcDbSymbolTable
 70
     0
  0
ENDTAB
  0
TABLE
  2
UCS
  5
7
330
0
100
AcDbSymbolTable
 70
     0
  0
ENDTAB
  0
TABLE
  2
APPID
  5
9
330
0
100
AcDbSymbolTable
 70
     2
  0
APPID
  5
23
330
9
100
AcDbSymbolTableRecord
100
AcDbRegAppTableRecord
  2
ACAD
 70
     0
  0
APPID
  5
3336
330
9
100
AcDbSymbolTableRecord
100
AcDbRegAppTableRecord
  2
ACAD_DSTYLE_DIMRADIAL_EXTENSION
 70
     0
  0
ENDTAB
  0
TABLE
  2
DIMSTYLE
  5
A
330
0
100
AcDbSymbolTable
 70
     1
100
AcDbDimStyleTable
  0
DIMSTYLE
105
24
330
A
100
AcDbSymbolTableRecord
100
AcDbDimStyleTableRecord
  2
Standard
 70
     0
178
     0
340
22
  0
ENDTAB
  0
TABLE
  2
BLOCK_RECORD
  5
1
330
0
100
AcDbSymbolTable
 70
     4
  0
BLOCK_RECORD
  5
18
330
1
100
AcDbSymbolTableRecord
100
AcDbBlockTableRecord
  2
*Model_Space
340
19
 70
     0
280
     1
281
     0
  0
BLOCK_RECORD
  5
16
330
1
100
AcDbSymbolTableRecord
100
AcDbBlockTableRecord
  2
*Paper_Space
340
17
 70
     0
280
     1
281
     0
  0
BLOCK_RECORD
  5
2EB
330
1
100
AcDbSymbolTableRecord
100
AcDbBlockTableRecord
  2
_Open
340
0
 70
     0
280
     1
281
     0
  0
BLOCK_RECORD
  5
A2E
330
1
100
AcDbSymbolTableRecord
100
AcDbBlockTableRecord
  2
A$C18BE6784
340
0
 70
     0
280
     1
281
     0
  0
BLOCK_RECORD
  5
A38
330
1
100
AcDbSymbolTableRecord
100
AcDbBlockTableRecord
  2
A$C1AC42AA4
340
0
102
{BLKREFS
331
A37
102
}
 70
     0
280
     1
281
     0
  0
BLOCK_RECORD
  5
A7D
330
1
100
AcDbSymbolTableRecord
100
AcDbBlockTableRecord
  2
JIS-SIMBOL-A3
340
0
102
{BLKREFS
331
A7C
102
}
 70
     0
280
     1
281
     0
  0
ENDTAB
  0
ENDSEC
  0
SECTION
  2
BLOCKS
  0
BLOCK
  5
287
330
18
100
AcDbEntity
  8
0
100
AcDbBlockBegin
  2
*Model_Space
 70
     0
 10
0.0
 20
0.0
 30
0.0
  3
*Model_Space
  1

  0
ENDBLK
  5
288
330
18
100
AcDbEntity
  8
0
100
AcDbBlockEnd
  0
BLOCK
  5
285
330
16
100
AcDbEntity
 67
     1
  8
0
100
AcDbBlockBegin
  2
*Paper_Space
 70
     0
 10
0.0
 20
0.0
 30
0.0
  3
*Paper_Space
  1

  0
ENDBLK
  5
286
330
16
100
AcDbEntity
 67
     1
  8
0
100
AcDbBlockEnd
  0
BLOCK
  5
2EC
330
2EB
100
AcDbEntity
  8
0
370
    -1
100
AcDbBlockBegin
  2
_Open
 70
     0
 10
0.0
 20
0.0
 30
0.0
  3
_Open
  1

  0
LINE
  5
2ED
330
2EB
100
AcDbEntity
  8
0
  6
ByBlock
 62
     0
370
    -2
100
AcDbLine
 10
-1.0
 20
0.1666666666666667
 30
0.0
 11
0.0
 21
0.0
 31
0.0
  0
LINE
  5
2EE
330
2EB
100
AcDbEntity
  8
0
  6
ByBlock
 62
     0
370
    -2
100
AcDbLine
 10
-1.0
 20
-0.1666666666666667
 30
0.0
 11
0.0
 21
0.0
 31
0.0
  0
LINE
  5
2EF
330
2EB
100
AcDbEntity
  8
0
  6
ByBlock
 62
     0
370
    -2
100
AcDbLine
 10
0.0
 20
0.0
 30
0.0
 11
-1.0
 21
0.0
 31
0.0
  0
ENDBLK
  5
2F0
330
2EB
100
AcDbEntity
  8
0
370
    -1
100
AcDbBlockEnd
  0
BLOCK
  5
A2F
330
A2E
100
AcDbEntity
  8
0
100
AcDbBlockBegin
  2
A$C18BE6784
 70
     0
 10
0.0
 20
0.0
 30
0.0
  3
A$C18BE6784
  1

  0
LWPOLYLINE
  5
A30
330
A2E
100
AcDbEntity
  8
WAKU
  6
Continuous
 62
     6
100
AcDbPolyline
 90
        4
 70
     1
 43
0.0
 10
0.000000577963533
 20
-0.0000003139069804
 10
420.0000003174217
 20
-0.0000003139069804
 10
420.0000003174217
 20
296.9999995014522
 10
0.000000577963533
 20
296.9999995014522
  0
LWPOLYLINE
  5
A31
330
A2E
100
AcDbEntity
  8
WAKU
  6
Continuous
 62
     7
100
AcDbPolyline
 90
        4
 70
     1
 43
0.4
 10
19.00000057796353
 20
9.499999678967619
 10
19.00000057796353
 20
274.9999995147737
 10
407.5000003254767
 20
274.9999995147737
 10
407.5000003254765
 20
9.499999678967619
  0
LWPOLYLINE
  5
A32
330
A2E
100
AcDbEntity
  8
WAKU
  6
Continuous
 62
     7
100
AcDbPolyline
 90
        2
 70
     0
 43
0.4
 10
19.00000057796353
 20
27.49999966781482
 10
407.5000003254765
 20
27.49999966781483
  0
TEXT
  5
A33
330
A2E
100
AcDbEntity
  8
L-ZISSEN
100
AcDbText
 10
202.171533514541
 20
15.90702730875448
 30
0.0
 40
6.0
  1
Azbil TA Co.,Ltd.
  7
ｽﾀｲﾙ2
 72
     4
 11
232.7500004396379
 21
18.49999967339122
 31
0.0
100
AcDbText
  0
LINE
  5
A34
330
A2E
100
AcDbEntity
  8
WAKU
  6
Continuous
100
AcDbLine
 10
19.00000057796353
 20
18.49999967339122
 30
0.0
 11
199.0000004664356
 21
18.49999967339122
 31
0.0
  0
LINE
  5
A35
330
A2E
100
AcDbEntity
  8
WAKU
  6
Continuous
100
AcDbLine
 10
19.00000057796353
 20
13.99999967617942
 30
0.0
 11
199.0000004664356
 21
13.99999967617942
 31
0.0
  0
LINE
  5
A36
330
A2E
100
AcDbEntity
  8
WAKU
  6
Continuous
100
AcDbLine
 10
19.00000057796353
 20
22.99999967060302
 30
0.0
 11
199.0000004664356
 21
22.99999967060302
 31
0.0
  0
INSERT
  5
A37
330
A2E
100
AcDbEntity
  8
WAKU
  6
Continuous
100
AcDbBlockReference
  2
A$C1AC42AA4
 10
20.00000053935048
 20
6.499999650840095
 30
0.0
  0
TEXT
  5
A3C
330
A2E
100
AcDbEntity
  8
WAKU
  6
Continuous
100
AcDbText
 10
22.7500005756401
 20
19.99999967246181
 30
0.0
 40
1.4999999990706
  1
REVISIONS
 72
     4
 11
29.0000005717676
 21
20.74999967199712
 31
0.0
100
AcDbText
  0
TEXT
  5
A3D
330
A2E
100
AcDbEntity
  8
WAKU
  6
Continuous
100
AcDbText
 10
27.7500005725421
 20
10.99999967803823
 30
0.0
 40
1.4999999990706
  1
BY
 72
     4
 11
29.0000005717676
 21
11.74999967757353
 31
0.0
100
AcDbText
  0
TEXT
  5
A3E
330
A2E
100
AcDbEntity
  8
WAKU
  6
Continuous
100
AcDbText
 10
26.2500005734715
 20
15.49999967525002
 30
0.0
 40
1.4999999990706
  1
DATE
 72
     4
 11
29.0000005717676
 21
16.24999967478532
 31
0.0
100
AcDbText
  0
TEXT
  5
A3F
330
A2E
100
AcDbEntity
  8
WAKU
  6
Continuous
100
AcDbText
 10
26.7500005731617
 20
24.49999966967362
 30
0.0
 40
1.4999999990706
  1
CHG.
 72
     4
 11
29.0000005717676
 21
25.24999966920892
 31
0.0
100
AcDbText
  0
LWPOLYLINE
  5
A40
330
A2E
100
AcDbEntity
  8
WAKU
  6
Continuous
 62
     7
100
AcDbPolyline
 90
        2
 70
     0
 43
0.4
 10
39.00000056557155
 20
9.499999678967626
 10
39.00000056557155
 20
27.49999966781482
  0
LINE
  5
A41
330
A2E
100
AcDbEntity
  8
WAKU
  6
Continuous
100
AcDbLine
 10
59.00000055317958
 20
9.499999678967626
 30
0.0
 11
59.00000055317958
 21
27.49999966781482
 31
0.0
  0
LWPOLYLINE
  5
A42
330
A2E
100
AcDbEntity
  8
WAKU
  6
Continuous
100
AcDbPolyline
 90
        2
 70
     1
 43
0.25
 10
45.37500055317958
 20
14.99999967617942
 42
1.0
 10
45.62500055317958
 20
14.99999967617942
 42
1.0
  0
LWPOLYLINE
  5
A43
330
A2E
100
AcDbEntity
  8
WAKU
  6
Continuous
100
AcDbPolyline
 90
        2
 70
     1
 43
0.25
 10
52.37500055317958
 20
14.99999967617942
 42
1.0
 10
52.62500055317958
 20
14.99999967617942
 42
1.0
  0
LWPOLYLINE
  5
A44
330
A2E
100
AcDbEntity
  8
WAKU
  6
Continuous
100
AcDbPolyline
 90
        2
 70
     1
 43
0.25
 10
65.37500054078748
 20
14.99999967617942
 42
1.0
 10
65.62500054078748
 20
14.99999967617942
 42
1.0
  0
LWPOLYLINE
  5
A45
330
A2E
100
AcDbEntity
  8
WAKU
  6
Continuous
100
AcDbPolyline
 90
        2
 70
     1
 43
0.25
 10
72.37500054078748
 20
14.99999967617942
 42
1.0
 10
72.62500054078748
 20
14.99999967617942
 42
1.0
  0
LINE
  5
A46
330
A2E
100
AcDbEntity
  8
WAKU
  6
Continuous
100
AcDbLine
 10
79.00000054078748
 20
9.499999678967626
 30
0.0
 11
79.00000054078748
 21
27.49999966781482
 31
0.0
  0
LINE
  5
A47
330
A2E
100
AcDbEntity
  8
WAKU
  6
Continuous
100
AcDbLine
 10
99.00000052839562
 20
9.499999678967626
 30
0.0
 11
99.00000052839562
 21
27.49999966781482
 31
0.0
  0
LWPOLYLINE
  5
A48
330
A2E
100
AcDbEntity
  8
WAKU
  6
Continuous
100
AcDbPolyline
 90
        2
 70
     1
 43
0.25
 10
92.37500052839562
 20
14.99999967617942
 42
1.0
 10
92.62500052839562
 20
14.99999967617942
 42
1.0
  0
LWPOLYLINE
  5
A49
330
A2E
100
AcDbEntity
  8
WAKU
  6
Continuous
100
AcDbPolyline
 90
        2
 70
     1
 43
0.25
 10
85.37500052839562
 20
14.99999967617942
 42
1.0
 10
85.62500052839562
 20
14.99999967617942
 42
1.0
  0
LWPOLYLINE
  5
A4A
330
A2E
100
AcDbEntity
  8
WAKU
  6
Continuous
100
AcDbPolyline
 90
        2
 70
     1
 43
0.25
 10
105.3750005160035
 20
14.99999967617942
 42
1.0
 10
105.6250005160035
 20
14.99999967617942
 42
1.0
  0
LWPOLYLINE
  5
A4B
330
A2E
100
AcDbEntity
  8
WAKU
  6
Continuous
100
AcDbPolyline
 90
        2
 70
     1
 43
0.25
 10
112.3750005160035
 20
14.99999967617942
 42
1.0
 10
112.6250005160035
 20
14.99999967617942
 42
1.0
  0
LINE
  5
A4C
330
A2E
100
AcDbEntity
  8
WAKU
  6
Continuous
100
AcDbLine
 10
119.0000005160035
 20
9.499999678967626
 30
0.0
 11
119.0000005160035
 21
27.49999966781482
 31
0.0
  0
LINE
  5
A4D
330
A2E
100
AcDbEntity
  8
WAKU
  6
Continuous
100
AcDbLine
 10
139.0000005036115
 20
9.499999678967626
 30
0.0
 11
139.0000005036115
 21
27.49999966781482
 31
0.0
  0
LWPOLYLINE
  5
A4E
330
A2E
100
AcDbEntity
  8
WAKU
  6
Continuous
100
AcDbPolyline
 90
        2
 70
     1
 43
0.25
 10
132.3750005036115
 20
14.99999967617942
 42
1.0
 10
132.6250005036115
 20
14.99999967617942
 42
1.0
  0
LWPOLYLINE
  5
A4F
330
A2E
100
AcDbEntity
  8
WAKU
  6
Continuous
100
AcDbPolyline
 90
        2
 70
     1
 43
0.25
 10
125.3750005036115
 20
14.99999967617942
 42
1.0
 10
125.6250005036115
 20
14.99999967617942
 42
1.0
  0
LWPOLYLINE
  5
A50
330
A2E
100
AcDbEntity
  8
WAKU
  6
Continuous
100
AcDbPolyline
 90
        2
 70
     1
 43
0.25
 10
145.3750004912196
 20
14.99999967617942
 42
1.0
 10
145.6250004912196
 20
14.99999967617942
 42
1.0
  0
LWPOLYLINE
  5
A51
330
A2E
100
AcDbEntity
  8
WAKU
  6
Continuous
100
AcDbPolyline
 90
        2
 70
     1
 43
0.25
 10
152.3750004912196
 20
14.99999967617942
 42
1.0
 10
152.6250004912196
 20
14.99999967617942
 42
1.0
  0
LWPOLYLINE
  5
A52
330
A2E
100
AcDbEntity
  8
WAKU
  6
Continuous
100
AcDbPolyline
 90
        2
 70
     1
 43
0.25
 10
192.3750004664356
 20
14.99999967617942
 42
1.0
 10
192.6250004664356
 20
14.99999967617942
 42
1.0
  0
LINE
  5
A53
330
A2E
100
AcDbEntity
  8
WAKU
  6
Continuous
100
AcDbLine
 10
159.0000004912196
 20
9.499999678967626
 30
0.0
 11
159.0000004912196
 21
27.49999966781482
 31
0.0
  0
LINE
  5
A54
330
A2E
100
AcDbEntity
  8
WAKU
  6
Continuous
100
AcDbLine
 10
179.0000004788276
 20
9.499999678967626
 30
0.0
 11
179.0000004788276
 21
27.49999966781482
 31
0.0
  0
LWPOLYLINE
  5
A55
330
A2E
100
AcDbEntity
  8
WAKU
  6
Continuous
100
AcDbPolyline
 90
        2
 70
     1
 43
0.25
 10
172.3750004788276
 20
14.99999967617942
 42
1.0
 10
172.6250004788276
 20
14.99999967617942
 42
1.0
  0
LWPOLYLINE
  5
A56
330
A2E
100
AcDbEntity
  8
WAKU
  6
Continuous
100
AcDbPolyline
 90
        2
 70
     1
 43
0.25
 10
165.3750004788276
 20
14.99999967617942
 42
1.0
 10
165.6250004788276
 20
14.99999967617942
 42
1.0
  0
LWPOLYLINE
  5
A57
330
A2E
100
AcDbEntity
  8
WAKU
  6
Continuous
100
AcDbPolyline
 90
        2
 70
     1
 43
0.25
 10
185.3750004664356
 20
14.99999967617942
 42
1.0
 10
185.6250004664356
 20
14.99999967617942
 42
1.0
  0
LWPOLYLINE
  5
A58
330
A2E
100
AcDbEntity
  8
WAKU
  6
Continuous
 62
     7
100
AcDbPolyline
 90
        2
 70
     0
 43
0.4
 10
199.0000004664356
 20
9.499999678967626
 10
199.0000004664356
 20
27.49999966781482
  0
TEXT
  5
A59
330
A2E
100
AcDbEntity
  8
WAKU
  6
Continuous
100
AcDbText
 10
386.200000338674
 20
6.49999968082642
 30
0.0
 40
1.4999999990706
  1
DIMENSIONS-mm-
100
AcDbText
  0
LWPOLYLINE
  5
A5A
330
A2E
100
AcDbEntity
  8
WAKU
  6
Continuous
 62
     7
100
AcDbPolyline
 90
        2
 70
     0
 43
0.4
 10
266.5000004128402
 20
18.49999967339122
 10
407.5000003254765
 20
18.49999967339122
  0
LINE
  5
A5B
330
A2E
100
AcDbEntity
  8
WAKU
  6
Continuous
100
AcDbLine
 10
266.5000004128402
 20
13.99999967617942
 30
0.0
 11
341.5000003663702
 21
13.99999967617943
 31
0.0
  0
TEXT
  5
A5C
330
A2E
100
AcDbEntity
  8
WAKU
  6
Continuous
100
AcDbText
 10
268.0000004119107
 20
24.49999966967363
 30
0.0
 40
1.4999999990706
  1
NAME
100
AcDbText
  0
TEXT
  5
A5D
330
A2E
100
AcDbEntity
  8
WAKU
  6
Continuous
100
AcDbText
 10
268.0000004119107
 20
15.49999967525002
 30
0.0
 40
1.4999999990706
  1
APP'D
100
AcDbText
  0
TEXT
  5
A5E
330
A2E
100
AcDbEntity
  8
WAKU
  6
Continuous
100
AcDbText
 10
268.0000004119107
 20
10.99999967803822
 30
0.0
 40
1.4999999990706
  1
DATE
100
AcDbText
  0
LWPOLYLINE
  5
A5F
330
A2E
100
AcDbEntity
  8
WAKU
  6
Continuous
 62
     7
100
AcDbPolyline
 90
        2
 70
     0
 43
0.4
 10
266.5000004128402
 20
9.499999678967619
 10
266.5000004128402
 20
27.49999966781483
  0
LWPOLYLINE
  5
A60
330
A2E
100
AcDbEntity
  8
WAKU
  6
Continuous
100
AcDbPolyline
 90
        2
 70
     1
 43
0.25
 10
280.3750003973502
 20
10.49999967896762
 42
1.0
 10
280.6250003973502
 20
10.49999967896762
 42
1.0
  0
LWPOLYLINE
  5
A61
330
A2E
100
AcDbEntity
  8
WAKU
  6
Continuous
100
AcDbPolyline
 90
        2
 70
     1
 43
0.25
 10
285.8750003973502
 20
10.49999967896762
 42
1.0
 10
286.1250003973502
 20
10.49999967896762
 42
1.0
  0
LWPOLYLINE
  5
A62
330
A2E
100
AcDbEntity
  8
WAKU
  6
Continuous
 62
     7
100
AcDbPolyline
 90
        2
 70
     0
 43
0.4
 10
291.5000003973502
 20
9.499999678967619
 10
291.5000003973502
 20
18.49999967339122
  0
TEXT
  5
A63
330
A2E
100
AcDbEntity
  8
WAKU
  6
Continuous
100
AcDbText
 10
293.0000003964208
 20
10.99999967803822
 30
0.0
 40
1.4999999990706
  1
DATE
100
AcDbText
  0
LWPOLYLINE
  5
A64
330
A2E
100
AcDbEntity
  8
WAKU
  6
Continuous
100
AcDbPolyline
 90
        2
 70
     1
 43
0.25
 10
305.3750003818601
 20
10.49999967896762
 42
1.0
 10
305.6250003818601
 20
10.49999967896762
 42
1.0
  0
TEXT
  5
A65
330
A2E
100
AcDbEntity
  8
WAKU
  6
Continuous
100
AcDbText
 10
293.0000003964208
 20
15.49999967525002
 30
0.0
 40
1.4999999990706
  1
CH'D
100
AcDbText
  0
TEXT
  5
A66
330
A2E
100
AcDbEntity
  8
WAKU
  6
Continuous
100
AcDbText
 10
346.0000003635819
 20
15.49999967525002
 30
0.0
 40
1.4999999990706
  1
SCALE
 72
     1
 11
349.5000003614133
 21
15.49999967525002
 31
0.0
100
AcDbText
  0
LWPOLYLINE
  5
A67
330
A2E
100
AcDbEntity
  8
WAKU
  6
Continuous
 62
     7
100
AcDbPolyline
 90
        2
 70
     0
 43
0.4
 10
316.5000003818601
 20
9.499999678967619
 10
316.5000003818601
 20
18.49999967339122
  0
TEXT
  5
A68
330
A2E
100
AcDbEntity
  8
WAKU
  6
Continuous
100
AcDbText
 10
318.0000003809308
 20
10.99999967803822
 30
0.0
 40
1.4999999990706
  1
DATE
100
AcDbText
  0
LWPOLYLINE
  5
A69
330
A2E
100
AcDbEntity
  8
WAKU
  6
Continuous
100
AcDbPolyline
 90
        2
 70
     1
 43
0.25
 10
310.8750003818601
 20
10.49999967896762
 42
1.0
 10
311.1250003818601
 20
10.49999967896762
 42
1.0
  0
TEXT
  5
A6A
330
A2E
100
AcDbEntity
  8
WAKU
  6
Continuous
100
AcDbText
 10
318.0000003809308
 20
15.49999967525002
 30
0.0
 40
1.4999999990706
  1
DR'N
100
AcDbText
  0
LWPOLYLINE
  5
A6B
330
A2E
100
AcDbEntity
  8
WAKU
  6
Continuous
 62
     7
100
AcDbPolyline
 90
        2
 70
     0
 43
0.4
 10
341.5000003663702
 20
9.499999678967619
 10
341.5000003663702
 20
18.49999967339122
  0
LWPOLYLINE
  5
A6C
330
A2E
100
AcDbEntity
  8
WAKU
  6
Continuous
100
AcDbPolyline
 90
        2
 70
     1
 43
0.25
 10
335.8750003663702
 20
10.49999967896762
 42
1.0
 10
336.1250003663702
 20
10.49999967896762
 42
1.0
  0
LWPOLYLINE
  5
A6D
330
A2E
100
AcDbEntity
  8
WAKU
  6
Continuous
100
AcDbPolyline
 90
        2
 70
     1
 43
0.25
 10
330.3750003663702
 20
10.49999967896762
 42
1.0
 10
330.6250003663702
 20
10.49999967896762
 42
1.0
  0
LWPOLYLINE
  5
A6E
330
A2E
100
AcDbEntity
  8
WAKU
  6
Continuous
 62
     7
100
AcDbPolyline
 90
        2
 70
     0
 43
0.4
 10
357.5000003564566
 20
9.499999678967619
 10
357.5000003564566
 20
27.49999966781483
  0
TEXT
  5
A6F
330
A2E
100
AcDbEntity
  8
WAKU
  6
Continuous
100
AcDbText
 10
359.0000003555272
 20
15.49999967525002
 30
0.0
 40
1.4999999990706
  1
DWG.No.
100
AcDbText
  0
TEXT
  5
A70
330
A2E
100
AcDbEntity
  8
WAKU
  6
Continuous
100
AcDbText
 10
359.0000003555272
 20
24.49999966967363
 30
0.0
 40
1.4999999990706
  1
TYPE
100
AcDbText
  0
LINE
  5
A71
330
A2E
100
AcDbEntity
  8
WAKU
  6
Continuous
 62
     7
100
AcDbLine
 10
30.20000057796358
 20
278.3999995147736
 30
0.0
 11
38.50000057796353
 21
279.2999995147737
 31
0.0
  0
LINE
  5
A72
330
A2E
100
AcDbEntity
  8
WAKU
  6
Continuous
 62
     7
100
AcDbLine
 10
30.20000057796358
 20
276.5999995147737
 30
0.0
 11
38.50000057796353
 21
275.6999995147737
 31
0.0
  0
LINE
  5
A73
330
A2E
100
AcDbEntity
  8
WAKU
  6
Continuous
 48
0.5
100
AcDbLine
 10
22.45000057796358
 20
277.4999995147737
 30
0.0
 11
40.95000057796358
 21
277.4999995147737
 31
0.0
  0
LINE
  5
A74
330
A2E
100
AcDbEntity
  8
WAKU
  6
Continuous
100
AcDbLine
 10
19.00000057796353
 20
279.9999995147737
 30
0.0
 11
44.40000057796351
 21
279.9999995147737
 31
0.0
  0
CIRCLE
  5
A75
330
A2E
100
AcDbEntity
  8
WAKU
  6
Continuous
 62
     7
100
AcDbCircle
 10
26.00000057796353
 20
277.4999995147737
 30
0.0
 40
1.8
  0
LINE
  5
A76
330
A2E
100
AcDbEntity
  8
WAKU
  6
Continuous
100
AcDbLine
 10
26.00000057796353
 20
279.4999995147737
 30
0.0
 11
26.00000057796353
 21
275.4999995147737
 31
0.0
  0
LINE
  5
A77
330
A2E
100
AcDbEntity
  8
WAKU
  6
Continuous
100
AcDbLine
 10
19.00000057796353
 20
279.9999995147737
 30
0.0
 11
19.00000057796353
 21
274.9999995147737
 31
0.0
  0
CIRCLE
  5
A78
330
A2E
100
AcDbEntity
  8
WAKU
  6
Continuous
 62
     7
100
AcDbCircle
 10
26.00000057796353
 20
277.4999995147737
 30
0.0
 40
0.9
  0
LINE
  5
A79
330
A2E
100
AcDbEntity
  8
WAKU
  6
Continuous
 62
     7
100
AcDbLine
 10
30.20000057796358
 20
276.5999995147737
 30
0.0
 11
30.20000057796358
 21
278.3999995147736
 31
0.0
  0
LINE
  5
A7A
330
A2E
100
AcDbEntity
  8
WAKU
  6
Continuous
 62
     7
100
AcDbLine
 10
38.50000057796353
 20
275.6999995147737
 30
0.0
 11
38.50000057796353
 21
279.2999995147736
 31
0.0
  0
LINE
  5
A7B
330
A2E
100
AcDbEntity
  8
WAKU
  6
Continuous
100
AcDbLine
 10
44.40000057796351
 20
279.9999995147737
 30
0.0
 11
44.40000057796351
 21
274.9999995147737
 31
0.0
  0
INSERT
  5
A7C
330
A2E
100
AcDbEntity
  8
WAKU
100
AcDbBlockReference
  2
JIS-SIMBOL-A3
 10
0.000000577963533
 20
-0.0000003139069804
 30
0.0
  0
ENDBLK
  5
A83
330
A2E
100
AcDbEntity
  8
0
100
AcDbBlockEnd
  0
BLOCK
  5
A39
330
A38
100
AcDbEntity
  8
0
370
    -1
100
AcDbBlockBegin
  2
A$C1AC42AA4
 70
     0
 10
0.0
 20
0.0
 30
0.0
  3
A$C1AC42AA4
  1

  0
TEXT
  5
A3A
330
A38
100
AcDbEntity
  8
WAKU
370
    -1
100
AcDbText
 10
0.0000000386130559
 20
0.0000000281275234
 30
0.0
 40
2.0
  1
書式:BP-96017A
 11
0.0000000386130559
 21
1.000000028127523
 31
0.0
100
AcDbText
 73
     2
  0
ENDBLK
  5
A3B
330
A38
100
AcDbEntity
  8
0
370
    -1
100
AcDbBlockEnd
  0
BLOCK
  5
A7E
330
A7D
100
AcDbEntity
  8
0
370
    -1
100
AcDbBlockBegin
  2
JIS-SIMBOL-A3
 70
     0
 10
0.0
 20
0.0
 30
0.0
  3
JIS-SIMBOL-A3
  1

  0
LINE
  5
A7F
330
A7D
100
AcDbEntity
  8
WAKU
370
    -1
100
AcDbLine
 10
407.4999997475131
 20
269.9999998317787
 30
0.0
 11
351.4999997822106
 21
269.9999998317787
 31
0.0
  0
TEXT
  5
A80
330
A7D
100
AcDbEntity
  8
WAKU
370
    -1
100
AcDbText
 10
372.4999997691991
 20
271.7499998306944
 30
0.0
 40
1.4999999990706
  1
JIS SYMBOL
 72
     4
 11
379.4999997648619
 21
272.4999998302297
 31
0.0
100
AcDbText
  0
LINE
  5
A81
330
A7D
100
AcDbEntity
  8
WAKU
370
    -1
100
AcDbLine
 10
351.4999997822107
 20
274.9999998286807
 30
0.0
 11
351.4999997822106
 21
269.9999998317787
 31
0.0
  0
ENDBLK
  5
A82
330
A7D
100
AcDbEntity
  8
0
370
    -1
100
AcDbBlockEnd
  0
ENDSEC
  0
SECTION
  2
ENTITIES
  0
LINE
  5
25C9
330
18
100
AcDbEntity
  8
L-ZISSEN
100
AcDbLine
 10
1443.676029785923
 20
-1362.697939535143
 30
0.0
 11
1443.676029785923
 21
-1367.997939535143
 31
0.0
  0
LINE
  5
25CA
330
18
100
AcDbEntity
  8
L-ZISSEN
100
AcDbLine
 10
1521.676029785923
 20
-1362.697939535143
 30
0.0
 11
1521.676029785923
 21
-1367.997939535143
 31
0.0
  0
LINE
  5
25CB
330
18
100
AcDbEntity
  8
L-ZISSEN
  6
Continuous
 62
     7
100
AcDbLine
 10
1519.176029785923
 20
-1390.767635542229
 30
0.0
 11
1519.176029785923
 21
-1377.328066554065
 31
0.0
  0
LINE
  5
25CC
330
18
100
AcDbEntity
  8
L-ZISSEN
  6
Continuous
 62
     7
100
AcDbLine
 10
1521.676029785923
 20
-1367.997939535143
 30
0.0
 11
1519.176029785923
 21
-1377.328066554065
 31
0.0
  0
LINE
  5
25CD
330
18
100
AcDbEntity
  8
L-ZISSEN
100
AcDbLine
 10
1515.676029785923
 20
-1390.767635542229
 30
0.0
 11
1519.176029785923
 21
-1390.767635542229
 31
0.0
  0
LINE
  5
25CE
330
18
100
AcDbEntity
  8
L-ZISSEN
100
AcDbLine
 10
1449.676029785923
 20
-1390.767635542229
 30
0.0
 11
1446.176029785923
 21
-1390.767635542229
 31
0.0
  0
LINE
  5
25CF
330
18
100
AcDbEntity
  8
L-ZISSEN
  6
Continuous
 62
     7
100
AcDbLine
 10
1434.176029785923
 20
-1455.997939535143
 30
0.0
 11
1441.676029785923
 21
-1455.997939535143
 31
0.0
  0
LINE
  5
25D0
330
18
100
AcDbEntity
  8
L-ZISSEN
  6
Continuous
 62
     7
100
AcDbLine
 10
1434.176029785923
 20
-1455.997939535143
 30
0.0
 11
1434.176029785923
 21
-1445.997939535143
 31
0.0
  0
LINE
  5
25D1
330
18
100
AcDbEntity
  8
L-ZISSEN
  6
Continuous
 62
     7
100
AcDbLine
 10
1426.676029785923
 20
-1447.497939535143
 30
0.0
 11
1434.176029785923
 21
-1447.497939535143
 31
0.0
  0
LINE
  5
25D2
330
18
100
AcDbEntity
  8
L-ZISSEN
  6
Continuous
 62
     7
100
AcDbLine
 10
1509.676029785923
 20
-1476.997939535144
 30
0.0
 11
1509.676029785923
 21
-1469.497939535144
 31
0.0
  0
LINE
  5
25D3
330
18
100
AcDbEntity
  8
L-ZISSEN
  6
Continuous
 62
     7
100
AcDbLine
 10
1499.676029785923
 20
-1476.997939535144
 30
0.0
 11
1509.676029785923
 21
-1476.997939535144
 31
0.0
  0
LINE
  5
25D4
330
18
100
AcDbEntity
  8
L-ZISSEN
  6
Continuous
 62
     7
100
AcDbLine
 10
1499.676029785923
 20
-1476.997939535144
 30
0.0
 11
1499.676029785923
 21
-1469.497939535144
 31
0.0
  0
LINE
  5
25D5
330
18
100
AcDbEntity
  8
L-TYUSIN
  6
CENTER
 62
     1
100
AcDbLine
 10
1421.676029785923
 20
-1424.997939535143
 30
0.0
 11
1543.676029785923
 21
-1424.997939535143
 31
0.0
  0
LINE
  5
25D6
330
18
100
AcDbEntity
  8
L-TYUSIN
  6
CENTER
 62
     1
100
AcDbLine
 10
1509.676029785923
 20
-1390.997939535143
 30
0.0
 11
1455.676029785923
 21
-1390.997939535143
 31
0.0
  0
LINE
  5
25D7
330
18
100
AcDbEntity
  8
L-ZISSEN
  6
Continuous
 62
     7
100
AcDbLine
 10
1552.676029785923
 20
-1362.997939535143
 30
0.0
 11
1412.676029785923
 21
-1362.997939535143
 31
0.0
  0
LINE
  5
25D8
330
18
100
AcDbEntity
  8
L-ZISSEN
  6
Continuous
 62
     7
100
AcDbLine
 10
1455.676029785923
 20
-1476.997939535144
 30
0.0
 11
1455.676029785923
 21
-1469.497939535144
 31
0.0
  0
LINE
  5
25D9
330
18
100
AcDbEntity
  8
L-ZISSEN
  6
Continuous
 62
     7
100
AcDbLine
 10
1455.676029785923
 20
-1476.997939535144
 30
0.0
 11
1465.676029785923
 21
-1476.997939535144
 31
0.0
  0
LINE
  5
25DA
330
18
100
AcDbEntity
  8
L-ZISSEN
  6
Continuous
 62
     7
100
AcDbLine
 10
1465.676029785923
 20
-1476.997939535144
 30
0.0
 11
1465.676029785923
 21
-1469.497939535144
 31
0.0
  0
LINE
  5
25DB
330
18
100
AcDbEntity
  8
L-ZISSEN
  6
Continuous
 62
     7
100
AcDbLine
 10
1465.676029785923
 20
-1472.497939535144
 30
0.0
 11
1499.676029785923
 21
-1472.497939535144
 31
0.0
  0
LINE
  5
25DC
330
18
100
AcDbEntity
  8
L-ZISSEN
  6
Continuous
 62
     7
100
AcDbLine
 10
1454.676029785923
 20
-1469.497939535144
 30
0.0
 11
1510.676029785923
 21
-1469.497939535144
 31
0.0
  0
CIRCLE
  5
25DD
330
18
100
AcDbEntity
  8
L-ZISSEN
  6
Continuous
 62
     7
100
AcDbCircle
 10
1508.676029785923
 20
-1412.997939535143
 30
0.0
 40
5.0
  0
CIRCLE
  5
25DE
330
18
100
AcDbEntity
  8
L-ZISSEN
  6
Continuous
 62
     7
100
AcDbCircle
 10
1456.676029785923
 20
-1412.997939535143
 30
0.0
 40
5.0
  0
CIRCLE
  5
25DF
330
18
100
AcDbEntity
  8
L-ZISSEN
  6
Continuous
 62
     7
100
AcDbCircle
 10
1508.676029785923
 20
-1368.997939535143
 30
0.0
 40
5.0
  0
LINE
  5
25E0
330
18
100
AcDbEntity
  8
L-ZISSEN
  6
Continuous
 62
     7
100
AcDbLine
 10
1441.676029785923
 20
-1391.997939535143
 30
0.0
 11
1449.676029785923
 21
-1391.997939535143
 31
0.0
  0
LINE
  5
25E1
330
18
100
AcDbEntity
  8
L-ZISSEN
  6
Continuous
 62
     7
100
AcDbLine
 10
1426.676029785923
 20
-1447.497939535143
 30
0.0
 11
1426.676029785923
 21
-1402.497939535143
 31
0.0
  0
LINE
  5
25E2
330
18
100
AcDbEntity
  8
L-ZISSEN
  6
Continuous
 62
     7
100
AcDbLine
 10
1441.676029785923
 20
-1457.997939535143
 30
0.0
 11
1441.676029785923
 21
-1391.997939535143
 31
0.0
  0
LINE
  5
25E3
330
18
100
AcDbEntity
  8
L-ZISSEN
  6
Continuous
 62
     7
100
AcDbLine
 10
1434.176029785923
 20
-1393.997939535143
 30
0.0
 11
1434.176029785923
 21
-1403.997939535143
 31
0.0
  0
LINE
  5
25E4
330
18
100
AcDbEntity
  8
L-ZISSEN
  6
Continuous
 62
     7
100
AcDbLine
 10
1434.176029785923
 20
-1393.997939535143
 30
0.0
 11
1441.676029785923
 21
-1393.997939535143
 31
0.0
  0
CIRCLE
  5
25E5
330
18
100
AcDbEntity
  8
L-ZISSEN
  6
Continuous
 62
     7
100
AcDbCircle
 10
1456.676029785923
 20
-1368.997939535143
 30
0.0
 40
5.0
  0
CIRCLE
  5
25E6
330
18
100
AcDbEntity
  8
L-ZISSEN
  6
Continuous
 62
     7
100
AcDbCircle
 10
1482.676029785923
 20
-1390.997939535143
 30
0.0
 40
22.5
  0
LINE
  5
25E7
330
18
100
AcDbEntity
  8
L-ZISSEN
  6
Continuous
 62
     7
100
AcDbLine
 10
1449.676029785923
 20
-1362.697939535143
 30
0.0
 11
1449.676029785923
 21
-1457.997939535143
 31
0.0
  0
LINE
  5
25E8
330
18
100
AcDbEntity
  8
L-ZISSEN
  6
Continuous
 62
     7
100
AcDbLine
 10
1515.676029785923
 20
-1362.697939535143
 30
0.0
 11
1515.676029785923
 21
-1457.997939535143
 31
0.0
  0
LINE
  5
25E9
330
18
100
AcDbEntity
  8
L-ZISSEN
  6
Continuous
 62
     7
100
AcDbLine
 10
1449.676029785923
 20
-1418.997939535143
 30
0.0
 11
1515.676029785923
 21
-1418.997939535143
 31
0.0
  0
LINE
  5
25EA
330
18
100
AcDbEntity
  8
L-ZISSEN
  6
Continuous
 62
     7
100
AcDbLine
 10
1454.676029785923
 20
-1457.997939535143
 30
0.0
 11
1441.676029785923
 21
-1457.997939535143
 31
0.0
  0
LINE
  5
25EB
330
18
100
AcDbEntity
  8
L-ZISSEN
  6
Continuous
 62
     7
100
AcDbLine
 10
1454.676029785923
 20
-1469.497939535144
 30
0.0
 11
1454.676029785923
 21
-1457.997939535143
 31
0.0
  0
LINE
  5
25EC
330
18
100
AcDbEntity
  8
L-ZISSEN
  6
Continuous
 62
     7
100
AcDbLine
 10
1443.676029785923
 20
-1367.997939535143
 30
0.0
 11
1446.176029785923
 21
-1377.328066554065
 31
0.0
  0
LINE
  5
25ED
330
18
100
AcDbEntity
  8
L-ZISSEN
  6
Continuous
 62
     7
100
AcDbLine
 10
1446.176029785923
 20
-1390.767635542229
 30
0.0
 11
1446.176029785923
 21
-1377.328066554065
 31
0.0
  0
LINE
  5
25EE
330
18
100
AcDbEntity
  8
L-ZISSEN
  6
Continuous
 62
     7
100
AcDbLine
 10
1510.676029785923
 20
-1469.497939535144
 30
0.0
 11
1510.676029785923
 21
-1457.997939535143
 31
0.0
  0
LINE
  5
25EF
330
18
100
AcDbEntity
  8
L-ZISSEN
  6
Continuous
 62
     7
100
AcDbLine
 10
1454.676029785923
 20
-1464.997939535143
 30
0.0
 11
1510.676029785923
 21
-1464.997939535143
 31
0.0
  0
CIRCLE
  5
25F0
330
18
100
AcDbEntity
  8
L-ZISSEN
100
AcDbCircle
 10
1482.676029785923
 20
-1390.997939535143
 30
0.0
 40
15.1455
  0
LINE
  5
25F1
330
18
100
AcDbEntity
  8
L-ZISSEN
  6
Continuous
 62
     7
100
AcDbLine
 10
1434.176029785923
 20
-1445.997939535143
 30
0.0
 11
1441.676029785923
 21
-1445.997939535143
 31
0.0
  0
LINE
  5
25F2
330
18
100
AcDbEntity
  8
L-ZISSEN
  6
Continuous
 62
     7
100
AcDbLine
 10
1434.176029785923
 20
-1403.997939535143
 30
0.0
 11
1441.676029785923
 21
-1403.997939535143
 31
0.0
  0
LINE
  5
25F3
330
18
100
AcDbEntity
  8
L-ZISSEN
  6
Continuous
 62
     7
100
AcDbLine
 10
1426.676029785923
 20
-1402.497939535143
 30
0.0
 11
1434.176029785923
 21
-1402.497939535143
 31
0.0
  0
LINE
  5
25F4
330
18
100
AcDbEntity
  8
L-ZISSEN
  6
Continuous
 62
     7
100
AcDbLine
 10
1538.676029785923
 20
-1402.497939535143
 30
0.0
 11
1531.176029785923
 21
-1402.497939535143
 31
0.0
  0
LINE
  5
25F5
330
18
100
AcDbEntity
  8
L-ZISSEN
  6
Continuous
 62
     7
100
AcDbLine
 10
1531.176029785923
 20
-1403.997939535143
 30
0.0
 11
1523.676029785923
 21
-1403.997939535143
 31
0.0
  0
LINE
  5
25F6
330
18
100
AcDbEntity
  8
L-ZISSEN
  6
Continuous
 62
     7
100
AcDbLine
 10
1531.176029785923
 20
-1445.997939535143
 30
0.0
 11
1523.676029785923
 21
-1445.997939535143
 31
0.0
  0
LINE
  5
25F7
330
18
100
AcDbEntity
  8
L-ZISSEN
  6
Continuous
 62
     7
100
AcDbLine
 10
1531.176029785923
 20
-1393.997939535143
 30
0.0
 11
1523.676029785923
 21
-1393.997939535143
 31
0.0
  0
LINE
  5
25F8
330
18
100
AcDbEntity
  8
L-ZISSEN
  6
Continuous
 62
     7
100
AcDbLine
 10
1531.176029785923
 20
-1393.997939535143
 30
0.0
 11
1531.176029785923
 21
-1403.997939535143
 31
0.0
  0
LINE
  5
25F9
330
18
100
AcDbEntity
  8
L-ZISSEN
  6
Continuous
 62
     7
100
AcDbLine
 10
1523.676029785923
 20
-1457.997939535143
 30
0.0
 11
1523.676029785923
 21
-1391.997939535143
 31
0.0
  0
LINE
  5
25FA
330
18
100
AcDbEntity
  8
L-ZISSEN
  6
Continuous
 62
     7
100
AcDbLine
 10
1538.676029785923
 20
-1447.497939535143
 30
0.0
 11
1538.676029785923
 21
-1402.497939535143
 31
0.0
  0
LINE
  5
25FB
330
18
100
AcDbEntity
  8
L-ZISSEN
  6
Continuous
 62
     7
100
AcDbLine
 10
1523.676029785923
 20
-1391.997939535143
 30
0.0
 11
1515.676029785923
 21
-1391.997939535143
 31
0.0
  0
LINE
  5
25FC
330
18
100
AcDbEntity
  8
L-ZISSEN
  6
Continuous
 62
     7
100
AcDbLine
 10
1538.676029785923
 20
-1447.497939535143
 30
0.0
 11
1531.176029785923
 21
-1447.497939535143
 31
0.0
  0
LINE
  5
25FD
330
18
100
AcDbEntity
  8
L-ZISSEN
  6
Continuous
 62
     7
100
AcDbLine
 10
1531.176029785923
 20
-1455.997939535143
 30
0.0
 11
1531.176029785923
 21
-1445.997939535143
 31
0.0
  0
LINE
  5
25FE
330
18
100
AcDbEntity
  8
L-ZISSEN
  6
Continuous
 62
     7
100
AcDbLine
 10
1531.176029785923
 20
-1455.997939535143
 30
0.0
 11
1523.676029785923
 21
-1455.997939535143
 31
0.0
  0
LINE
  5
25FF
330
18
100
AcDbEntity
  8
L-ZISSEN
  6
Continuous
 62
     7
100
AcDbLine
 10
1510.676029785923
 20
-1457.997939535143
 30
0.0
 11
1523.676029785923
 21
-1457.997939535143
 31
0.0
  0
SOLID
  5
2600
330
18
100
AcDbEntity
  8
L-ZISSEN
100
AcDbTrace
 10
1540.039247220797
 20
-1426.498855700813
 30
0.0
 11
1540.452343413183
 21
-1425.97560052379
 31
0.0
 12
1538.676029785923
 22
-1424.997939535143
 32
0.0
 13
1538.676029785923
 23
-1424.997939535143
 33
0.0
  0
LINE
  5
2601
330
18
100
AcDbEntity
  8
L-ZISSEN
100
AcDbLine
 10
1540.24579531699
 20
-1426.237228112302
 30
0.0
 11
1557.676029785923
 21
-1439.997939535144
 31
0.0
  0
LINE
  5
2602
330
18
100
AcDbEntity
  8
L-ZISSEN
100
AcDbLine
 10
1557.676029785923
 20
-1439.997939535144
 30
0.0
 11
1559.676029785923
 21
-1439.997939535144
 31
0.0
  0
TEXT
  5
2603
330
18
100
AcDbEntity
  8
L-ZISSEN
100
AcDbText
 10
1561.676029785923
 20
-1442.247939535144
 30
0.0
 40
4.5
  1
IN
100
AcDbText
  0
TEXT
  5
2604
330
18
100
AcDbEntity
  8
L-ZISSEN
100
AcDbText
 10
1562.676029785923
 20
-1449.997939535144
 30
0.0
 40
4.5
  1
Rc 1/2
100
AcDbText
  0
TEXT
  5
2605
330
18
100
AcDbEntity
  8
L-ZISSEN
100
AcDbText
 10
1562.676029785923
 20
-1459.997939535144
 30
0.0
 40
4.5
  1
Rc 3/4
100
AcDbText
  0
TEXT
  5
2606
330
18
100
AcDbEntity
  8
L-ZISSEN
100
AcDbText
 10
1562.676029785923
 20
-1469.997939535144
 30
0.0
 40
4.5
  1
Rc 1
100
AcDbText
  0
TEXT
  5
2607
330
18
100
AcDbEntity
  8
L-ZISSEN
100
AcDbText
 10
1562.676029785923
 20
-1479.997939535144
 30
0.0
 40
4.5
  1
Rc 1-1/4
100
AcDbText
  0
LINE
  5
2608
330
18
100
AcDbEntity
  8
L-ZISSEN
  6
Continuous
 62
     7
100
AcDbLine
 10
1521.676029785923
 20
-1362.997939535143
 30
0.0
 11
1443.676029785923
 21
-1362.997939535143
 31
0.0
  0
LINE
  5
2609
330
18
100
AcDbEntity
  8
L-TYUSIN
  6
CENTER
 62
     1
100
AcDbLine
 10
1550.176029785923
 20
-1384.997939535143
 30
0.0
 11
1520.176029785923
 21
-1384.997939535143
 31
0.0
  0
LINE
  5
260A
330
18
100
AcDbEntity
  8
L-TYUSIN
  6
CENTER
 62
     1
100
AcDbLine
 10
1542.676029785923
 20
-1377.497939535143
 30
0.0
 11
1542.676029785923
 21
-1392.497939535144
 31
0.0
  0
LINE
  5
260B
330
18
100
AcDbEntity
  8
L-TYUSIN
  6
CENTER
 62
     1
100
AcDbLine
 10
1527.676029785923
 20
-1377.497939535143
 30
0.0
 11
1527.676029785923
 21
-1392.497939535144
 31
0.0
  0
ARC
  5
260C
330
18
100
AcDbEntity
  8
L-ZISSEN
100
AcDbCircle
 10
1527.676029785923
 20
-1384.997939535143
 30
0.0
 40
3.5
100
AcDbArc
 50
90.0
 51
270.0
  0
ARC
  5
260D
330
18
100
AcDbEntity
  8
L-ZISSEN
100
AcDbCircle
 10
1542.676029785923
 20
-1384.997939535143
 30
0.0
 40
3.5
100
AcDbArc
 50
270.0
 51
90.0
  0
LINE
  5
260E
330
18
100
AcDbEntity
  8
L-ZISSEN
100
AcDbLine
 10
1527.676029785923
 20
-1388.497939535144
 30
0.0
 11
1542.676029785923
 21
-1388.497939535143
 31
0.0
  0
LINE
  5
260F
330
18
100
AcDbEntity
  8
L-ZISSEN
100
AcDbLine
 10
1527.676029785923
 20
-1381.497939535143
 30
0.0
 11
1542.676029785923
 21
-1381.497939535144
 31
0.0
  0
LINE
  5
2610
330
18
100
AcDbEntity
  8
L-ZISSEN
  6
Continuous
 62
     7
100
AcDbLine
 10
1552.676029785923
 20
-1404.997939535143
 30
0.0
 11
1538.676029785923
 21
-1404.997939535143
 31
0.0
  0
LINE
  5
2611
330
18
100
AcDbEntity
  8
L-ZISSEN
  6
Continuous
 62
     7
100
AcDbLine
 10
1426.676029785923
 20
-1404.997939535143
 30
0.0
 11
1412.676029785923
 21
-1404.997939535143
 31
0.0
  0
LINE
  5
2612
330
18
100
AcDbEntity
  8
L-ZISSEN
  6
Continuous
 62
     7
100
AcDbLine
 10
1517.976029785923
 20
-1390.767635542229
 30
0.0
 11
1517.976029785923
 21
-1391.997939535143
 31
0.0
  0
LINE
  5
2613
330
18
100
AcDbEntity
  8
L-ZISSEN
  6
Continuous
 62
     7
100
AcDbLine
 10
1447.376029785923
 20
-1390.767635542229
 30
0.0
 11
1447.376029785923
 21
-1391.997939535143
 31
0.0
  0
LINE
  5
2614
330
18
100
AcDbEntity
  8
L-ZISSEN
100
AcDbLine
 10
1552.676029785923
 20
-1362.997939535143
 30
0.0
 11
1552.676029785923
 21
-1404.997939535143
 31
0.0
  0
LINE
  5
2615
330
18
100
AcDbEntity
  8
L-ZISSEN
100
AcDbLine
 10
1412.676029785923
 20
-1362.997939535143
 30
0.0
 11
1412.676029785923
 21
-1404.997939535143
 31
0.0
  0
LINE
  5
2616
330
18
100
AcDbEntity
  8
L-ZISSEN
100
AcDbLine
 10
1437.676029785923
 20
-1388.497939535144
 30
0.0
 11
1422.676029785923
 21
-1388.497939535143
 31
0.0
  0
ARC
  5
2617
330
18
100
AcDbEntity
  8
L-ZISSEN
100
AcDbCircle
 10
1437.676029785923
 20
-1384.997939535143
 30
0.0
 40
3.5
100
AcDbArc
 50
270.0
 51
90.0
  0
ARC
  5
2618
330
18
100
AcDbEntity
  8
L-ZISSEN
100
AcDbCircle
 10
1422.676029785923
 20
-1384.997939535143
 30
0.0
 40
3.5
100
AcDbArc
 50
90.0
 51
270.0
  0
LINE
  5
2619
330
18
100
AcDbEntity
  8
L-ZISSEN
100
AcDbLine
 10
1437.676029785923
 20
-1381.497939535143
 30
0.0
 11
1422.676029785923
 21
-1381.497939535144
 31
0.0
  0
LINE
  5
261A
330
18
100
AcDbEntity
  8
L-TYUSIN
  6
CENTER
 62
     1
100
AcDbLine
 10
1415.176029785923
 20
-1384.997939535143
 30
0.0
 11
1445.176029785923
 21
-1384.997939535143
 31
0.0
  0
LINE
  5
261B
330
18
100
AcDbEntity
  8
L-TYUSIN
  6
CENTER
 62
     1
100
AcDbLine
 10
1437.676029785923
 20
-1377.497939535143
 30
0.0
 11
1437.676029785923
 21
-1392.497939535144
 31
0.0
  0
LINE
  5
261C
330
18
100
AcDbEntity
  8
L-TYUSIN
  6
CENTER
 62
     1
100
AcDbLine
 10
1422.676029785923
 20
-1377.497939535143
 30
0.0
 11
1422.676029785923
 21
-1392.497939535144
 31
0.0
  0
LINE
  5
261D
330
18
100
AcDbEntity
  8
L-TYUSIN
  6
CENTER
 62
     1
100
AcDbLine
 10
1458.676029785923
 20
-1432.997939535142
 30
0.0
 11
1458.676029785923
 21
-1448.997939535145
 31
0.0
  0
CIRCLE
  5
261E
330
18
100
AcDbEntity
  8
L-ZISSEN
  6
Continuous
 62
     7
100
AcDbCircle
 10
1458.676029785923
 20
-1440.997939535143
 30
0.0
 40
4.283
  0
LINE
  5
261F
330
18
100
AcDbEntity
  8
L-TYUSIN
  6
CENTER
 62
     1
100
AcDbLine
 10
1466.676029785925
 20
-1440.997939535143
 30
0.0
 11
1450.676029785921
 21
-1440.997939535143
 31
0.0
  0
LINE
  5
2841
330
18
100
AcDbEntity
  8
L-TYUSIN
  6
CENTER
 62
     1
370
    -1
100
AcDbLine
 10
1482.676029785923
 20
-1231.619295001352
 30
0.0
 11
1482.676029785923
 21
-1475.497939535143
 31
0.0
  0
LINE
  5
2844
330
18
100
AcDbEntity
  8
L-ZISSEN
370
    -1
100
AcDbLine
 10
1460.052656888169
 20
-1328.227939535143
 30
0.0
 11
1446.676029785923
 21
-1328.227939535143
 31
0.0
  0
LINE
  5
2845
330
18
100
AcDbEntity
  8
L-ZISSEN
370
    -1
100
AcDbLine
 10
1535.376029785923
 20
-1350.497939535143
 30
0.0
 11
1429.976029785923
 21
-1350.497939535143
 31
0.0
  0
LINE
  5
2846
330
18
100
AcDbEntity
  8
L-ZISSEN
370
    -1
100
AcDbLine
 10
1535.676029785923
 20
-1340.497939535143
 30
0.0
 11
1429.676029785923
 21
-1340.497939535143
 31
0.0
  0
LINE
  5
2847
330
18
100
AcDbEntity
  8
L-ZISSEN
370
    -1
100
AcDbLine
 10
1446.676029785923
 20
-1319.727939535143
 30
0.0
 11
1518.676029785923
 21
-1319.727939535143
 31
0.0
  0
LINE
  5
2848
330
18
100
AcDbEntity
  8
L-ZISSEN
370
    -1
100
AcDbLine
 10
1510.968923004736
 20
-1312.227939535143
 30
0.0
 11
1454.383136567109
 21
-1312.227939535143
 31
0.0
  0
LINE
  5
2849
330
18
100
AcDbEntity
  8
L-ZISSEN
370
    -1
100
AcDbLine
 10
1430.176029785923
 20
-1331.227939535143
 30
0.0
 11
1535.176029785923
 21
-1331.227939535143
 31
0.0
  0
LINE
  5
284A
330
18
100
AcDbEntity
  8
L-ZISSEN
370
    -1
100
AcDbLine
 10
1535.676029785923
 20
-1339.227939535143
 30
0.0
 11
1429.676029785923
 21
-1339.227939535143
 31
0.0
  0
ARC
  5
284B
330
18
100
AcDbEntity
  8
L-ZISSEN
370
    -1
100
AcDbCircle
 10
1441.691751991636
 20
-1328.640447357423
 30
0.0
 40
1.6
100
AcDbArc
 50
0.0
 51
73.80864836138818
  0
LINE
  5
284C
330
18
100
AcDbEntity
  8
L-ZISSEN
370
    -1
100
AcDbLine
 10
1446.676029785923
 20
-1319.727939535143
 30
0.0
 11
1446.676029785923
 21
-1328.227939535143
 31
0.0
  0
ARC
  5
284D
330
18
100
AcDbEntity
  8
L-ZISSEN
370
    -1
100
AcDbCircle
 10
1435.891751991636
 20
-1328.640447357423
 30
0.0
 40
1.6
100
AcDbArc
 50
106.1913516386118
 51
180.0
  0
LINE
  5
284F
330
18
100
AcDbEntity
  8
L-ZISSEN
370
    -1
100
AcDbLine
 10
1430.676029785923
 20
-1313.727939535141
 30
0.0
 11
1430.676029785923
 21
-1330.727939535143
 31
0.0
  0
LINE
  5
2850
330
18
100
AcDbEntity
  8
L-ZISSEN
370
    -1
100
AcDbLine
 10
1446.676029785923
 20
-1328.227939535143
 30
0.0
 11
1443.041751991636
 21
-1330.326190797984
 31
0.0
  0
LINE
  5
2851
330
18
100
AcDbEntity
  8
L-ZISSEN
370
    -1
100
AcDbLine
 10
1443.291751991636
 20
-1328.640447357423
 30
0.0
 11
1443.291751991636
 21
-1329.927939535143
 31
0.0
  0
LINE
  5
2852
330
18
100
AcDbEntity
  8
L-ZISSEN
370
    -1
100
AcDbLine
 10
1443.041751991636
 20
-1329.927939535143
 30
0.0
 11
1443.041751991636
 21
-1331.227939535143
 31
0.0
  0
LINE
  5
2853
330
18
100
AcDbEntity
  8
L-ZISSEN
370
    -1
100
AcDbLine
 10
1429.676029785923
 20
-1339.227939535143
 30
0.0
 11
1429.676029785923
 21
-1331.727939535143
 31
0.0
  0
LINE
  5
2854
330
18
100
AcDbEntity
  8
L-ZISSEN
370
    -1
100
AcDbLine
 10
1434.291751991636
 20
-1329.927939535143
 30
0.0
 11
1434.291751991636
 21
-1328.640447357423
 31
0.0
  0
LINE
  5
2855
330
18
100
AcDbEntity
  8
L-ZISSEN
370
    -1
100
AcDbLine
 10
1434.541751991636
 20
-1331.227939535143
 30
0.0
 11
1434.541751991636
 21
-1329.927939535143
 31
0.0
  0
ARC
  5
2856
330
18
100
AcDbEntity
  8
L-ZISSEN
370
    -1
100
AcDbCircle
 10
1430.176029785923
 20
-1331.727939535143
 30
0.0
 40
0.5
100
AcDbArc
 50
90.0
 51
180.0
  0
ARC
  5
2857
330
18
100
AcDbEntity
  8
L-ZISSEN
370
    -1
100
AcDbCircle
 10
1430.176029785923
 20
-1330.727939535143
 30
0.0
 40
0.5
100
AcDbArc
 50
270.0
 51
0.0
  0
LINE
  5
2858
330
18
100
AcDbEntity
  8
L-ZISSEN
370
    -1
100
AcDbLine
 10
1434.291751991636
 20
-1329.927939535143
 30
0.0
 11
1443.291751991636
 21
-1329.927939535143
 31
0.0
  0
ARC
  5
2859
330
18
100
AcDbEntity
  8
L-ZISSEN
370
    -1
100
AcDbCircle
 10
1439.876029785923
 20
-1350.797939535143
 30
0.0
 40
0.3
100
AcDbArc
 50
0.0
 51
90.0
  0
ARC
  5
285A
330
18
100
AcDbEntity
  8
L-ZISSEN
370
    -1
100
AcDbCircle
 10
1439.876029785923
 20
-1350.797939535143
 30
0.0
 40
0.3
100
AcDbArc
 50
0.0
 51
90.0
  0
LINE
  5
285B
330
18
100
AcDbEntity
  8
L-ZISSEN
370
    -1
100
AcDbLine
 10
1440.176029785923
 20
-1350.797939535143
 30
0.0
 11
1440.176029785923
 21
-1362.697939535143
 31
0.0
  0
ARC
  5
285C
330
18
100
AcDbEntity
  8
L-ZISSEN
370
    -1
100
AcDbCircle
 10
1429.976029785923
 20
-1350.197939535143
 30
0.0
 40
0.3
100
AcDbArc
 50
180.0
 51
270.0
  0
ARC
  5
285D
330
18
100
AcDbEntity
  8
L-ZISSEN
370
    -1
100
AcDbCircle
 10
1429.976029785923
 20
-1350.197939535143
 30
0.0
 40
0.3
100
AcDbArc
 50
180.0
 51
270.0
  0
LINE
  5
285E
330
18
100
AcDbEntity
  8
L-ZISSEN
370
    -1
100
AcDbLine
 10
1429.676029785923
 20
-1340.497939535143
 30
0.0
 11
1429.676029785923
 21
-1350.197939535143
 31
0.0
  0
ARC
  5
285F
330
18
100
AcDbEntity
  8
L-ZISSEN
370
    -1
100
AcDbCircle
 10
1434.595645028194
 20
-1360.697939535145
 30
0.0
 40
0.3
100
AcDbArc
 50
270.0
 51
300.0000000000254
  0
ARC
  5
2860
330
18
100
AcDbEntity
  8
L-ZISSEN
370
    -1
100
AcDbCircle
 10
1437.354490755008
 20
-1359.797939535143
 30
0.0
 40
0.3
100
AcDbArc
 50
90.0
 51
120.0000000000254
  0
LINE
  5
2861
330
18
100
AcDbEntity
  8
L-ZISSEN
370
    -1
100
AcDbLine
 10
1438.676029785923
 20
-1359.497939535143
 30
0.0
 11
1437.354490755008
 21
-1359.497939535143
 31
0.0
  0
LINE
  5
2862
330
18
100
AcDbEntity
  8
L-ZISSEN
370
    -1
100
AcDbLine
 10
1434.745645028193
 20
-1360.95774715628
 30
0.0
 11
1437.204490755008
 21
-1359.538131914008
 31
0.0
  0
ARC
  5
2863
330
18
100
AcDbEntity
  8
L-ZISSEN
370
    -1
100
AcDbCircle
 10
1430.976029785923
 20
-1360.697939535145
 30
0.0
 40
0.3
100
AcDbArc
 50
180.0
 51
270.0
  0
LINE
  5
2864
330
18
100
AcDbEntity
  8
L-ZISSEN
370
    -1
100
AcDbLine
 10
1434.595645028194
 20
-1360.997939535144
 30
0.0
 11
1430.976029785923
 21
-1360.997939535144
 31
0.0
  0
ARC
  5
2865
330
18
100
AcDbEntity
  8
L-ZISSEN
370
    -1
100
AcDbCircle
 10
1430.976029785923
 20
-1360.697939535145
 30
0.0
 40
0.3
100
AcDbArc
 50
180.0
 51
270.0
  0
LINE
  5
2868
330
18
100
AcDbEntity
  8
L-ZISSEN
370
    -1
100
AcDbLine
 10
1430.676029785923
 20
-1350.497939535143
 30
0.0
 11
1430.676029785923
 21
-1360.697939535145
 31
0.0
  0
ARC
  5
2869
330
18
100
AcDbEntity
  8
L-ZISSEN
370
    -1
100
AcDbCircle
 10
1438.676029785923
 20
-1360.997939535143
 30
0.0
 40
1.5
100
AcDbArc
 50
0.0
 51
90.0
  0
LINE
  5
286B
330
18
100
AcDbEntity
  8
L-ZISSEN
370
    -1
100
AcDbLine
 10
1429.676029785923
 20
-1339.227939535143
 30
0.0
 11
1429.676029785923
 21
-1340.497939535143
 31
0.0
  0
LINE
  5
286C
330
18
100
AcDbEntity
  8
L-ZISSEN
370
    -1
100
AcDbLine
 10
1454.029583176516
 20
-1312.37438614455
 30
0.0
 11
1446.676029785923
 21
-1319.727939535143
 31
0.0
  0
ARC
  5
286D
330
18
100
AcDbEntity
  8
L-ZISSEN
370
    -1
100
AcDbCircle
 10
1454.383136567109
 20
-1312.727939535143
 30
0.0
 40
0.5
100
AcDbArc
 50
90.0
 51
135.0000000000184
  0
LINE
  5
286E
330
18
100
AcDbEntity
  8
L-ZISSEN
370
    -1
100
AcDbLine
 10
1442.73961305968
 20
-1313.244976621997
 30
0.0
 11
1450.95711869917
 21
-1315.446850621896
 31
0.0
  0
ARC
  5
286F
330
18
100
AcDbEntity
  8
L-ZISSEN
370
    -1
100
AcDbCircle
 10
1442.610203537129
 20
-1313.727939535141
 30
0.0
 40
0.5
100
AcDbArc
 50
75.00000000000554
 51
90.0
  0
LINE
  5
2870
330
18
100
AcDbEntity
  8
L-ZISSEN
370
    -1
100
AcDbLine
 10
1442.676029785923
 20
-1313.899558802485
 30
0.0
 11
1442.676029785923
 21
-1327.379020695396
 31
0.0
  0
ARC
  5
2871
330
18
100
AcDbEntity
  8
L-ZISSEN
370
    -1
100
AcDbCircle
 10
1431.176029785923
 20
-1313.727939535141
 30
0.0
 40
0.5
100
AcDbArc
 50
90.0
 51
180.0
  0
ARC
  5
287B
330
18
100
AcDbEntity
  8
L-ZISSEN
370
    -1
100
AcDbCircle
 10
1438.791751991636
 20
-1338.627939535144
 30
0.0
 40
12.0
100
AcDbArc
 50
73.80864836138804
 51
106.191351638612
  0
LINE
  5
287C
330
18
100
AcDbEntity
  8
L-ZISSEN
370
    -1
100
AcDbLine
 10
1442.610203537129
 20
-1313.227939535141
 30
0.0
 11
1431.176029785923
 21
-1313.227939535141
 31
0.0
  0
ARC
  5
287D
330
18
100
AcDbEntity
  8
L-ZISSEN
370
    -1
100
AcDbCircle
 10
1529.460307580209
 20
-1328.640447357423
 30
0.0
 40
1.6
100
AcDbArc
 50
0.0
 51
73.80864836138818
  0
ARC
  5
287E
330
18
100
AcDbEntity
  8
L-ZISSEN
370
    -1
100
AcDbCircle
 10
1523.660307580209
 20
-1328.640447357423
 30
0.0
 40
1.6
100
AcDbArc
 50
106.1913516386118
 51
180.0
  0
LINE
  5
287F
330
18
100
AcDbEntity
  8
L-ZISSEN
370
    -1
100
AcDbLine
 10
1518.676029785923
 20
-1319.727939535143
 30
0.0
 11
1518.676029785923
 21
-1328.227939535143
 31
0.0
  0
LINE
  5
2881
330
18
100
AcDbEntity
  8
L-ZISSEN
370
    -1
100
AcDbLine
 10
1534.676029785923
 20
-1313.727939535141
 30
0.0
 11
1534.676029785923
 21
-1330.727939535143
 31
0.0
  0
ARC
  5
2882
330
18
100
AcDbEntity
  8
L-ZISSEN
370
    -1
100
AcDbCircle
 10
1503.753492823265
 20
-1328.640447357423
 30
0.0
 40
1.6
100
AcDbArc
 50
0.0
 51
73.80864836138818
  0
ARC
  5
2883
330
18
100
AcDbEntity
  8
L-ZISSEN
370
    -1
100
AcDbCircle
 10
1497.953492823265
 20
-1328.640447357423
 30
0.0
 40
1.6
100
AcDbArc
 50
106.1913516386118
 51
180.0
  0
ARC
  5
2885
330
18
100
AcDbEntity
  8
L-ZISSEN
370
    -1
100
AcDbCircle
 10
1467.398566748581
 20
-1328.640447357423
 30
0.0
 40
1.6
100
AcDbArc
 50
0.0
 51
73.80864836138818
  0
ARC
  5
2886
330
18
100
AcDbEntity
  8
L-ZISSEN
370
    -1
100
AcDbCircle
 10
1461.598566748581
 20
-1328.640447357423
 30
0.0
 40
1.6
100
AcDbArc
 50
106.1913516386118
 51
180.0
  0
LINE
  5
2888
330
18
100
AcDbEntity
  8
L-ZISSEN
370
    -1
100
AcDbLine
 10
1505.353492823265
 20
-1329.927939535143
 30
0.0
 11
1496.353492823265
 21
-1329.927939535143
 31
0.0
  0
LINE
  5
2889
330
18
100
AcDbEntity
  8
L-ZISSEN
370
    -1
100
AcDbLine
 10
1496.353492823265
 20
-1328.640447357423
 30
0.0
 11
1496.353492823265
 21
-1329.927939535143
 31
0.0
  0
LINE
  5
288A
330
18
100
AcDbEntity
  8
L-ZISSEN
370
    -1
100
AcDbLine
 10
1496.603492823265
 20
-1329.927939535143
 30
0.0
 11
1496.603492823265
 21
-1331.227939535143
 31
0.0
  0
LINE
  5
288B
330
18
100
AcDbEntity
  8
L-ZISSEN
370
    -1
100
AcDbLine
 10
1460.248566748581
 20
-1331.227939535143
 30
0.0
 11
1460.248566748581
 21
-1329.927939535143
 31
0.0
  0
LINE
  5
288C
330
18
100
AcDbEntity
  8
L-ZISSEN
370
    -1
100
AcDbLine
 10
1459.998566748581
 20
-1329.927939535143
 30
0.0
 11
1468.998566748581
 21
-1329.927939535143
 31
0.0
  0
LINE
  5
288D
330
18
100
AcDbEntity
  8
L-ZISSEN
370
    -1
100
AcDbLine
 10
1468.748566748581
 20
-1329.927939535143
 30
0.0
 11
1468.748566748581
 21
-1331.227939535143
 31
0.0
  0
LINE
  5
288E
330
18
100
AcDbEntity
  8
L-ZISSEN
370
    -1
100
AcDbLine
 10
1459.998566748581
 20
-1329.927939535143
 30
0.0
 11
1459.998566748581
 21
-1328.640447357423
 31
0.0
  0
LINE
  5
288F
330
18
100
AcDbEntity
  8
L-ZISSEN
370
    -1
100
AcDbLine
 10
1468.998566748581
 20
-1328.640447357423
 30
0.0
 11
1468.998566748581
 21
-1329.927939535143
 31
0.0
  0
LINE
  5
2890
330
18
100
AcDbEntity
  8
L-ZISSEN
370
    -1
100
AcDbLine
 10
1496.407582962855
 20
-1328.227939535143
 30
0.0
 11
1468.944476608996
 21
-1328.227939535143
 31
0.0
  0
LINE
  5
2891
330
18
100
AcDbEntity
  8
L-TYUSIN
  6
CENTER
 62
     1
370
    -1
100
AcDbLine
 10
1456.676029785923
 20
-1375.860439535143
 30
0.0
 11
1456.676029785923
 21
-1362.135439535143
 31
0.0
  0
LINE
  5
2892
330
18
100
AcDbEntity
  8
L-ZISSEN
370
    -1
100
AcDbLine
 10
1535.676029785923
 20
-1331.727939535143
 30
0.0
 11
1535.676029785923
 21
-1339.227939535143
 31
0.0
  0
LINE
  5
2893
330
18
100
AcDbEntity
  8
L-ZISSEN
370
    -1
100
AcDbLine
 10
1530.810307580209
 20
-1331.227939535143
 30
0.0
 11
1530.810307580209
 21
-1329.927939535143
 31
0.0
  0
LINE
  5
2894
330
18
100
AcDbEntity
  8
L-ZISSEN
370
    -1
100
AcDbLine
 10
1531.060307580209
 20
-1329.927939535143
 30
0.0
 11
1531.060307580209
 21
-1328.640447357423
 31
0.0
  0
ARC
  5
2895
330
18
100
AcDbEntity
  8
L-ZISSEN
370
    -1
100
AcDbCircle
 10
1535.176029785923
 20
-1331.727939535143
 30
0.0
 40
0.5
100
AcDbArc
 50
0.0
 51
90.0
  0
ARC
  5
2896
330
18
100
AcDbEntity
  8
L-ZISSEN
370
    -1
100
AcDbCircle
 10
1535.176029785923
 20
-1330.727939535143
 30
0.0
 40
0.5
100
AcDbArc
 50
180.0
 51
270.0
  0
LINE
  5
2897
330
18
100
AcDbEntity
  8
L-ZISSEN
370
    -1
100
AcDbLine
 10
1518.676029785923
 20
-1328.227939535143
 30
0.0
 11
1522.310307580209
 21
-1330.326190797984
 31
0.0
  0
LINE
  5
2898
330
18
100
AcDbEntity
  8
L-ZISSEN
370
    -1
100
AcDbLine
 10
1522.310307580209
 20
-1329.927939535143
 30
0.0
 11
1522.310307580209
 21
-1331.227939535143
 31
0.0
  0
LINE
  5
2899
330
18
100
AcDbEntity
  8
L-ZISSEN
370
    -1
100
AcDbLine
 10
1522.060307580209
 20
-1328.640447357423
 30
0.0
 11
1522.060307580209
 21
-1329.927939535143
 31
0.0
  0
LINE
  5
289A
330
18
100
AcDbEntity
  8
L-ZISSEN
370
    -1
100
AcDbLine
 10
1531.060307580209
 20
-1329.927939535143
 30
0.0
 11
1522.060307580209
 21
-1329.927939535143
 31
0.0
  0
LINE
  5
289B
330
18
100
AcDbEntity
  8
L-ZISSEN
370
    -1
100
AcDbLine
 10
1505.353492823265
 20
-1329.927939535143
 30
0.0
 11
1505.353492823265
 21
-1328.640447357423
 31
0.0
  0
LINE
  5
289C
330
18
100
AcDbEntity
  8
L-ZISSEN
370
    -1
100
AcDbLine
 10
1505.103492823265
 20
-1331.227939535143
 30
0.0
 11
1505.103492823265
 21
-1329.927939535143
 31
0.0
  0
LINE
  5
289D
330
18
100
AcDbEntity
  8
L-ZISSEN
370
    -1
100
AcDbLine
 10
1518.676029785923
 20
-1328.227939535143
 30
0.0
 11
1505.299402683676
 21
-1328.227939535143
 31
0.0
  0
ARC
  5
289E
330
18
100
AcDbEntity
  8
L-ZISSEN
370
    -1
100
AcDbCircle
 10
1535.376029785923
 20
-1350.197939535143
 30
0.0
 40
0.3
100
AcDbArc
 50
270.0
 51
0.0
  0
LINE
  5
289F
330
18
100
AcDbEntity
  8
L-ZISSEN
370
    -1
100
AcDbLine
 10
1535.676029785923
 20
-1350.197939535143
 30
0.0
 11
1535.676029785923
 21
-1340.497939535143
 31
0.0
  0
ARC
  5
28A0
330
18
100
AcDbEntity
  8
L-ZISSEN
370
    -1
100
AcDbCircle
 10
1525.476029785923
 20
-1350.797939535143
 30
0.0
 40
0.3
100
AcDbArc
 50
90.0
 51
180.0
  0
LINE
  5
28A1
330
18
100
AcDbEntity
  8
L-ZISSEN
370
    -1
100
AcDbLine
 10
1530.756414543652
 20
-1360.997939535144
 30
0.0
 11
1534.376029785923
 21
-1360.997939535144
 31
0.0
  0
ARC
  5
28A2
330
18
100
AcDbEntity
  8
L-ZISSEN
370
    -1
100
AcDbCircle
 10
1534.376029785923
 20
-1360.697939535145
 30
0.0
 40
0.3
100
AcDbArc
 50
270.0
 51
0.0
  0
LINE
  5
28A3
330
18
100
AcDbEntity
  8
L-ZISSEN
370
    -1
100
AcDbLine
 10
1530.606414543652
 20
-1360.95774715628
 30
0.0
 11
1528.147568816837
 21
-1359.538131914008
 31
0.0
  0
LINE
  5
28A4
330
18
100
AcDbEntity
  8
L-ZISSEN
370
    -1
100
AcDbLine
 10
1526.676029785923
 20
-1359.497939535143
 30
0.0
 11
1527.997568816838
 21
-1359.497939535143
 31
0.0
  0
ARC
  5
28A5
330
18
100
AcDbEntity
  8
L-ZISSEN
370
    -1
100
AcDbCircle
 10
1527.997568816838
 20
-1359.797939535143
 30
0.0
 40
0.3
100
AcDbArc
 50
59.99999999997463
 51
90.0
  0
ARC
  5
28A6
330
18
100
AcDbEntity
  8
L-ZISSEN
370
    -1
100
AcDbCircle
 10
1530.756414543652
 20
-1360.697939535145
 30
0.0
 40
0.3
100
AcDbArc
 50
239.9999999999746
 51
270.0
  0
ARC
  5
28A7
330
18
100
AcDbEntity
  8
L-ZISSEN
370
    -1
100
AcDbCircle
 10
1534.376029785923
 20
-1360.697939535145
 30
0.0
 40
0.3
100
AcDbArc
 50
270.0
 51
0.0
  0
ARC
  5
28A8
330
18
100
AcDbEntity
  8
L-ZISSEN
370
    -1
100
AcDbCircle
 10
1526.676029785923
 20
-1360.997939535143
 30
0.0
 40
1.5
100
AcDbArc
 50
90.0
 51
180.0
  0
LINE
  5
28A9
330
18
100
AcDbEntity
  8
L-ZISSEN
370
    -1
100
AcDbLine
 10
1525.176029785923
 20
-1362.697939535143
 30
0.0
 11
1525.176029785923
 21
-1350.797939535143
 31
0.0
  0
LINE
  5
28AA
330
18
100
AcDbEntity
  8
L-ZISSEN
370
    -1
100
AcDbLine
 10
1534.676029785923
 20
-1350.497939535143
 30
0.0
 11
1534.676029785923
 21
-1360.697939535145
 31
0.0
  0
LINE
  5
28AD
330
18
100
AcDbEntity
  8
L-ZISSEN
370
    -1
100
AcDbLine
 10
1535.676029785923
 20
-1340.497939535143
 30
0.0
 11
1535.676029785923
 21
-1339.227939535143
 31
0.0
  0
LINE
  5
28AE
330
18
100
AcDbEntity
  8
L-TYUSIN
  6
CENTER
 62
     1
370
    -1
100
AcDbLine
 10
1508.676029785923
 20
-1375.860439535143
 30
0.0
 11
1508.676029785923
 21
-1362.135439535143
 31
0.0
  0
ARC
  5
28AF
330
18
100
AcDbEntity
  8
L-ZISSEN
370
    -1
100
AcDbCircle
 10
1464.498566748581
 20
-1338.627939535144
 30
0.0
 40
12.0
100
AcDbArc
 50
73.80864836138804
 51
106.191351638612
  0
ARC
  5
28B0
330
18
100
AcDbEntity
  8
L-ZISSEN
370
    -1
100
AcDbCircle
 10
1534.176029785923
 20
-1313.727939535141
 30
0.0
 40
0.5
100
AcDbArc
 50
0.0
 51
90.0
  0
LINE
  5
28B4
330
18
100
AcDbEntity
  8
L-ZISSEN
370
    -1
100
AcDbLine
 10
1511.322476395329
 20
-1312.37438614455
 30
0.0
 11
1518.676029785923
 21
-1319.727939535143
 31
0.0
  0
ARC
  5
28B5
330
18
100
AcDbEntity
  8
L-ZISSEN
370
    -1
100
AcDbCircle
 10
1510.968923004736
 20
-1312.727939535143
 30
0.0
 40
0.5
100
AcDbArc
 50
44.99999999998158
 51
90.0
  0
ARC
  5
28B6
330
18
100
AcDbEntity
  8
L-ZISSEN
370
    -1
100
AcDbCircle
 10
1522.741856034716
 20
-1313.727939535141
 30
0.0
 40
0.5
100
AcDbArc
 50
90.0
 51
104.9999999999945
  0
LINE
  5
28B7
330
18
100
AcDbEntity
  8
L-ZISSEN
370
    -1
100
AcDbLine
 10
1522.612446512165
 20
-1313.244976621997
 30
0.0
 11
1514.394940872676
 21
-1315.446850621896
 31
0.0
  0
LINE
  5
28B8
330
18
100
AcDbEntity
  8
L-ZISSEN
370
    -1
100
AcDbLine
 10
1522.741856034716
 20
-1313.227939535141
 30
0.0
 11
1534.176029785923
 21
-1313.227939535141
 31
0.0
  0
ARC
  5
28BC
330
18
100
AcDbEntity
  8
L-ZISSEN
370
    -1
100
AcDbCircle
 10
1526.560307580209
 20
-1338.627939535144
 30
0.0
 40
12.0
100
AcDbArc
 50
73.80864836138804
 51
106.191351638612
  0
LINE
  5
28BD
330
18
100
AcDbEntity
  8
L-ZISSEN
370
    -1
100
AcDbLine
 10
1522.676029785923
 20
-1313.899558802485
 30
0.0
 11
1522.676029785923
 21
-1327.379020695396
 31
0.0
  0
ARC
  5
28C0
330
18
100
AcDbEntity
  8
L-ZISSEN
370
    -1
100
AcDbCircle
 10
1500.853492823265
 20
-1338.627939535144
 30
0.0
 40
12.0
100
AcDbArc
 50
73.80864836138804
 51
106.191351638612
  0
LINE
  5
28C1
330
18
100
AcDbEntity
  8
L-ZISSEN
  6
Continuous
 62
     7
100
AcDbLine
 10
1503.500145924993
 20
-1281.327939535143
 30
0.0
 11
1503.500145924993
 21
-1282.127939535143
 31
0.0
  0
LINE
  5
28C2
330
18
100
AcDbEntity
  8
L-ZISSEN
  6
Continuous
 62
     7
100
AcDbLine
 10
1496.50014356929
 20
-1281.327939535143
 30
0.0
 11
1503.500145924993
 21
-1281.327939535143
 31
0.0
  0
LINE
  5
28C3
330
18
100
AcDbEntity
  8
L-ZISSEN
  6
Continuous
 62
     7
100
AcDbLine
 10
1496.50014356929
 20
-1281.327939535143
 30
0.0
 11
1496.50014356929
 21
-1282.127939535143
 31
0.0
  0
LINE
  5
28C4
330
18
100
AcDbEntity
  8
L-ZISSEN
  6
Continuous
 62
     7
100
AcDbLine
 10
1468.851916002556
 20
-1281.327939535143
 30
0.0
 11
1468.851916002556
 21
-1282.127939535143
 31
0.0
  0
LINE
  5
28C5
330
18
100
AcDbEntity
  8
L-ZISSEN
  6
Continuous
 62
     7
100
AcDbLine
 10
1468.851916002556
 20
-1281.327939535143
 30
0.0
 11
1461.851913646853
 21
-1281.327939535143
 31
0.0
  0
CIRCLE
  5
28C6
330
18
100
AcDbEntity
  8
L-ZISSEN
  6
Continuous
 62
     7
100
AcDbCircle
 10
1482.676029785923
 20
-1301.227939535143
 30
0.0
 40
4.283
  0
LINE
  5
28C7
330
18
100
AcDbEntity
  8
L-ZISSEN
  6
Continuous
 62
     7
100
AcDbLine
 10
1462.276029785922
 20
-1238.797939535143
 30
0.0
 11
1503.076029785923
 21
-1238.797939535143
 31
0.0
  0
LINE
  5
28C8
330
18
100
AcDbEntity
  8
L-ZISSEN
  6
Continuous
 62
     7
100
AcDbLine
 10
1462.276029785923
 20
-1238.797939535143
 30
0.0
 11
1462.276029785923
 21
-1228.797939535143
 31
0.0
  0
LINE
  5
28C9
330
18
100
AcDbEntity
  8
L-ZISSEN
  6
Continuous
 62
     7
100
AcDbLine
 10
1479.676029785923
 20
-1244.777939535144
 30
0.0
 11
1479.676029785923
 21
-1238.797939535143
 31
0.0
  0
LINE
  5
28CA
330
18
100
AcDbEntity
  8
L-ZISSEN
  6
Continuous
 62
     7
100
AcDbLine
 10
1485.676029785923
 20
-1244.777939535144
 30
0.0
 11
1485.676029785923
 21
-1238.797939535143
 31
0.0
  0
LINE
  5
28CB
330
18
100
AcDbEntity
  8
L-ZISSEN
  6
Continuous
 62
     7
100
AcDbLine
 10
1503.076029785923
 20
-1238.797939535143
 30
0.0
 11
1503.076029785923
 21
-1228.797939535143
 31
0.0
  0
LINE
  5
28CC
330
18
100
AcDbEntity
  8
L-ZISSEN
  6
Continuous
 62
     7
100
AcDbLine
 10
1462.276029785923
 20
-1228.797939535143
 30
0.0
 11
1503.076029785922
 21
-1228.797939535143
 31
0.0
  0
LINE
  5
28CD
330
18
100
AcDbEntity
  8
L-ZISSEN
  6
Continuous
 62
     7
100
AcDbLine
 10
1474.593126017268
 20
-1244.777939535144
 30
0.0
 11
1490.758933554577
 21
-1244.777939535144
 31
0.0
  0
LINE
  5
28CE
330
18
100
AcDbEntity
  8
L-ZISSEN
  6
Continuous
 62
     7
100
AcDbLine
 10
1490.758933554577
 20
-1254.777939535144
 30
0.0
 11
1490.758933554577
 21
-1244.777939535144
 31
0.0
  0
LINE
  5
28CF
330
18
100
AcDbEntity
  8
L-ZISSEN
  6
Continuous
 62
     7
100
AcDbLine
 10
1474.593126017268
 20
-1254.777939535144
 30
0.0
 11
1474.593126017268
 21
-1244.777939535144
 31
0.0
  0
LINE
  5
28D0
330
18
100
AcDbEntity
  8
L-ZISSEN
  6
Continuous
 62
     7
100
AcDbLine
 10
1474.593126017268
 20
-1254.777939535144
 30
0.0
 11
1490.758933554577
 21
-1254.777939535144
 31
0.0
  0
LINE
  5
28D1
330
18
100
AcDbEntity
  8
L-ZISSEN
  6
Continuous
 62
     7
100
AcDbLine
 10
1488.676029785923
 20
-1257.127939535143
 30
0.0
 11
1488.676029785923
 21
-1254.777939535144
 31
0.0
  0
LINE
  5
28D2
330
18
100
AcDbEntity
  8
L-ZISSEN
  6
Continuous
 62
     7
100
AcDbLine
 10
1476.676029785923
 20
-1257.127939535143
 30
0.0
 11
1476.676029785923
 21
-1254.777939535144
 31
0.0
  0
LINE
  5
28D3
330
18
100
AcDbEntity
  8
L-ZISSEN
  6
Continuous
 62
     7
100
AcDbLine
 10
1461.851913646853
 20
-1281.327939535143
 30
0.0
 11
1461.851913646853
 21
-1282.127939535143
 31
0.0
  0
LINE
  5
28D4
330
18
100
AcDbEntity
  8
L-ZISSEN
  6
Continuous
 62
     7
100
AcDbLine
 10
1457.026029785923
 20
-1282.127939535143
 30
0.0
 11
1508.326029785923
 21
-1282.127939535143
 31
0.0
  0
LINE
  5
28D5
330
18
100
AcDbEntity
  8
L-TYUSIN
  6
CENTER
 62
     1
100
AcDbLine
 10
1490.676029785924
 20
-1301.227939535143
 30
0.0
 11
1474.676029785921
 21
-1301.227939535143
 31
0.0
  0
LINE
  5
28D6
330
18
100
AcDbEntity
  8
L-ZISSEN
  6
Continuous
 62
     7
100
AcDbLine
 10
1469.676029785923
 20
-1257.127939535143
 30
0.0
 11
1495.676029785923
 21
-1257.127939535143
 31
0.0
  0
LINE
  5
28D7
330
18
100
AcDbEntity
  8
L-ZISSEN
  6
Continuous
 62
     7
100
AcDbLine
 10
1495.676029785923
 20
-1257.127939535143
 30
0.0
 11
1499.943142719068
 21
-1281.327939535143
 31
0.0
  0
LINE
  5
28D8
330
18
100
AcDbEntity
  8
L-ZISSEN
  6
Continuous
 62
     7
100
AcDbLine
 10
1469.676029785923
 20
-1257.127939535143
 30
0.0
 11
1465.408916852778
 21
-1281.327939535143
 31
0.0
  0
LINE
  5
28D9
330
18
100
AcDbEntity
  8
L-ZISSEN
  6
Continuous
 62
     7
100
AcDbLine
 10
1457.026029785923
 20
-1288.627939535143
 30
0.0
 11
1508.326029785923
 21
-1288.627939535143
 31
0.0
  0
LINE
  5
28DA
330
18
100
AcDbEntity
  8
L-ZISSEN
  6
Continuous
 62
     7
100
AcDbLine
 10
1494.273443290667
 20
-1312.227939535143
 30
0.0
 11
1494.273443290667
 21
-1282.127939535143
 31
0.0
  0
LINE
  5
28DB
330
18
100
AcDbEntity
  8
L-ZISSEN
  6
Continuous
 62
     7
100
AcDbLine
 10
1471.078616281179
 20
-1312.227939535143
 30
0.0
 11
1471.078616281179
 21
-1282.127939535143
 31
0.0
  0
LINE
  5
28DC
330
18
100
AcDbEntity
  8
L-ZISSEN
  6
Continuous
 62
     7
100
AcDbLine
 10
1508.326029785923
 20
-1312.227939535143
 30
0.0
 11
1508.326029785923
 21
-1282.127939535143
 31
0.0
  0
LINE
  5
28DD
330
18
100
AcDbEntity
  8
L-ZISSEN
  6
Continuous
 62
     7
100
AcDbLine
 10
1457.026029785923
 20
-1312.227939535143
 30
0.0
 11
1457.026029785923
 21
-1282.127939535143
 31
0.0
  0
LINE
  5
28E1
330
18
100
AcDbEntity
  8
L-ZISSEN
100
AcDbLine
 10
1457.026029785923
 20
-1312.227939535143
 30
0.0
 11
1508.326029785923
 21
-1312.227939535143
 31
0.0
  0
LINE
  5
28E2
330
18
100
AcDbEntity
  8
L-ZISSEN
100
AcDbLine
 10
1440.176029785923
 20
-1362.697939535143
 30
0.0
 11
1525.176029785923
 21
-1362.697939535143
 31
0.0
  0
LINE
  5
2911
330
18
100
AcDbEntity
  8
L-ZISSEN
100
AcDbLine
 10
1482.676029785923
 20
-1301.227939535143
 30
0.0
 11
1482.676029785923
 21
-1390.997939535143
 31
0.0
  0
LINE
  5
2997
330
18
100
AcDbEntity
  8
L-TYUSIN
370
    -1
100
AcDbLine
 10
1707.64171550725
 20
-1324.053924427801
 30
0.0
 11
1707.64171550725
 21
-1219.31358017987
 31
0.0
  0
LINE
  5
2998
330
18
100
AcDbEntity
  8
L-TYUSIN
  6
CENTER
 62
     1
370
    -1
100
AcDbLine
 10
1707.64171550725
 20
-1231.619295001352
 30
0.0
 11
1707.64171550725
 21
-1476.497939535143
 31
0.0
  0
ARC
  5
2999
330
18
100
AcDbEntity
  8
L-ZISSEN
370
    -1
100
AcDbCircle
 10
1707.64171550725
 20
-1322.227939535143
 30
0.0
 40
9.0
100
AcDbArc
 50
0.0
 51
180.0
  0
LINE
  5
299A
330
18
100
AcDbEntity
  8
L-ZISSEN
370
    -1
100
AcDbLine
 10
1735.934608726063
 20
-1312.227939535143
 30
0.0
 11
1679.348822288436
 21
-1312.227939535143
 31
0.0
  0
LINE
  5
299B
330
18
100
AcDbEntity
  8
L-ZISSEN
370
    -1
100
AcDbLine
 10
1655.14171550725
 20
-1331.227939535143
 30
0.0
 11
1760.14171550725
 21
-1331.227939535143
 31
0.0
  0
LINE
  5
299C
330
18
100
AcDbEntity
  8
L-ZISSEN
370
    -1
100
AcDbLine
 10
1760.64171550725
 20
-1339.227939535143
 30
0.0
 11
1654.64171550725
 21
-1339.227939535143
 31
0.0
  0
LINE
  5
299D
330
18
100
AcDbEntity
  8
L-ZISSEN
370
    -1
100
AcDbLine
 10
1760.34171550725
 20
-1350.497939535143
 30
0.0
 11
1654.94171550725
 21
-1350.497939535143
 31
0.0
  0
LINE
  5
299E
330
18
100
AcDbEntity
  8
L-ZISSEN
370
    -1
100
AcDbLine
 10
1760.64171550725
 20
-1340.497939535143
 30
0.0
 11
1654.64171550725
 21
-1340.497939535143
 31
0.0
  0
ARC
  5
299F
330
18
100
AcDbEntity
  8
L-ZISSEN
370
    -1
100
AcDbCircle
 10
1692.364252469908
 20
-1328.640447357423
 30
0.0
 40
1.6
100
AcDbArc
 50
0.0
 51
73.80864836138818
  0
ARC
  5
29A0
330
18
100
AcDbEntity
  8
L-ZISSEN
370
    -1
100
AcDbCircle
 10
1686.564252469908
 20
-1328.640447357423
 30
0.0
 40
1.6
100
AcDbArc
 50
106.1913516386118
 51
180.0
  0
LINE
  5
29A2
330
18
100
AcDbEntity
  8
L-ZISSEN
370
    -1
100
AcDbLine
 10
1698.64171550725
 20
-1322.227939535143
 30
0.0
 11
1698.64171550725
 21
-1331.227939535143
 31
0.0
  0
ARC
  5
29A3
330
18
100
AcDbEntity
  8
L-ZISSEN
370
    -1
100
AcDbCircle
 10
1666.657437712963
 20
-1328.640447357423
 30
0.0
 40
1.6
100
AcDbArc
 50
0.0
 51
73.80864836138818
  0
ARC
  5
29A4
330
18
100
AcDbEntity
  8
L-ZISSEN
370
    -1
100
AcDbCircle
 10
1660.857437712963
 20
-1328.640447357423
 30
0.0
 40
1.6
100
AcDbArc
 50
106.1913516386118
 51
180.0
  0
LINE
  5
29A6
330
18
100
AcDbEntity
  8
L-ZISSEN
370
    -1
100
AcDbLine
 10
1671.64171550725
 20
-1319.935046316329
 30
0.0
 11
1671.64171550725
 21
-1327.939264400548
 31
0.0
  0
LINE
  5
29A7
330
18
100
AcDbEntity
  8
L-ZISSEN
370
    -1
100
AcDbLine
 10
1659.257437712963
 20
-1329.927939535143
 30
0.0
 11
1668.257437712963
 21
-1329.927939535143
 31
0.0
  0
LINE
  5
29A8
330
18
100
AcDbEntity
  8
L-ZISSEN
370
    -1
100
AcDbLine
 10
1659.257437712963
 20
-1329.927939535143
 30
0.0
 11
1659.257437712963
 21
-1328.640447357423
 31
0.0
  0
LINE
  5
29A9
330
18
100
AcDbEntity
  8
L-ZISSEN
370
    -1
100
AcDbLine
 10
1659.507437712963
 20
-1331.227939535143
 30
0.0
 11
1659.507437712963
 21
-1329.927939535143
 31
0.0
  0
ARC
  5
29AA
330
18
100
AcDbEntity
  8
L-ZISSEN
370
    -1
100
AcDbCircle
 10
1655.14171550725
 20
-1331.727939535143
 30
0.0
 40
0.5
100
AcDbArc
 50
90.0
 51
180.0
  0
LINE
  5
29AB
330
18
100
AcDbEntity
  8
L-ZISSEN
370
    -1
100
AcDbLine
 10
1654.64171550725
 20
-1339.227939535143
 30
0.0
 11
1654.64171550725
 21
-1331.727939535143
 31
0.0
  0
ARC
  5
29AC
330
18
100
AcDbEntity
  8
L-ZISSEN
370
    -1
100
AcDbCircle
 10
1654.94171550725
 20
-1350.197939535143
 30
0.0
 40
0.3
100
AcDbArc
 50
180.0
 51
270.0
  0
ARC
  5
29AD
330
18
100
AcDbEntity
  8
L-ZISSEN
370
    -1
100
AcDbCircle
 10
1654.94171550725
 20
-1350.197939535143
 30
0.0
 40
0.3
100
AcDbArc
 50
180.0
 51
270.0
  0
LINE
  5
29AE
330
18
100
AcDbEntity
  8
L-ZISSEN
370
    -1
100
AcDbLine
 10
1654.64171550725
 20
-1340.497939535143
 30
0.0
 11
1654.64171550725
 21
-1350.197939535143
 31
0.0
  0
LINE
  5
29AF
330
18
100
AcDbEntity
  8
L-ZISSEN
370
    -1
100
AcDbLine
 10
1654.64171550725
 20
-1339.227939535143
 30
0.0
 11
1654.64171550725
 21
-1340.497939535143
 31
0.0
  0
LINE
  5
29B0
330
18
100
AcDbEntity
  8
L-ZISSEN
370
    -1
100
AcDbLine
 10
1685.214252469908
 20
-1331.227939535143
 30
0.0
 11
1685.214252469908
 21
-1329.927939535143
 31
0.0
  0
LINE
  5
29B1
330
18
100
AcDbEntity
  8
L-ZISSEN
370
    -1
100
AcDbLine
 10
1684.964252469908
 20
-1329.927939535143
 30
0.0
 11
1693.964252469908
 21
-1329.927939535143
 31
0.0
  0
LINE
  5
29B2
330
18
100
AcDbEntity
  8
L-ZISSEN
370
    -1
100
AcDbLine
 10
1693.714252469908
 20
-1329.927939535143
 30
0.0
 11
1693.714252469908
 21
-1331.227939535143
 31
0.0
  0
LINE
  5
29B3
330
18
100
AcDbEntity
  8
L-ZISSEN
370
    -1
100
AcDbLine
 10
1684.964252469908
 20
-1329.927939535143
 30
0.0
 11
1684.964252469908
 21
-1328.640447357423
 31
0.0
  0
LINE
  5
29B4
330
18
100
AcDbEntity
  8
L-ZISSEN
370
    -1
100
AcDbLine
 10
1693.964252469908
 20
-1328.640447357423
 30
0.0
 11
1693.964252469908
 21
-1329.927939535143
 31
0.0
  0
LINE
  5
29B5
330
18
100
AcDbEntity
  8
L-ZISSEN
370
    -1
100
AcDbLine
 10
1698.64171550725
 20
-1328.227939535143
 30
0.0
 11
1693.91016233034
 21
-1328.227939535143
 31
0.0
  0
LINE
  5
29B6
330
18
100
AcDbEntity
  8
L-ZISSEN
370
    -1
100
AcDbLine
 10
1668.257437712963
 20
-1328.640447357423
 30
0.0
 11
1668.257437712963
 21
-1329.927939535143
 31
0.0
  0
LINE
  5
29B7
330
18
100
AcDbEntity
  8
L-ZISSEN
370
    -1
100
AcDbLine
 10
1668.007437712963
 20
-1329.927939535143
 30
0.0
 11
1668.007437712963
 21
-1331.227939535143
 31
0.0
  0
ARC
  5
29B8
330
18
100
AcDbEntity
  8
L-ZISSEN
370
    -1
100
AcDbCircle
 10
1671.14171550725
 20
-1327.939264400548
 30
0.0
 40
0.5
100
AcDbArc
 50
299.9999999999973
 51
0.0
  0
LINE
  5
29B9
330
18
100
AcDbEntity
  8
L-ZISSEN
370
    -1
100
AcDbLine
 10
1671.39171550725
 20
-1328.37227710244
 30
0.0
 11
1668.007437712963
 21
-1330.326190797984
 31
0.0
  0
LINE
  5
29BA
330
18
100
AcDbEntity
  8
L-ZISSEN
370
    -1
100
AcDbLine
 10
1685.018342609477
 20
-1328.227939535143
 30
0.0
 11
1671.64171550725
 21
-1328.227939535143
 31
0.0
  0
ARC
  5
29BB
330
18
100
AcDbEntity
  8
L-ZISSEN
370
    -1
100
AcDbCircle
 10
1664.84171550725
 20
-1350.797939535143
 30
0.0
 40
0.3
100
AcDbArc
 50
0.0
 51
90.0
  0
LINE
  5
29BC
330
18
100
AcDbEntity
  8
L-ZISSEN
370
    -1
100
AcDbLine
 10
1665.14171550725
 20
-1350.797939535143
 30
0.0
 11
1665.14171550725
 21
-1362.697939535143
 31
0.0
  0
ARC
  5
29BD
330
18
100
AcDbEntity
  8
L-ZISSEN
370
    -1
100
AcDbCircle
 10
1663.757437712963
 20
-1338.627939535144
 30
0.0
 40
12.0
100
AcDbArc
 50
73.80864836138804
 51
106.191351638612
  0
ARC
  5
29BE
330
18
100
AcDbEntity
  8
L-ZISSEN
370
    -1
100
AcDbCircle
 10
1689.464252469908
 20
-1338.627939535144
 30
0.0
 40
12.0
100
AcDbArc
 50
73.80864836138804
 51
106.191351638612
  0
ARC
  5
29BF
330
18
100
AcDbEntity
  8
L-ZISSEN
370
    -1
100
AcDbCircle
 10
1672.14171550725
 20
-1319.935046316329
 30
0.0
 40
0.5
100
AcDbArc
 50
135.0000000000184
 51
180.0
  0
ARC
  5
29C0
330
18
100
AcDbEntity
  8
L-ZISSEN
370
    -1
100
AcDbCircle
 10
1679.348822288436
 20
-1312.727939535143
 30
0.0
 40
0.5
100
AcDbArc
 50
90.0
 51
135.0
  0
LINE
  5
29C1
330
18
100
AcDbEntity
  8
L-ZISSEN
370
    -1
100
AcDbLine
 10
1678.995268897843
 20
-1312.37438614455
 30
0.0
 11
1671.788162116656
 21
-1319.581492925736
 31
0.0
  0
LINE
  5
29C2
330
18
100
AcDbEntity
  8
L-ZISSEN
370
    -1
100
AcDbLine
 10
1671.686625646678
 20
-1319.727939535143
 30
0.0
 11
1698.995907274355
 21
-1319.727939535143
 31
0.0
  0
ARC
  5
29C3
330
18
100
AcDbEntity
  8
L-ZISSEN
370
    -1
100
AcDbCircle
 10
1754.425993301536
 20
-1328.640447357423
 30
0.0
 40
1.6
100
AcDbArc
 50
0.0
 51
73.80864836138818
  0
ARC
  5
29C4
330
18
100
AcDbEntity
  8
L-ZISSEN
370
    -1
100
AcDbCircle
 10
1748.625993301536
 20
-1328.640447357423
 30
0.0
 40
1.6
100
AcDbArc
 50
106.1913516386118
 51
180.0
  0
ARC
  5
29C5
330
18
100
AcDbEntity
  8
L-ZISSEN
370
    -1
100
AcDbCircle
 10
1728.719178544592
 20
-1328.640447357423
 30
0.0
 40
1.6
100
AcDbArc
 50
0.0
 51
73.80864836138818
  0
ARC
  5
29C6
330
18
100
AcDbEntity
  8
L-ZISSEN
370
    -1
100
AcDbCircle
 10
1722.919178544592
 20
-1328.640447357423
 30
0.0
 40
1.6
100
AcDbArc
 50
106.1913516386118
 51
180.0
  0
LINE
  5
29C9
330
18
100
AcDbEntity
  8
L-ZISSEN
370
    -1
100
AcDbLine
 10
1743.64171550725
 20
-1319.935046316329
 30
0.0
 11
1743.64171550725
 21
-1327.939264400548
 31
0.0
  0
LINE
  5
29CA
330
18
100
AcDbEntity
  8
L-ZISSEN
370
    -1
100
AcDbLine
 10
1716.641715507249
 20
-1322.227939535143
 30
0.0
 11
1716.641715507249
 21
-1331.227939535143
 31
0.0
  0
LINE
  5
29CB
330
18
100
AcDbEntity
  8
L-ZISSEN
370
    -1
100
AcDbLine
 10
1743.64171550725
 20
-1328.227939535143
 30
0.0
 11
1730.265088405011
 21
-1328.227939535143
 31
0.0
  0
LINE
  5
29CC
330
18
100
AcDbEntity
  8
L-ZISSEN
370
    -1
100
AcDbLine
 10
1721.319178544592
 20
-1328.640447357423
 30
0.0
 11
1721.319178544592
 21
-1329.927939535143
 31
0.0
  0
LINE
  5
29CD
330
18
100
AcDbEntity
  8
L-ZISSEN
370
    -1
100
AcDbLine
 10
1730.319178544592
 20
-1329.927939535143
 30
0.0
 11
1730.319178544592
 21
-1328.640447357423
 31
0.0
  0
LINE
  5
29CE
330
18
100
AcDbEntity
  8
L-ZISSEN
370
    -1
100
AcDbLine
 10
1721.569178544592
 20
-1329.927939535143
 30
0.0
 11
1721.569178544592
 21
-1331.227939535143
 31
0.0
  0
LINE
  5
29CF
330
18
100
AcDbEntity
  8
L-ZISSEN
370
    -1
100
AcDbLine
 10
1730.319178544592
 20
-1329.927939535143
 30
0.0
 11
1721.319178544592
 21
-1329.927939535143
 31
0.0
  0
LINE
  5
29D0
330
18
100
AcDbEntity
  8
L-ZISSEN
370
    -1
100
AcDbLine
 10
1730.069178544592
 20
-1331.227939535143
 30
0.0
 11
1730.069178544592
 21
-1329.927939535143
 31
0.0
  0
LINE
  5
29D1
330
18
100
AcDbEntity
  8
L-ZISSEN
370
    -1
100
AcDbLine
 10
1721.373268684172
 20
-1328.227939535143
 30
0.0
 11
1716.641715507249
 21
-1328.227939535143
 31
0.0
  0
ARC
  5
29D2
330
18
100
AcDbEntity
  8
L-ZISSEN
370
    -1
100
AcDbCircle
 10
1702.841715507247
 20
-1350.797939535143
 30
0.0
 40
0.3
100
AcDbArc
 50
0.0
 51
90.0
  0
ARC
  5
29D3
330
18
100
AcDbEntity
  8
L-ZISSEN
370
    -1
100
AcDbCircle
 10
1712.441715507252
 20
-1350.797939535143
 30
0.0
 40
0.3
100
AcDbArc
 50
90.0
 51
180.0
  0
ARC
  5
29D4
330
18
100
AcDbEntity
  8
L-ZISSEN
370
    -1
100
AcDbCircle
 10
1707.64171550725
 20
-1356.497939535143
 30
0.0
 40
4.5
100
AcDbArc
 50
180.0
 51
0.0
  0
LINE
  5
29D5
330
18
100
AcDbEntity
  8
L-ZISSEN
370
    -1
100
AcDbLine
 10
1703.141715507247
 20
-1356.497939535143
 30
0.0
 11
1703.141715507247
 21
-1350.797939535143
 31
0.0
  0
LINE
  5
29D6
330
18
100
AcDbEntity
  8
L-ZISSEN
370
    -1
100
AcDbLine
 10
1712.141715507252
 20
-1356.497939535143
 30
0.0
 11
1712.141715507252
 21
-1350.797939535143
 31
0.0
  0
LINE
  5
29D7
330
18
100
AcDbEntity
  8
L-ZISSEN
370
    -1
100
AcDbLine
 10
1755.775993301536
 20
-1331.227939535143
 30
0.0
 11
1755.775993301536
 21
-1329.927939535143
 31
0.0
  0
LINE
  5
29D8
330
18
100
AcDbEntity
  8
L-ZISSEN
370
    -1
100
AcDbLine
 10
1756.025993301536
 20
-1329.927939535143
 30
0.0
 11
1756.025993301536
 21
-1328.640447357423
 31
0.0
  0
ARC
  5
29D9
330
18
100
AcDbEntity
  8
L-ZISSEN
370
    -1
100
AcDbCircle
 10
1760.14171550725
 20
-1331.727939535143
 30
0.0
 40
0.5
100
AcDbArc
 50
0.0
 51
90.0
  0
LINE
  5
29DA
330
18
100
AcDbEntity
  8
L-ZISSEN
370
    -1
100
AcDbLine
 10
1760.64171550725
 20
-1331.727939535143
 30
0.0
 11
1760.64171550725
 21
-1339.227939535143
 31
0.0
  0
LINE
  5
29DB
330
18
100
AcDbEntity
  8
L-ZISSEN
370
    -1
100
AcDbLine
 10
1747.275993301536
 20
-1329.927939535143
 30
0.0
 11
1747.275993301536
 21
-1331.227939535143
 31
0.0
  0
LINE
  5
29DC
330
18
100
AcDbEntity
  8
L-ZISSEN
370
    -1
100
AcDbLine
 10
1747.025993301536
 20
-1328.640447357423
 30
0.0
 11
1747.025993301536
 21
-1329.927939535143
 31
0.0
  0
ARC
  5
29DD
330
18
100
AcDbEntity
  8
L-ZISSEN
370
    -1
100
AcDbCircle
 10
1744.14171550725
 20
-1327.939264400548
 30
0.0
 40
0.5
100
AcDbArc
 50
180.0
 51
240.0000000000027
  0
LINE
  5
29DE
330
18
100
AcDbEntity
  8
L-ZISSEN
370
    -1
100
AcDbLine
 10
1743.89171550725
 20
-1328.37227710244
 30
0.0
 11
1747.275993301536
 21
-1330.326190797984
 31
0.0
  0
LINE
  5
29DF
330
18
100
AcDbEntity
  8
L-ZISSEN
370
    -1
100
AcDbLine
 10
1756.025993301536
 20
-1329.927939535143
 30
0.0
 11
1747.025993301536
 21
-1329.927939535143
 31
0.0
  0
ARC
  5
29E0
330
18
100
AcDbEntity
  8
L-ZISSEN
370
    -1
100
AcDbCircle
 10
1760.34171550725
 20
-1350.197939535143
 30
0.0
 40
0.3
100
AcDbArc
 50
270.0
 51
0.0
  0
LINE
  5
29E1
330
18
100
AcDbEntity
  8
L-ZISSEN
370
    -1
100
AcDbLine
 10
1760.64171550725
 20
-1350.197939535143
 30
0.0
 11
1760.64171550725
 21
-1340.497939535143
 31
0.0
  0
ARC
  5
29E2
330
18
100
AcDbEntity
  8
L-ZISSEN
370
    -1
100
AcDbCircle
 10
1750.44171550725
 20
-1350.797939535143
 30
0.0
 40
0.3
100
AcDbArc
 50
90.0
 51
180.0
  0
LINE
  5
29E3
330
18
100
AcDbEntity
  8
L-ZISSEN
370
    -1
100
AcDbLine
 10
1750.14171550725
 20
-1362.697939535143
 30
0.0
 11
1750.14171550725
 21
-1350.797939535143
 31
0.0
  0
LINE
  5
29E4
330
18
100
AcDbEntity
  8
L-ZISSEN
370
    -1
100
AcDbLine
 10
1760.64171550725
 20
-1340.497939535143
 30
0.0
 11
1760.64171550725
 21
-1339.227939535143
 31
0.0
  0
LINE
  5
29E5
330
18
100
AcDbEntity
  8
L-ZISSEN
370
    -1
100
AcDbLine
 10
1736.288162116656
 20
-1312.37438614455
 30
0.0
 11
1743.495268897843
 21
-1319.581492925736
 31
0.0
  0
LINE
  5
29E6
330
18
100
AcDbEntity
  8
L-ZISSEN
370
    -1
100
AcDbLine
 10
1716.287523740144
 20
-1319.727939535143
 30
0.0
 11
1743.596805367831
 21
-1319.727939535143
 31
0.0
  0
ARC
  5
29E7
330
18
100
AcDbEntity
  8
L-ZISSEN
370
    -1
100
AcDbCircle
 10
1735.934608726063
 20
-1312.727939535143
 30
0.0
 40
0.5
100
AcDbArc
 50
44.99999999998158
 51
90.0
  0
ARC
  5
29E8
330
18
100
AcDbEntity
  8
L-ZISSEN
370
    -1
100
AcDbCircle
 10
1725.819178544592
 20
-1338.627939535144
 30
0.0
 40
12.0
100
AcDbArc
 50
73.80864836138804
 51
106.191351638612
  0
ARC
  5
29E9
330
18
100
AcDbEntity
  8
L-ZISSEN
370
    -1
100
AcDbCircle
 10
1743.14171550725
 20
-1319.935046316329
 30
0.0
 40
0.5
100
AcDbArc
 50
0.0
 51
44.99999999998158
  0
ARC
  5
29EA
330
18
100
AcDbEntity
  8
L-ZISSEN
370
    -1
100
AcDbCircle
 10
1751.525993301536
 20
-1338.627939535144
 30
0.0
 40
12.0
100
AcDbArc
 50
73.80864836138804
 51
106.191351638612
  0
LINE
  5
29EB
330
18
100
AcDbEntity
  8
L-ZISSEN
  6
Continuous
 62
     7
100
AcDbLine
 10
1714.64171550725
 20
-1244.777939535144
 30
0.0
 11
1714.64171550725
 21
-1254.777939535144
 31
0.0
  0
LINE
  5
29EC
330
18
100
AcDbEntity
  8
L-ZISSEN
  6
Continuous
 62
     7
100
AcDbLine
 10
1700.64171550725
 20
-1244.777939535144
 30
0.0
 11
1700.64171550725
 21
-1254.777939535144
 31
0.0
  0
LINE
  5
29ED
330
18
100
AcDbEntity
  8
L-ZISSEN
  6
Continuous
 62
     7
100
AcDbLine
 10
1681.99171550725
 20
-1312.227939535143
 30
0.0
 11
1681.99171550725
 21
-1282.127939535143
 31
0.0
  0
LINE
  5
29EE
330
18
100
AcDbEntity
  8
L-ZISSEN
  6
Continuous
 62
     7
100
AcDbLine
 10
1733.29171550725
 20
-1312.227939535143
 30
0.0
 11
1733.29171550725
 21
-1282.127939535143
 31
0.0
  0
LINE
  5
29EF
330
18
100
AcDbEntity
  8
L-ZISSEN
  6
Continuous
 62
     7
100
AcDbLine
 10
1696.044302002506
 20
-1312.227939535143
 30
0.0
 11
1696.044302002506
 21
-1282.127939535143
 31
0.0
  0
LINE
  5
29F0
330
18
100
AcDbEntity
  8
L-ZISSEN
  6
Continuous
 62
     7
100
AcDbLine
 10
1719.239129011993
 20
-1312.227939535143
 30
0.0
 11
1719.239129011993
 21
-1282.127939535143
 31
0.0
  0
LINE
  5
29F1
330
18
100
AcDbEntity
  8
L-ZISSEN
  6
Continuous
 62
     7
100
AcDbLine
 10
1681.99171550725
 20
-1288.627939535143
 30
0.0
 11
1733.29171550725
 21
-1288.627939535143
 31
0.0
  0
LINE
  5
29F2
330
18
100
AcDbEntity
  8
L-ZISSEN
  6
Continuous
 62
     7
100
AcDbLine
 10
1694.64171550725
 20
-1257.127939535143
 30
0.0
 11
1690.374602574105
 21
-1281.327939535143
 31
0.0
  0
LINE
  5
29F3
330
18
100
AcDbEntity
  8
L-ZISSEN
  6
Continuous
 62
     7
100
AcDbLine
 10
1720.64171550725
 20
-1257.127939535143
 30
0.0
 11
1724.908828440394
 21
-1281.327939535143
 31
0.0
  0
LINE
  5
29F4
330
18
100
AcDbEntity
  8
L-ZISSEN
  6
Continuous
 62
     7
100
AcDbLine
 10
1694.64171550725
 20
-1257.127939535143
 30
0.0
 11
1720.64171550725
 21
-1257.127939535143
 31
0.0
  0
LINE
  5
29F5
330
18
100
AcDbEntity
  8
L-TYUSIN
  6
CENTER
 62
     1
100
AcDbLine
 10
1686.991715507249
 20
-1301.227939535143
 30
0.0
 11
1676.99171550725
 21
-1301.227939535143
 31
0.0
  0
LINE
  5
29F6
330
18
100
AcDbEntity
  8
L-ZISSEN
  6
Continuous
 62
     7
100
AcDbLine
 10
1681.99171550725
 20
-1282.127939535143
 30
0.0
 11
1733.29171550725
 21
-1282.127939535143
 31
0.0
  0
LINE
  5
29F7
330
18
100
AcDbEntity
  8
L-ZISSEN
  6
Continuous
 62
     7
100
AcDbLine
 10
1686.81759936818
 20
-1281.327939535143
 30
0.0
 11
1686.81759936818
 21
-1282.127939535143
 31
0.0
  0
LINE
  5
29F8
330
18
100
AcDbEntity
  8
L-ZISSEN
  6
Continuous
 62
     7
100
AcDbLine
 10
1701.64171550725
 20
-1257.127939535143
 30
0.0
 11
1701.64171550725
 21
-1254.777939535144
 31
0.0
  0
LINE
  5
29F9
330
18
100
AcDbEntity
  8
L-ZISSEN
  6
Continuous
 62
     7
100
AcDbLine
 10
1713.64171550725
 20
-1257.127939535143
 30
0.0
 11
1713.64171550725
 21
-1254.777939535144
 31
0.0
  0
LINE
  5
29FA
330
18
100
AcDbEntity
  8
L-ZISSEN
  6
Continuous
 62
     7
100
AcDbLine
 10
1700.64171550725
 20
-1254.777939535144
 30
0.0
 11
1714.64171550725
 21
-1254.777939535144
 31
0.0
  0
LINE
  5
29FB
330
18
100
AcDbEntity
  8
L-ZISSEN
  6
Continuous
 62
     7
100
AcDbLine
 10
1700.64171550725
 20
-1244.777939535144
 30
0.0
 11
1714.64171550725
 21
-1244.777939535144
 31
0.0
  0
LINE
  5
29FC
330
18
100
AcDbEntity
  8
L-ZISSEN
  6
Continuous
 62
     7
100
AcDbLine
 10
1687.241715507249
 20
-1228.797939535143
 30
0.0
 11
1728.041715507249
 21
-1228.797939535143
 31
0.0
  0
LINE
  5
29FD
330
18
100
AcDbEntity
  8
L-ZISSEN
  6
Continuous
 62
     7
100
AcDbLine
 10
1728.041715507249
 20
-1238.797939535143
 30
0.0
 11
1728.041715507249
 21
-1228.797939535143
 31
0.0
  0
LINE
  5
29FE
330
18
100
AcDbEntity
  8
L-ZISSEN
  6
Continuous
 62
     7
100
AcDbLine
 10
1710.641715507249
 20
-1244.777939535144
 30
0.0
 11
1710.641715507249
 21
-1238.797939535143
 31
0.0
  0
LINE
  5
29FF
330
18
100
AcDbEntity
  8
L-ZISSEN
  6
Continuous
 62
     7
100
AcDbLine
 10
1704.64171550725
 20
-1244.777939535144
 30
0.0
 11
1704.64171550725
 21
-1238.797939535143
 31
0.0
  0
LINE
  5
2A00
330
18
100
AcDbEntity
  8
L-ZISSEN
  6
Continuous
 62
     7
100
AcDbLine
 10
1687.241715507249
 20
-1238.797939535143
 30
0.0
 11
1687.241715507249
 21
-1228.797939535143
 31
0.0
  0
LINE
  5
2A01
330
18
100
AcDbEntity
  8
L-ZISSEN
  6
Continuous
 62
     7
100
AcDbLine
 10
1687.241715507249
 20
-1238.797939535143
 30
0.0
 11
1728.041715507249
 21
-1238.797939535143
 31
0.0
  0
LINE
  5
2A02
330
18
100
AcDbEntity
  8
L-ZISSEN
  6
Continuous
 62
     7
100
AcDbLine
 10
1693.817601723883
 20
-1281.327939535143
 30
0.0
 11
1686.81759936818
 21
-1281.327939535143
 31
0.0
  0
LINE
  5
2A03
330
18
100
AcDbEntity
  8
L-ZISSEN
  6
Continuous
 62
     7
100
AcDbLine
 10
1693.817601723883
 20
-1281.327939535143
 30
0.0
 11
1693.817601723883
 21
-1282.127939535143
 31
0.0
  0
LINE
  5
2A04
330
18
100
AcDbEntity
  8
L-ZISSEN
  6
Continuous
 62
     7
100
AcDbLine
 10
1721.465829290617
 20
-1281.327939535143
 30
0.0
 11
1721.465829290616
 21
-1282.127939535143
 31
0.0
  0
LINE
  5
2A05
330
18
100
AcDbEntity
  8
L-ZISSEN
  6
Continuous
 62
     7
100
AcDbLine
 10
1721.465829290617
 20
-1281.327939535143
 30
0.0
 11
1728.465831646319
 21
-1281.327939535143
 31
0.0
  0
LINE
  5
2A06
330
18
100
AcDbEntity
  8
L-ZISSEN
  6
Continuous
 62
     7
100
AcDbLine
 10
1728.465831646319
 20
-1281.327939535143
 30
0.0
 11
1728.465831646319
 21
-1282.127939535143
 31
0.0
  0
LINE
  5
2A07
330
18
100
AcDbEntity
  8
L-TYUSIN
  6
CENTER
 62
     1
100
AcDbLine
 10
1728.29171550725
 20
-1301.227939535143
 30
0.0
 11
1738.291715507249
 21
-1301.227939535143
 31
0.0
  0
SOLID
  5
2A08
330
18
100
AcDbEntity
  8
L-ZISSEN
100
AcDbTrace
 10
1705.858342572076
 20
-1300.263215696316
 30
0.0
 11
1705.641857701925
 21
-1300.893754153066
 31
0.0
 12
1707.64171550725
 22
-1301.227939535143
 32
0.0
 13
1707.64171550725
 23
-1301.227939535143
 33
0.0
  0
LINE
  5
2A09
330
18
100
AcDbEntity
  8
L-ZISSEN
100
AcDbLine
 10
1705.750100137001
 20
-1300.578484924691
 30
0.0
 11
1677.64171550725
 21
-1290.927939535143
 31
0.0
  0
LINE
  5
2A0A
330
18
100
AcDbEntity
  8
L-ZISSEN
100
AcDbLine
 10
1677.64171550725
 20
-1290.927939535143
 30
0.0
 11
1675.64171550725
 21
-1290.927939535143
 31
0.0
  0
TEXT
  5
2A0B
330
18
100
AcDbEntity
  8
L-ZISSEN
100
AcDbText
 10
1664.64171550725
 20
-1293.177939535143
 30
0.0
 40
4.5
  1
P.P
100
AcDbText
  0
LINE
  5
2A0C
330
18
100
AcDbEntity
  8
L-ZISSEN
100
AcDbLine
 10
1681.99171550725
 20
-1312.227939535143
 30
0.0
 11
1733.29171550725
 21
-1312.227939535143
 31
0.0
  0
LINE
  5
2A0D
330
18
100
AcDbEntity
  8
L-ZISSEN
100
AcDbLine
 10
1665.14171550725
 20
-1362.697939535143
 30
0.0
 11
1750.14171550725
 21
-1362.697939535143
 31
0.0
  0
CIRCLE
  5
2A57
330
18
100
AcDbEntity
  8
L-ZISSEN
100
AcDbCircle
 10
1707.641715507249
 20
-1424.997939535143
 30
0.0
 40
15.1455
  0
LINE
  5
2A58
330
18
100
AcDbEntity
  8
L-ZISSEN
100
AcDbLine
 10
1743.64171550725
 20
-1362.997939535143
 30
0.0
 11
1743.64171550725
 21
-1418.997939535143
 31
0.0
  0
LINE
  5
2A59
330
18
100
AcDbEntity
  8
L-ZISSEN
  6
Continuous
 62
     7
100
AcDbLine
 10
1656.14171550725
 20
-1417.997939535143
 30
0.0
 11
1663.64171550725
 21
-1417.997939535143
 31
0.0
  0
LINE
  5
2A5A
330
18
100
AcDbEntity
  8
L-ZISSEN
  6
Continuous
 62
     7
100
AcDbLine
 10
1656.14171550725
 20
-1417.997939535143
 30
0.0
 11
1656.14171550725
 21
-1407.997939535143
 31
0.0
  0
LINE
  5
2A5B
330
18
100
AcDbEntity
  8
L-ZISSEN
  6
Continuous
 62
     7
100
AcDbLine
 10
1656.14171550725
 20
-1407.997939535143
 30
0.0
 11
1663.64171550725
 21
-1407.997939535143
 31
0.0
  0
LINE
  5
2A5C
330
18
100
AcDbEntity
  8
L-ZISSEN
  6
Continuous
 62
     7
100
AcDbLine
 10
1656.14171550725
 20
-1373.997939535143
 30
0.0
 11
1663.64171550725
 21
-1373.997939535143
 31
0.0
  0
LINE
  5
2A5D
330
18
100
AcDbEntity
  8
L-ZISSEN
  6
Continuous
 62
     7
100
AcDbLine
 10
1656.14171550725
 20
-1363.997939535143
 30
0.0
 11
1656.14171550725
 21
-1373.997939535143
 31
0.0
  0
LINE
  5
2A5E
330
18
100
AcDbEntity
  8
L-ZISSEN
  6
Continuous
 62
     7
100
AcDbLine
 10
1656.14171550725
 20
-1363.997939535143
 30
0.0
 11
1663.64171550725
 21
-1363.997939535143
 31
0.0
  0
LINE
  5
2A5F
330
18
100
AcDbEntity
  8
L-TYUSIN
  6
CENTER
 62
     1
100
AcDbLine
 10
1777.441715507249
 20
-1384.997939535143
 30
0.0
 11
1790.64171550725
 21
-1384.997939535143
 31
0.0
  0
LINE
  5
2A60
330
18
100
AcDbEntity
  8
L-ZISSEN
  6
Continuous
 62
     7
100
AcDbLine
 10
1676.64171550725
 20
-1391.997939535143
 30
0.0
 11
1738.641715507249
 21
-1391.997939535143
 31
0.0
  0
LINE
  5
2A61
330
18
100
AcDbEntity
  8
L-ZISSEN
  6
Continuous
 62
     7
100
AcDbLine
 10
1679.641715507249
 20
-1418.997939535143
 30
0.0
 11
1663.64171550725
 21
-1418.997939535143
 31
0.0
  0
LINE
  5
2A62
330
18
100
AcDbEntity
  8
L-ZISSEN
  6
Continuous
 62
     7
100
AcDbLine
 10
1679.641715507249
 20
-1469.497939535143
 30
0.0
 11
1679.641715507249
 21
-1391.997939535143
 31
0.0
  0
CIRCLE
  5
2A63
330
18
100
AcDbEntity
  8
L-ZISSEN
  6
Continuous
 62
     7
100
AcDbCircle
 10
1685.641715507249
 20
-1450.997939535143
 30
0.0
 40
5.0
  0
CIRCLE
  5
2A64
330
18
100
AcDbEntity
  8
L-ZISSEN
  6
Continuous
 62
     7
100
AcDbCircle
 10
1685.641715507249
 20
-1398.997939535143
 30
0.0
 40
5.0
  0
CIRCLE
  5
2A65
330
18
100
AcDbEntity
  8
L-ZISSEN
  6
Continuous
 62
     7
100
AcDbCircle
 10
1707.641715507249
 20
-1424.997939535143
 30
0.0
 40
22.5
  0
LINE
  5
2A66
330
18
100
AcDbEntity
  8
L-ZISSEN
  6
Continuous
 62
     7
100
AcDbLine
 10
1663.64171550725
 20
-1362.997939535143
 30
0.0
 11
1785.64171550725
 21
-1362.997939535143
 31
0.0
  0
LINE
  5
2A67
330
18
100
AcDbEntity
  8
L-ZISSEN
  6
Continuous
 62
     7
100
AcDbLine
 10
1648.64171550725
 20
-1368.497939535143
 30
0.0
 11
1656.14171550725
 21
-1368.497939535143
 31
0.0
  0
LINE
  5
2A68
330
18
100
AcDbEntity
  8
L-ZISSEN
  6
Continuous
 62
     7
100
AcDbLine
 10
1648.64171550725
 20
-1413.497939535143
 30
0.0
 11
1648.64171550725
 21
-1368.497939535143
 31
0.0
  0
LINE
  5
2A69
330
18
100
AcDbEntity
  8
L-ZISSEN
  6
Continuous
 62
     7
100
AcDbLine
 10
1648.64171550725
 20
-1413.497939535143
 30
0.0
 11
1656.14171550725
 21
-1413.497939535143
 31
0.0
  0
LINE
  5
2A6A
330
18
100
AcDbEntity
  8
L-ZISSEN
  6
Continuous
 62
     7
100
AcDbLine
 10
1663.64171550725
 20
-1362.997939535143
 30
0.0
 11
1663.64171550725
 21
-1418.997939535143
 31
0.0
  0
LINE
  5
2A6B
330
18
100
AcDbEntity
  8
L-ZISSEN
  6
Continuous
 62
     7
100
AcDbLine
 10
1738.641715507249
 20
-1367.997939535143
 30
0.0
 11
1676.64171550725
 21
-1367.997939535143
 31
0.0
  0
LINE
  5
2A6C
330
18
100
AcDbEntity
  8
L-ZISSEN
  6
Continuous
 62
     7
100
AcDbLine
 10
1671.64171550725
 20
-1362.997939535143
 30
0.0
 11
1671.64171550725
 21
-1418.997939535143
 31
0.0
  0
LINE
  5
2A6D
330
18
100
AcDbEntity
  8
L-ZISSEN
  6
Continuous
 62
     7
100
AcDbLine
 10
1702.641715507249
 20
-1390.767635542227
 30
0.0
 11
1702.641715507249
 21
-1377.997939535143
 31
0.0
  0
LINE
  5
2A6E
330
18
100
AcDbEntity
  8
L-ZISSEN
  6
Continuous
 62
     7
100
AcDbLine
 10
1715.141715507249
 20
-1362.697939535143
 30
0.0
 11
1715.141715507249
 21
-1367.997939535143
 31
0.0
  0
LINE
  5
2A6F
330
18
100
AcDbEntity
  8
L-ZISSEN
  6
Continuous
 62
     7
100
AcDbLine
 10
1715.141715507249
 20
-1367.997939535143
 30
0.0
 11
1712.641715507249
 21
-1377.997939535143
 31
0.0
  0
LINE
  5
2A70
330
18
100
AcDbEntity
  8
L-ZISSEN
  6
Continuous
 62
     7
100
AcDbLine
 10
1700.141715507249
 20
-1367.997939535143
 30
0.0
 11
1702.641715507249
 21
-1377.997939535143
 31
0.0
  0
LINE
  5
2A71
330
18
100
AcDbEntity
  8
L-ZISSEN
  6
Continuous
 62
     7
100
AcDbLine
 10
1700.141715507249
 20
-1362.697939535143
 30
0.0
 11
1700.141715507249
 21
-1367.997939535143
 31
0.0
  0
LINE
  5
2A72
330
18
100
AcDbEntity
  8
L-ZISSEN
  6
Continuous
 62
     7
100
AcDbLine
 10
1735.641715507249
 20
-1469.497939535144
 30
0.0
 11
1735.64171550725
 21
-1391.997939535143
 31
0.0
  0
CIRCLE
  5
2A73
330
18
100
AcDbEntity
  8
L-ZISSEN
  6
Continuous
 62
     7
100
AcDbCircle
 10
1729.641715507249
 20
-1398.997939535143
 30
0.0
 40
5.0
  0
CIRCLE
  5
2A74
330
18
100
AcDbEntity
  8
L-ZISSEN
  6
Continuous
 62
     7
100
AcDbCircle
 10
1729.641715507249
 20
-1450.997939535143
 30
0.0
 40
5.0
  0
LINE
  5
2A75
330
18
100
AcDbEntity
  8
L-ZISSEN
  6
Continuous
 62
     7
100
AcDbLine
 10
1738.641715507249
 20
-1362.997939535143
 30
0.0
 11
1738.641715507249
 21
-1391.997939535143
 31
0.0
  0
LINE
  5
2A76
330
18
100
AcDbEntity
  8
L-ZISSEN
  6
Continuous
 62
     7
100
AcDbLine
 10
1676.64171550725
 20
-1362.997939535143
 30
0.0
 11
1676.64171550725
 21
-1391.997939535143
 31
0.0
  0
LINE
  5
2A77
330
18
100
AcDbEntity
  8
L-ZISSEN
  6
Continuous
 62
     7
100
AcDbLine
 10
1690.641715507249
 20
-1472.497939535143
 30
0.0
 11
1724.64171550725
 21
-1472.497939535143
 31
0.0
  0
LINE
  5
2A78
330
18
100
AcDbEntity
  8
L-ZISSEN
  6
Continuous
 62
     7
100
AcDbLine
 10
1679.641715507249
 20
-1469.497939535143
 30
0.0
 11
1735.641715507249
 21
-1469.497939535143
 31
0.0
  0
LINE
  5
2A79
330
18
100
AcDbEntity
  8
L-ZISSEN
  6
Continuous
 62
     7
100
AcDbLine
 10
1734.64171550725
 20
-1476.997939535144
 30
0.0
 11
1724.64171550725
 21
-1476.997939535144
 31
0.0
  0
LINE
  5
2A7A
330
18
100
AcDbEntity
  8
L-ZISSEN
  6
Continuous
 62
     7
100
AcDbLine
 10
1734.64171550725
 20
-1476.997939535144
 30
0.0
 11
1734.64171550725
 21
-1469.497939535143
 31
0.0
  0
LINE
  5
2A7B
330
18
100
AcDbEntity
  8
L-TYUSIN
  6
CENTER
 62
     1
100
AcDbLine
 10
1681.64171550725
 20
-1424.997939535143
 30
0.0
 11
1733.641715507249
 21
-1424.997939535143
 31
0.0
  0
LINE
  5
2A7C
330
18
100
AcDbEntity
  8
L-ZISSEN
  6
Continuous
 62
     7
100
AcDbLine
 10
1735.64171550725
 20
-1418.997939535143
 30
0.0
 11
1745.94171550725
 21
-1418.997939535143
 31
0.0
  0
LINE
  5
2A7D
330
18
100
AcDbEntity
  8
L-ZISSEN
  6
Continuous
 62
     7
100
AcDbLine
 10
1785.64171550725
 20
-1404.997939535143
 30
0.0
 11
1785.64171550725
 21
-1362.997939535143
 31
0.0
  0
LINE
  5
2A7E
330
18
100
AcDbEntity
  8
L-TYUSIN
  6
CENTER
 62
     1
100
AcDbLine
 10
1746.035918563819
 20
-1390.997939535143
 30
0.0
 11
1643.64171550725
 21
-1390.997939535143
 31
0.0
  0
LINE
  5
2A7F
330
18
100
AcDbEntity
  8
L-ZISSEN
100
AcDbLine
 10
1712.641715507249
 20
-1390.767635542227
 30
0.0
 11
1702.641715507249
 21
-1390.767635542227
 31
0.0
  0
LINE
  5
2A80
330
18
100
AcDbEntity
  8
L-ZISSEN
  6
Continuous
 62
     7
100
AcDbLine
 10
1712.641715507249
 20
-1390.767635542227
 30
0.0
 11
1712.641715507249
 21
-1377.997939535143
 31
0.0
  0
LINE
  5
2A81
330
18
100
AcDbEntity
  8
L-ZISSEN
  6
Continuous
 62
     7
100
AcDbLine
 10
1679.641715507249
 20
-1457.997939535143
 30
0.0
 11
1735.641715507249
 21
-1457.997939535143
 31
0.0
  0
LINE
  5
2A82
330
18
100
AcDbEntity
  8
L-ZISSEN
  6
Continuous
 62
     7
100
AcDbLine
 10
1679.641715507249
 20
-1464.997939535143
 30
0.0
 11
1735.641715507249
 21
-1464.997939535143
 31
0.0
  0
LINE
  5
2A83
330
18
100
AcDbEntity
  8
L-ZISSEN
  6
Continuous
 62
     7
100
AcDbLine
 10
1724.64171550725
 20
-1476.997939535144
 30
0.0
 11
1724.64171550725
 21
-1469.497939535143
 31
0.0
  0
LINE
  5
2A84
330
18
100
AcDbEntity
  8
L-ZISSEN
  6
Continuous
 62
     7
100
AcDbLine
 10
1680.641715507249
 20
-1476.997939535143
 30
0.0
 11
1680.641715507249
 21
-1469.497939535143
 31
0.0
  0
LINE
  5
2A85
330
18
100
AcDbEntity
  8
L-ZISSEN
  6
Continuous
 62
     7
100
AcDbLine
 10
1690.64171550725
 20
-1476.997939535143
 30
0.0
 11
1690.64171550725
 21
-1469.497939535143
 31
0.0
  0
LINE
  5
2A86
330
18
100
AcDbEntity
  8
L-ZISSEN
  6
Continuous
 62
     7
100
AcDbLine
 10
1690.64171550725
 20
-1476.997939535143
 30
0.0
 11
1680.641715507249
 21
-1476.997939535143
 31
0.0
  0
LINE
  5
2A87
330
18
100
AcDbEntity
  8
L-ZISSEN
  6
Continuous
 62
     7
100
AcDbLine
 10
1743.64171550725
 20
-1404.997939535143
 30
0.0
 11
1785.64171550725
 21
-1404.997939535143
 31
0.0
  0
LINE
  5
2A88
330
18
100
AcDbEntity
  8
L-ZISSEN
  6
Continuous
 62
     7
100
AcDbLine
 10
1783.34171550725
 20
-1404.997939535143
 30
0.0
 11
1783.34171550725
 21
-1362.997939535143
 31
0.0
  0
LINE
  5
2A89
330
18
100
AcDbEntity
  8
L-ZISSEN
100
AcDbLine
 10
1745.94171550725
 20
-1404.997939535143
 30
0.0
 11
1745.94171550725
 21
-1418.997939535143
 31
0.0
  0
LINE
  5
2A8B
330
18
100
AcDbEntity
  8
L-ZISSEN
100
AcDbLine
 10
1676.141715507249
 20
-1362.697939535143
 30
0.0
 11
1676.141715507249
 21
-1362.997939535143
 31
0.0
  0
LINE
  5
2A8E
330
18
100
AcDbEntity
  8
L-TYUSIN
  6
CENTER
 62
     1
100
AcDbLine
 10
1684.641715507249
 20
-1440.997939535143
 30
0.0
 11
1674.64171550725
 21
-1440.997939535143
 31
0.0
  0
LINE
  5
2A8F
330
18
100
AcDbEntity
  8
L-TYUSIN
  6
CENTER
 62
     1
100
AcDbLine
 10
1730.64171550725
 20
-1440.997939535143
 30
0.0
 11
1740.641715507249
 21
-1440.997939535143
 31
0.0
  0
LINE
  5
2ADB
330
18
100
AcDbEntity
  8
L-ZISSEN
  6
Continuous
 62
     7
100
AcDbLine
 10
1889.881524983824
 20
-1457.997939535143
 30
0.0
 11
1876.881524983824
 21
-1457.997939535143
 31
0.0
  0
LINE
  5
2ADC
330
18
100
AcDbEntity
  8
L-ZISSEN
  6
Continuous
 62
     7
100
AcDbLine
 10
1869.381524983824
 20
-1455.997939535143
 30
0.0
 11
1876.881524983824
 21
-1455.997939535143
 31
0.0
  0
LINE
  5
2ADD
330
18
100
AcDbEntity
  8
L-ZISSEN
  6
Continuous
 62
     7
100
AcDbLine
 10
1869.381524983824
 20
-1455.997939535143
 30
0.0
 11
1869.381524983824
 21
-1445.997939535143
 31
0.0
  0
LINE
  5
2ADE
330
18
100
AcDbEntity
  8
L-ZISSEN
  6
Continuous
 62
     7
100
AcDbLine
 10
1861.881524983824
 20
-1447.497939535143
 30
0.0
 11
1869.381524983824
 21
-1447.497939535143
 31
0.0
  0
LINE
  5
2ADF
330
18
100
AcDbEntity
  8
L-ZISSEN
  6
Continuous
 62
     7
100
AcDbLine
 10
1861.881524983824
 20
-1447.497939535143
 30
0.0
 11
1861.881524983824
 21
-1404.997939535143
 31
0.0
  0
LINE
  5
2AE0
330
18
100
AcDbEntity
  8
L-ZISSEN
  6
Continuous
 62
     7
100
AcDbLine
 10
1876.881524983824
 20
-1457.997939535143
 30
0.0
 11
1876.881524983824
 21
-1404.997939535143
 31
0.0
  0
LINE
  5
2AE1
330
18
100
AcDbEntity
  8
L-ZISSEN
  6
Continuous
 62
     7
100
AcDbLine
 10
1869.381524983824
 20
-1445.997939535143
 30
0.0
 11
1876.881524983824
 21
-1445.997939535143
 31
0.0
  0
LINE
  5
2AE2
330
18
100
AcDbEntity
  8
L-ZISSEN
  6
Continuous
 62
     7
100
AcDbLine
 10
1966.381524983824
 20
-1445.997939535143
 30
0.0
 11
1958.881524983824
 21
-1445.997939535143
 31
0.0
  0
LINE
  5
2AE3
330
18
100
AcDbEntity
  8
L-ZISSEN
  6
Continuous
 62
     7
100
AcDbLine
 10
1950.881524983824
 20
-1418.997939535143
 30
0.0
 11
1884.881524983824
 21
-1418.997939535143
 31
0.0
  0
LINE
  5
2AE4
330
18
100
AcDbEntity
  8
L-ZISSEN
  6
Continuous
 62
     7
100
AcDbLine
 10
1945.881524983824
 20
-1464.997939535143
 30
0.0
 11
1889.881524983824
 21
-1464.997939535143
 31
0.0
  0
LINE
  5
2AE5
330
18
100
AcDbEntity
  8
L-ZISSEN
  6
Continuous
 62
     7
100
AcDbLine
 10
1889.881524983824
 20
-1469.497939535144
 30
0.0
 11
1889.881524983824
 21
-1457.997939535143
 31
0.0
  0
LINE
  5
2AE6
330
18
100
AcDbEntity
  8
L-ZISSEN
  6
Continuous
 62
     7
100
AcDbLine
 10
1945.881524983824
 20
-1469.497939535144
 30
0.0
 11
1945.881524983824
 21
-1457.997939535143
 31
0.0
  0
LINE
  5
2AE7
330
18
100
AcDbEntity
  8
L-ZISSEN
  6
Continuous
 62
     7
100
AcDbLine
 10
1945.881524983824
 20
-1457.997939535143
 30
0.0
 11
1958.881524983824
 21
-1457.997939535143
 31
0.0
  0
LINE
  5
2AE8
330
18
100
AcDbEntity
  8
L-ZISSEN
  6
Continuous
 62
     7
100
AcDbLine
 10
1884.881524983824
 20
-1362.697939535143
 30
0.0
 11
1884.881524983824
 21
-1457.997939535143
 31
0.0
  0
LINE
  5
2AE9
330
18
100
AcDbEntity
  8
L-ZISSEN
  6
Continuous
 62
     7
100
AcDbLine
 10
1950.881524983824
 20
-1360.997939535143
 30
0.0
 11
1950.881524983824
 21
-1457.997939535143
 31
0.0
  0
CIRCLE
  5
2AEA
330
18
100
AcDbEntity
  8
L-ZISSEN
  6
Continuous
 62
     7
100
AcDbCircle
 10
1943.881524983824
 20
-1368.997939535143
 30
0.0
 40
5.0
  0
LINE
  5
2AEB
330
18
100
AcDbEntity
  8
L-ZISSEN
  6
Continuous
 62
     7
100
AcDbLine
 10
1958.881524983824
 20
-1457.997939535143
 30
0.0
 11
1958.881524983824
 21
-1404.997939535143
 31
0.0
  0
LINE
  5
2AEC
330
18
100
AcDbEntity
  8
L-ZISSEN
  6
Continuous
 62
     7
100
AcDbLine
 10
1973.881524983824
 20
-1447.497939535143
 30
0.0
 11
1973.881524983824
 21
-1404.997939535143
 31
0.0
  0
CIRCLE
  5
2AED
330
18
100
AcDbEntity
  8
L-ZISSEN
  6
Continuous
 62
     7
100
AcDbCircle
 10
1891.881524983824
 20
-1368.997939535143
 30
0.0
 40
5.0
  0
CIRCLE
  5
2AEE
330
18
100
AcDbEntity
  8
L-ZISSEN
  6
Continuous
 62
     7
100
AcDbCircle
 10
1943.881524983824
 20
-1412.997939535143
 30
0.0
 40
5.0
  0
CIRCLE
  5
2AEF
330
18
100
AcDbEntity
  8
L-ZISSEN
  6
Continuous
 62
     7
100
AcDbCircle
 10
1891.881524983824
 20
-1412.997939535143
 30
0.0
 40
5.0
  0
LINE
  5
2AF0
330
18
100
AcDbEntity
  8
L-ZISSEN
  6
Continuous
 62
     7
100
AcDbLine
 10
1945.881524983824
 20
-1469.497939535144
 30
0.0
 11
1889.881524983824
 21
-1469.497939535144
 31
0.0
  0
LINE
  5
2AF1
330
18
100
AcDbEntity
  8
L-ZISSEN
  6
Continuous
 62
     7
100
AcDbLine
 10
1934.881524983824
 20
-1472.497939535144
 30
0.0
 11
1900.881524983824
 21
-1472.497939535144
 31
0.0
  0
LINE
  5
2AF2
330
18
100
AcDbEntity
  8
L-ZISSEN
  6
Continuous
 62
     7
100
AcDbLine
 10
1934.881524983824
 20
-1476.997939535144
 30
0.0
 11
1934.881524983824
 21
-1469.497939535144
 31
0.0
  0
LINE
  5
2AF3
330
18
100
AcDbEntity
  8
L-ZISSEN
  6
Continuous
 62
     7
100
AcDbLine
 10
1944.881524983824
 20
-1476.997939535144
 30
0.0
 11
1934.881524983824
 21
-1476.997939535144
 31
0.0
  0
LINE
  5
2AF4
330
18
100
AcDbEntity
  8
L-ZISSEN
  6
Continuous
 62
     7
100
AcDbLine
 10
1944.881524983824
 20
-1476.997939535144
 30
0.0
 11
1944.881524983824
 21
-1469.497939535144
 31
0.0
  0
LINE
  5
2AF5
330
18
100
AcDbEntity
  8
L-ZISSEN
  6
Continuous
 62
     7
100
AcDbLine
 10
1847.881524983824
 20
-1362.997939535143
 30
0.0
 11
1987.881524983824
 21
-1362.997939535143
 31
0.0
  0
LINE
  5
2AF6
330
18
100
AcDbEntity
  8
L-TYUSIN
  6
CENTER
 62
     1
100
AcDbLine
 10
1978.881524983824
 20
-1424.997939535143
 30
0.0
 11
1856.881524983824
 21
-1424.997939535143
 31
0.0
  0
LINE
  5
2AF7
330
18
100
AcDbEntity
  8
L-ZISSEN
  6
Continuous
 62
     7
100
AcDbLine
 10
1900.881524983824
 20
-1476.997939535144
 30
0.0
 11
1900.881524983824
 21
-1469.497939535144
 31
0.0
  0
LINE
  5
2AF8
330
18
100
AcDbEntity
  8
L-ZISSEN
  6
Continuous
 62
     7
100
AcDbLine
 10
1900.881524983824
 20
-1476.997939535144
 30
0.0
 11
1890.881524983824
 21
-1476.997939535144
 31
0.0
  0
LINE
  5
2AF9
330
18
100
AcDbEntity
  8
L-ZISSEN
  6
Continuous
 62
     7
100
AcDbLine
 10
1890.881524983824
 20
-1476.997939535144
 30
0.0
 11
1890.881524983824
 21
-1469.497939535144
 31
0.0
  0
LINE
  5
2AFA
330
18
100
AcDbEntity
  8
L-ZISSEN
  6
Continuous
 62
     7
100
AcDbLine
 10
1973.881524983824
 20
-1447.497939535143
 30
0.0
 11
1966.381524983824
 21
-1447.497939535143
 31
0.0
  0
LINE
  5
2AFB
330
18
100
AcDbEntity
  8
L-ZISSEN
  6
Continuous
 62
     7
100
AcDbLine
 10
1966.381524983824
 20
-1455.997939535143
 30
0.0
 11
1966.381524983824
 21
-1445.997939535143
 31
0.0
  0
LINE
  5
2AFC
330
18
100
AcDbEntity
  8
L-ZISSEN
  6
Continuous
 62
     7
100
AcDbLine
 10
1966.381524983824
 20
-1455.997939535143
 30
0.0
 11
1958.881524983824
 21
-1455.997939535143
 31
0.0
  0
LINE
  5
2AFD
330
18
100
AcDbEntity
  8
L-TYUSIN
  6
CENTER
 62
     1
100
AcDbLine
 10
1917.881524983824
 20
-1222.867939535143
 30
0.0
 11
1917.881524983824
 21
-1478.997939535144
 31
0.0
  0
LINE
  5
2AFE
330
18
100
AcDbEntity
  8
L-ZISSEN
100
AcDbLine
 10
1962.881524983824
 20
-1381.497939535143
 30
0.0
 11
1977.881524983824
 21
-1381.497939535144
 31
0.0
  0
LINE
  5
2AFF
330
18
100
AcDbEntity
  8
L-ZISSEN
100
AcDbLine
 10
1962.881524983824
 20
-1388.497939535144
 30
0.0
 11
1977.881524983824
 21
-1388.497939535143
 31
0.0
  0
ARC
  5
2B00
330
18
100
AcDbEntity
  8
L-ZISSEN
100
AcDbCircle
 10
1977.881524983824
 20
-1384.997939535143
 30
0.0
 40
3.5
100
AcDbArc
 50
270.0
 51
90.0
  0
ARC
  5
2B01
330
18
100
AcDbEntity
  8
L-ZISSEN
100
AcDbCircle
 10
1962.881524983824
 20
-1384.997939535143
 30
0.0
 40
3.5
100
AcDbArc
 50
90.0
 51
270.0
  0
LINE
  5
2B02
330
18
100
AcDbEntity
  8
L-TYUSIN
  6
CENTER
 62
     1
100
AcDbLine
 10
1977.881524983824
 20
-1377.497939535143
 30
0.0
 11
1977.881524983824
 21
-1392.497939535144
 31
0.0
  0
LINE
  5
2B03
330
18
100
AcDbEntity
  8
L-TYUSIN
  6
CENTER
 62
     1
100
AcDbLine
 10
1962.881524983824
 20
-1377.497939535143
 30
0.0
 11
1962.881524983824
 21
-1392.497939535144
 31
0.0
  0
LINE
  5
2B04
330
18
100
AcDbEntity
  8
L-TYUSIN
  6
CENTER
 62
     1
100
AcDbLine
 10
1985.381524983824
 20
-1384.997939535143
 30
0.0
 11
1955.381524983824
 21
-1384.997939535143
 31
0.0
  0
LINE
  5
2B05
330
18
100
AcDbEntity
  8
L-ZISSEN
100
AcDbLine
 10
1872.881524983824
 20
-1381.497939535143
 30
0.0
 11
1857.881524983824
 21
-1381.497939535144
 31
0.0
  0
ARC
  5
2B06
330
18
100
AcDbEntity
  8
L-ZISSEN
100
AcDbCircle
 10
1857.881524983824
 20
-1384.997939535143
 30
0.0
 40
3.5
100
AcDbArc
 50
90.0
 51
270.0
  0
ARC
  5
2B07
330
18
100
AcDbEntity
  8
L-ZISSEN
100
AcDbCircle
 10
1872.881524983824
 20
-1384.997939535143
 30
0.0
 40
3.5
100
AcDbArc
 50
270.0
 51
90.0
  0
LINE
  5
2B08
330
18
100
AcDbEntity
  8
L-ZISSEN
100
AcDbLine
 10
1872.881524983824
 20
-1388.497939535144
 30
0.0
 11
1857.881524983824
 21
-1388.497939535143
 31
0.0
  0
LINE
  5
2B09
330
18
100
AcDbEntity
  8
L-TYUSIN
  6
CENTER
 62
     1
100
AcDbLine
 10
1850.381524983824
 20
-1384.997939535143
 30
0.0
 11
1880.381524983824
 21
-1384.997939535143
 31
0.0
  0
LINE
  5
2B0A
330
18
100
AcDbEntity
  8
L-TYUSIN
  6
CENTER
 62
     1
100
AcDbLine
 10
1857.881524983824
 20
-1377.497939535143
 30
0.0
 11
1857.881524983824
 21
-1392.497939535144
 31
0.0
  0
LINE
  5
2B0B
330
18
100
AcDbEntity
  8
L-TYUSIN
  6
CENTER
 62
     1
100
AcDbLine
 10
1872.881524983824
 20
-1377.497939535143
 30
0.0
 11
1872.881524983824
 21
-1392.497939535144
 31
0.0
  0
LINE
  5
2B0C
330
18
100
AcDbEntity
  8
L-ZISSEN
100
AcDbLine
 10
1847.881524983824
 20
-1362.997939535143
 30
0.0
 11
1847.881524983824
 21
-1404.997939535143
 31
0.0
  0
LINE
  5
2B0D
330
18
100
AcDbEntity
  8
L-ZISSEN
  6
Continuous
 62
     7
100
AcDbLine
 10
1884.881524983824
 20
-1404.997939535143
 30
0.0
 11
1847.881524983824
 21
-1404.997939535143
 31
0.0
  0
LINE
  5
2B0E
330
18
100
AcDbEntity
  8
L-ZISSEN
  6
Continuous
 62
     7
100
AcDbLine
 10
1987.881524983824
 20
-1404.997939535143
 30
0.0
 11
1950.881524983824
 21
-1404.997939535143
 31
0.0
  0
LINE
  5
2B0F
330
18
100
AcDbEntity
  8
L-ZISSEN
100
AcDbLine
 10
1987.881524983824
 20
-1362.997939535143
 30
0.0
 11
1987.881524983824
 21
-1404.997939535143
 31
0.0
  0
LINE
  5
2B10
330
18
100
AcDbEntity
  8
L-ZISSEN
100
AcDbLine
 10
1878.881524983824
 20
-1362.697939535143
 30
0.0
 11
1878.881524983824
 21
-1362.997939535143
 31
0.0
  0
LINE
  5
2B11
330
18
100
AcDbEntity
  8
L-ZISSEN
100
AcDbLine
 10
1956.881524983824
 20
-1360.997939535143
 30
0.0
 11
1956.881524983824
 21
-1362.997939535143
 31
0.0
  0
LINE
  5
2B12
330
18
100
AcDbEntity
  8
L-TYUSIN
  6
CENTER
 62
     1
100
AcDbLine
 10
1933.881524983822
 20
-1440.997939535143
 30
0.0
 11
1949.881524983825
 21
-1440.997939535143
 31
0.0
  0
CIRCLE
  5
2B13
330
18
100
AcDbEntity
  8
L-ZISSEN
  6
Continuous
 62
     7
100
AcDbCircle
 10
1941.881524983824
 20
-1440.997939535143
 30
0.0
 40
4.283
  0
LINE
  5
2B14
330
18
100
AcDbEntity
  8
L-TYUSIN
  6
CENTER
 62
     1
100
AcDbLine
 10
1941.881524983824
 20
-1432.997939535142
 30
0.0
 11
1941.881524983824
 21
-1448.997939535145
 31
0.0
  0
LINE
  5
2BD1
330
18
100
AcDbEntity
  8
L-ZISSEN
100
AcDbLine
 10
1956.881524983824
 20
-1362.697939535143
 30
0.0
 11
1956.881524983824
 21
-1367.997939535144
 31
0.0
  0
LINE
  5
2BD4
330
18
100
AcDbEntity
  8
L-TYUSIN
370
    -1
100
AcDbLine
 10
1917.881524983824
 20
-1320.553924427801
 30
0.0
 11
1917.881524983824
 21
-1219.31358017987
 31
0.0
  0
LINE
  5
2BD5
330
18
100
AcDbEntity
  8
L-TYUSIN
  6
CENTER
 62
     1
370
    -1
100
AcDbLine
 10
1917.881524983824
 20
-1231.619295001352
 30
0.0
 11
1917.881524983824
 21
-1475.497939535143
 31
0.0
  0
LINE
  5
2BD8
330
18
100
AcDbEntity
  8
L-ZISSEN
370
    -1
100
AcDbLine
 10
1895.25815208607
 20
-1328.227939535143
 30
0.0
 11
1881.881524983824
 21
-1328.227939535143
 31
0.0
  0
LINE
  5
2BD9
330
18
100
AcDbEntity
  8
L-ZISSEN
370
    -1
100
AcDbLine
 10
1970.581524983824
 20
-1350.497939535143
 30
0.0
 11
1865.181524983824
 21
-1350.497939535143
 31
0.0
  0
LINE
  5
2BDA
330
18
100
AcDbEntity
  8
L-ZISSEN
370
    -1
100
AcDbLine
 10
1970.881524983824
 20
-1340.497939535143
 30
0.0
 11
1864.881524983824
 21
-1340.497939535143
 31
0.0
  0
LINE
  5
2BDB
330
18
100
AcDbEntity
  8
L-ZISSEN
370
    -1
100
AcDbLine
 10
1881.881524983824
 20
-1319.727939535143
 30
0.0
 11
1953.881524983824
 21
-1319.727939535143
 31
0.0
  0
LINE
  5
2BDC
330
18
100
AcDbEntity
  8
L-ZISSEN
370
    -1
100
AcDbLine
 10
1946.174418202637
 20
-1312.227939535143
 30
0.0
 11
1889.588631765011
 21
-1312.227939535143
 31
0.0
  0
LINE
  5
2BDD
330
18
100
AcDbEntity
  8
L-ZISSEN
370
    -1
100
AcDbLine
 10
1865.381524983824
 20
-1331.227939535143
 30
0.0
 11
1970.381524983824
 21
-1331.227939535143
 31
0.0
  0
LINE
  5
2BDE
330
18
100
AcDbEntity
  8
L-ZISSEN
370
    -1
100
AcDbLine
 10
1970.881524983824
 20
-1339.227939535143
 30
0.0
 11
1864.881524983824
 21
-1339.227939535143
 31
0.0
  0
ARC
  5
2BDF
330
18
100
AcDbEntity
  8
L-ZISSEN
370
    -1
100
AcDbCircle
 10
1876.897247189537
 20
-1328.640447357423
 30
0.0
 40
1.6
100
AcDbArc
 50
0.0
 51
73.80864836138818
  0
LINE
  5
2BE0
330
18
100
AcDbEntity
  8
L-ZISSEN
370
    -1
100
AcDbLine
 10
1881.881524983824
 20
-1319.727939535143
 30
0.0
 11
1881.881524983824
 21
-1328.227939535143
 31
0.0
  0
ARC
  5
2BE1
330
18
100
AcDbEntity
  8
L-ZISSEN
370
    -1
100
AcDbCircle
 10
1871.097247189537
 20
-1328.640447357423
 30
0.0
 40
1.6
100
AcDbArc
 50
106.1913516386118
 51
180.0
  0
LINE
  5
2BE3
330
18
100
AcDbEntity
  8
L-ZISSEN
370
    -1
100
AcDbLine
 10
1865.881524983824
 20
-1313.727939535142
 30
0.0
 11
1865.881524983824
 21
-1330.727939535143
 31
0.0
  0
LINE
  5
2BE4
330
18
100
AcDbEntity
  8
L-ZISSEN
370
    -1
100
AcDbLine
 10
1881.881524983824
 20
-1328.227939535143
 30
0.0
 11
1878.247247189538
 21
-1330.326190797985
 31
0.0
  0
LINE
  5
2BE5
330
18
100
AcDbEntity
  8
L-ZISSEN
370
    -1
100
AcDbLine
 10
1878.497247189538
 20
-1328.640447357423
 30
0.0
 11
1878.497247189538
 21
-1329.927939535143
 31
0.0
  0
LINE
  5
2BE6
330
18
100
AcDbEntity
  8
L-ZISSEN
370
    -1
100
AcDbLine
 10
1878.247247189538
 20
-1329.927939535143
 30
0.0
 11
1878.247247189538
 21
-1331.227939535143
 31
0.0
  0
LINE
  5
2BE7
330
18
100
AcDbEntity
  8
L-ZISSEN
370
    -1
100
AcDbLine
 10
1864.881524983824
 20
-1339.227939535143
 30
0.0
 11
1864.881524983824
 21
-1331.727939535143
 31
0.0
  0
LINE
  5
2BE8
330
18
100
AcDbEntity
  8
L-ZISSEN
370
    -1
100
AcDbLine
 10
1869.497247189538
 20
-1329.927939535143
 30
0.0
 11
1869.497247189538
 21
-1328.640447357423
 31
0.0
  0
LINE
  5
2BE9
330
18
100
AcDbEntity
  8
L-ZISSEN
370
    -1
100
AcDbLine
 10
1869.747247189538
 20
-1331.227939535143
 30
0.0
 11
1869.747247189538
 21
-1329.927939535143
 31
0.0
  0
ARC
  5
2BEA
330
18
100
AcDbEntity
  8
L-ZISSEN
370
    -1
100
AcDbCircle
 10
1865.381524983824
 20
-1331.727939535143
 30
0.0
 40
0.5
100
AcDbArc
 50
90.0
 51
180.0
  0
ARC
  5
2BEB
330
18
100
AcDbEntity
  8
L-ZISSEN
370
    -1
100
AcDbCircle
 10
1865.381524983824
 20
-1330.727939535143
 30
0.0
 40
0.5
100
AcDbArc
 50
270.0
 51
0.0
  0
LINE
  5
2BEC
330
18
100
AcDbEntity
  8
L-ZISSEN
370
    -1
100
AcDbLine
 10
1869.497247189538
 20
-1329.927939535143
 30
0.0
 11
1878.497247189538
 21
-1329.927939535143
 31
0.0
  0
ARC
  5
2BED
330
18
100
AcDbEntity
  8
L-ZISSEN
370
    -1
100
AcDbCircle
 10
1875.081524983824
 20
-1350.797939535143
 30
0.0
 40
0.3
100
AcDbArc
 50
0.0
 51
90.0
  0
ARC
  5
2BEE
330
18
100
AcDbEntity
  8
L-ZISSEN
370
    -1
100
AcDbCircle
 10
1875.081524983824
 20
-1350.797939535143
 30
0.0
 40
0.3
100
AcDbArc
 50
0.0
 51
90.0
  0
LINE
  5
2BEF
330
18
100
AcDbEntity
  8
L-ZISSEN
370
    -1
100
AcDbLine
 10
1875.381524983824
 20
-1350.797939535143
 30
0.0
 11
1875.381524983824
 21
-1362.697939535143
 31
0.0
  0
ARC
  5
2BF0
330
18
100
AcDbEntity
  8
L-ZISSEN
370
    -1
100
AcDbCircle
 10
1865.181524983824
 20
-1350.197939535143
 30
0.0
 40
0.3
100
AcDbArc
 50
180.0
 51
270.0
  0
ARC
  5
2BF1
330
18
100
AcDbEntity
  8
L-ZISSEN
370
    -1
100
AcDbCircle
 10
1865.181524983824
 20
-1350.197939535143
 30
0.0
 40
0.3
100
AcDbArc
 50
180.0
 51
270.0
  0
LINE
  5
2BF2
330
18
100
AcDbEntity
  8
L-ZISSEN
370
    -1
100
AcDbLine
 10
1864.881524983824
 20
-1340.497939535143
 30
0.0
 11
1864.881524983824
 21
-1350.197939535143
 31
0.0
  0
ARC
  5
2BF3
330
18
100
AcDbEntity
  8
L-ZISSEN
370
    -1
100
AcDbCircle
 10
1869.801140226095
 20
-1360.697939535145
 30
0.0
 40
0.3
100
AcDbArc
 50
270.0
 51
300.0000000000254
  0
ARC
  5
2BF4
330
18
100
AcDbEntity
  8
L-ZISSEN
370
    -1
100
AcDbCircle
 10
1872.559985952909
 20
-1359.797939535143
 30
0.0
 40
0.3
100
AcDbArc
 50
90.0
 51
120.0000000000254
  0
LINE
  5
2BF5
330
18
100
AcDbEntity
  8
L-ZISSEN
370
    -1
100
AcDbLine
 10
1873.881524983824
 20
-1359.497939535143
 30
0.0
 11
1872.559985952909
 21
-1359.497939535143
 31
0.0
  0
LINE
  5
2BF6
330
18
100
AcDbEntity
  8
L-ZISSEN
370
    -1
100
AcDbLine
 10
1869.951140226095
 20
-1360.95774715628
 30
0.0
 11
1872.409985952909
 21
-1359.538131914008
 31
0.0
  0
ARC
  5
2BF7
330
18
100
AcDbEntity
  8
L-ZISSEN
370
    -1
100
AcDbCircle
 10
1866.181524983824
 20
-1360.697939535145
 30
0.0
 40
0.3
100
AcDbArc
 50
180.0
 51
270.0
  0
LINE
  5
2BF8
330
18
100
AcDbEntity
  8
L-ZISSEN
370
    -1
100
AcDbLine
 10
1869.801140226095
 20
-1360.997939535145
 30
0.0
 11
1866.181524983824
 21
-1360.997939535145
 31
0.0
  0
ARC
  5
2BF9
330
18
100
AcDbEntity
  8
L-ZISSEN
370
    -1
100
AcDbCircle
 10
1866.181524983824
 20
-1360.697939535145
 30
0.0
 40
0.3
100
AcDbArc
 50
180.0
 51
270.0
  0
LINE
  5
2BFC
330
18
100
AcDbEntity
  8
L-ZISSEN
370
    -1
100
AcDbLine
 10
1865.881524983824
 20
-1350.497939535143
 30
0.0
 11
1865.881524983824
 21
-1360.697939535145
 31
0.0
  0
ARC
  5
2BFD
330
18
100
AcDbEntity
  8
L-ZISSEN
370
    -1
100
AcDbCircle
 10
1873.881524983824
 20
-1360.997939535143
 30
0.0
 40
1.5
100
AcDbArc
 50
0.0
 51
90.0
  0
LINE
  5
2BFF
330
18
100
AcDbEntity
  8
L-ZISSEN
370
    -1
100
AcDbLine
 10
1864.881524983824
 20
-1339.227939535143
 30
0.0
 11
1864.881524983824
 21
-1340.497939535143
 31
0.0
  0
LINE
  5
2C00
330
18
100
AcDbEntity
  8
L-ZISSEN
370
    -1
100
AcDbLine
 10
1889.235078374417
 20
-1312.37438614455
 30
0.0
 11
1881.881524983824
 21
-1319.727939535143
 31
0.0
  0
ARC
  5
2C01
330
18
100
AcDbEntity
  8
L-ZISSEN
370
    -1
100
AcDbCircle
 10
1889.588631765011
 20
-1312.727939535143
 30
0.0
 40
0.5
100
AcDbArc
 50
90.0
 51
135.0000000000184
  0
LINE
  5
2C02
330
18
100
AcDbEntity
  8
L-ZISSEN
370
    -1
100
AcDbLine
 10
1877.945108257582
 20
-1313.244976621997
 30
0.0
 11
1886.162613897071
 21
-1315.446850621896
 31
0.0
  0
ARC
  5
2C03
330
18
100
AcDbEntity
  8
L-ZISSEN
370
    -1
100
AcDbCircle
 10
1877.81569873503
 20
-1313.727939535142
 30
0.0
 40
0.5
100
AcDbArc
 50
75.00000000000554
 51
90.0
  0
LINE
  5
2C04
330
18
100
AcDbEntity
  8
L-ZISSEN
370
    -1
100
AcDbLine
 10
1877.881524983824
 20
-1313.899558802485
 30
0.0
 11
1877.881524983824
 21
-1327.379020695396
 31
0.0
  0
ARC
  5
2C05
330
18
100
AcDbEntity
  8
L-ZISSEN
370
    -1
100
AcDbCircle
 10
1866.381524983824
 20
-1313.727939535142
 30
0.0
 40
0.5
100
AcDbArc
 50
90.0
 51
180.0
  0
ARC
  5
2C0F
330
18
100
AcDbEntity
  8
L-ZISSEN
370
    -1
100
AcDbCircle
 10
1873.997247189538
 20
-1338.627939535144
 30
0.0
 40
12.0
100
AcDbArc
 50
73.80864836138804
 51
106.191351638612
  0
LINE
  5
2C10
330
18
100
AcDbEntity
  8
L-ZISSEN
370
    -1
100
AcDbLine
 10
1877.81569873503
 20
-1313.227939535142
 30
0.0
 11
1866.381524983824
 21
-1313.227939535142
 31
0.0
  0
ARC
  5
2C11
330
18
100
AcDbEntity
  8
L-ZISSEN
370
    -1
100
AcDbCircle
 10
1964.66580277811
 20
-1328.640447357423
 30
0.0
 40
1.6
100
AcDbArc
 50
0.0
 51
73.80864836138818
  0
ARC
  5
2C12
330
18
100
AcDbEntity
  8
L-ZISSEN
370
    -1
100
AcDbCircle
 10
1958.86580277811
 20
-1328.640447357423
 30
0.0
 40
1.6
100
AcDbArc
 50
106.1913516386118
 51
180.0
  0
LINE
  5
2C13
330
18
100
AcDbEntity
  8
L-ZISSEN
370
    -1
100
AcDbLine
 10
1953.881524983824
 20
-1319.727939535143
 30
0.0
 11
1953.881524983824
 21
-1328.227939535143
 31
0.0
  0
LINE
  5
2C15
330
18
100
AcDbEntity
  8
L-ZISSEN
370
    -1
100
AcDbLine
 10
1969.881524983824
 20
-1313.727939535142
 30
0.0
 11
1969.881524983824
 21
-1330.727939535143
 31
0.0
  0
ARC
  5
2C16
330
18
100
AcDbEntity
  8
L-ZISSEN
370
    -1
100
AcDbCircle
 10
1938.958988021166
 20
-1328.640447357423
 30
0.0
 40
1.6
100
AcDbArc
 50
0.0
 51
73.80864836138818
  0
ARC
  5
2C17
330
18
100
AcDbEntity
  8
L-ZISSEN
370
    -1
100
AcDbCircle
 10
1933.158988021166
 20
-1328.640447357423
 30
0.0
 40
1.6
100
AcDbArc
 50
106.1913516386118
 51
180.0
  0
ARC
  5
2C19
330
18
100
AcDbEntity
  8
L-ZISSEN
370
    -1
100
AcDbCircle
 10
1902.604061946482
 20
-1328.640447357423
 30
0.0
 40
1.6
100
AcDbArc
 50
0.0
 51
73.80864836138818
  0
ARC
  5
2C1A
330
18
100
AcDbEntity
  8
L-ZISSEN
370
    -1
100
AcDbCircle
 10
1896.804061946482
 20
-1328.640447357423
 30
0.0
 40
1.6
100
AcDbArc
 50
106.1913516386118
 51
180.0
  0
LINE
  5
2C1C
330
18
100
AcDbEntity
  8
L-ZISSEN
370
    -1
100
AcDbLine
 10
1940.558988021166
 20
-1329.927939535143
 30
0.0
 11
1931.558988021166
 21
-1329.927939535143
 31
0.0
  0
LINE
  5
2C1D
330
18
100
AcDbEntity
  8
L-ZISSEN
370
    -1
100
AcDbLine
 10
1931.558988021166
 20
-1328.640447357423
 30
0.0
 11
1931.558988021166
 21
-1329.927939535143
 31
0.0
  0
LINE
  5
2C1E
330
18
100
AcDbEntity
  8
L-ZISSEN
370
    -1
100
AcDbLine
 10
1931.808988021166
 20
-1329.927939535143
 30
0.0
 11
1931.808988021166
 21
-1331.227939535143
 31
0.0
  0
LINE
  5
2C1F
330
18
100
AcDbEntity
  8
L-ZISSEN
370
    -1
100
AcDbLine
 10
1895.454061946482
 20
-1331.227939535143
 30
0.0
 11
1895.454061946482
 21
-1329.927939535143
 31
0.0
  0
LINE
  5
2C20
330
18
100
AcDbEntity
  8
L-ZISSEN
370
    -1
100
AcDbLine
 10
1895.204061946482
 20
-1329.927939535143
 30
0.0
 11
1904.204061946482
 21
-1329.927939535143
 31
0.0
  0
LINE
  5
2C21
330
18
100
AcDbEntity
  8
L-ZISSEN
370
    -1
100
AcDbLine
 10
1903.954061946482
 20
-1329.927939535143
 30
0.0
 11
1903.954061946482
 21
-1331.227939535143
 31
0.0
  0
LINE
  5
2C22
330
18
100
AcDbEntity
  8
L-ZISSEN
370
    -1
100
AcDbLine
 10
1895.204061946482
 20
-1329.927939535143
 30
0.0
 11
1895.204061946482
 21
-1328.640447357423
 31
0.0
  0
LINE
  5
2C23
330
18
100
AcDbEntity
  8
L-ZISSEN
370
    -1
100
AcDbLine
 10
1904.204061946482
 20
-1328.640447357423
 30
0.0
 11
1904.204061946482
 21
-1329.927939535143
 31
0.0
  0
LINE
  5
2C24
330
18
100
AcDbEntity
  8
L-ZISSEN
370
    -1
100
AcDbLine
 10
1931.613078160756
 20
-1328.227939535143
 30
0.0
 11
1904.149971806897
 21
-1328.227939535143
 31
0.0
  0
LINE
  5
2C26
330
18
100
AcDbEntity
  8
L-ZISSEN
370
    -1
100
AcDbLine
 10
1970.881524983824
 20
-1331.727939535143
 30
0.0
 11
1970.881524983824
 21
-1339.227939535143
 31
0.0
  0
LINE
  5
2C27
330
18
100
AcDbEntity
  8
L-ZISSEN
370
    -1
100
AcDbLine
 10
1966.01580277811
 20
-1331.227939535143
 30
0.0
 11
1966.01580277811
 21
-1329.927939535143
 31
0.0
  0
LINE
  5
2C28
330
18
100
AcDbEntity
  8
L-ZISSEN
370
    -1
100
AcDbLine
 10
1966.26580277811
 20
-1329.927939535143
 30
0.0
 11
1966.26580277811
 21
-1328.640447357423
 31
0.0
  0
ARC
  5
2C29
330
18
100
AcDbEntity
  8
L-ZISSEN
370
    -1
100
AcDbCircle
 10
1970.381524983824
 20
-1331.727939535143
 30
0.0
 40
0.5
100
AcDbArc
 50
0.0
 51
90.0
  0
ARC
  5
2C2A
330
18
100
AcDbEntity
  8
L-ZISSEN
370
    -1
100
AcDbCircle
 10
1970.381524983824
 20
-1330.727939535143
 30
0.0
 40
0.5
100
AcDbArc
 50
180.0
 51
270.0
  0
LINE
  5
2C2B
330
18
100
AcDbEntity
  8
L-ZISSEN
370
    -1
100
AcDbLine
 10
1953.881524983824
 20
-1328.227939535143
 30
0.0
 11
1957.51580277811
 21
-1330.326190797985
 31
0.0
  0
LINE
  5
2C2C
330
18
100
AcDbEntity
  8
L-ZISSEN
370
    -1
100
AcDbLine
 10
1957.51580277811
 20
-1329.927939535143
 30
0.0
 11
1957.51580277811
 21
-1331.227939535143
 31
0.0
  0
LINE
  5
2C2D
330
18
100
AcDbEntity
  8
L-ZISSEN
370
    -1
100
AcDbLine
 10
1957.26580277811
 20
-1328.640447357423
 30
0.0
 11
1957.26580277811
 21
-1329.927939535143
 31
0.0
  0
LINE
  5
2C2E
330
18
100
AcDbEntity
  8
L-ZISSEN
370
    -1
100
AcDbLine
 10
1966.26580277811
 20
-1329.927939535143
 30
0.0
 11
1957.26580277811
 21
-1329.927939535143
 31
0.0
  0
LINE
  5
2C2F
330
18
100
AcDbEntity
  8
L-ZISSEN
370
    -1
100
AcDbLine
 10
1940.558988021166
 20
-1329.927939535143
 30
0.0
 11
1940.558988021166
 21
-1328.640447357423
 31
0.0
  0
LINE
  5
2C30
330
18
100
AcDbEntity
  8
L-ZISSEN
370
    -1
100
AcDbLine
 10
1940.308988021166
 20
-1331.227939535143
 30
0.0
 11
1940.308988021166
 21
-1329.927939535143
 31
0.0
  0
LINE
  5
2C31
330
18
100
AcDbEntity
  8
L-ZISSEN
370
    -1
100
AcDbLine
 10
1953.881524983824
 20
-1328.227939535143
 30
0.0
 11
1940.504897881577
 21
-1328.227939535143
 31
0.0
  0
ARC
  5
2C32
330
18
100
AcDbEntity
  8
L-ZISSEN
370
    -1
100
AcDbCircle
 10
1970.581524983824
 20
-1350.197939535143
 30
0.0
 40
0.3
100
AcDbArc
 50
270.0
 51
0.0
  0
LINE
  5
2C33
330
18
100
AcDbEntity
  8
L-ZISSEN
370
    -1
100
AcDbLine
 10
1970.881524983824
 20
-1350.197939535143
 30
0.0
 11
1970.881524983824
 21
-1340.497939535143
 31
0.0
  0
ARC
  5
2C34
330
18
100
AcDbEntity
  8
L-ZISSEN
370
    -1
100
AcDbCircle
 10
1960.681524983824
 20
-1350.797939535143
 30
0.0
 40
0.3
100
AcDbArc
 50
90.0
 51
180.0
  0
LINE
  5
2C35
330
18
100
AcDbEntity
  8
L-ZISSEN
370
    -1
100
AcDbLine
 10
1965.961909741553
 20
-1360.997939535145
 30
0.0
 11
1969.581524983824
 21
-1360.997939535145
 31
0.0
  0
ARC
  5
2C36
330
18
100
AcDbEntity
  8
L-ZISSEN
370
    -1
100
AcDbCircle
 10
1969.581524983824
 20
-1360.697939535145
 30
0.0
 40
0.3
100
AcDbArc
 50
270.0
 51
0.0
  0
LINE
  5
2C37
330
18
100
AcDbEntity
  8
L-ZISSEN
370
    -1
100
AcDbLine
 10
1965.811909741553
 20
-1360.95774715628
 30
0.0
 11
1963.353064014739
 21
-1359.538131914008
 31
0.0
  0
LINE
  5
2C38
330
18
100
AcDbEntity
  8
L-ZISSEN
370
    -1
100
AcDbLine
 10
1961.881524983824
 20
-1359.497939535143
 30
0.0
 11
1963.203064014739
 21
-1359.497939535143
 31
0.0
  0
ARC
  5
2C39
330
18
100
AcDbEntity
  8
L-ZISSEN
370
    -1
100
AcDbCircle
 10
1963.203064014739
 20
-1359.797939535143
 30
0.0
 40
0.3
100
AcDbArc
 50
59.99999999997463
 51
90.0
  0
ARC
  5
2C3A
330
18
100
AcDbEntity
  8
L-ZISSEN
370
    -1
100
AcDbCircle
 10
1965.961909741553
 20
-1360.697939535145
 30
0.0
 40
0.3
100
AcDbArc
 50
239.9999999999746
 51
270.0
  0
ARC
  5
2C3B
330
18
100
AcDbEntity
  8
L-ZISSEN
370
    -1
100
AcDbCircle
 10
1969.581524983824
 20
-1360.697939535145
 30
0.0
 40
0.3
100
AcDbArc
 50
270.0
 51
0.0
  0
ARC
  5
2C3C
330
18
100
AcDbEntity
  8
L-ZISSEN
370
    -1
100
AcDbCircle
 10
1961.881524983824
 20
-1360.997939535143
 30
0.0
 40
1.5
100
AcDbArc
 50
90.0
 51
180.0
  0
LINE
  5
2C3D
330
18
100
AcDbEntity
  8
L-ZISSEN
370
    -1
100
AcDbLine
 10
1960.381524983824
 20
-1362.697939535143
 30
0.0
 11
1960.381524983824
 21
-1350.797939535143
 31
0.0
  0
LINE
  5
2C3E
330
18
100
AcDbEntity
  8
L-ZISSEN
370
    -1
100
AcDbLine
 10
1969.881524983824
 20
-1350.497939535143
 30
0.0
 11
1969.881524983824
 21
-1360.697939535145
 31
0.0
  0
LINE
  5
2C41
330
18
100
AcDbEntity
  8
L-ZISSEN
370
    -1
100
AcDbLine
 10
1970.881524983824
 20
-1340.497939535143
 30
0.0
 11
1970.881524983824
 21
-1339.227939535143
 31
0.0
  0
ARC
  5
2C43
330
18
100
AcDbEntity
  8
L-ZISSEN
370
    -1
100
AcDbCircle
 10
1899.704061946482
 20
-1338.627939535144
 30
0.0
 40
12.0
100
AcDbArc
 50
73.80864836138804
 51
106.191351638612
  0
ARC
  5
2C44
330
18
100
AcDbEntity
  8
L-ZISSEN
370
    -1
100
AcDbCircle
 10
1969.381524983824
 20
-1313.727939535142
 30
0.0
 40
0.5
100
AcDbArc
 50
0.0
 51
90.0
  0
LINE
  5
2C48
330
18
100
AcDbEntity
  8
L-ZISSEN
370
    -1
100
AcDbLine
 10
1946.527971593231
 20
-1312.37438614455
 30
0.0
 11
1953.881524983824
 21
-1319.727939535143
 31
0.0
  0
ARC
  5
2C49
330
18
100
AcDbEntity
  8
L-ZISSEN
370
    -1
100
AcDbCircle
 10
1946.174418202637
 20
-1312.727939535143
 30
0.0
 40
0.5
100
AcDbArc
 50
44.99999999992631
 51
90.0
  0
ARC
  5
2C4A
330
18
100
AcDbEntity
  8
L-ZISSEN
370
    -1
100
AcDbCircle
 10
1957.947351232617
 20
-1313.727939535142
 30
0.0
 40
0.5
100
AcDbArc
 50
90.0
 51
104.9999999999945
  0
LINE
  5
2C4B
330
18
100
AcDbEntity
  8
L-ZISSEN
370
    -1
100
AcDbLine
 10
1957.817941710066
 20
-1313.244976621997
 30
0.0
 11
1949.600436070577
 21
-1315.446850621896
 31
0.0
  0
LINE
  5
2C4C
330
18
100
AcDbEntity
  8
L-ZISSEN
370
    -1
100
AcDbLine
 10
1957.947351232617
 20
-1313.227939535142
 30
0.0
 11
1969.381524983824
 21
-1313.227939535142
 31
0.0
  0
ARC
  5
2C50
330
18
100
AcDbEntity
  8
L-ZISSEN
370
    -1
100
AcDbCircle
 10
1961.76580277811
 20
-1338.627939535144
 30
0.0
 40
12.0
100
AcDbArc
 50
73.80864836138804
 51
106.191351638612
  0
LINE
  5
2C51
330
18
100
AcDbEntity
  8
L-ZISSEN
370
    -1
100
AcDbLine
 10
1957.881524983824
 20
-1313.899558802485
 30
0.0
 11
1957.881524983824
 21
-1327.379020695396
 31
0.0
  0
ARC
  5
2C54
330
18
100
AcDbEntity
  8
L-ZISSEN
370
    -1
100
AcDbCircle
 10
1936.058988021166
 20
-1338.627939535144
 30
0.0
 40
12.0
100
AcDbArc
 50
73.80864836138804
 51
106.191351638612
  0
LINE
  5
2C55
330
18
100
AcDbEntity
  8
L-ZISSEN
  6
Continuous
 62
     7
100
AcDbLine
 10
1938.705641122894
 20
-1281.327939535144
 30
0.0
 11
1938.705641122894
 21
-1282.127939535143
 31
0.0
  0
LINE
  5
2C56
330
18
100
AcDbEntity
  8
L-ZISSEN
  6
Continuous
 62
     7
100
AcDbLine
 10
1931.705638767191
 20
-1281.327939535144
 30
0.0
 11
1938.705641122894
 21
-1281.327939535144
 31
0.0
  0
LINE
  5
2C57
330
18
100
AcDbEntity
  8
L-ZISSEN
  6
Continuous
 62
     7
100
AcDbLine
 10
1931.705638767191
 20
-1281.327939535144
 30
0.0
 11
1931.705638767191
 21
-1282.127939535143
 31
0.0
  0
LINE
  5
2C58
330
18
100
AcDbEntity
  8
L-ZISSEN
  6
Continuous
 62
     7
100
AcDbLine
 10
1904.057411200457
 20
-1281.327939535144
 30
0.0
 11
1904.057411200457
 21
-1282.127939535143
 31
0.0
  0
LINE
  5
2C59
330
18
100
AcDbEntity
  8
L-ZISSEN
  6
Continuous
 62
     7
100
AcDbLine
 10
1904.057411200457
 20
-1281.327939535144
 30
0.0
 11
1897.057408844754
 21
-1281.327939535144
 31
0.0
  0
CIRCLE
  5
2C5A
330
18
100
AcDbEntity
  8
L-ZISSEN
  6
Continuous
 62
     7
100
AcDbCircle
 10
1917.881524983824
 20
-1301.227939535144
 30
0.0
 40
4.283
  0
LINE
  5
2C5B
330
18
100
AcDbEntity
  8
L-ZISSEN
  6
Continuous
 62
     7
100
AcDbLine
 10
1897.481524983823
 20
-1238.797939535143
 30
0.0
 11
1938.281524983824
 21
-1238.797939535143
 31
0.0
  0
LINE
  5
2C5C
330
18
100
AcDbEntity
  8
L-ZISSEN
  6
Continuous
 62
     7
100
AcDbLine
 10
1897.481524983824
 20
-1238.797939535143
 30
0.0
 11
1897.481524983824
 21
-1228.797939535143
 31
0.0
  0
LINE
  5
2C5D
330
18
100
AcDbEntity
  8
L-ZISSEN
  6
Continuous
 62
     7
100
AcDbLine
 10
1914.881524983824
 20
-1244.777939535145
 30
0.0
 11
1914.881524983824
 21
-1238.797939535143
 31
0.0
  0
LINE
  5
2C5E
330
18
100
AcDbEntity
  8
L-ZISSEN
  6
Continuous
 62
     7
100
AcDbLine
 10
1920.881524983824
 20
-1244.777939535145
 30
0.0
 11
1920.881524983824
 21
-1238.797939535143
 31
0.0
  0
LINE
  5
2C5F
330
18
100
AcDbEntity
  8
L-ZISSEN
  6
Continuous
 62
     7
100
AcDbLine
 10
1938.281524983824
 20
-1238.797939535143
 30
0.0
 11
1938.281524983824
 21
-1228.797939535143
 31
0.0
  0
LINE
  5
2C60
330
18
100
AcDbEntity
  8
L-ZISSEN
  6
Continuous
 62
     7
100
AcDbLine
 10
1897.481524983824
 20
-1228.797939535143
 30
0.0
 11
1938.281524983824
 21
-1228.797939535143
 31
0.0
  0
LINE
  5
2C61
330
18
100
AcDbEntity
  8
L-ZISSEN
  6
Continuous
 62
     7
100
AcDbLine
 10
1909.798621215169
 20
-1244.777939535145
 30
0.0
 11
1925.964428752478
 21
-1244.777939535145
 31
0.0
  0
LINE
  5
2C62
330
18
100
AcDbEntity
  8
L-ZISSEN
  6
Continuous
 62
     7
100
AcDbLine
 10
1925.964428752478
 20
-1254.777939535145
 30
0.0
 11
1925.964428752478
 21
-1244.777939535145
 31
0.0
  0
LINE
  5
2C63
330
18
100
AcDbEntity
  8
L-ZISSEN
  6
Continuous
 62
     7
100
AcDbLine
 10
1909.798621215169
 20
-1254.777939535145
 30
0.0
 11
1909.798621215169
 21
-1244.777939535145
 31
0.0
  0
LINE
  5
2C64
330
18
100
AcDbEntity
  8
L-ZISSEN
  6
Continuous
 62
     7
100
AcDbLine
 10
1909.798621215169
 20
-1254.777939535145
 30
0.0
 11
1925.964428752478
 21
-1254.777939535145
 31
0.0
  0
LINE
  5
2C65
330
18
100
AcDbEntity
  8
L-ZISSEN
  6
Continuous
 62
     7
100
AcDbLine
 10
1923.881524983824
 20
-1257.127939535143
 30
0.0
 11
1923.881524983824
 21
-1254.777939535145
 31
0.0
  0
LINE
  5
2C66
330
18
100
AcDbEntity
  8
L-ZISSEN
  6
Continuous
 62
     7
100
AcDbLine
 10
1911.881524983824
 20
-1257.127939535143
 30
0.0
 11
1911.881524983824
 21
-1254.777939535145
 31
0.0
  0
LINE
  5
2C67
330
18
100
AcDbEntity
  8
L-ZISSEN
  6
Continuous
 62
     7
100
AcDbLine
 10
1897.057408844754
 20
-1281.327939535144
 30
0.0
 11
1897.057408844754
 21
-1282.127939535143
 31
0.0
  0
LINE
  5
2C68
330
18
100
AcDbEntity
  8
L-ZISSEN
  6
Continuous
 62
     7
100
AcDbLine
 10
1892.231524983824
 20
-1282.127939535143
 30
0.0
 11
1943.531524983825
 21
-1282.127939535143
 31
0.0
  0
LINE
  5
2C69
330
18
100
AcDbEntity
  8
L-TYUSIN
  6
CENTER
 62
     1
100
AcDbLine
 10
1925.881524983826
 20
-1301.227939535144
 30
0.0
 11
1909.881524983823
 21
-1301.227939535144
 31
0.0
  0
LINE
  5
2C6A
330
18
100
AcDbEntity
  8
L-ZISSEN
  6
Continuous
 62
     7
100
AcDbLine
 10
1904.881524983824
 20
-1257.127939535143
 30
0.0
 11
1930.881524983824
 21
-1257.127939535143
 31
0.0
  0
LINE
  5
2C6B
330
18
100
AcDbEntity
  8
L-ZISSEN
  6
Continuous
 62
     7
100
AcDbLine
 10
1930.881524983824
 20
-1257.127939535143
 30
0.0
 11
1935.148637916969
 21
-1281.327939535144
 31
0.0
  0
LINE
  5
2C6C
330
18
100
AcDbEntity
  8
L-ZISSEN
  6
Continuous
 62
     7
100
AcDbLine
 10
1904.881524983824
 20
-1257.127939535143
 30
0.0
 11
1900.614412050679
 21
-1281.327939535144
 31
0.0
  0
LINE
  5
2C6D
330
18
100
AcDbEntity
  8
L-ZISSEN
  6
Continuous
 62
     7
100
AcDbLine
 10
1892.231524983824
 20
-1288.627939535143
 30
0.0
 11
1943.531524983825
 21
-1288.627939535143
 31
0.0
  0
LINE
  5
2C6E
330
18
100
AcDbEntity
  8
L-ZISSEN
  6
Continuous
 62
     7
100
AcDbLine
 10
1929.478938488568
 20
-1312.227939535143
 30
0.0
 11
1929.478938488568
 21
-1282.127939535143
 31
0.0
  0
LINE
  5
2C6F
330
18
100
AcDbEntity
  8
L-ZISSEN
  6
Continuous
 62
     7
100
AcDbLine
 10
1906.28411147908
 20
-1312.227939535143
 30
0.0
 11
1906.28411147908
 21
-1282.127939535143
 31
0.0
  0
LINE
  5
2C70
330
18
100
AcDbEntity
  8
L-ZISSEN
  6
Continuous
 62
     7
100
AcDbLine
 10
1943.531524983825
 20
-1312.227939535143
 30
0.0
 11
1943.531524983825
 21
-1282.127939535143
 31
0.0
  0
LINE
  5
2C71
330
18
100
AcDbEntity
  8
L-ZISSEN
  6
Continuous
 62
     7
100
AcDbLine
 10
1892.231524983824
 20
-1312.227939535143
 30
0.0
 11
1892.231524983824
 21
-1282.127939535143
 31
0.0
  0
LINE
  5
2C75
330
18
100
AcDbEntity
  8
L-ZISSEN
100
AcDbLine
 10
1892.231524983824
 20
-1312.227939535143
 30
0.0
 11
1943.531524983825
 21
-1312.227939535143
 31
0.0
  0
LINE
  5
2C76
330
18
100
AcDbEntity
  8
L-ZISSEN
100
AcDbLine
 10
1875.381524983824
 20
-1362.697939535143
 30
0.0
 11
1960.381524983824
 21
-1362.697939535143
 31
0.0
  0
TEXT
  5
32AC
330
18
100
AcDbEntity
  8
L-ZISSEN
100
AcDbText
 10
1412.676029785923
 20
-978.4305556835384
 30
0.0
 40
4.5
  1
MODEL NO. : R58- 05-00B0
100
AcDbText
  0
LINE
  5
32AD
330
18
100
AcDbEntity
  8
L-TYUSIN
  6
CENTER
 62
     1
100
AcDbLine
 10
1482.676029785923
 20
-1155.430555683538
 30
0.0
 11
1482.676029785923
 21
-1021.430555683538
 31
0.0
  0
LINE
  5
32AF
330
18
100
AcDbEntity
  8
L-TYUSIN
  6
CENTER
 62
     1
100
AcDbLine
 10
1415.676029785923
 20
-1088.430555683538
 30
0.0
 11
1549.676029785923
 21
-1088.430555683538
 31
0.0
  0
LINE
  5
32B0
330
18
100
AcDbEntity
  8
L-ZISSEN
100
AcDbLine
 10
1515.676029785923
 20
-1046.957672976883
 30
0.0
 11
1515.676029785923
 21
-1012.730555683538
 31
0.0
  0
TEXT
  5
32B1
330
18
100
AcDbEntity
  8
L-ZISSEN
100
AcDbText
 10
1478.676029785923
 20
-982.4305556835384
 30
0.0
 40
4.5
  1
8
100
AcDbText
  0
TEXT
  5
32B2
330
18
100
AcDbEntity
  8
L-ZISSEN
100
AcDbText
 10
1478.676029785923
 20
-975.4305556835384
 30
0.0
 40
4.5
  1
6
100
AcDbText
  0
TEXT
  5
32B3
330
18
100
AcDbEntity
  8
L-ZISSEN
100
AcDbText
 10
1478.676029785923
 20
-968.4305556835384
 30
0.0
 40
4.5
  1
4
100
AcDbText
  0
TEXT
  5
32B4
330
18
100
AcDbEntity
  8
L-ZISSEN
100
AcDbText
 10
1478.676029785923
 20
-989.4305556835384
 30
0.0
 40
4.5
  1
A
100
AcDbText
  0
CIRCLE
  5
32B5
330
18
100
AcDbEntity
  8
L-ZISSEN
100
AcDbCircle
 10
1482.676029785923
 20
-1088.430555683538
 30
0.0
 40
20.4
  0
LINE
  5
32B6
330
18
100
AcDbEntity
  8
L-ZISSEN
100
AcDbLine
 10
1457.176029785923
 20
-1099.995589189759
 30
0.0
 11
1457.176029785923
 21
-1076.865522177318
 31
0.0
  0
LINE
  5
32B7
330
18
100
AcDbEntity
  8
L-ZISSEN
100
AcDbLine
 10
1471.110996279702
 20
-1113.930555683538
 30
0.0
 11
1494.241063292143
 21
-1113.930555683538
 31
0.0
  0
LINE
  5
32B8
330
18
100
AcDbEntity
  8
L-ZISSEN
100
AcDbLine
 10
1508.176029785923
 20
-1099.995589189759
 30
0.0
 11
1508.176029785923
 21
-1076.865522177318
 31
0.0
  0
LINE
  5
32B9
330
18
100
AcDbEntity
  8
L-ZISSEN
100
AcDbLine
 10
1471.110996279702
 20
-1062.930555683538
 30
0.0
 11
1494.241063292143
 21
-1062.930555683538
 31
0.0
  0
CIRCLE
  5
32BA
330
18
100
AcDbEntity
  8
L-ZISSEN
100
AcDbCircle
 10
1465.351913646852
 20
-1105.754671822609
 30
0.0
 40
3.5
  0
CIRCLE
  5
32BB
330
18
100
AcDbEntity
  8
L-ZISSEN
100
AcDbCircle
 10
1500.000145924993
 20
-1105.754671822609
 30
0.0
 40
3.5
  0
ARC
  5
32BC
330
18
100
AcDbEntity
  8
L-ZISSEN
100
AcDbCircle
 10
1482.676029785923
 20
-1088.430555683538
 30
0.0
 40
28.0
100
AcDbArc
 50
24.395752111908
 51
38.80962695309745
  0
CIRCLE
  5
32BD
330
18
100
AcDbEntity
  8
L-ZISSEN
100
AcDbCircle
 10
1500.000145924993
 20
-1071.106439544468
 30
0.0
 40
3.5
  0
CIRCLE
  5
32BE
330
18
100
AcDbEntity
  8
L-ZISSEN
100
AcDbCircle
 10
1465.351913646852
 20
-1071.106439544468
 30
0.0
 40
3.5
  0
LINE
  5
32BF
330
18
100
AcDbEntity
  8
L-ZISSEN
100
AcDbLine
 10
1552.676029785923
 20
-1012.730555683538
 30
0.0
 11
1552.676029785923
 21
-1010.430555683538
 31
0.0
  0
LINE
  5
32C0
330
18
100
AcDbEntity
  8
L-ZISSEN
100
AcDbLine
 10
1552.676029785923
 20
-1010.430555683538
 30
0.0
 11
1513.376029785923
 21
-1010.430555683538
 31
0.0
  0
LINE
  5
32C1
330
18
100
AcDbEntity
  8
L-ZISSEN
100
AcDbLine
 10
1552.676029785923
 20
-1012.730555683538
 30
0.0
 11
1515.676029785923
 21
-1012.730555683538
 31
0.0
  0
LINE
  5
32C2
330
18
100
AcDbEntity
  8
L-ZISSEN
100
AcDbLine
 10
1513.376029785923
 20
-1045.227430796558
 30
0.0
 11
1513.376029785923
 21
-1010.430555683538
 31
0.0
  0
LINE
  5
32C4
330
18
100
AcDbEntity
  8
L-TYUSIN
  6
CENTER
 62
     1
100
AcDbLine
 10
1527.676029785923
 20
-1005.430555683538
 30
0.0
 11
1527.676029785923
 21
-1017.730555683538
 31
0.0
  0
LINE
  5
32C5
330
18
100
AcDbEntity
  8
L-TYUSIN
  6
CENTER
 62
     1
100
AcDbLine
 10
1542.676029785923
 20
-1005.430555683538
 30
0.0
 11
1542.676029785923
 21
-1017.730555683538
 31
0.0
  0
LINE
  5
32C6
330
18
100
AcDbEntity
  8
L-TYUSIN
  6
CENTER
 62
     1
100
AcDbLine
 10
1422.676029785923
 20
-1005.430555683538
 30
0.0
 11
1422.676029785923
 21
-1017.730555683538
 31
0.0
  0
LINE
  5
32C7
330
18
100
AcDbEntity
  8
L-TYUSIN
  6
CENTER
 62
     1
100
AcDbLine
 10
1437.676029785923
 20
-1005.430555683538
 30
0.0
 11
1437.676029785923
 21
-1017.730555683538
 31
0.0
  0
LINE
  5
32C8
330
18
100
AcDbEntity
  8
L-ZISSEN
100
AcDbLine
 10
1451.976029785922
 20
-1045.227430796558
 30
0.0
 11
1451.976029785922
 21
-1010.430555683538
 31
0.0
  0
LINE
  5
32C9
330
18
100
AcDbEntity
  8
L-ZISSEN
100
AcDbLine
 10
1412.676029785923
 20
-1012.730555683538
 30
0.0
 11
1449.676029785923
 21
-1012.730555683538
 31
0.0
  0
LINE
  5
32CA
330
18
100
AcDbEntity
  8
L-ZISSEN
100
AcDbLine
 10
1412.676029785923
 20
-1010.430555683538
 30
0.0
 11
1451.976029785922
 21
-1010.430555683538
 31
0.0
  0
LINE
  5
32CB
330
18
100
AcDbEntity
  8
L-ZISSEN
100
AcDbLine
 10
1412.676029785923
 20
-1012.730555683538
 30
0.0
 11
1412.676029785923
 21
-1010.430555683538
 31
0.0
  0
LINE
  5
32CC
330
18
100
AcDbEntity
  8
L-ZISSEN
100
AcDbLine
 10
1449.676029785923
 20
-1046.957672976883
 30
0.0
 11
1449.676029785923
 21
-1012.730555683538
 31
0.0
  0
CIRCLE
  5
32CD
330
18
100
AcDbEntity
  8
L-ZISSEN
100
AcDbCircle
 10
1482.676029785923
 20
-1088.430555683538
 30
0.0
 40
41.5
  0
SOLID
  5
32EE
330
18
100
AcDbEntity
  8
L-ZISSEN
100
AcDbTrace
 10
1481.483460197923
 20
-1090.070338867038
 30
0.0
 11
1482.079744991923
 21
-1090.368481264038
 31
0.0
 12
1482.676029785923
 22
-1088.430555683538
 32
0.0
 13
1482.676029785923
 23
-1088.430555683538
 33
0.0
  0
LINE
  5
32EF
330
18
100
AcDbEntity
  8
L-ZISSEN
100
AcDbLine
 10
1481.781602594923
 20
-1090.219410065538
 30
0.0
 11
1452.676029785923
 21
-1148.430555683538
 31
0.0
  0
LINE
  5
32F0
330
18
100
AcDbEntity
  8
L-ZISSEN
100
AcDbLine
 10
1452.676029785923
 20
-1148.430555683538
 30
0.0
 11
1450.676029785923
 21
-1148.430555683538
 31
0.0
  0
TEXT
  5
32F1
330
18
100
AcDbEntity
  8
L-ZISSEN
100
AcDbText
 10
1439.676029785923
 20
-1150.680555683538
 30
0.0
 40
4.5
  1
P.P
100
AcDbText
  0
ARC
  5
32F2
330
18
100
AcDbEntity
  8
L-ZISSEN
100
AcDbCircle
 10
1482.676029785923
 20
-1088.430555683538
 30
0.0
 40
28.0
100
AcDbArc
 50
294.3957521119059
 51
335.604247888092
  0
ARC
  5
32F3
330
18
100
AcDbEntity
  8
L-ZISSEN
100
AcDbCircle
 10
1482.676029785923
 20
-1088.430555683538
 30
0.0
 40
28.0
100
AcDbArc
 50
204.3957521119074
 51
245.6042478880936
  0
ARC
  5
32F4
330
18
100
AcDbEntity
  8
L-ZISSEN
100
AcDbCircle
 10
1482.676029785923
 20
-1088.430555683538
 30
0.0
 40
28.0
100
AcDbArc
 50
24.39575211190739
 51
65.6042478880941
  0
ARC
  5
32F5
330
18
100
AcDbEntity
  8
L-ZISSEN
100
AcDbCircle
 10
1482.676029785923
 20
-1088.430555683538
 30
0.0
 40
28.0
100
AcDbArc
 50
114.3957521119065
 51
155.6042478880926
  0
CIRCLE
  5
3335
330
18
100
AcDbEntity
  8
L-ZISSEN
100
AcDbCircle
 10
1482.676029785923
 20
-1088.430555683538
 30
0.0
 40
53.0
  0
CIRCLE
  5
33BA
330
18
100
AcDbEntity
  8
L-ZISSEN
100
AcDbCircle
 10
1526.560307580209
 20
-1106.60801872088
 30
0.0
 40
4.5
  0
CIRCLE
  5
33BB
330
18
100
AcDbEntity
  8
L-ZISSEN
100
AcDbCircle
 10
1526.560307580209
 20
-1070.253092646196
 30
0.0
 40
4.5
  0
CIRCLE
  5
33BC
330
18
100
AcDbEntity
  8
L-ZISSEN
100
AcDbCircle
 10
1500.853492823265
 20
-1044.546277889252
 30
0.0
 40
4.5
  0
CIRCLE
  5
33CB
330
18
100
AcDbEntity
  8
L-ZISSEN
100
AcDbCircle
 10
1464.498566748581
 20
-1044.546277889252
 30
0.0
 40
4.5
  0
CIRCLE
  5
33DA
330
18
100
AcDbEntity
  8
L-ZISSEN
100
AcDbCircle
 10
1438.791751991637
 20
-1070.253092646196
 30
0.0
 40
4.5
  0
CIRCLE
  5
33DB
330
18
100
AcDbEntity
  8
L-ZISSEN
100
AcDbCircle
 10
1438.791751991637
 20
-1106.608018720879
 30
0.0
 40
4.5
  0
CIRCLE
  5
33DC
330
18
100
AcDbEntity
  8
L-ZISSEN
100
AcDbCircle
 10
1464.498566748581
 20
-1132.314833477824
 30
0.0
 40
4.5
  0
CIRCLE
  5
33DD
330
18
100
AcDbEntity
  8
L-ZISSEN
100
AcDbCircle
 10
1500.853492823265
 20
-1132.314833477824
 30
0.0
 40
4.5
  0
CIRCLE
  5
344C
330
18
100
AcDbEntity
  8
L-ZISSEN
100
AcDbCircle
 10
2120.684316108654
 20
-1180.030690464212
 30
0.0
 40
27.0
  0
LINE
  5
344D
330
18
100
AcDbEntity
  8
L-ZISSEN
100
AcDbLine
 10
2105.12796692255
 20
-1164.474341278107
 30
0.0
 11
2129.169597482893
 21
-1188.51597183845
 31
0.0
  0
LINE
  5
344E
330
18
100
AcDbEntity
  8
L-ZISSEN
100
AcDbLine
 10
2187.184316108654
 20
-1153.030690464212
 30
0.0
 11
2187.184316108654
 21
-1207.030690464212
 31
0.0
  0
LINE
  5
344F
330
18
100
AcDbEntity
  8
L-ZISSEN
100
AcDbLine
 10
2210.684316108654
 20
-1153.030690464212
 30
0.0
 11
2210.684316108654
 21
-1207.030690464212
 31
0.0
  0
LINE
  5
3450
330
18
100
AcDbEntity
  8
L-ZISSEN
100
AcDbLine
 10
2210.684316108654
 20
-1207.030690464212
 30
0.0
 11
2187.184316108654
 21
-1207.030690464212
 31
0.0
  0
LINE
  5
3451
330
18
100
AcDbEntity
  8
L-ZISSEN
100
AcDbLine
 10
2210.684316108654
 20
-1153.030690464212
 30
0.0
 11
2187.184316108654
 21
-1153.030690464212
 31
0.0
  0
LINE
  5
3452
330
18
100
AcDbEntity
  8
L-ZISSEN
100
AcDbLine
 10
2210.684316108654
 20
-1174.030690464213
 30
0.0
 11
2216.684316108654
 21
-1174.030690464213
 31
0.0
  0
LINE
  5
3453
330
18
100
AcDbEntity
  8
L-ZISSEN
100
AcDbLine
 10
2216.684316108654
 20
-1174.030690464213
 30
0.0
 11
2216.684316108654
 21
-1186.030690464213
 31
0.0
  0
LINE
  5
3454
330
18
100
AcDbEntity
  8
L-ZISSEN
100
AcDbLine
 10
2216.684316108654
 20
-1186.030690464213
 30
0.0
 11
2210.684316108654
 21
-1186.030690464213
 31
0.0
  0
TEXT
  5
3455
330
18
100
AcDbEntity
  8
L-ZISSEN
100
AcDbText
 10
2080.684316108654
 20
-1025.030690464212
 30
0.0
 40
4.5
  1
PRESSURE GAUGE
100
AcDbText
  0
SOLID
  5
3456
330
18
100
AcDbEntity
  8
L-ZISSEN
100
AcDbTrace
 10
2119.147873549459
 20
-1181.353738223518
 30
0.0
 11
2119.660021069191
 21
-1181.780527823295
 31
0.0
 12
2120.684316108654
 22
-1180.030690464212
 32
0.0
 13
2120.684316108654
 23
-1180.030690464212
 33
0.0
  0
LINE
  5
3457
330
18
100
AcDbEntity
  8
L-ZISSEN
100
AcDbLine
 10
2119.403947309325
 20
-1181.567133023406
 30
0.0
 11
2095.684316108654
 21
-1210.030690464212
 31
0.0
  0
LINE
  5
3458
330
18
100
AcDbEntity
  8
L-ZISSEN
100
AcDbLine
 10
2095.684316108654
 20
-1210.030690464212
 30
0.0
 11
2093.684316108654
 21
-1210.030690464212
 31
0.0
  0
TEXT
  5
3459
330
18
100
AcDbEntity
  8
L-ZISSEN
100
AcDbText
 10
2082.684316108654
 20
-1212.280690464212
 30
0.0
 40
4.5
  1
P.P
100
AcDbText
  0
LINE
  5
345A
330
18
100
AcDbEntity
  8
L-ZISSEN
100
AcDbLine
 10
2126.684316108655
 20
-1100.030690464212
 30
0.0
 11
2126.684316108655
 21
-1106.030690464212
 31
0.0
  0
LINE
  5
345B
330
18
100
AcDbEntity
  8
L-ZISSEN
100
AcDbLine
 10
2114.684316108655
 20
-1100.030690464212
 30
0.0
 11
2126.684316108655
 21
-1100.030690464212
 31
0.0
  0
LINE
  5
345C
330
18
100
AcDbEntity
  8
L-ZISSEN
100
AcDbLine
 10
2114.684316108655
 20
-1106.030690464212
 30
0.0
 11
2114.684316108655
 21
-1100.030690464212
 31
0.0
  0
LINE
  5
345D
330
18
100
AcDbEntity
  8
L-ZISSEN
100
AcDbLine
 10
2093.684316108654
 20
-1106.030690464212
 30
0.0
 11
2093.684316108654
 21
-1129.530690464212
 31
0.0
  0
LINE
  5
345E
330
18
100
AcDbEntity
  8
L-ZISSEN
100
AcDbLine
 10
2147.684316108654
 20
-1106.030690464212
 30
0.0
 11
2147.684316108654
 21
-1129.530690464212
 31
0.0
  0
LINE
  5
345F
330
18
100
AcDbEntity
  8
L-ZISSEN
100
AcDbLine
 10
2093.684316108654
 20
-1106.030690464212
 30
0.0
 11
2147.684316108654
 21
-1106.030690464212
 31
0.0
  0
LINE
  5
3460
330
18
100
AcDbEntity
  8
L-ZISSEN
100
AcDbLine
 10
2093.684316108654
 20
-1129.530690464212
 30
0.0
 11
2147.684316108654
 21
-1129.530690464212
 31
0.0
  0
SOLID
  5
3461
330
18
100
AcDbEntity
  8
L-ZISSEN
100
AcDbTrace
 10
2118.926420664926
 20
-1045.541093710461
 30
0.0
 11
2119.349140390397
 21
-1046.056605570792
 31
0.0
 12
2120.684316108654
 22
-1044.530690464212
 32
0.0
 13
2120.684316108654
 23
-1044.530690464212
 33
0.0
  0
LINE
  5
3462
330
18
100
AcDbEntity
  8
L-ZISSEN
100
AcDbLine
 10
2119.137780527662
 20
-1045.798849640626
 30
0.0
 11
2095.684316108654
 21
-1065.030690464212
 31
0.0
  0
LINE
  5
3463
330
18
100
AcDbEntity
  8
L-ZISSEN
100
AcDbLine
 10
2095.684316108654
 20
-1065.030690464212
 30
0.0
 11
2093.684316108654
 21
-1065.030690464212
 31
0.0
  0
TEXT
  5
3464
330
18
100
AcDbEntity
  8
L-ZISSEN
100
AcDbText
 10
2082.684316108654
 20
-1067.280690464212
 30
0.0
 40
4.5
  1
P.P
100
AcDbText
  0
TEXT
  5
3465
330
18
100
AcDbEntity
  8
L-ZISSEN
100
AcDbText
 10
2080.684316108654
 20
-1035.030690464212
 30
0.0
 40
4.5
  1
MODEL NO. : R58-*05-00*1
100
AcDbText
  0
LINE
  5
3466
330
18
100
AcDbEntity
  8
L-TYUSIN
100
AcDbLine
 10
2055.684316108654
 20
-1235.030690464212
 30
0.0
 11
2280.684316108654
 21
-1235.030690464212
 31
0.0
  0
SOLID
  5
3467
330
18
100
AcDbEntity
  8
L-ZISSEN
100
AcDbTrace
 10
2271.370787811555
 20
-1178.246671313025
 30
0.0
 11
2270.844269616418
 21
-1178.655600444581
 31
0.0
 12
2272.334316108654
 22
-1180.030690464212
 32
0.0
 13
2272.334316108654
 23
-1180.030690464212
 33
0.0
  0
LINE
  5
3468
330
18
100
AcDbEntity
  8
L-ZISSEN
100
AcDbLine
 10
2271.107528713987
 20
-1178.451135878803
 30
0.0
 11
2260.684316108654
 21
-1165.030690464212
 31
0.0
  0
LINE
  5
3469
330
18
100
AcDbEntity
  8
L-ZISSEN
100
AcDbLine
 10
2260.684316108654
 20
-1165.030690464212
 30
0.0
 11
2258.684316108654
 21
-1165.030690464212
 31
0.0
  0
TEXT
  5
346A
330
18
100
AcDbEntity
  8
L-ZISSEN
100
AcDbText
 10
2247.684316108654
 20
-1167.280690464212
 30
0.0
 40
4.5
  1
P.P
100
AcDbText
  0
LINE
  5
346B
330
18
100
AcDbEntity
  8
L-ZISSEN
  6
Continuous
 62
     7
100
AcDbLine
 10
2114.684316108654
 20
-1397.190690464212
 30
0.0
 11
2114.684316108654
 21
-1394.840690464212
 31
0.0
  0
LINE
  5
346C
330
18
100
AcDbEntity
  8
L-ZISSEN
  6
Continuous
 62
     7
100
AcDbLine
 10
2126.684316108654
 20
-1397.190690464212
 30
0.0
 11
2126.684316108654
 21
-1394.840690464212
 31
0.0
  0
LINE
  5
346D
330
18
100
AcDbEntity
  8
L-ZISSEN
  6
Continuous
 62
     7
100
AcDbLine
 10
2112.601412339999
 20
-1394.840690464212
 30
0.0
 11
2112.601412339999
 21
-1373.840690464212
 31
0.0
  0
LINE
  5
346E
330
18
100
AcDbEntity
  8
L-ZISSEN
  6
Continuous
 62
     7
100
AcDbLine
 10
2128.767219877308
 20
-1394.840690464212
 30
0.0
 11
2128.767219877308
 21
-1373.840690464212
 31
0.0
  0
LINE
  5
346F
330
18
100
AcDbEntity
  8
L-ZISSEN
100
AcDbLine
 10
2116.642864224326
 20
-1303.030690464212
 30
0.0
 11
2112.601412339999
 21
-1310.030690464212
 31
0.0
  0
LINE
  5
3470
330
18
100
AcDbEntity
  8
L-ZISSEN
100
AcDbLine
 10
2112.601412339999
 20
-1310.030690464212
 30
0.0
 11
2116.642864224326
 21
-1317.030690464212
 31
0.0
  0
LINE
  5
3471
330
18
100
AcDbEntity
  8
L-ZISSEN
100
AcDbLine
 10
2116.642864224326
 20
-1317.030690464212
 30
0.0
 11
2124.725767992981
 21
-1317.030690464212
 31
0.0
  0
LINE
  5
3472
330
18
100
AcDbEntity
  8
L-ZISSEN
100
AcDbLine
 10
2124.725767992981
 20
-1317.030690464212
 30
0.0
 11
2128.767219877308
 21
-1310.030690464212
 31
0.0
  0
LINE
  5
3473
330
18
100
AcDbEntity
  8
L-ZISSEN
100
AcDbLine
 10
2128.767219877308
 20
-1310.030690464212
 30
0.0
 11
2124.725767992981
 21
-1303.030690464212
 31
0.0
  0
LINE
  5
3474
330
18
100
AcDbEntity
  8
L-ZISSEN
100
AcDbLine
 10
2124.725767992981
 20
-1303.030690464212
 30
0.0
 11
2116.642864224326
 21
-1303.030690464212
 31
0.0
  0
CIRCLE
  5
3475
330
18
100
AcDbEntity
  8
L-ZISSEN
100
AcDbCircle
 10
2120.684316108654
 20
-1310.030690464212
 30
0.0
 40
13.0
  0
CIRCLE
  5
3476
330
18
100
AcDbEntity
  8
L-ZISSEN
100
AcDbCircle
 10
2120.684316108654
 20
-1310.030690464212
 30
0.0
 40
17.40817451771171
  0
SOLID
  5
3477
330
18
100
AcDbEntity
  8
L-ZISSEN
100
AcDbTrace
 10
2119.814365870312
 20
-1311.862164650195
 30
0.0
 11
2120.455381835406
 21
-1312.045312068793
 31
0.0
 12
2120.684316108654
 22
-1310.030690464212
 32
0.0
 13
2120.684316108654
 23
-1310.030690464212
 33
0.0
  0
LINE
  5
3478
330
18
100
AcDbEntity
  8
L-ZISSEN
100
AcDbLine
 10
2120.134873852859
 20
-1311.953738359494
 30
0.0
 11
2110.684316108654
 21
-1345.030690464212
 31
0.0
  0
LINE
  5
3479
330
18
100
AcDbEntity
  8
L-ZISSEN
100
AcDbLine
 10
2110.684316108654
 20
-1345.030690464212
 30
0.0
 11
2108.684316108654
 21
-1345.030690464212
 31
0.0
  0
TEXT
  5
347A
330
18
100
AcDbEntity
  8
L-ZISSEN
100
AcDbText
 10
2097.684316108654
 20
-1347.280690464212
 30
0.0
 40
4.5
  1
P.P
100
AcDbText
  0
LINE
  5
347B
330
18
100
AcDbEntity
  8
L-ZISSEN
  6
Continuous
 62
     7
100
AcDbLine
 10
2216.684316108654
 20
-1397.190690464212
 30
0.0
 11
2216.684316108654
 21
-1394.840690464212
 31
0.0
  0
LINE
  5
347C
330
18
100
AcDbEntity
  8
L-ZISSEN
  6
Continuous
 62
     7
100
AcDbLine
 10
2204.684316108654
 20
-1397.190690464212
 30
0.0
 11
2204.684316108654
 21
-1394.840690464212
 31
0.0
  0
LINE
  5
347D
330
18
100
AcDbEntity
  8
L-ZISSEN
100
AcDbLine
 10
2203.684316108654
 20
-1373.840690464212
 30
0.0
 11
2203.684316108654
 21
-1394.840690464212
 31
0.0
  0
LINE
  5
347E
330
18
100
AcDbEntity
  8
L-ZISSEN
100
AcDbLine
 10
2217.684316108654
 20
-1373.840690464212
 30
0.0
 11
2217.684316108654
 21
-1394.840690464212
 31
0.0
  0
TEXT
  5
347F
330
18
100
AcDbEntity
  8
L-ZISSEN
100
AcDbText
 10
2080.684316108654
 20
-1250.030690464212
 30
0.0
 40
4.5
  1
TAMPER PROOF
100
AcDbText
  0
TEXT
  5
3480
330
18
100
AcDbEntity
  8
L-ZISSEN
100
AcDbText
 10
2080.684316108654
 20
-1260.030690464212
 30
0.0
 40
4.5
  1
MODEL NO. : R58-*05-00T*
100
AcDbText
  0
LINE
  5
3481
330
18
100
AcDbEntity
  8
L-TYUSIN
100
AcDbLine
 10
2055.684316108654
 20
-1015.030690464212
 30
0.0
 11
2055.684316108654
 21
-1460.030690464212
 31
0.0
  0
LINE
  5
3482
330
18
100
AcDbEntity
  8
L-ZISSEN
100
AcDbLine
 10
2217.684316108654
 20
-1394.840690464212
 30
0.0
 11
2203.684316108654
 21
-1394.840690464212
 31
0.0
  0
LINE
  5
3483
330
18
100
AcDbEntity
  8
L-ZISSEN
100
AcDbLine
 10
2203.684316108654
 20
-1373.840690464212
 30
0.0
 11
2217.684316108654
 21
-1373.840690464212
 31
0.0
  0
LINE
  5
3484
330
18
100
AcDbEntity
  8
L-ZISSEN
100
AcDbLine
 10
2128.767219877308
 20
-1373.840690464212
 30
0.0
 11
2112.601412339999
 21
-1373.840690464212
 31
0.0
  0
LINE
  5
3485
330
18
100
AcDbEntity
  8
L-ZISSEN
100
AcDbLine
 10
2128.767219877308
 20
-1394.840690464212
 30
0.0
 11
2112.601412339999
 21
-1394.840690464212
 31
0.0
  0
LINE
  5
3486
330
18
100
AcDbEntity
  8
L-ZISSEN
100
AcDbLine
 10
2221.684316108654
 20
-1173.102487233937
 30
0.0
 11
2221.684316108654
 21
-1186.958893694488
 31
0.0
  0
LINE
  5
3487
330
18
100
AcDbEntity
  8
L-ZISSEN
100
AcDbLine
 10
2221.684316108654
 20
-1184.926877953264
 30
0.0
 11
2216.684316108654
 21
-1185.083127900132
 31
0.0
  0
LINE
  5
3488
330
18
100
AcDbEntity
  8
L-ZISSEN
100
AcDbLine
 10
2221.684316108654
 20
-1175.134502975162
 30
0.0
 11
2216.684316108654
 21
-1174.978253028293
 31
0.0
  0
LINE
  5
3489
330
18
100
AcDbEntity
  8
L-ZISSEN
100
AcDbLine
 10
2242.684316108654
 20
-1173.102487233937
 30
0.0
 11
2242.684316108654
 21
-1186.958893694488
 31
0.0
  0
LINE
  5
348A
330
18
100
AcDbEntity
  8
L-ZISSEN
100
AcDbLine
 10
2221.684316108654
 20
-1173.102487233937
 30
0.0
 11
2242.684316108654
 21
-1173.102487233937
 31
0.0
  0
LINE
  5
348B
330
18
100
AcDbEntity
  8
L-ZISSEN
100
AcDbLine
 10
2221.684316108654
 20
-1186.958893694488
 30
0.0
 11
2242.684316108654
 21
-1186.958893694488
 31
0.0
  0
LINE
  5
348C
330
18
100
AcDbEntity
  8
L-ZISSEN
100
AcDbLine
 10
2246.684316108654
 20
-1175.134502975162
 30
0.0
 11
2242.684316108654
 21
-1175.009503017667
 31
0.0
  0
LINE
  5
348D
330
18
100
AcDbEntity
  8
L-ZISSEN
100
AcDbLine
 10
2246.684316108654
 20
-1184.926877953263
 30
0.0
 11
2242.684316108654
 21
-1185.051877910758
 31
0.0
  0
LINE
  5
348E
330
18
100
AcDbEntity
  8
L-ZISSEN
100
AcDbLine
 10
2115.788128619604
 20
-1095.030690464212
 30
0.0
 11
2115.631878672735
 21
-1100.030690464212
 31
0.0
  0
LINE
  5
348F
330
18
100
AcDbEntity
  8
L-ZISSEN
100
AcDbLine
 10
2125.580503597706
 20
-1095.030690464212
 30
0.0
 11
2125.736753544574
 21
-1100.030690464212
 31
0.0
  0
LINE
  5
3490
330
18
100
AcDbEntity
  8
L-ZISSEN
100
AcDbLine
 10
2114.684316108657
 20
-1095.030690464212
 30
0.0
 11
2126.684316108653
 21
-1095.030690464212
 31
0.0
  0
LINE
  5
3491
330
18
100
AcDbEntity
  8
L-ZISSEN
100
AcDbLine
 10
2115.788128619604
 20
-1070.030690464212
 30
0.0
 11
2115.663128662109
 21
-1074.030690464212
 31
0.0
  0
LINE
  5
3492
330
18
100
AcDbEntity
  8
L-ZISSEN
100
AcDbLine
 10
2125.580503597706
 20
-1070.030690464212
 30
0.0
 11
2125.7055035552
 21
-1074.030690464212
 31
0.0
  0
LINE
  5
3493
330
18
100
AcDbEntity
  8
L-ZISSEN
100
AcDbLine
 10
2114.684316108657
 20
-1095.030690464212
 30
0.0
 11
2114.684316108657
 21
-1074.030690464212
 31
0.0
  0
LINE
  5
3494
330
18
100
AcDbEntity
  8
L-ZISSEN
100
AcDbLine
 10
2126.684316108653
 20
-1095.030690464212
 30
0.0
 11
2126.684316108653
 21
-1074.030690464212
 31
0.0
  0
LINE
  5
3495
330
18
100
AcDbEntity
  8
L-ZISSEN
100
AcDbLine
 10
2114.684316108657
 20
-1074.030690464212
 30
0.0
 11
2126.684316108653
 21
-1074.030690464212
 31
0.0
  0
SOLID
  5
3496
330
18
100
AcDbEntity
  8
L-ZISSEN
100
AcDbTrace
 10
2209.605482127077
 20
-1439.573941108218
 30
0.0
 11
2209.107013902515
 21
-1440.016630472838
 31
0.0
 12
2210.684316108654
 22
-1441.290690464212
 32
0.0
 13
2210.684316108654
 23
-1441.290690464212
 33
0.0
  0
LINE
  5
3497
330
18
100
AcDbEntity
  8
L-ZISSEN
100
AcDbLine
 10
2209.356248014796
 20
-1439.795285790528
 30
0.0
 11
2200.684316108654
 21
-1430.030690464212
 31
0.0
  0
LINE
  5
3498
330
18
100
AcDbEntity
  8
L-ZISSEN
100
AcDbLine
 10
2200.684316108654
 20
-1430.030690464212
 30
0.0
 11
2198.684316108654
 21
-1430.030690464212
 31
0.0
  0
TEXT
  5
3499
330
18
100
AcDbEntity
  8
L-ZISSEN
100
AcDbText
 10
2187.684316108654
 20
-1432.280690464212
 30
0.0
 40
4.5
  1
P.P
100
AcDbText
  0
SOLID
  5
349A
330
18
100
AcDbEntity
  8
L-ZISSEN
100
AcDbTrace
 10
2119.605482127076
 20
-1439.573941108218
 30
0.0
 11
2119.107013902515
 21
-1440.016630472838
 31
0.0
 12
2120.684316108654
 22
-1441.290690464212
 32
0.0
 13
2120.684316108654
 23
-1441.290690464212
 33
0.0
  0
LINE
  5
349B
330
18
100
AcDbEntity
  8
L-ZISSEN
100
AcDbLine
 10
2119.356248014796
 20
-1439.795285790528
 30
0.0
 11
2110.684316108654
 21
-1430.030690464212
 31
0.0
  0
LINE
  5
349C
330
18
100
AcDbEntity
  8
L-ZISSEN
100
AcDbLine
 10
2110.684316108654
 20
-1430.030690464212
 30
0.0
 11
2108.684316108654
 21
-1430.030690464212
 31
0.0
  0
TEXT
  5
349D
330
18
100
AcDbEntity
  8
L-ZISSEN
100
AcDbText
 10
2097.684316108654
 20
-1432.280690464212
 30
0.0
 40
4.5
  1
P.P
100
AcDbText
  0
SOLID
  5
34B3
330
18
100
AcDbEntity
  8
L-ZISSEN
100
AcDbTrace
 10
1480.892656850749
 20
-1300.263215696316
 30
0.0
 11
1480.676171980599
 21
-1300.893754153066
 31
0.0
 12
1482.676029785923
 22
-1301.227939535143
 32
0.0
 13
1482.676029785923
 23
-1301.227939535143
 33
0.0
  0
LINE
  5
34B4
330
18
100
AcDbEntity
  8
L-ZISSEN
100
AcDbLine
 10
1480.784414415674
 20
-1300.578484924691
 30
0.0
 11
1452.676029785923
 21
-1290.927939535143
 31
0.0
  0
LINE
  5
34B5
330
18
100
AcDbEntity
  8
L-ZISSEN
100
AcDbLine
 10
1452.676029785923
 20
-1290.927939535143
 30
0.0
 11
1450.676029785923
 21
-1290.927939535143
 31
0.0
  0
TEXT
  5
34B6
330
18
100
AcDbEntity
  8
L-ZISSEN
100
AcDbText
 10
1439.676029785923
 20
-1293.177939535143
 30
0.0
 40
4.5
  1
P.P
100
AcDbText
  0
ENDSEC
  0
SECTION
  2
OBJECTS
  0
DICTIONARY
  5
C
330
0
100
AcDbDictionary
281
     1
  3
ACAD_DETAILVIEWSTYLE
350
250B
  3
ACAD_GROUP
350
D
  3
ACAD_LAYOUT
350
15
  3
ACAD_MATERIAL
350
2C4
  3
ACAD_MLEADERSTYLE
350
2CA
  3
ACAD_MLINESTYLE
350
12
  3
ACAD_PLOTSETTINGS
350
14
  3
ACAD_PLOTSTYLENAME
350
E
  3
ACAD_SCALELIST
350
289
  3
ACAD_SECTIONVIEWSTYLE
350
250C
  3
ACAD_TABLESTYLE
350
2C8
  3
ACAD_VISUALSTYLE
350
2AB
  3
ACDB_RECOMPOSE_DATA
350
34C9
  3
AcDbVariableDictionary
350
2507
  3
APPDATA
350
2CC
  0
SUN
  5
34B7
330
21
100
AcDbSun
 90
        1
290
     0
 63
     7
421
 16777215
 40
1.0
291
     1
 91
  2455826
 92
 54000000
292
     0
 70
     2
 71
   256
280
     1
  0
DICTIONARY
  5
A85
330
2
100
AcDbDictionary
280
     1
281
     1
  3
ACAD_LAYERSTATES
360
A86
  0
DICTIONARY
  5
250B
102
{ACAD_REACTORS
330
C
102
}
330
C
100
AcDbDictionary
281
     1
  0
DICTIONARY
  5
D
102
{ACAD_REACTORS
330
C
102
}
330
C
100
AcDbDictionary
281
     1
  0
DICTIONARY
  5
15
102
{ACAD_REACTORS
330
C
102
}
330
C
100
AcDbDictionary
281
     1
  3
Model
350
19
  3
シート 1
350
17
  0
DICTIONARY
  5
2C4
102
{ACAD_REACTORS
330
C
102
}
330
C
100
AcDbDictionary
281
     1
  3
ByBlock
350
2C6
  3
ByLayer
350
2C5
  3
Global
350
2C7
  0
DICTIONARY
  5
2CA
102
{ACAD_REACTORS
330
C
102
}
330
C
100
AcDbDictionary
281
     1
  3
Standard
350
2CB
  0
DICTIONARY
  5
12
102
{ACAD_REACTORS
330
C
102
}
330
C
100
AcDbDictionary
281
     1
  3
Standard
350
13
  0
DICTIONARY
  5
14
102
{ACAD_REACTORS
330
C
102
}
330
C
100
AcDbDictionary
281
     1
  0
ACDBDICTIONARYWDFLT
  5
E
102
{ACAD_REACTORS
330
C
102
}
330
C
100
AcDbDictionary
281
     1
  3
Normal
350
F
100
AcDbDictionaryWithDefault
340
F
  0
DICTIONARY
  5
289
102
{ACAD_REACTORS
330
C
102
}
330
C
100
AcDbDictionary
281
     1
  3
A0
350
28A
  3
A1
350
28B
  3
A2
350
28C
  3
A3
350
28D
  3
A4
350
28E
  3
A5
350
28F
  3
A6
350
290
  3
A7
350
291
  3
A8
350
292
  3
A9
350
293
  3
B0
350
294
  3
B1
350
295
  3
B2
350
296
  3
B3
350
297
  3
B4
350
298
  3
B5
350
299
  3
B6
350
29A
  3
B7
350
29B
  3
B8
350
29C
  3
B9
350
29D
  3
C0
350
29E
  3
C1
350
29F
  3
C2
350
2A0
  3
C3
350
2A1
  3
C4
350
2A2
  3
C5
350
2A3
  3
C6
350
2A4
  3
C7
350
2A5
  3
C8
350
2A6
  3
C9
350
2A7
  3
D0
350
2A8
  3
D1
350
2A9
  3
D2
350
2AA
  0
DICTIONARY
  5
250C
102
{ACAD_REACTORS
330
C
102
}
330
C
100
AcDbDictionary
281
     1
  0
DICTIONARY
  5
2C8
102
{ACAD_REACTORS
330
C
102
}
330
C
100
AcDbDictionary
281
     1
  3
Standard
350
2C9
  0
DICTIONARY
  5
2AB
102
{ACAD_REACTORS
330
C
102
}
330
C
100
AcDbDictionary
281
     1
  3
2dWireframe
350
2B0
  3
Basic
350
2B3
  3
Brighten
350
2B7
  3
ColorChange
350
2BB
  3
Conceptual
350
2B5
  3
Dim
350
2B6
  3
EdgeColorOff
350
2BE
  3
Facepattern
350
2BA
  3
Flat
350
2AC
  3
FlatWithEdges
350
2AD
  3
Gouraud
350
2AE
  3
GouraudWithEdges
350
2AF
  3
Hidden
350
2B2
  3
JitterOff
350
2BC
  3
Linepattern
350
2B9
  3
OverhangOff
350
2BD
  3
Realistic
350
2B4
  3
Shaded
350
2C3
  3
Shaded with edges
350
2C2
  3
Shades of Gray
350
2BF
  3
Sketchy
350
2C0
  3
Thicken
350
2B8
  3
Wireframe
350
2B1
  3
X-Ray
350
2C1
  0
XRECORD
  5
34C9
102
{ACAD_REACTORS
330
C
102
}
330
C
100
AcDbXrecord
280
     1
 90
        1
330
2C9
  0
DICTIONARY
  5
2507
102
{ACAD_REACTORS
330
C
102
}
330
C
100
AcDbDictionary
281
     1
  3
CANNOSCALE
350
2508
  3
CMLEADERSTYLE
350
250A
  3
CTABLESTYLE
350
2509
  0
DICTIONARY
  5
2CC
102
{ACAD_REACTORS
330
C
102
}
330
C
100
AcDbDictionary
281
     1
  0
DICTIONARY
  5
A86
102
{ACAD_REACTORS
330
A85
102
}
330
A85
100
AcDbDictionary
281
     1
  0
LAYOUT
  5
19
102
{ACAD_REACTORS
330
15
102
}
330
15
100
AcDbPlotSettings
  1

  2
none_device
  4
Letter_(8.50_x_11.00_Inches)
  6

 40
6.35
 41
6.35
 42
6.35
 43
6.35
 44
215.9
 45
279.4
 46
0.0
 47
0.0
 48
0.0
 49
0.0
140
0.0
141
0.0
142
1.0
143
1.0
 70
  1712
 72
     0
 73
     0
 74
     0
  7

 75
     0
 76
     0
 77
     2
 78
   300
147
1.0
148
0.0
149
0.0
100
AcDbLayout
  1
Model
 70
     1
 71
     0
 10
0.0
 20
0.0
 11
841.0
 21
594.0
 12
0.0
 22
0.0
 32
0.0
 14
1412.676029785923
 24
-1479.997939535144
 34
0.0
 15
2280.684316108654
 25
-963.9305556835384
 35
0.0
146
0.0
 13
0.0
 23
0.0
 33
0.0
 16
1.0
 26
0.0
 36
0.0
 17
0.0
 27
1.0
 37
0.0
 76
     0
330
18
331
21
  0
LAYOUT
  5
17
102
{ACAD_REACTORS
330
15
102
}
330
15
100
AcDbPlotSettings
  1

  2
none_device
  4

  6

 40
0.0
 41
0.0
 42
0.0
 43
0.0
 44
0.0
 45
0.0
 46
0.0
 47
0.0
 48
0.0
 49
0.0
140
0.0
141
0.0
142
1.0
143
1.0
 70
   688
 72
     0
 73
     0
 74
     5
  7

 75
    16
 76
     0
 77
     2
 78
   300
147
1.0
148
0.0
149
0.0
100
AcDbLayout
  1
シート 1
 70
     0
 71
     1
 10
0.0
 20
0.0
 11
0.0
 21
0.0
 12
0.0
 22
0.0
 32
0.0
 14
1.000000000000000E+20
 24
1.000000000000000E+20
 34
1.000000000000000E+20
 15
-1.000000000000000E+20
 25
-1.000000000000000E+20
 35
-1.000000000000000E+20
146
0.0
 13
0.0
 23
0.0
 33
0.0
 16
1.0
 26
0.0
 36
0.0
 17
0.0
 27
1.0
 37
0.0
 76
     0
330
16
  0
MATERIAL
  5
2C6
102
{ACAD_REACTORS
330
2C4
102
}
330
2C4
100
AcDbMaterial
  1
ByBlock
 72
     1
 94
      127
  0
MATERIAL
  5
2C5
102
{ACAD_REACTORS
330
2C4
102
}
330
2C4
100
AcDbMaterial
  1
ByLayer
 72
     1
 94
      127
  0
MATERIAL
  5
2C7
102
{ACAD_REACTORS
330
2C4
102
}
330
2C4
100
AcDbMaterial
  1
Global
 72
     1
 94
      127
  0
MLEADERSTYLE
  5
2CB
102
{ACAD_REACTORS
330
2CA
102
}
330
2CA
100
AcDbMLeaderStyle
179
     2
170
     2
171
     1
172
     0
 90
        2
 40
0.0
 41
0.0
173
     1
 91
-1056964608
340
10
 92
       -2
290
     1
 42
0.09
291
     1
 43
0.36
  3
Standard
341
0
 44
0.18
300

342
22
174
     1
178
     1
175
     1
176
     0
 93
-1056964608
 45
0.18
292
     0
297
     0
 46
0.18
343
0
 94
-1056964608
 47
1.0
 49
1.0
140
1.0
293
     1
141
0.0
294
     1
177
     0
142
1.0
295
     0
296
     0
143
0.125
271
     0
272
     9
273
     9
298
     0
  0
MLINESTYLE
  5
13
102
{ACAD_REACTORS
330
12
102
}
330
12
100
AcDbMlineStyle
  2
Standard
 70
     0
  3

 62
   256
 51
90.0
 52
90.0
 71
     2
 49
0.5
 62
   256
  6
BYLAYER
 49
-0.5
 62
   256
  6
BYLAYER
  0
ACDBPLACEHOLDER
  5
F
102
{ACAD_REACTORS
330
E
102
}
330
E
  0
SCALE
  5
28A
102
{ACAD_REACTORS
330
289
102
}
330
289
100
AcDbScale
 70
     0
300
1:1
140
1.0
141
1.0
290
     1
  0
SCALE
  5
28B
102
{ACAD_REACTORS
330
289
102
}
330
289
100
AcDbScale
 70
     0
300
1:2
140
1.0
141
2.0
290
     0
  0
SCALE
  5
28C
102
{ACAD_REACTORS
330
289
102
}
330
289
100
AcDbScale
 70
     0
300
1:4
140
1.0
141
4.0
290
     0
  0
SCALE
  5
28D
102
{ACAD_REACTORS
330
289
102
}
330
289
100
AcDbScale
 70
     0
300
1:5
140
1.0
141
5.0
290
     0
  0
SCALE
  5
28E
102
{ACAD_REACTORS
330
289
102
}
330
289
100
AcDbScale
 70
     0
300
1:8
140
1.0
141
8.0
290
     0
  0
SCALE
  5
28F
102
{ACAD_REACTORS
330
289
102
}
330
289
100
AcDbScale
 70
     0
300
1:10
140
1.0
141
10.0
290
     0
  0
SCALE
  5
290
102
{ACAD_REACTORS
330
289
102
}
330
289
100
AcDbScale
 70
     0
300
1:16
140
1.0
141
16.0
290
     0
  0
SCALE
  5
291
102
{ACAD_REACTORS
330
289
102
}
330
289
100
AcDbScale
 70
     0
300
1:20
140
1.0
141
20.0
290
     0
  0
SCALE
  5
292
102
{ACAD_REACTORS
330
289
102
}
330
289
100
AcDbScale
 70
     0
300
1:30
140
1.0
141
30.0
290
     0
  0
SCALE
  5
293
102
{ACAD_REACTORS
330
289
102
}
330
289
100
AcDbScale
 70
     0
300
1:40
140
1.0
141
40.0
290
     0
  0
SCALE
  5
294
102
{ACAD_REACTORS
330
289
102
}
330
289
100
AcDbScale
 70
     0
300
1:50
140
1.0
141
50.0
290
     0
  0
SCALE
  5
295
102
{ACAD_REACTORS
330
289
102
}
330
289
100
AcDbScale
 70
     0
300
1:100
140
1.0
141
100.0
290
     0
  0
SCALE
  5
296
102
{ACAD_REACTORS
330
289
102
}
330
289
100
AcDbScale
 70
     0
300
2:1
140
2.0
141
1.0
290
     0
  0
SCALE
  5
297
102
{ACAD_REACTORS
330
289
102
}
330
289
100
AcDbScale
 70
     0
300
4:1
140
4.0
141
1.0
290
     0
  0
SCALE
  5
298
102
{ACAD_REACTORS
330
289
102
}
330
289
100
AcDbScale
 70
     0
300
8:1
140
8.0
141
1.0
290
     0
  0
SCALE
  5
299
102
{ACAD_REACTORS
330
289
102
}
330
289
100
AcDbScale
 70
     0
300
10:1
140
10.0
141
1.0
290
     0
  0
SCALE
  5
29A
102
{ACAD_REACTORS
330
289
102
}
330
289
100
AcDbScale
 70
     0
300
100:1
140
100.0
141
1.0
290
     0
  0
SCALE
  5
29B
102
{ACAD_REACTORS
330
289
102
}
330
289
100
AcDbScale
 70
     0
300
1/128" = 1'-0"
140
0.0078125
141
12.0
290
     0
  0
SCALE
  5
29C
102
{ACAD_REACTORS
330
289
102
}
330
289
100
AcDbScale
 70
     0
300
1/64" = 1'-0"
140
0.015625
141
12.0
290
     0
  0
SCALE
  5
29D
102
{ACAD_REACTORS
330
289
102
}
330
289
100
AcDbScale
 70
     0
300
1/32" = 1'-0"
140
0.03125
141
12.0
290
     0
  0
SCALE
  5
29E
102
{ACAD_REACTORS
330
289
102
}
330
289
100
AcDbScale
 70
     0
300
1/16" = 1'-0"
140
0.0625
141
12.0
290
     0
  0
SCALE
  5
29F
102
{ACAD_REACTORS
330
289
102
}
330
289
100
AcDbScale
 70
     0
300
3/32" = 1'-0"
140
0.09375
141
12.0
290
     0
  0
SCALE
  5
2A0
102
{ACAD_REACTORS
330
289
102
}
330
289
100
AcDbScale
 70
     0
300
1/8" = 1'-0"
140
0.125
141
12.0
290
     0
  0
SCALE
  5
2A1
102
{ACAD_REACTORS
330
289
102
}
330
289
100
AcDbScale
 70
     0
300
3/16" = 1'-0"
140
0.1875
141
12.0
290
     0
  0
SCALE
  5
2A2
102
{ACAD_REACTORS
330
289
102
}
330
289
100
AcDbScale
 70
     0
300
1/4" = 1'-0"
140
0.25
141
12.0
290
     0
  0
SCALE
  5
2A3
102
{ACAD_REACTORS
330
289
102
}
330
289
100
AcDbScale
 70
     0
300
3/8" = 1'-0"
140
0.375
141
12.0
290
     0
  0
SCALE
  5
2A4
102
{ACAD_REACTORS
330
289
102
}
330
289
100
AcDbScale
 70
     0
300
1/2" = 1'-0"
140
0.5
141
12.0
290
     0
  0
SCALE
  5
2A5
102
{ACAD_REACTORS
330
289
102
}
330
289
100
AcDbScale
 70
     0
300
3/4" = 1'-0"
140
0.75
141
12.0
290
     0
  0
SCALE
  5
2A6
102
{ACAD_REACTORS
330
289
102
}
330
289
100
AcDbScale
 70
     0
300
1" = 1'-0"
140
1.0
141
12.0
290
     0
  0
SCALE
  5
2A7
102
{ACAD_REACTORS
330
289
102
}
330
289
100
AcDbScale
 70
     0
300
1-1/2" = 1'-0"
140
1.5
141
12.0
290
     0
  0
SCALE
  5
2A8
102
{ACAD_REACTORS
330
289
102
}
330
289
100
AcDbScale
 70
     0
300
3" = 1'-0"
140
3.0
141
12.0
290
     0
  0
SCALE
  5
2A9
102
{ACAD_REACTORS
330
289
102
}
330
289
100
AcDbScale
 70
     0
300
6" = 1'-0"
140
6.0
141
12.0
290
     0
  0
SCALE
  5
2AA
102
{ACAD_REACTORS
330
289
102
}
330
289
100
AcDbScale
 70
     0
300
1'-0" = 1'-0"
140
12.0
141
12.0
290
     0
  0
TABLESTYLE
  5
2C9
102
{ACAD_REACTORS
330
2C8
102
}
102
{ACAD_XDICTIONARY
360
34C7
102
}
330
2C8
100
AcDbTableStyle
  3
Standard
 70
     0
 71
     0
 40
0.06
 41
0.06
280
     0
281
     0
  7
STANDARD
140
0.18
170
     2
 62
     0
 63
   257
283
     0
 90
        4
 91
        0
  1

274
    -2
284
     1
 64
     0
275
    -2
285
     1
 65
     0
276
    -2
286
     1
 66
     0
277
    -2
287
     1
 67
     0
278
    -2
288
     1
 68
     0
279
    -2
289
     1
 69
     0
  7
STANDARD
140
0.25
170
     5
 62
     0
 63
   257
283
     0
 90
        4
 91
        0
  1

274
    -2
284
     1
 64
     0
275
    -2
285
     1
 65
     0
276
    -2
286
     1
 66
     0
277
    -2
287
     1
 67
     0
278
    -2
288
     1
 68
     0
279
    -2
289
     1
 69
     0
  7
STANDARD
140
0.18
170
     5
 62
     0
 63
   257
283
     0
 90
        4
 91
        0
  1

274
    -2
284
     1
 64
     0
275
    -2
285
     1
 65
     0
276
    -2
286
     1
 66
     0
277
    -2
287
     1
 67
     0
278
    -2
288
     1
 68
     0
279
    -2
289
     1
 69
     0
  0
VISUALSTYLE
  5
2B0
102
{ACAD_REACTORS
330
2AB
102
}
330
2AB
100
AcDbVisualStyle
  2
2dWireframe
 70
     4
177
     3
291
     0
 70
    58
 90
        0
176
     1
 90
        2
176
     1
 90
        0
176
     1
 90
        0
176
     1
 40
0.6
176
     1
 40
30.0
176
     1
 62
     7
420
 16777215
176
     1
 90
        1
176
     1
 90
        4
176
     1
 62
     7
176
     1
 62
   257
176
     1
 90
        1
176
     1
 90
        1
176
     1
 40
1.0
176
     1
 90
        0
176
     1
 62
   257
176
     1
 40
1.0
176
     1
 90
        1
176
     1
 90
        6
176
     1
 90
        2
176
     1
 62
     7
176
     1
 90
        5
176
     1
 90
        0
176
     1
 90
        0
176
     1
290
     0
176
     1
 90
        1
176
     1
 40
0.0
176
     1
 90
        0
176
     1
290
     1
176
     1
290
     1
176
     1
290
     0
176
     1
290
     0
176
     1
290
     0
176
     1
290
     0
176
     1
290
     0
176
     1
290
     0
176
     1
290
     0
176
     1
 90
       50
176
     1
 40
0.0
176
     1
 40
1.0
176
     1
 90
        0
176
     1
 62
    18
420
        0
176
     1
 90
       50
176
     1
 90
        3
176
     1
 62
     5
420
      255
176
     1
290
     0
176
     1
 90
       50
176
     1
 90
       50
176
     1
 90
       50
176
     1
290
     0
176
     1
 90
       50
176
     1
 62
   256
176
     0
 40
1.0
176
     0
 90
        2
176
     1
  1
strokes_ogs.tif
176
     1
290
     0
176
     1
 40
1.0
176
     1
 40
1.0
176
     1
  0
VISUALSTYLE
  5
2B3
102
{ACAD_REACTORS
330
2AB
102
}
330
2AB
100
AcDbVisualStyle
  2
Basic
 70
     7
177
     3
291
     1
 70
    58
 90
        1
176
     1
 90
        0
176
     1
 90
        1
176
     1
 90
        0
176
     1
 40
0.6
176
     1
 40
30.0
176
     1
 62
     7
420
 16777215
176
     1
 90
        0
176
     1
 90
        4
176
     1
 62
     7
176
     1
 62
   257
176
     1
 90
        1
176
     1
 90
        1
176
     1
 40
1.0
176
     1
 90
        8
176
     1
 62
     7
176
     1
 40
1.0
176
     1
 90
        1
176
     1
 90
        6
176
     1
 90
        2
176
     1
 62
     7
176
     1
 90
        5
176
     1
 90
        0
176
     1
 90
        0
176
     1
290
     0
176
     1
 90
        1
176
     1
 40
0.0
176
     1
 90
        0
176
     1
290
     0
176
     1
290
     1
176
     1
290
     1
176
     1
290
     0
176
     1
290
     0
176
     1
290
     0
176
     1
290
     0
176
     1
290
     0
176
     1
290
     0
176
     1
 90
       50
176
     1
 40
0.0
176
     1
 40
1.0
176
     1
 90
        0
176
     1
 62
    18
420
        0
176
     1
 90
       50
176
     1
 90
        3
176
     1
 62
     5
420
      255
176
     1
290
     0
176
     1
 90
       50
176
     1
 90
       50
176
     1
 90
       50
176
     1
290
     0
176
     1
 90
       50
176
     1
 62
   256
176
     0
 40
1.0
176
     0
 90
        2
176
     1
  1
strokes_ogs.tif
176
     1
290
     0
176
     1
 40
1.0
176
     1
 40
1.0
176
     1
  0
VISUALSTYLE
  5
2B7
102
{ACAD_REACTORS
330
2AB
102
}
330
2AB
100
AcDbVisualStyle
  2
Brighten
 70
    12
177
     3
291
     1
 70
    58
 90
        2
176
     1
 90
        2
176
     1
 90
        0
176
     1
 90
        0
176
     1
 40
0.6
176
     1
 40
30.0
176
     1
 62
     7
420
 16777215
176
     1
 90
        1
176
     1
 90
        4
176
     1
 62
     7
176
     1
 62
   257
176
     1
 90
        1
176
     1
 90
        1
176
     1
 40
1.0
176
     1
 90
        8
176
     1
 62
     7
176
     1
 40
1.0
176
     1
 90
        1
176
     1
 90
        6
176
     1
 90
        2
176
     1
 62
     7
176
     1
 90
        5
176
     1
 90
        0
176
     1
 90
        0
176
     1
290
     0
176
     1
 90
        1
176
     1
 40
50.0
176
     1
 90
        0
176
     1
290
     0
176
     1
290
     1
176
     1
290
     1
176
     1
290
     0
176
     1
290
     0
176
     1
290
     0
176
     1
290
     0
176
     1
290
     0
176
     1
290
     0
176
     1
 90
       50
176
     1
 40
0.0
176
     1
 40
1.0
176
     1
 90
        0
176
     1
 62
    18
420
        0
176
     1
 90
       50
176
     1
 90
        3
176
     1
 62
     5
420
      255
176
     1
290
     0
176
     1
 90
       50
176
     1
 90
       50
176
     1
 90
       50
176
     1
290
     0
176
     1
 90
       50
176
     1
 62
   256
176
     0
 40
1.0
176
     0
 90
        2
176
     1
  1
strokes_ogs.tif
176
     1
290
     0
176
     1
 40
1.0
176
     1
 40
1.0
176
     1
  0
VISUALSTYLE
  5
2BB
102
{ACAD_REACTORS
330
2AB
102
}
330
2AB
100
AcDbVisualStyle
  2
ColorChange
 70
    16
177
     3
291
     1
 70
    58
 90
        2
176
     1
 90
        2
176
     1
 90
        3
176
     1
 90
        0
176
     1
 40
0.6
176
     1
 40
30.0
176
     1
 62
     8
420
  8421504
176
     1
 90
        1
176
     1
 90
        4
176
     1
 62
     7
176
     1
 62
   257
176
     1
 90
        1
176
     1
 90
        1
176
     1
 40
1.0
176
     1
 90
        8
176
     1
 62
     8
420
  8421504
176
     1
 40
1.0
176
     1
 90
        1
176
     1
 90
        6
176
     1
 90
        2
176
     1
 62
     7
176
     1
 90
        5
176
     1
 90
        0
176
     1
 90
        0
176
     1
290
     0
176
     1
 90
        1
176
     1
 40
0.0
176
     1
 90
        0
176
     1
290
     0
176
     1
290
     1
176
     1
290
     1
176
     1
290
     0
176
     1
290
     0
176
     1
290
     0
176
     1
290
     0
176
     1
290
     0
176
     1
290
     0
176
     1
 90
       50
176
     1
 40
0.0
176
     1
 40
1.0
176
     1
 90
        0
176
     1
 62
    18
420
        0
176
     1
 90
       50
176
     1
 90
        3
176
     1
 62
     5
420
      255
176
     1
290
     0
176
     1
 90
       50
176
     1
 90
       50
176
     1
 90
       50
176
     1
290
     0
176
     1
 90
       50
176
     1
 62
   256
176
     0
 40
1.0
176
     0
 90
        2
176
     1
  1
strokes_ogs.tif
176
     1
290
     0
176
     1
 40
1.0
176
     1
 40
1.0
176
     1
  0
VISUALSTYLE
  5
2B5
102
{ACAD_REACTORS
330
2AB
102
}
330
2AB
100
AcDbVisualStyle
  2
Conceptual
 70
     9
177
     3
291
     0
 70
    58
 90
        3
176
     1
 90
        2
176
     1
 90
        0
176
     1
 90
        0
176
     1
 40
0.6
176
     1
 40
30.0
176
     1
 62
     7
420
 16777215
176
     1
 90
        2
176
     1
 90
        2
176
     1
 62
     7
176
     1
 62
   257
176
     1
 90
        1
176
     1
 90
        1
176
     1
 40
179.0
176
     1
 90
        8
176
     1
 62
     7
176
     1
 40
1.0
176
     1
 90
        1
176
     1
 90
        6
176
     1
 90
        2
176
     1
 62
     7
176
     1
 90
        3
176
     1
 90
        0
176
     1
 90
        0
176
     1
290
     0
176
     1
 90
        1
176
     1
 40
0.0
176
     1
 90
        0
176
     1
290
     0
176
     1
290
     1
176
     1
290
     1
176
     1
290
     0
176
     1
290
     0
176
     1
290
     0
176
     1
290
     0
176
     1
290
     0
176
     1
290
     0
176
     1
 90
       50
176
     1
 40
0.0
176
     1
 40
1.0
176
     1
 90
        0
176
     1
 62
    18
420
        0
176
     1
 90
       50
176
     1
 90
        3
176
     1
 62
     5
420
      255
176
     1
290
     0
176
     1
 90
       50
176
     1
 90
       50
176
     1
 90
       50
176
     1
290
     0
176
     1
 90
       50
176
     1
 62
   256
176
     0
 40
1.0
176
     0
 90
        2
176
     1
  1
strokes_ogs.tif
176
     1
290
     0
176
     1
 40
1.0
176
     1
 40
1.0
176
     1
  0
VISUALSTYLE
  5
2B6
102
{ACAD_REACTORS
330
2AB
102
}
330
2AB
100
AcDbVisualStyle
  2
Dim
 70
    11
177
     3
291
     1
 70
    58
 90
        2
176
     1
 90
        2
176
     1
 90
        0
176
     1
 90
        0
176
     1
 40
0.6
176
     1
 40
30.0
176
     1
 62
     7
420
 16777215
176
     1
 90
        1
176
     1
 90
        4
176
     1
 62
     7
176
     1
 62
   257
176
     1
 90
        1
176
     1
 90
        1
176
     1
 40
1.0
176
     1
 90
        8
176
     1
 62
     7
176
     1
 40
1.0
176
     1
 90
        1
176
     1
 90
        6
176
     1
 90
        2
176
     1
 62
     7
176
     1
 90
        5
176
     1
 90
        0
176
     1
 90
        0
176
     1
290
     0
176
     1
 90
        1
176
     1
 40
-50.0
176
     1
 90
        0
176
     1
290
     0
176
     1
290
     1
176
     1
290
     1
176
     1
290
     0
176
     1
290
     0
176
     1
290
     0
176
     1
290
     0
176
     1
290
     0
176
     1
290
     0
176
     1
 90
       50
176
     1
 40
0.0
176
     1
 40
1.0
176
     1
 90
        0
176
     1
 62
    18
420
        0
176
     1
 90
       50
176
     1
 90
        3
176
     1
 62
     5
420
      255
176
     1
290
     0
176
     1
 90
       50
176
     1
 90
       50
176
     1
 90
       50
176
     1
290
     0
176
     1
 90
       50
176
     1
 62
   256
176
     0
 40
1.0
176
     0
 90
        2
176
     1
  1
strokes_ogs.tif
176
     1
290
     0
176
     1
 40
1.0
176
     1
 40
1.0
176
     1
  0
VISUALSTYLE
  5
2BE
102
{ACAD_REACTORS
330
2AB
102
}
330
2AB
100
AcDbVisualStyle
  2
EdgeColorOff
 70
    22
177
     3
291
     1
 70
    58
 90
        2
176
     0
 90
        2
176
     0
 90
        0
176
     0
 90
        0
176
     0
 40
0.6
176
     0
 40
30.0
176
     0
 62
     7
420
 16777215
176
     0
 90
        1
176
     0
 90
        4
176
     0
 62
     7
176
     0
 62
   257
176
     0
 90
        1
176
     0
 90
        1
176
     0
 40
1.0
176
     0
 90
        8
176
     2
 62
     7
176
     0
 40
1.0
176
     0
 90
        1
176
     0
 90
        6
176
     0
 90
        2
176
     0
 62
     7
176
     0
 90
        5
176
     0
 90
        0
176
     0
 90
        0
176
     0
290
     0
176
     0
 90
        1
176
     0
 40
0.0
176
     0
 90
        0
176
     0
290
     0
176
     0
290
     1
176
     0
290
     1
176
     0
290
     0
176
     0
290
     0
176
     0
290
     0
176
     0
290
     0
176
     0
290
     0
176
     0
290
     0
176
     0
 90
       50
176
     0
 40
0.0
176
     0
 40
1.0
176
     0
 90
        0
176
     0
 62
    18
420
        0
176
     0
 90
       50
176
     0
 90
        3
176
     0
 62
     5
420
      255
176
     0
290
     0
176
     0
 90
       50
176
     0
 90
       50
176
     0
 90
       50
176
     0
290
     0
176
     0
 90
       50
176
     0
 62
   256
176
     0
 40
1.0
176
     0
 90
        2
176
     0
  1
strokes_ogs.tif
176
     0
290
     0
176
     0
 40
1.0
176
     0
 40
1.0
176
     0
  0
VISUALSTYLE
  5
2BA
102
{ACAD_REACTORS
330
2AB
102
}
330
2AB
100
AcDbVisualStyle
  2
Facepattern
 70
    15
177
     3
291
     1
 70
    58
 90
        2
176
     1
 90
        2
176
     1
 90
        0
176
     1
 90
        0
176
     1
 40
0.6
176
     1
 40
30.0
176
     1
 62
     7
420
 16777215
176
     1
 90
        1
176
     1
 90
        4
176
     1
 62
     7
176
     1
 62
   257
176
     1
 90
        1
176
     1
 90
        1
176
     1
 40
1.0
176
     1
 90
        8
176
     1
 62
     7
176
     1
 40
1.0
176
     1
 90
        1
176
     1
 90
        6
176
     1
 90
        2
176
     1
 62
     7
176
     1
 90
        5
176
     1
 90
        0
176
     1
 90
        0
176
     1
290
     0
176
     1
 90
        1
176
     1
 40
0.0
176
     1
 90
        0
176
     1
290
     0
176
     1
290
     1
176
     1
290
     1
176
     1
290
     0
176
     1
290
     0
176
     1
290
     0
176
     1
290
     0
176
     1
290
     0
176
     1
290
     0
176
     1
 90
       50
176
     1
 40
0.0
176
     1
 40
1.0
176
     1
 90
        0
176
     1
 62
    18
420
        0
176
     1
 90
       50
176
     1
 90
        3
176
     1
 62
     5
420
      255
176
     1
290
     0
176
     1
 90
       50
176
     1
 90
       50
176
     1
 90
       50
176
     1
290
     0
176
     1
 90
       50
176
     1
 62
   256
176
     0
 40
1.0
176
     0
 90
        2
176
     1
  1
strokes_ogs.tif
176
     1
290
     0
176
     1
 40
1.0
176
     1
 40
1.0
176
     1
  0
VISUALSTYLE
  5
2AC
102
{ACAD_REACTORS
330
2AB
102
}
330
2AB
100
AcDbVisualStyle
  2
Flat
 70
     0
177
     3
291
     1
 70
    58
 90
        2
176
     1
 90
        1
176
     1
 90
        1
176
     1
 90
        2
176
     1
 40
0.6
176
     1
 40
30.0
176
     1
 62
     7
420
 16777215
176
     1
 90
        0
176
     1
 90
        0
176
     1
 62
     7
176
     1
 62
   257
176
     1
 90
        1
176
     1
 90
        1
176
     1
 40
1.0
176
     1
 90
        8
176
     1
 62
     7
176
     1
 40
1.0
176
     1
 90
        1
176
     1
 90
        6
176
     1
 90
        2
176
     1
 62
     7
176
     1
 90
        5
176
     1
 90
        0
176
     1
 90
        0
176
     1
290
     0
176
     1
 90
       13
176
     1
 40
0.0
176
     1
 90
        0
176
     1
290
     0
176
     1
290
     1
176
     1
290
     1
176
     1
290
     0
176
     1
290
     0
176
     1
290
     0
176
     1
290
     0
176
     1
290
     0
176
     1
290
     0
176
     1
 90
       50
176
     1
 40
0.0
176
     1
 40
1.0
176
     1
 90
        0
176
     1
 62
    18
420
        0
176
     1
 90
       50
176
     1
 90
        3
176
     1
 62
     5
420
      255
176
     1
290
     0
176
     1
 90
       50
176
     1
 90
       50
176
     1
 90
       50
176
     1
290
     0
176
     1
 90
       50
176
     1
 62
   256
176
     0
 40
1.0
176
     0
 90
        2
176
     1
  1
strokes_ogs.tif
176
     1
290
     0
176
     1
 40
1.0
176
     1
 40
1.0
176
     1
  0
VISUALSTYLE
  5
2AD
102
{ACAD_REACTORS
330
2AB
102
}
330
2AB
100
AcDbVisualStyle
  2
FlatWithEdges
 70
     1
177
     3
291
     1
 70
    58
 90
        2
176
     1
 90
        1
176
     1
 90
        1
176
     1
 90
        2
176
     1
 40
0.6
176
     1
 40
30.0
176
     1
 62
     7
420
 16777215
176
     1
 90
        1
176
     1
 90
        0
176
     1
 62
     7
176
     1
 62
   257
176
     1
 90
        1
176
     1
 90
        1
176
     1
 40
1.0
176
     1
 90
        0
176
     1
 62
   257
176
     1
 40
1.0
176
     1
 90
        1
176
     1
 90
        6
176
     1
 90
        2
176
     1
 62
     7
176
     1
 90
        5
176
     1
 90
        0
176
     1
 90
        0
176
     1
290
     0
176
     1
 90
       13
176
     1
 40
0.0
176
     1
 90
        0
176
     1
290
     0
176
     1
290
     1
176
     1
290
     1
176
     1
290
     0
176
     1
290
     0
176
     1
290
     0
176
     1
290
     0
176
     1
290
     0
176
     1
290
     0
176
     1
 90
       50
176
     1
 40
0.0
176
     1
 40
1.0
176
     1
 90
        0
176
     1
 62
    18
420
        0
176
     1
 90
       50
176
     1
 90
        3
176
     1
 62
     5
420
      255
176
     1
290
     0
176
     1
 90
       50
176
     1
 90
       50
176
     1
 90
       50
176
     1
290
     0
176
     1
 90
       50
176
     1
 62
   256
176
     0
 40
1.0
176
     0
 90
        2
176
     1
  1
strokes_ogs.tif
176
     1
290
     0
176
     1
 40
1.0
176
     1
 40
1.0
176
     1
  0
VISUALSTYLE
  5
2AE
102
{ACAD_REACTORS
330
2AB
102
}
330
2AB
100
AcDbVisualStyle
  2
Gouraud
 70
     2
177
     3
291
     1
 70
    58
 90
        2
176
     1
 90
        2
176
     1
 90
        1
176
     1
 90
        2
176
     1
 40
0.6
176
     1
 40
30.0
176
     1
 62
     7
420
 16777215
176
     1
 90
        0
176
     1
 90
        0
176
     1
 62
     7
176
     1
 62
   257
176
     1
 90
        1
176
     1
 90
        1
176
     1
 40
1.0
176
     1
 90
        0
176
     1
 62
     7
176
     1
 40
1.0
176
     1
 90
        1
176
     1
 90
        6
176
     1
 90
        2
176
     1
 62
     7
176
     1
 90
        5
176
     1
 90
        0
176
     1
 90
        0
176
     1
290
     0
176
     1
 90
       13
176
     1
 40
0.0
176
     1
 90
        0
176
     1
290
     0
176
     1
290
     1
176
     1
290
     1
176
     1
290
     0
176
     1
290
     0
176
     1
290
     0
176
     1
290
     0
176
     1
290
     0
176
     1
290
     0
176
     1
 90
       50
176
     1
 40
0.0
176
     1
 40
1.0
176
     1
 90
        0
176
     1
 62
    18
420
        0
176
     1
 90
       50
176
     1
 90
        3
176
     1
 62
     5
420
      255
176
     1
290
     0
176
     1
 90
       50
176
     1
 90
       50
176
     1
 90
       50
176
     1
290
     0
176
     1
 90
       50
176
     1
 62
   256
176
     0
 40
1.0
176
     0
 90
        2
176
     1
  1
strokes_ogs.tif
176
     1
290
     0
176
     1
 40
1.0
176
     1
 40
1.0
176
     1
  0
VISUALSTYLE
  5
2AF
102
{ACAD_REACTORS
330
2AB
102
}
330
2AB
100
AcDbVisualStyle
  2
GouraudWithEdges
 70
     3
177
     3
291
     1
 70
    58
 90
        2
176
     1
 90
        2
176
     1
 90
        1
176
     1
 90
        2
176
     1
 40
0.6
176
     1
 40
30.0
176
     1
 62
     7
420
 16777215
176
     1
 90
        1
176
     1
 90
        0
176
     1
 62
     7
176
     1
 62
   257
176
     1
 90
        1
176
     1
 90
        1
176
     1
 40
1.0
176
     1
 90
        0
176
     1
 62
   257
176
     1
 40
1.0
176
     1
 90
        1
176
     1
 90
        6
176
     1
 90
        2
176
     1
 62
     7
176
     1
 90
        5
176
     1
 90
        0
176
     1
 90
        0
176
     1
290
     0
176
     1
 90
       13
176
     1
 40
0.0
176
     1
 90
        0
176
     1
290
     0
176
     1
290
     1
176
     1
290
     1
176
     1
290
     0
176
     1
290
     0
176
     1
290
     0
176
     1
290
     0
176
     1
290
     0
176
     1
290
     0
176
     1
 90
       50
176
     1
 40
0.0
176
     1
 40
1.0
176
     1
 90
        0
176
     1
 62
    18
420
        0
176
     1
 90
       50
176
     1
 90
        3
176
     1
 62
     5
420
      255
176
     1
290
     0
176
     1
 90
       50
176
     1
 90
       50
176
     1
 90
       50
176
     1
290
     0
176
     1
 90
       50
176
     1
 62
   256
176
     0
 40
1.0
176
     0
 90
        2
176
     1
  1
strokes_ogs.tif
176
     1
290
     0
176
     1
 40
1.0
176
     1
 40
1.0
176
     1
  0
VISUALSTYLE
  5
2B2
102
{ACAD_REACTORS
330
2AB
102
}
330
2AB
100
AcDbVisualStyle
  2
Hidden
 70
     6
177
     3
291
     0
 70
    58
 90
        1
176
     1
 90
        2
176
     1
 90
        2
176
     1
 90
        0
176
     1
 40
0.6
176
     1
 40
30.0
176
     1
 62
     7
420
 16777215
176
     1
 90
        2
176
     1
 90
        2
176
     1
 62
     7
176
     1
 62
   257
176
     1
 90
        2
176
     1
 90
        1
176
     1
 40
40.0
176
     1
 90
        0
176
     1
 62
   257
176
     1
 40
1.0
176
     1
 90
        1
176
     1
 90
        6
176
     1
 90
        2
176
     1
 62
     7
176
     1
 90
        3
176
     1
 90
        0
176
     1
 90
        0
176
     1
290
     0
176
     1
 90
        1
176
     1
 40
0.0
176
     1
 90
        0
176
     1
290
     0
176
     1
290
     1
176
     1
290
     1
176
     1
290
     0
176
     1
290
     0
176
     1
290
     0
176
     1
290
     0
176
     1
290
     0
176
     1
290
     0
176
     1
 90
       50
176
     1
 40
0.0
176
     1
 40
1.0
176
     1
 90
        0
176
     1
 62
    18
420
        0
176
     1
 90
       50
176
     1
 90
        3
176
     1
 62
     5
420
      255
176
     1
290
     0
176
     1
 90
       50
176
     1
 90
       50
176
     1
 90
       50
176
     1
290
     0
176
     1
 90
       50
176
     1
 62
   256
176
     0
 40
1.0
176
     0
 90
        2
176
     1
  1
strokes_ogs.tif
176
     1
290
     0
176
     1
 40
1.0
176
     1
 40
1.0
176
     1
  0
VISUALSTYLE
  5
2BC
102
{ACAD_REACTORS
330
2AB
102
}
330
2AB
100
AcDbVisualStyle
  2
JitterOff
 70
    20
177
     3
291
     1
 70
    58
 90
        2
176
     0
 90
        2
176
     0
 90
        0
176
     0
 90
        0
176
     0
 40
0.6
176
     0
 40
30.0
176
     0
 62
     7
420
 16777215
176
     0
 90
        1
176
     0
 90
        4
176
     0
 62
     7
176
     0
 62
   257
176
     0
 90
        1
176
     0
 90
        1
176
     0
 40
1.0
176
     0
 90
       10
176
     2
 62
     7
176
     0
 40
1.0
176
     0
 90
        1
176
     0
 90
        6
176
     0
 90
        2
176
     0
 62
     7
176
     0
 90
        5
176
     0
 90
        0
176
     0
 90
        0
176
     0
290
     0
176
     0
 90
        1
176
     0
 40
0.0
176
     0
 90
        0
176
     0
290
     0
176
     0
290
     1
176
     0
290
     1
176
     0
290
     0
176
     0
290
     0
176
     0
290
     0
176
     0
290
     0
176
     0
290
     0
176
     0
290
     0
176
     0
 90
       50
176
     0
 40
0.0
176
     0
 40
1.0
176
     0
 90
        0
176
     0
 62
    18
420
        0
176
     0
 90
       50
176
     0
 90
        3
176
     0
 62
     5
420
      255
176
     0
290
     0
176
     0
 90
       50
176
     0
 90
       50
176
     0
 90
       50
176
     0
290
     0
176
     0
 90
       50
176
     0
 62
   256
176
     0
 40
1.0
176
     0
 90
        2
176
     0
  1
strokes_ogs.tif
176
     0
290
     0
176
     0
 40
1.0
176
     0
 40
1.0
176
     0
  0
VISUALSTYLE
  5
2B9
102
{ACAD_REACTORS
330
2AB
102
}
330
2AB
100
AcDbVisualStyle
  2
Linepattern
 70
    14
177
     3
291
     1
 70
    58
 90
        2
176
     1
 90
        2
176
     1
 90
        0
176
     1
 90
        0
176
     1
 40
0.6
176
     1
 40
30.0
176
     1
 62
     7
420
 16777215
176
     1
 90
        1
176
     1
 90
        4
176
     1
 62
     7
176
     1
 62
   257
176
     1
 90
        7
176
     1
 90
        7
176
     1
 40
1.0
176
     1
 90
        8
176
     1
 62
     7
176
     1
 40
1.0
176
     1
 90
        1
176
     1
 90
        6
176
     1
 90
        2
176
     1
 62
     7
176
     1
 90
        5
176
     1
 90
        0
176
     1
 90
        0
176
     1
290
     0
176
     1
 90
        1
176
     1
 40
0.0
176
     1
 90
        0
176
     1
290
     0
176
     1
290
     1
176
     1
290
     1
176
     1
290
     0
176
     1
290
     0
176
     1
290
     0
176
     1
290
     0
176
     1
290
     0
176
     1
290
     0
176
     1
 90
       50
176
     1
 40
0.0
176
     1
 40
1.0
176
     1
 90
        0
176
     1
 62
    18
420
        0
176
     1
 90
       50
176
     1
 90
        3
176
     1
 62
     5
420
      255
176
     1
290
     0
176
     1
 90
       50
176
     1
 90
       50
176
     1
 90
       50
176
     1
290
     0
176
     1
 90
       50
176
     1
 62
   256
176
     0
 40
1.0
176
     0
 90
        2
176
     1
  1
strokes_ogs.tif
176
     1
290
     0
176
     1
 40
1.0
176
     1
 40
1.0
176
     1
  0
VISUALSTYLE
  5
2BD
102
{ACAD_REACTORS
330
2AB
102
}
330
2AB
100
AcDbVisualStyle
  2
OverhangOff
 70
    21
177
     3
291
     1
 70
    58
 90
        2
176
     0
 90
        2
176
     0
 90
        0
176
     0
 90
        0
176
     0
 40
0.6
176
     0
 40
30.0
176
     0
 62
     7
420
 16777215
176
     0
 90
        1
176
     0
 90
        4
176
     0
 62
     7
176
     0
 62
   257
176
     0
 90
        1
176
     0
 90
        1
176
     0
 40
1.0
176
     0
 90
        9
176
     2
 62
     7
176
     0
 40
1.0
176
     0
 90
        1
176
     0
 90
        6
176
     0
 90
        2
176
     0
 62
     7
176
     0
 90
        5
176
     0
 90
        0
176
     0
 90
        0
176
     0
290
     0
176
     0
 90
        1
176
     0
 40
0.0
176
     0
 90
        0
176
     0
290
     0
176
     0
290
     1
176
     0
290
     1
176
     0
290
     0
176
     0
290
     0
176
     0
290
     0
176
     0
290
     0
176
     0
290
     0
176
     0
290
     0
176
     0
 90
       50
176
     0
 40
0.0
176
     0
 40
1.0
176
     0
 90
        0
176
     0
 62
    18
420
        0
176
     0
 90
       50
176
     0
 90
        3
176
     0
 62
     5
420
      255
176
     0
290
     0
176
     0
 90
       50
176
     0
 90
       50
176
     0
 90
       50
176
     0
290
     0
176
     0
 90
       50
176
     0
 62
   256
176
     0
 40
1.0
176
     0
 90
        2
176
     0
  1
strokes_ogs.tif
176
     0
290
     0
176
     0
 40
1.0
176
     0
 40
1.0
176
     0
  0
VISUALSTYLE
  5
2B4
102
{ACAD_REACTORS
330
2AB
102
}
330
2AB
100
AcDbVisualStyle
  2
Realistic
 70
     8
177
     3
291
     0
 70
    58
 90
        2
176
     1
 90
        3
176
     1
 90
        0
176
     1
 90
        2
176
     1
 40
0.6
176
     1
 40
30.0
176
     1
 62
     7
420
 16777215
176
     1
 90
        0
176
     1
 90
        0
176
     1
 62
     7
176
     1
 62
   257
176
     1
 90
        1
176
     1
 90
        1
176
     1
 40
1.0
176
     1
 90
        8
176
     1
 62
   257
176
     1
 40
1.0
176
     1
 90
        1
176
     1
 90
        6
176
     1
 90
        2
176
     1
 62
     7
176
     1
 90
        3
176
     1
 90
        0
176
     1
 90
        0
176
     1
290
     0
176
     1
 90
       13
176
     1
 40
0.0
176
     1
 90
        0
176
     1
290
     0
176
     1
290
     1
176
     1
290
     1
176
     1
290
     0
176
     1
290
     0
176
     1
290
     0
176
     1
290
     0
176
     1
290
     0
176
     1
290
     0
176
     1
 90
       50
176
     1
 40
0.0
176
     1
 40
1.0
176
     1
 90
        0
176
     1
 62
    18
420
        0
176
     1
 90
       50
176
     1
 90
        3
176
     1
 62
     5
420
      255
176
     1
290
     0
176
     1
 90
       50
176
     1
 90
       50
176
     1
 90
       50
176
     1
290
     0
176
     1
 90
       50
176
     1
 62
   256
176
     0
 40
1.0
176
     0
 90
        2
176
     1
  1
strokes_ogs.tif
176
     1
290
     0
176
     1
 40
1.0
176
     1
 40
1.0
176
     1
  0
VISUALSTYLE
  5
2C3
102
{ACAD_REACTORS
330
2AB
102
}
330
2AB
100
AcDbVisualStyle
  2
Shaded
 70
    27
177
     3
291
     0
 70
    58
 90
        2
176
     1
 90
        2
176
     1
 90
        1
176
     1
 90
        2
176
     1
 40
0.6
176
     1
 40
30.0
176
     1
 62
     7
420
 16777215
176
     1
 90
        0
176
     1
 90
        4
176
     1
 62
     7
176
     1
 62
   257
176
     1
 90
        1
176
     1
 90
        1
176
     1
 40
1.0
176
     1
 90
        8
176
     1
 62
   257
176
     1
 40
1.0
176
     1
 90
        1
176
     1
 90
        6
176
     1
 90
        2
176
     1
 62
     8
420
  7895160
176
     1
 90
        3
176
     1
 90
        0
176
     1
 90
        0
176
     1
290
     0
176
     1
 90
        5
176
     1
 40
0.0
176
     1
 90
        0
176
     1
290
     0
176
     1
290
     1
176
     1
290
     1
176
     1
290
     0
176
     1
290
     0
176
     1
290
     0
176
     1
290
     0
176
     1
290
     0
176
     1
290
     0
176
     1
 90
       50
176
     1
 40
0.0
176
     1
 40
1.0
176
     1
 90
        0
176
     1
 62
    18
420
        0
176
     1
 90
       50
176
     1
 90
        3
176
     1
 62
     5
420
      255
176
     1
290
     0
176
     1
 90
       50
176
     1
 90
       50
176
     1
 90
       50
176
     1
290
     0
176
     1
 90
       50
176
     1
 62
   256
176
     0
 40
1.0
176
     0
 90
        2
176
     1
  1
strokes_ogs.tif
176
     1
290
     0
176
     1
 40
1.0
176
     1
 40
1.0
176
     1
  0
VISUALSTYLE
  5
2C2
102
{ACAD_REACTORS
330
2AB
102
}
330
2AB
100
AcDbVisualStyle
  2
Shaded with edges
 70
    26
177
     3
291
     0
 70
    58
 90
        2
176
     1
 90
        2
176
     1
 90
        1
176
     1
 90
        2
176
     1
 40
0.6
176
     1
 40
30.0
176
     1
 62
     7
420
 16777215
176
     1
 90
        1
176
     1
 90
       10
176
     1
 62
     7
176
     1
 62
   257
176
     1
 90
        2
176
     1
 90
        1
176
     1
 40
1.0
176
     1
 90
        8
176
     1
 62
   257
176
     1
 40
1.0
176
     1
 90
        1
176
     1
 90
        6
176
     1
 90
        2
176
     1
 62
     7
176
     1
 90
        3
176
     1
 90
        0
176
     1
 90
        0
176
     1
290
     0
176
     1
 90
        5
176
     1
 40
0.0
176
     1
 90
        0
176
     1
290
     0
176
     1
290
     1
176
     1
290
     1
176
     1
290
     0
176
     1
290
     0
176
     1
290
     0
176
     1
290
     0
176
     1
290
     0
176
     1
290
     0
176
     1
 90
       50
176
     1
 40
0.0
176
     1
 40
1.0
176
     1
 90
        0
176
     1
 62
    18
420
        0
176
     1
 90
       50
176
     1
 90
        3
176
     1
 62
     5
420
      255
176
     1
290
     0
176
     1
 90
       50
176
     1
 90
       50
176
     1
 90
       50
176
     1
290
     0
176
     1
 90
       50
176
     1
 62
   256
176
     0
 40
1.0
176
     0
 90
        2
176
     1
  1
strokes_ogs.tif
176
     1
290
     0
176
     1
 40
1.0
176
     1
 40
1.0
176
     1
  0
VISUALSTYLE
  5
2BF
102
{ACAD_REACTORS
330
2AB
102
}
330
2AB
100
AcDbVisualStyle
  2
Shades of Gray
 70
    23
177
     3
291
     0
 70
    58
 90
        2
176
     1
 90
        2
176
     1
 90
        3
176
     1
 90
        0
176
     1
 40
0.6
176
     1
 40
30.0
176
     1
 62
     7
420
 16777215
176
     1
 90
        2
176
     1
 90
        2
176
     1
 62
     7
176
     1
 62
     7
176
     1
 90
        1
176
     1
 90
        1
176
     1
 40
40.0
176
     1
 90
        8
176
     1
 62
     7
176
     1
 40
1.0
176
     1
 90
        1
176
     1
 90
        6
176
     1
 90
        2
176
     1
 62
     7
176
     1
 90
        3
176
     1
 90
        0
176
     1
 90
        0
176
     1
290
     0
176
     1
 90
        1
176
     1
 40
0.0
176
     1
 90
        0
176
     1
290
     0
176
     1
290
     1
176
     1
290
     1
176
     1
290
     0
176
     1
290
     0
176
     1
290
     0
176
     1
290
     0
176
     1
290
     0
176
     1
290
     0
176
     1
 90
       50
176
     1
 40
0.0
176
     1
 40
1.0
176
     1
 90
        0
176
     1
 62
    18
420
        0
176
     1
 90
       50
176
     1
 90
        3
176
     1
 62
     5
420
      255
176
     1
290
     0
176
     1
 90
       50
176
     1
 90
       50
176
     1
 90
       50
176
     1
290
     0
176
     1
 90
       50
176
     1
 62
   256
176
     0
 40
1.0
176
     0
 90
        2
176
     1
  1
strokes_ogs.tif
176
     1
290
     0
176
     1
 40
1.0
176
     1
 40
1.0
176
     1
  0
VISUALSTYLE
  5
2C0
102
{ACAD_REACTORS
330
2AB
102
}
330
2AB
100
AcDbVisualStyle
  2
Sketchy
 70
    24
177
     3
291
     0
 70
    58
 90
        1
176
     1
 90
        2
176
     1
 90
        2
176
     1
 90
        0
176
     1
 40
0.6
176
     1
 40
30.0
176
     1
 62
     7
420
 16777215
176
     1
 90
        2
176
     1
 90
        2
176
     1
 62
     7
176
     1
 62
     7
176
     1
 90
        1
176
     1
 90
        1
176
     1
 40
40.0
176
     1
 90
       11
176
     1
 62
     7
176
     1
 40
1.0
176
     1
 90
        1
176
     1
 90
        6
176
     1
 90
        2
176
     1
 62
     7
176
     1
 90
        6
176
     1
 90
        0
176
     1
 90
        0
176
     1
290
     0
176
     1
 90
        1
176
     1
 40
0.0
176
     1
 90
        0
176
     1
290
     0
176
     1
290
     1
176
     1
290
     1
176
     1
290
     0
176
     1
290
     0
176
     1
290
     0
176
     1
290
     0
176
     1
290
     0
176
     1
290
     0
176
     1
 90
       50
176
     1
 40
0.0
176
     1
 40
1.0
176
     1
 90
        0
176
     1
 62
    18
420
        0
176
     1
 90
       50
176
     1
 90
        3
176
     1
 62
     5
420
      255
176
     1
290
     0
176
     1
 90
       50
176
     1
 90
       50
176
     1
 90
       50
176
     1
290
     0
176
     1
 90
       50
176
     1
 62
   256
176
     0
 40
1.0
176
     0
 90
        2
176
     1
  1
strokes_ogs.tif
176
     1
290
     0
176
     1
 40
1.0
176
     1
 40
1.0
176
     1
  0
VISUALSTYLE
  5
2B8
102
{ACAD_REACTORS
330
2AB
102
}
330
2AB
100
AcDbVisualStyle
  2
Thicken
 70
    13
177
     3
291
     1
 70
    58
 90
        2
176
     1
 90
        2
176
     1
 90
        0
176
     1
 90
        0
176
     1
 40
0.6
176
     1
 40
30.0
176
     1
 62
     7
420
 16777215
176
     1
 90
        1
176
     1
 90
        4
176
     1
 62
     7
176
     1
 62
   257
176
     1
 90
        1
176
     1
 90
        1
176
     1
 40
1.0
176
     1
 90
       12
176
     1
 62
     7
176
     1
 40
1.0
176
     1
 90
        1
176
     1
 90
        6
176
     1
 90
        2
176
     1
 62
     7
176
     1
 90
        5
176
     1
 90
        0
176
     1
 90
        0
176
     1
290
     0
176
     1
 90
        1
176
     1
 40
0.0
176
     1
 90
        0
176
     1
290
     0
176
     1
290
     1
176
     1
290
     1
176
     1
290
     0
176
     1
290
     0
176
     1
290
     0
176
     1
290
     0
176
     1
290
     0
176
     1
290
     0
176
     1
 90
       50
176
     1
 40
0.0
176
     1
 40
1.0
176
     1
 90
        0
176
     1
 62
    18
420
        0
176
     1
 90
       50
176
     1
 90
        3
176
     1
 62
     5
420
      255
176
     1
290
     0
176
     1
 90
       50
176
     1
 90
       50
176
     1
 90
       50
176
     1
290
     0
176
     1
 90
       50
176
     1
 62
   256
176
     0
 40
1.0
176
     0
 90
        2
176
     1
  1
strokes_ogs.tif
176
     1
290
     0
176
     1
 40
1.0
176
     1
 40
1.0
176
     1
  0
VISUALSTYLE
  5
2B1
102
{ACAD_REACTORS
330
2AB
102
}
330
2AB
100
AcDbVisualStyle
  2
Wireframe
 70
     5
177
     3
291
     0
 70
    58
 90
        0
176
     1
 90
        2
176
     1
 90
        0
176
     1
 90
        0
176
     1
 40
0.6
176
     1
 40
30.0
176
     1
 62
     7
420
 16777215
176
     1
 90
        1
176
     1
 90
        4
176
     1
 62
     7
176
     1
 62
   257
176
     1
 90
        1
176
     1
 90
        1
176
     1
 40
1.0
176
     1
 90
        0
176
     1
 62
   257
176
     1
 40
1.0
176
     1
 90
        1
176
     1
 90
        6
176
     1
 90
        2
176
     1
 62
     7
176
     1
 90
        3
176
     1
 90
        0
176
     1
 90
        0
176
     1
290
     0
176
     1
 90
        1
176
     1
 40
0.0
176
     1
 90
        0
176
     1
290
     0
176
     1
290
     1
176
     1
290
     1
176
     1
290
     0
176
     1
290
     0
176
     1
290
     0
176
     1
290
     0
176
     1
290
     0
176
     1
290
     0
176
     1
 90
       50
176
     1
 40
0.0
176
     1
 40
1.0
176
     1
 90
        0
176
     1
 62
    18
420
        0
176
     1
 90
       50
176
     1
 90
        3
176
     1
 62
     5
420
      255
176
     1
290
     0
176
     1
 90
       50
176
     1
 90
       50
176
     1
 90
       50
176
     1
290
     0
176
     1
 90
       50
176
     1
 62
   256
176
     0
 40
1.0
176
     0
 90
        2
176
     1
  1
strokes_ogs.tif
176
     1
290
     0
176
     1
 40
1.0
176
     1
 40
1.0
176
     1
  0
VISUALSTYLE
  5
2C1
102
{ACAD_REACTORS
330
2AB
102
}
330
2AB
100
AcDbVisualStyle
  2
X-Ray
 70
    25
177
     3
291
     0
 70
    58
 90
        2
176
     1
 90
        2
176
     1
 90
        1
176
     1
 90
        1
176
     1
 40
0.5
176
     1
 40
30.0
176
     1
 62
     7
420
 16777215
176
     1
 90
        1
176
     1
 90
        0
176
     1
 62
     7
176
     1
 62
   257
176
     1
 90
        1
176
     1
 90
        1
176
     1
 40
1.0
176
     1
 90
        8
176
     1
 62
     7
176
     1
 40
1.0
176
     1
 90
        1
176
     1
 90
        6
176
     1
 90
        2
176
     1
 62
     7
176
     1
 90
        3
176
     1
 90
        0
176
     1
 90
        0
176
     1
290
     0
176
     1
 90
       13
176
     1
 40
0.0
176
     1
 90
        0
176
     1
290
     0
176
     1
290
     1
176
     1
290
     1
176
     1
290
     0
176
     1
290
     0
176
     1
290
     0
176
     1
290
     0
176
     1
290
     0
176
     1
290
     0
176
     1
 90
       50
176
     1
 40
0.0
176
     1
 40
1.0
176
     1
 90
        0
176
     1
 62
    18
420
        0
176
     1
 90
       50
176
     1
 90
        3
176
     1
 62
     5
420
      255
176
     1
290
     0
176
     1
 90
       50
176
     1
 90
       50
176
     1
 90
       50
176
     1
290
     0
176
     1
 90
       50
176
     1
 62
   256
176
     0
 40
1.0
176
     0
 90
        2
176
     1
  1
strokes_ogs.tif
176
     1
290
     0
176
     1
 40
1.0
176
     1
 40
1.0
176
     1
  0
DICTIONARYVAR
  5
2508
102
{ACAD_REACTORS
330
2507
102
}
330
2507
100
DictionaryVariables
280
     0
  1
1:1
  0
DICTIONARYVAR
  5
250A
102
{ACAD_REACTORS
330
2507
102
}
330
2507
100
DictionaryVariables
280
     0
  1
Standard
  0
DICTIONARYVAR
  5
2509
102
{ACAD_REACTORS
330
2507
102
}
330
2507
100
DictionaryVariables
280
     0
  1
Standard
  0
DICTIONARY
  5
34C7
330
2C9
100
AcDbDictionary
280
     1
281
     1
  3
ACAD_ROUNDTRIP_2008_TABLESTYLE_CELLSTYLEMAP
360
34C8
  0
CELLSTYLEMAP
  5
34C8
102
{ACAD_REACTORS
330
34C7
102
}
330
34C7
100
AcDbCellStyleMap
 90
        3
300
CELLSTYLE
  1
TABLEFORMAT_BEGIN
 90
        5
170
     1
 91
        0
 92
    32768
 62
   257
 93
        1
300
CONTENTFORMAT
  1
CONTENTFORMAT_BEGIN
 90
        0
 91
        0
 92
        4
 93
        0
300

 40
0.0
140
1.0
 94
        5
 62
     0
340
22
144
0.25
309
CONTENTFORMAT_END
171
     1
301
MARGIN
  1
CELLMARGIN_BEGIN
 40
0.06
 40
0.06
 40
0.06
 40
0.06
 40
0.06
 40
0.06
309
CELLMARGIN_END
 94
        6
 95
        1
302
GRIDFORMAT
  1
GRIDFORMAT_BEGIN
 90
        0
 91
        1
 62
     0
 92
       -2
340
10
 93
        0
 40
0.045
309
GRIDFORMAT_END
 95
        2
302
GRIDFORMAT
  1
GRIDFORMAT_BEGIN
 90
        0
 91
        1
 62
     0
 92
       -2
340
10
 93
        0
 40
0.045
309
GRIDFORMAT_END
 95
        4
302
GRIDFORMAT
  1
GRIDFORMAT_BEGIN
 90
        0
 91
        1
 62
     0
 92
       -2
340
10
 93
        0
 40
0.045
309
GRIDFORMAT_END
 95
        8
302
GRIDFORMAT
  1
GRIDFORMAT_BEGIN
 90
        0
 91
        1
 62
     0
 92
       -2
340
10
 93
        0
 40
0.045
309
GRIDFORMAT_END
 95
       16
302
GRIDFORMAT
  1
GRIDFORMAT_BEGIN
 90
        0
 91
        1
 62
     0
 92
       -2
340
10
 93
        0
 40
0.045
309
GRIDFORMAT_END
 95
       32
302
GRIDFORMAT
  1
GRIDFORMAT_BEGIN
 90
        0
 91
        1
 62
     0
 92
       -2
340
10
 93
        0
 40
0.045
309
GRIDFORMAT_END
309
TABLEFORMAT_END
  1
CELLSTYLE_BEGIN
 90
        1
 91
        1
300
_TITLE
309
CELLSTYLE_END
300
CELLSTYLE
  1
TABLEFORMAT_BEGIN
 90
        5
170
     1
 91
        0
 92
        0
 62
   257
 93
        1
300
CONTENTFORMAT
  1
CONTENTFORMAT_BEGIN
 90
        0
 91
        0
 92
        4
 93
        0
300

 40
0.0
140
1.0
 94
        5
 62
     0
340
22
144
0.18
309
CONTENTFORMAT_END
171
     1
301
MARGIN
  1
CELLMARGIN_BEGIN
 40
0.06
 40
0.06
 40
0.06
 40
0.06
 40
0.06
 40
0.06
309
CELLMARGIN_END
 94
        6
 95
        1
302
GRIDFORMAT
  1
GRIDFORMAT_BEGIN
 90
        0
 91
        1
 62
     0
 92
       -2
340
10
 93
        0
 40
0.045
309
GRIDFORMAT_END
 95
        2
302
GRIDFORMAT
  1
GRIDFORMAT_BEGIN
 90
        0
 91
        1
 62
     0
 92
       -2
340
10
 93
        0
 40
0.045
309
GRIDFORMAT_END
 95
        4
302
GRIDFORMAT
  1
GRIDFORMAT_BEGIN
 90
        0
 91
        1
 62
     0
 92
       -2
340
10
 93
        0
 40
0.045
309
GRIDFORMAT_END
 95
        8
302
GRIDFORMAT
  1
GRIDFORMAT_BEGIN
 90
        0
 91
        1
 62
     0
 92
       -2
340
10
 93
        0
 40
0.045
309
GRIDFORMAT_END
 95
       16
302
GRIDFORMAT
  1
GRIDFORMAT_BEGIN
 90
        0
 91
        1
 62
     0
 92
       -2
340
10
 93
        0
 40
0.045
309
GRIDFORMAT_END
 95
       32
302
GRIDFORMAT
  1
GRIDFORMAT_BEGIN
 90
        0
 91
        1
 62
     0
 92
       -2
340
10
 93
        0
 40
0.045
309
GRIDFORMAT_END
309
TABLEFORMAT_END
  1
CELLSTYLE_BEGIN
 90
        2
 91
        1
300
_HEADER
309
CELLSTYLE_END
300
CELLSTYLE
  1
TABLEFORMAT_BEGIN
 90
        5
170
     1
 91
        0
 92
        0
 62
   257
 93
        1
300
CONTENTFORMAT
  1
CONTENTFORMAT_BEGIN
 90
        0
 91
        0
 92
        4
 93
        0
300

 40
0.0
140
1.0
 94
        2
 62
     0
340
22
144
0.18
309
CONTENTFORMAT_END
171
     1
301
MARGIN
  1
CELLMARGIN_BEGIN
 40
0.06
 40
0.06
 40
0.06
 40
0.06
 40
0.06
 40
0.06
309
CELLMARGIN_END
 94
        6
 95
        1
302
GRIDFORMAT
  1
GRIDFORMAT_BEGIN
 90
        0
 91
        1
 62
     0
 92
       -2
340
10
 93
        0
 40
0.045
309
GRIDFORMAT_END
 95
        2
302
GRIDFORMAT
  1
GRIDFORMAT_BEGIN
 90
        0
 91
        1
 62
     0
 92
       -2
340
10
 93
        0
 40
0.045
309
GRIDFORMAT_END
 95
        4
302
GRIDFORMAT
  1
GRIDFORMAT_BEGIN
 90
        0
 91
        1
 62
     0
 92
       -2
340
10
 93
        0
 40
0.045
309
GRIDFORMAT_END
 95
        8
302
GRIDFORMAT
  1
GRIDFORMAT_BEGIN
 90
        0
 91
        1
 62
     0
 92
       -2
340
10
 93
        0
 40
0.045
309
GRIDFORMAT_END
 95
       16
302
GRIDFORMAT
  1
GRIDFORMAT_BEGIN
 90
        0
 91
        1
 62
     0
 92
       -2
340
10
 93
        0
 40
0.045
309
GRIDFORMAT_END
 95
       32
302
GRIDFORMAT
  1
GRIDFORMAT_BEGIN
 90
        0
 91
        1
 62
     0
 92
       -2
340
10
 93
        0
 40
0.045
309
GRIDFORMAT_END
309
TABLEFORMAT_END
  1
CELLSTYLE_BEGIN
 90
        3
 91
        2
300
_DATA
309
CELLSTYLE_END
  0
ENDSEC
  0
EOF
