  0
SECTION
  2
HEADER
  9
$ACADVER
  1
AC1015
  9
$ACADMAINTVER
 70
    10
  9
$DWGCODEPAGE
  3
ANSI_932
  9
$INSBASE
 10
0.0
 20
0.0
 30
0.0
  9
$EXTMIN
 10
21.99999999999998
 20
10.0
 30
0.0
  9
$EXTMAX
 10
643.0
 20
440.0
 30
0.0
  9
$LIMMIN
 10
0.0
 20
0.0
  9
$LIMMAX
 10
841.0
 20
594.0
  9
$ORTHOMODE
 70
     1
  9
$REGENMODE
 70
     1
  9
$FILLMODE
 70
     1
  9
$QTEXTMODE
 70
     0
  9
$MIRRTEXT
 70
     1
  9
$LTSCALE
 40
1.0
  9
$ATTMODE
 70
     1
  9
$TEXTSIZE
 40
4.5
  9
$TRACEWID
 40
0.05
  9
$TEXTSTYLE
  7
STANDARD
  9
$CLAYER
  8
L-ZISSEN
  9
$CELTYPE
  6
ByLayer
  9
$CECOLOR
 62
   256
  9
$CELTSCALE
 40
1.0
  9
$DISPSILH
 70
     0
  9
$DIMSCALE
 40
1.0
  9
$DIMASZ
 40
2.0
  9
$DIMEXO
 40
1.0
  9
$DIMDLI
 40
0.38
  9
$DIMRND
 40
0.0
  9
$DIMDLE
 40
1.0
  9
$DIMEXE
 40
1.0
  9
$DIMTP
 40
0.0
  9
$DIMTM
 40
0.0
  9
$DIMTXT
 40
4.5
  9
$DIMCEN
 40
0.09
  9
$DIMTSZ
 40
0.0
  9
$DIMTOL
 70
     0
  9
$DIMLIM
 70
     0
  9
$DIMTIH
 70
     0
  9
$DIMTOH
 70
     0
  9
$DIMSE1
 70
     0
  9
$DIMSE2
 70
     0
  9
$DIMTAD
 70
     1
  9
$DIMZIN
 70
     0
  9
$DIMBLK
  1

  9
$DIMASO
 70
     0
  9
$DIMSHO
 70
     0
  9
$DIMPOST
  1

  9
$DIMAPOST
  1

  9
$DIMALT
 70
     0
  9
$DIMALTD
 70
     2
  9
$DIMALTF
 40
25.4
  9
$DIMLFAC
 40
1.0
  9
$DIMTOFL
 70
     1
  9
$DIMTVP
 40
0.0
  9
$DIMTIX
 70
     1
  9
$DIMSOXD
 70
     0
  9
$DIMSAH
 70
     0
  9
$DIMBLK1
  1

  9
$DIMBLK2
  1

  9
$DIMSTYLE
  2
Standard
  9
$DIMCLRD
 70
     0
  9
$DIMCLRE
 70
     0
  9
$DIMCLRT
 70
     0
  9
$DIMTFAC
 40
1.0
  9
$DIMGAP
 40
0.09
  9
$DIMJUST
 70
     0
  9
$DIMSD1
 70
     0
  9
$DIMSD2
 70
     0
  9
$DIMTOLJ
 70
     1
  9
$DIMTZIN
 70
     0
  9
$DIMALTZ
 70
     0
  9
$DIMALTTZ
 70
     0
  9
$DIMUPT
 70
     0
  9
$DIMDEC
 70
     4
  9
$DIMTDEC
 70
     4
  9
$DIMALTU
 70
     2
  9
$DIMALTTD
 70
     2
  9
$DIMTXSTY
  7
STANDARD
  9
$DIMAUNIT
 70
     0
  9
$DIMADEC
 70
     0
  9
$DIMALTRND
 40
0.0
  9
$DIMAZIN
 70
     0
  9
$DIMDSEP
 70
    46
  9
$DIMATFIT
 70
     3
  9
$DIMFRAC
 70
     0
  9
$DIMLDRBLK
  1

  9
$DIMLUNIT
 70
     2
  9
$DIMLWD
 70
    -2
  9
$DIMLWE
 70
    -2
  9
$DIMTMOVE
 70
     2
  9
$LUNITS
 70
     2
  9
$LUPREC
 70
     4
  9
$SKETCHINC
 40
0.1
  9
$FILLETRAD
 40
5.0
  9
$AUNITS
 70
     0
  9
$AUPREC
 70
     0
  9
$MENU
  1
acad
  9
$ELEVATION
 40
0.0
  9
$PELEVATION
 40
0.0
  9
$THICKNESS
 40
0.0
  9
$LIMCHECK
 70
     0
  9
$CHAMFERA
 40
0.0
  9
$CHAMFERB
 40
0.0
  9
$CHAMFERC
 40
0.0
  9
$CHAMFERD
 40
0.0
  9
$SKPOLY
 70
     0
  9
$TDCREATE
 40
2449654.744514351
  9
$TDUCREATE
 40
2449654.369514351
  9
$TDUPDATE
 40
2452103.569179397
  9
$TDUUPDATE
 40
2452103.194179398
  9
$TDINDWG
 40
0.0818054398
  9
$TDUSRTIMER
 40
0.0818054398
  9
$USRTIMER
 70
     1
  9
$ANGBASE
 50
0.0
  9
$ANGDIR
 70
     0
  9
$PDMODE
 70
     0
  9
$PDSIZE
 40
0.0
  9
$PLINEWID
 40
0.0
  9
$SPLFRAME
 70
     0
  9
$SPLINETYPE
 70
     6
  9
$SPLINESEGS
 70
     8
  9
$HANDSEED
  5
194
  9
$SURFTAB1
 70
     6
  9
$SURFTAB2
 70
     6
  9
$SURFTYPE
 70
     6
  9
$SURFU
 70
     6
  9
$SURFV
 70
     6
  9
$UCSBASE
  2

  9
$UCSNAME
  2

  9
$UCSORG
 10
0.0
 20
0.0
 30
0.0
  9
$UCSXDIR
 10
1.0
 20
0.0
 30
0.0
  9
$UCSYDIR
 10
0.0
 20
1.0
 30
0.0
  9
$UCSORTHOREF
  2

  9
$UCSORTHOVIEW
 70
     0
  9
$UCSORGTOP
 10
0.0
 20
0.0
 30
0.0
  9
$UCSORGBOTTOM
 10
0.0
 20
0.0
 30
0.0
  9
$UCSORGLEFT
 10
0.0
 20
0.0
 30
0.0
  9
$UCSORGRIGHT
 10
0.0
 20
0.0
 30
0.0
  9
$UCSORGFRONT
 10
0.0
 20
0.0
 30
0.0
  9
$UCSORGBACK
 10
0.0
 20
0.0
 30
0.0
  9
$PUCSBASE
  2

  9
$PUCSNAME
  2

  9
$PUCSORG
 10
0.0
 20
0.0
 30
0.0
  9
$PUCSXDIR
 10
1.0
 20
0.0
 30
0.0
  9
$PUCSYDIR
 10
0.0
 20
1.0
 30
0.0
  9
$PUCSORTHOREF
  2

  9
$PUCSORTHOVIEW
 70
     0
  9
$PUCSORGTOP
 10
0.0
 20
0.0
 30
0.0
  9
$PUCSORGBOTTOM
 10
0.0
 20
0.0
 30
0.0
  9
$PUCSORGLEFT
 10
0.0
 20
0.0
 30
0.0
  9
$PUCSORGRIGHT
 10
0.0
 20
0.0
 30
0.0
  9
$PUCSORGFRONT
 10
0.0
 20
0.0
 30
0.0
  9
$PUCSORGBACK
 10
0.0
 20
0.0
 30
0.0
  9
$USERI1
 70
     0
  9
$USERI2
 70
     0
  9
$USERI3
 70
     0
  9
$USERI4
 70
     0
  9
$USERI5
 70
     0
  9
$USERR1
 40
0.0
  9
$USERR2
 40
0.0
  9
$USERR3
 40
0.0
  9
$USERR4
 40
0.0
  9
$USERR5
 40
0.0
  9
$WORLDVIEW
 70
     1
  9
$SHADEDGE
 70
     3
  9
$SHADEDIF
 70
    70
  9
$TILEMODE
 70
     1
  9
$MAXACTVP
 70
    64
  9
$PINSBASE
 10
0.0
 20
0.0
 30
0.0
  9
$PLIMCHECK
 70
     0
  9
$PEXTMIN
 10
1.000000000000000E+20
 20
1.000000000000000E+20
 30
1.000000000000000E+20
  9
$PEXTMAX
 10
-1.000000000000000E+20
 20
-1.000000000000000E+20
 30
-1.000000000000000E+20
  9
$PLIMMIN
 10
0.0
 20
0.0
  9
$PLIMMAX
 10
12.0
 20
9.0
  9
$UNITMODE
 70
     0
  9
$VISRETAIN
 70
     1
  9
$PLINEGEN
 70
     0
  9
$PSLTSCALE
 70
     0
  9
$TREEDEPTH
 70
  3020
  9
$CMLSTYLE
  2
Standard
  9
$CMLJUST
 70
     0
  9
$CMLSCALE
 40
1.0
  9
$PROXYGRAPHICS
 70
     1
  9
$MEASUREMENT
 70
     0
  9
$CELWEIGHT
370
    -1
  9
$ENDCAPS
280
     0
  9
$JOINSTYLE
280
     0
  9
$LWDISPLAY
290
     0
  9
$INSUNITS
 70
     0
  9
$HYPERLINKBASE
  1

  9
$STYLESHEET
  1

  9
$XEDIT
290
     1
  9
$CEPSNTYPE
380
     0
  9
$PSTYLEMODE
290
     1
  9
$FINGERPRINTGUID
  2
{C06DE947-6F90-11D5-966C-00D0B74826AF}
  9
$VERSIONGUID
  2
{C06DE95F-6F90-11D5-966C-00D0B74826AF}
  9
$EXTNAMES
290
     1
  9
$PSVPSCALE
 40
0.0
  9
$OLESTARTUP
290
     0
  0
ENDSEC
  0
SECTION
  2
CLASSES
  0
CLASS
  1
ACDBDICTIONARYWDFLT
  2
AcDbDictionaryWithDefault
  3
AutoCAD 2000
 90
        0
280
     0
281
     0
  0
CLASS
  1
ACDBPLACEHOLDER
  2
AcDbPlaceHolder
  3
AutoCAD 2000
 90
        0
280
     0
281
     0
  0
CLASS
  1
LAYOUT
  2
AcDbLayout
  3
AutoCAD 2000
 90
        0
280
     0
281
     0
  0
ENDSEC
  0
SECTION
  2
TABLES
  0
TABLE
  2
VPORT
  5
8
330
0
100
AcDbSymbolTable
 70
     2
  0
VPORT
  5
193
330
8
100
AcDbSymbolTableRecord
100
AcDbViewportTableRecord
  2
*Active
 70
     0
 10
0.0
 20
0.0
 11
1.0
 21
1.0
 12
332.5001620729455
 22
225.0113996146379
 13
0.0
 23
0.0
 14
5.0
 24
5.0
 15
0.0
 25
0.0
 16
0.0
 26
0.0
 36
1.0
 17
0.0
 27
0.0
 37
0.0
 40
435.048013338164
 41
1.844054580896686
 42
50.0
 43
0.0
 44
0.0
 50
0.0
 51
0.0
 71
     0
 72
   100
 73
     1
 74
     0
 75
     0
 76
     0
 77
     0
 78
     0
281
     0
 65
     1
110
0.0
120
0.0
130
0.0
111
1.0
121
0.0
131
0.0
112
0.0
122
1.0
132
0.0
 79
     0
146
0.0
  0
ENDTAB
  0
TABLE
  2
LTYPE
  5
5
330
0
100
AcDbSymbolTable
 70
     2
  0
LTYPE
  5
13
330
5
100
AcDbSymbolTableRecord
100
AcDbLinetypeTableRecord
  2
ByBlock
 70
     0
  3

 72
    65
 73
     0
 40
0.0
  0
LTYPE
  5
14
330
5
100
AcDbSymbolTableRecord
100
AcDbLinetypeTableRecord
  2
ByLayer
 70
     0
  3

 72
    65
 73
     0
 40
0.0
  0
LTYPE
  5
15
330
5
100
AcDbSymbolTableRecord
100
AcDbLinetypeTableRecord
  2
CONTINUOUS
 70
     0
  3
Solid line
 72
    65
 73
     0
 40
0.0
  0
LTYPE
  5
22
330
5
100
AcDbSymbolTableRecord
100
AcDbLinetypeTableRecord
  2
CENTER
 70
     0
  3
____ _ ____ _ ____ _ ____ _ 
 72
    65
 73
     4
 40
60.0
 49
45.0
 74
     0
 49
-5.0
 74
     0
 49
5.0
 74
     0
 49
-5.0
 74
     0
  0
ENDTAB
  0
TABLE
  2
LAYER
  5
2
330
0
100
AcDbSymbolTable
 70
     3
  0
LAYER
  5
10
330
2
100
AcDbSymbolTableRecord
100
AcDbLayerTableRecord
  2
0
 70
     0
 62
     7
  6
CONTINUOUS
370
    -3
390
F
  0
LAYER
  5
25
330
2
100
AcDbSymbolTableRecord
100
AcDbLayerTableRecord
  2
L-ZISSEN
 70
     0
 62
     7
  6
CONTINUOUS
370
    -3
390
F
  0
LAYER
  5
26
330
2
100
AcDbSymbolTableRecord
100
AcDbLayerTableRecord
  2
L-TYUSIN
 70
     0
 62
     1
  6
CENTER
370
    -3
390
F
  0
ENDTAB
  0
TABLE
  2
STYLE
  5
3
330
0
100
AcDbSymbolTable
 70
     1
  0
STYLE
  5
11
330
3
100
AcDbSymbolTableRecord
100
AcDbTextStyleTableRecord
  2
STANDARD
 70
     0
 40
0.0
 41
1.0
 50
0.0
 71
     0
 42
4.5
  3
TXT
  4

  0
ENDTAB
  0
TABLE
  2
VIEW
  5
6
330
0
100
AcDbSymbolTable
 70
     0
  0
ENDTAB
  0
TABLE
  2
UCS
  5
7
330
0
100
AcDbSymbolTable
 70
     0
  0
ENDTAB
  0
TABLE
  2
APPID
  5
9
330
0
100
AcDbSymbolTable
 70
     1
  0
APPID
  5
12
330
9
100
AcDbSymbolTableRecord
100
AcDbRegAppTableRecord
  2
ACAD
 70
     0
  0
ENDTAB
  0
TABLE
  2
DIMSTYLE
  5
A
330
0
100
AcDbSymbolTable
 70
     1
100
AcDbDimStyleTable
 71
     0
  0
DIMSTYLE
105
F8
330
A
100
AcDbSymbolTableRecord
100
AcDbDimStyleTableRecord
  2
Standard
 70
     0
340
11
  0
ENDTAB
  0
TABLE
  2
BLOCK_RECORD
  5
1
330
0
100
AcDbSymbolTable
 70
     0
  0
BLOCK_RECORD
  5
1E
330
1
100
AcDbSymbolTableRecord
100
AcDbBlockTableRecord
  2
*Model_Space
340
21
  0
BLOCK_RECORD
  5
1A
330
1
100
AcDbSymbolTableRecord
100
AcDbBlockTableRecord
  2
*Paper_Space
340
1D
  0
ENDTAB
  0
ENDSEC
  0
SECTION
  2
BLOCKS
  0
BLOCK
  5
29
330
1E
100
AcDbEntity
  8
0
100
AcDbBlockBegin
  2
*Model_Space
 70
     0
 10
0.0
 20
0.0
 30
0.0
  3
*Model_Space
  1

  0
ENDBLK
  5
2A
330
1E
100
AcDbEntity
  8
0
100
AcDbBlockEnd
  0
BLOCK
  5
27
330
1A
100
AcDbEntity
 67
     1
  8
0
100
AcDbBlockBegin
  2
*Paper_Space
 70
     0
 10
0.0
 20
0.0
 30
0.0
  3
*Paper_Space
  1

  0
ENDBLK
  5
28
330
1A
100
AcDbEntity
 67
     1
  8
0
100
AcDbBlockEnd
  0
ENDSEC
  0
SECTION
  2
ENTITIES
  0
CIRCLE
  5
2B
330
1E
100
AcDbEntity
  8
L-ZISSEN
100
AcDbCircle
 10
359.0
 20
295.0
 30
0.0
 40
27.0
  0
LINE
  5
2C
330
1E
100
AcDbEntity
  8
L-ZISSEN
100
AcDbLine
 10
343.443650813896
 20
310.5563491861043
 30
0.0
 11
367.4852813742386
 21
286.5147186257617
 31
0.0
  0
LINE
  5
2D
330
1E
100
AcDbEntity
  8
L-ZISSEN
100
AcDbLine
 10
420.9998373590829
 20
321.9999999999998
 30
0.0
 11
420.9998373590829
 21
268.0000000000002
 31
0.0
  0
LINE
  5
2E
330
1E
100
AcDbEntity
  8
L-ZISSEN
100
AcDbLine
 10
444.4998373590829
 20
321.9999999999998
 30
0.0
 11
444.4998373590829
 21
268.0000000000002
 31
0.0
  0
LINE
  5
2F
330
1E
100
AcDbEntity
  8
L-ZISSEN
100
AcDbLine
 10
444.4998373590829
 20
268.0000000000002
 30
0.0
 11
420.9998373590829
 21
268.0000000000002
 31
0.0
  0
LINE
  5
30
330
1E
100
AcDbEntity
  8
L-ZISSEN
100
AcDbLine
 10
444.4998373590829
 20
321.9999999999998
 30
0.0
 11
420.9998373590829
 21
321.9999999999998
 31
0.0
  0
TEXT
  5
31
330
1E
100
AcDbEntity
  8
L-ZISSEN
100
AcDbText
 10
300.0
 20
425.0
 30
0.0
 40
4.5
  1
PRESSURE GAUGE
100
AcDbText
  0
LINE
  5
33
330
1E
100
AcDbEntity
  8
L-TYUSIN
100
AcDbLine
 10
285.0
 20
250.0
 30
0.0
 11
535.0
 21
250.0
 31
0.0
  0
LINE
  5
34
330
1E
100
AcDbEntity
  8
L-TYUSIN
100
AcDbLine
 10
285.0
 20
440.0
 30
0.0
 11
285.0
 21
10.0
 31
0.0
  0
LINE
  5
35
330
1E
100
AcDbEntity
  8
L-ZISSEN
100
AcDbLine
 10
444.4998373590829
 20
301.5785000000035
 30
0.0
 11
456.9999999999999
 21
301.5785000000035
 31
0.0
  0
LINE
  5
36
330
1E
100
AcDbEntity
  8
L-ZISSEN
100
AcDbLine
 10
444.4998373590829
 20
288.4214999999964
 30
0.0
 11
456.9999999999999
 21
288.4214999999964
 31
0.0
  0
TEXT
  5
3D
330
1E
100
AcDbEntity
  8
L-ZISSEN
100
AcDbText
 10
300.0
 20
415.0
 30
0.0
 40
4.5
  1
MODEL NO. : GAB502  0
100
AcDbText
  0
TEXT
  5
3E
330
1E
100
AcDbEntity
  8
L-ZISSEN
100
AcDbText
 10
375.0
 20
418.75
 30
0.0
 40
4.5
  1
10
100
AcDbText
  0
TEXT
  5
3F
330
1E
100
AcDbEntity
  8
L-ZISSEN
100
AcDbText
 10
375.0
 20
412.5
 30
0.0
 40
4.5
  1
04
100
AcDbText
  0
LINE
  5
40
330
1E
100
AcDbEntity
  8
L-TYUSIN
100
AcDbLine
 10
535.0
 20
440.0
 30
0.0
 11
535.0
 21
10.0
 31
0.0
  0
TEXT
  5
41
330
1E
100
AcDbEntity
  8
L-ZISSEN
100
AcDbText
 10
300.0
 20
235.0
 30
0.0
 40
4.5
  1
MOUNTING BRACKET & PANEL NUT
100
AcDbText
  0
TEXT
  5
42
330
1E
100
AcDbEntity
  8
L-ZISSEN
100
AcDbText
 10
560.0
 20
185.0
 30
0.0
 40
4.5
  1
METAL PANEL NUT
100
AcDbText
  0
LINE
  5
43
330
1E
100
AcDbEntity
  8
L-TYUSIN
100
AcDbLine
 10
99.99999999999994
 20
131.9999999999999
 30
0.0
 11
100.0
 21
17.0
 31
0.0
  0
LINE
  5
44
330
1E
100
AcDbEntity
  8
L-ZISSEN
100
AcDbLine
 10
57.49999999999999
 20
77.00000000000002
 30
0.0
 11
77.12534153260434
 21
77.00000000000001
 31
0.0
  0
LINE
  5
45
330
1E
100
AcDbEntity
  8
L-ZISSEN
100
AcDbLine
 10
142.5
 20
43.00000000000001
 30
0.0
 11
142.5
 21
77.00000000000001
 31
0.0
  0
LINE
  5
46
330
1E
100
AcDbEntity
  8
L-TYUSIN
100
AcDbLine
 10
210.0
 20
131.9999999999999
 30
0.0
 11
210.0
 21
17.0
 31
0.0
  0
LINE
  5
47
330
1E
100
AcDbEntity
  8
L-TYUSIN
100
AcDbLine
 10
181.75
 20
60.0
 30
0.0
 11
238.2499999999997
 21
60.0
 31
0.0
  0
LINE
  5
48
330
1E
100
AcDbEntity
  8
L-ZISSEN
100
AcDbLine
 10
57.5
 20
209.0
 30
0.0
 11
76.41504716985848
 21
209.0
 31
0.0
  0
LINE
  5
49
330
1E
100
AcDbEntity
  8
L-ZISSEN
100
AcDbLine
 10
57.5
 20
241.0
 30
0.0
 11
76.41504716985849
 21
241.0
 31
0.0
  0
LINE
  5
4A
330
1E
100
AcDbEntity
  8
L-ZISSEN
100
AcDbLine
 10
142.5
 20
209.0
 30
0.0
 11
142.5
 21
240.9999999999999
 31
0.0
  0
LINE
  5
4B
330
1E
100
AcDbEntity
  8
L-ZISSEN
100
AcDbLine
 10
57.5
 20
209.0
 30
0.0
 11
57.5
 21
241.0
 31
0.0
  0
LINE
  5
4C
330
1E
100
AcDbEntity
  8
L-TYUSIN
100
AcDbLine
 10
52.49999999999999
 20
225.0
 30
0.0
 11
147.5
 21
224.9999999999999
 31
0.0
  0
LINE
  5
4D
330
1E
100
AcDbEntity
  8
L-TYUSIN
100
AcDbLine
 10
100.0
 20
260.0
 30
0.0
 11
100.0
 21
190.0
 31
0.0
  0
LINE
  5
4E
330
1E
100
AcDbEntity
  8
L-ZISSEN
100
AcDbLine
 10
194.0
 20
77.00000000000007
 30
0.0
 11
194.0
 21
42.99999999999995
 31
0.0
  0
LINE
  5
4F
330
1E
100
AcDbEntity
  8
L-ZISSEN
100
AcDbLine
 10
123.5849528301415
 20
209.0
 30
0.0
 11
142.5
 21
209.0
 31
0.0
  0
LINE
  5
50
330
1E
100
AcDbEntity
  8
L-ZISSEN
100
AcDbLine
 10
123.5849528301415
 20
241.0
 30
0.0
 11
142.5
 21
240.9999999999999
 31
0.0
  0
LINE
  5
51
330
1E
100
AcDbEntity
  8
L-ZISSEN
100
AcDbLine
 10
57.49999999999999
 20
43.00000000000002
 30
0.0
 11
79.25
 21
43.0
 31
0.0
  0
LINE
  5
52
330
1E
100
AcDbEntity
  8
L-ZISSEN
100
AcDbLine
 10
57.49999999999999
 20
43.00000000000002
 30
0.0
 11
57.49999999999999
 21
77.00000000000002
 31
0.0
  0
CIRCLE
  5
53
330
1E
100
AcDbEntity
  8
L-ZISSEN
100
AcDbCircle
 10
210.0
 20
60.0
 30
0.0
 40
9.3155
  0
LINE
  5
54
330
1E
100
AcDbEntity
  8
L-TYUSIN
100
AcDbLine
 10
52.49999999999999
 20
60.00000000000002
 30
0.0
 11
147.5
 21
60.00000000000001
 31
0.0
  0
LINE
  5
55
330
1E
100
AcDbEntity
  8
L-ZISSEN
100
AcDbLine
 10
120.75
 20
22.0
 30
0.0
 11
79.25
 21
22.0
 31
0.0
  0
LINE
  5
56
330
1E
100
AcDbEntity
  8
L-ZISSEN
100
AcDbLine
 10
79.25
 20
43.0
 30
0.0
 11
79.25
 21
22.0
 31
0.0
  0
LINE
  5
57
330
1E
100
AcDbEntity
  8
L-ZISSEN
100
AcDbLine
 10
120.75
 20
43.0
 30
0.0
 11
120.75
 21
22.0
 31
0.0
  0
LINE
  5
58
330
1E
100
AcDbEntity
  8
L-ZISSEN
100
AcDbLine
 10
120.75
 20
32.0
 30
0.0
 11
79.25
 21
32.0
 31
0.0
  0
LINE
  5
59
330
1E
100
AcDbEntity
  8
L-ZISSEN
100
AcDbLine
 10
230.75
 20
32.00000000000005
 30
0.0
 11
189.25
 21
32.00000000000005
 31
0.0
  0
LINE
  5
5A
330
1E
100
AcDbEntity
  8
L-ZISSEN
100
AcDbLine
 10
230.75
 20
46.00000000000005
 30
0.0
 11
230.75
 21
22.00000000000005
 31
0.0
  0
LINE
  5
5B
330
1E
100
AcDbEntity
  8
L-ZISSEN
100
AcDbLine
 10
189.25
 20
46.00000000000008
 30
0.0
 11
189.25
 21
22.00000000000005
 31
0.0
  0
LINE
  5
5C
330
1E
100
AcDbEntity
  8
L-ZISSEN
100
AcDbLine
 10
186.9999999999999
 20
73.0
 30
0.0
 11
186.9999999999999
 21
46.00000000000012
 31
0.0
  0
LINE
  5
5D
330
1E
100
AcDbEntity
  8
L-ZISSEN
100
AcDbLine
 10
232.9999999999998
 20
46.00000000000005
 30
0.0
 11
226.0
 21
46.00000000000001
 31
0.0
  0
LINE
  5
5E
330
1E
100
AcDbEntity
  8
L-ZISSEN
100
AcDbLine
 10
194.0
 20
46.00000000000001
 30
0.0
 11
186.9999999999999
 21
46.00000000000014
 31
0.0
  0
LINE
  5
5F
330
1E
100
AcDbEntity
  8
L-ZISSEN
100
AcDbLine
 10
194.0
 20
77.00000000000007
 30
0.0
 11
226.0000000000001
 21
77.00000000000007
 31
0.0
  0
LINE
  5
60
330
1E
100
AcDbEntity
  8
L-ZISSEN
100
AcDbLine
 10
194.5000000000002
 20
78.00000000000007
 30
0.0
 11
225.4999999999996
 21
78.00000000000007
 31
0.0
  0
LINE
  5
61
330
1E
100
AcDbEntity
  8
L-ZISSEN
100
AcDbLine
 10
194.5000000000002
 20
78.00000000000007
 30
0.0
 11
194.5000000000002
 21
77.00000000000007
 31
0.0
  0
LINE
  5
62
330
1E
100
AcDbEntity
  8
L-ZISSEN
100
AcDbLine
 10
225.4999999999996
 20
78.00000000000007
 30
0.0
 11
225.4999999999996
 21
77.00000000000007
 31
0.0
  0
LINE
  5
63
330
1E
100
AcDbEntity
  8
L-ZISSEN
100
AcDbLine
 10
181.5000000000002
 20
71.5
 30
0.0
 11
186.9999999999999
 21
71.5
 31
0.0
  0
LINE
  5
64
330
1E
100
AcDbEntity
  8
L-ZISSEN
100
AcDbLine
 10
181.5000000000002
 20
71.5
 30
0.0
 11
181.5000000000002
 21
92.99999999999993
 31
0.0
  0
LINE
  5
65
330
1E
100
AcDbEntity
  8
L-ZISSEN
100
AcDbLine
 10
238.4999999999997
 20
71.50000000000002
 30
0.0
 11
238.4999999999997
 21
93.00000000000002
 31
0.0
  0
CIRCLE
  5
66
330
1E
100
AcDbEntity
  8
L-ZISSEN
100
AcDbCircle
 10
100.0
 20
225.0
 30
0.0
 40
28.5
  0
LINE
  5
68
330
1E
100
AcDbEntity
  8
L-ZISSEN
100
AcDbLine
 10
181.5000000000002
 20
92.99999999999993
 30
0.0
 11
238.4999999999997
 21
93.00000000000002
 31
0.0
  0
LINE
  5
69
330
1E
100
AcDbEntity
  8
L-ZISSEN
100
AcDbLine
 10
71.50000000000023
 20
78.00000000000008
 30
0.0
 11
71.50000000000023
 21
92.99999999999995
 31
0.0
  0
LINE
  5
6C
330
1E
100
AcDbEntity
  8
L-TYUSIN
100
AcDbLine
 10
119.0
 20
50.0
 30
0.0
 11
119.0
 21
70.0
 31
0.0
  0
LINE
  5
6D
330
1E
100
AcDbEntity
  8
L-ZISSEN
100
AcDbLine
 10
232.9999999999999
 20
71.5
 30
0.0
 11
238.4999999999997
 21
71.5
 31
0.0
  0
ARC
  5
6E
330
1E
100
AcDbEntity
  8
L-ZISSEN
100
AcDbCircle
 10
100.0
 20
225.0
 30
0.0
 40
33.5
100
AcDbArc
 50
151.4704501194303
 51
208.5295498805697
  0
ARC
  5
6F
330
1E
100
AcDbEntity
  8
L-ZISSEN
100
AcDbCircle
 10
100.0
 20
225.0
 30
0.0
 40
31.0
100
AcDbArc
 50
148.9270490278466
 51
211.0729509721533
  0
ARC
  5
70
330
1E
100
AcDbEntity
  8
L-ZISSEN
100
AcDbCircle
 10
100.0
 20
225.0
 30
0.0
 40
33.5
100
AcDbArc
 50
331.4704501194303
 51
28.52954988056959
  0
ARC
  5
71
330
1E
100
AcDbEntity
  8
L-ZISSEN
100
AcDbCircle
 10
100.0
 20
225.0
 30
0.0
 40
31.0
100
AcDbArc
 50
328.9270490278466
 51
31.07295097215326
  0
LINE
  5
72
330
1E
100
AcDbEntity
  8
L-ZISSEN
100
AcDbLine
 10
77.12534153260432
 20
78.00000000000006
 30
0.0
 11
69.00000000000011
 21
78.00000000000011
 31
0.0
  0
LINE
  5
73
330
1E
100
AcDbEntity
  8
L-ZISSEN
100
AcDbLine
 10
69.00000000000011
 20
78.00000000000011
 30
0.0
 11
69.00000000000011
 21
77.0
 31
0.0
  0
LINE
  5
74
330
1E
100
AcDbEntity
  8
L-ZISSEN
100
AcDbLine
 10
130.9999999999998
 20
78.00000000000011
 30
0.0
 11
130.9999999999998
 21
77.0
 31
0.0
  0
LINE
  5
75
330
1E
100
AcDbEntity
  8
L-ZISSEN
100
AcDbLine
 10
122.8746584673956
 20
78.00000000000006
 30
0.0
 11
130.9999999999998
 21
78.00000000000011
 31
0.0
  0
LINE
  5
76
330
1E
100
AcDbEntity
  8
L-ZISSEN
100
AcDbLine
 10
128.4999999999996
 20
78.00000000000008
 30
0.0
 11
128.4999999999997
 21
93.00000000000002
 31
0.0
  0
LINE
  5
77
330
1E
100
AcDbEntity
  8
L-ZISSEN
100
AcDbLine
 10
120.75
 20
43.0
 30
0.0
 11
142.5
 21
43.00000000000001
 31
0.0
  0
ARC
  5
78
330
1E
100
AcDbEntity
  8
L-ZISSEN
100
AcDbCircle
 10
119.0
 20
60.0
 30
0.0
 40
13.0
100
AcDbArc
 50
270.0
 51
100.6558691498161
  0
LINE
  5
79
330
1E
100
AcDbEntity
  8
L-ZISSEN
100
AcDbLine
 10
186.9999999999999
 20
73.0
 30
0.0
 11
194.0
 21
72.99999999999997
 31
0.0
  0
LINE
  5
7A
330
1E
100
AcDbEntity
  8
L-ZISSEN
100
AcDbLine
 10
232.9999999999999
 20
73.0
 30
0.0
 11
226.0
 21
72.99999999999997
 31
0.0
  0
LINE
  5
7B
330
1E
100
AcDbEntity
  8
L-ZISSEN
100
AcDbLine
 10
226.0
 20
77.00000000000007
 30
0.0
 11
225.9999999999999
 21
42.99999999999995
 31
0.0
  0
LINE
  5
7C
330
1E
100
AcDbEntity
  8
L-ZISSEN
100
AcDbLine
 10
232.9999999999999
 20
72.99999999999998
 30
0.0
 11
232.9999999999998
 21
46.00000000000005
 31
0.0
  0
LINE
  5
7F
330
1E
100
AcDbEntity
  8
L-ZISSEN
100
AcDbLine
 10
122.8746584673956
 20
76.99999999999999
 30
0.0
 11
142.5
 21
77.00000000000001
 31
0.0
  0
CIRCLE
  5
80
330
1E
100
AcDbEntity
  8
L-ZISSEN
100
AcDbCircle
 10
119.0
 20
60.0
 30
0.0
 40
5.7225
  0
LINE
  5
81
330
1E
100
AcDbEntity
  8
L-ZISSEN
100
AcDbLine
 10
230.75
 20
22.0
 30
0.0
 11
189.25
 21
22.0
 31
0.0
  0
LINE
  5
83
330
1E
100
AcDbEntity
  8
L-ZISSEN
100
AcDbLine
 10
181.5000000000002
 20
82.2124355652976
 30
0.0
 11
238.4999999999997
 21
82.2124355652976
 31
0.0
  0
LINE
  5
85
330
1E
100
AcDbEntity
  8
L-ZISSEN
100
AcDbLine
 10
132.4999999999999
 20
202.5999999999995
 30
0.0
 11
132.4999999999999
 21
208.0
 31
0.0
  0
LINE
  5
86
330
1E
100
AcDbEntity
  8
L-TYUSIN
100
AcDbLine
 10
119.0000000000001
 20
197.2599999999997
 30
0.0
 11
119.0000000000001
 21
252.7400000000003
 31
0.0
  0
LINE
  5
88
330
1E
100
AcDbEntity
  8
L-ZISSEN
100
AcDbLine
 10
132.4999999999999
 20
247.4000000000004
 30
0.0
 11
132.4999999999999
 21
242.0
 31
0.0
  0
LINE
  5
8B
330
1E
100
AcDbEntity
  8
L-ZISSEN
100
AcDbLine
 10
630.0
 20
67.5
 30
0.0
 11
630.0
 21
47.99999999999989
 31
0.0
  0
LINE
  5
8C
330
1E
100
AcDbEntity
  8
L-ZISSEN
100
AcDbLine
 10
560.0
 20
67.5
 30
0.0
 11
560.0
 21
48.0
 31
0.0
  0
LINE
  5
8D
330
1E
100
AcDbEntity
  8
L-ZISSEN
100
AcDbLine
 10
560.0
 20
67.5
 30
0.0
 11
630.0
 21
67.49999999999994
 31
0.0
  0
LINE
  5
8E
330
1E
100
AcDbEntity
  8
L-ZISSEN
100
AcDbLine
 10
560.0
 20
48.0
 30
0.0
 11
630.0
 21
47.99999999999989
 31
0.0
  0
LINE
  5
8F
330
1E
100
AcDbEntity
  8
L-ZISSEN
100
AcDbLine
 10
71.50000000000023
 20
82.21243556529762
 30
0.0
 11
128.4999999999997
 21
82.21243556529762
 31
0.0
  0
LINE
  5
90
330
1E
100
AcDbEntity
  8
L-ZISSEN
100
AcDbLine
 10
71.50000000000023
 20
92.99999999999997
 30
0.0
 11
128.4999999999997
 21
93.00000000000002
 31
0.0
  0
LINE
  5
91
330
1E
100
AcDbEntity
  8
L-TYUSIN
100
AcDbLine
 10
383.0000000000003
 20
212.0
 30
0.0
 11
383.0000000000003
 21
199.2999999999999
 31
0.0
  0
LINE
  5
92
330
1E
100
AcDbEntity
  8
L-TYUSIN
100
AcDbLine
 10
327.0000000000003
 20
212.0
 30
0.0
 11
327.0000000000004
 21
199.3
 31
0.0
  0
ARC
  5
93
330
1E
100
AcDbEntity
  8
L-ZISSEN
100
AcDbCircle
 10
355.0
 20
155.0
 30
0.0
 40
36.99999999999983
100
AcDbArc
 50
18.9246444160518
 51
161.0753555839482
  0
LINE
  5
94
330
1E
100
AcDbEntity
  8
L-ZISSEN
100
AcDbLine
 10
389.9999999999997
 20
156.6953498214371
 30
0.0
 11
399.5
 21
204.3
 31
0.0
  0
LINE
  5
95
330
1E
100
AcDbEntity
  8
L-ZISSEN
100
AcDbLine
 10
389.9999999999997
 20
142.9999999999995
 30
0.0
 11
389.9999999999997
 21
167.0000000000003
 31
0.0
  0
LINE
  5
96
330
1E
100
AcDbEntity
  8
L-ZISSEN
100
AcDbLine
 10
320.0000000000001
 20
142.9999999999995
 30
0.0
 11
320.0000000000001
 21
167.0000000000003
 31
0.0
  0
ARC
  5
97
330
1E
100
AcDbEntity
  8
L-ZISSEN
100
AcDbCircle
 10
355.0
 20
155.0
 30
0.0
 40
36.99999999999983
100
AcDbArc
 50
198.9246444160519
 51
341.0753555839481
  0
LINE
  5
98
330
1E
100
AcDbEntity
  8
L-ZISSEN
100
AcDbLine
 10
320.0000000000001
 20
156.6953498214371
 30
0.0
 11
310.4999999999999
 21
204.3
 31
0.0
  0
LINE
  5
99
330
1E
100
AcDbEntity
  8
L-ZISSEN
100
AcDbLine
 10
310.4999999999999
 20
204.3
 30
0.0
 11
310.4999999999999
 21
207.0
 31
0.0
  0
LINE
  5
9A
330
1E
100
AcDbEntity
  8
L-ZISSEN
100
AcDbLine
 10
399.5
 20
204.2999999999999
 30
0.0
 11
399.5
 21
207.0
 31
0.0
  0
LINE
  5
9B
330
1E
100
AcDbEntity
  8
L-ZISSEN
100
AcDbLine
 10
399.5
 20
204.2999999999999
 30
0.0
 11
310.4999999999999
 21
204.3
 31
0.0
  0
LINE
  5
9C
330
1E
100
AcDbEntity
  8
L-ZISSEN
100
AcDbLine
 10
399.5
 20
207.0
 30
0.0
 11
310.4999999999999
 21
207.0
 31
0.0
  0
LINE
  5
9D
330
1E
100
AcDbEntity
  8
L-TYUSIN
100
AcDbLine
 10
517.0
 20
80.0
 30
0.0
 11
504.2999999999999
 21
80.0
 31
0.0
  0
LINE
  5
9E
330
1E
100
AcDbEntity
  8
L-ZISSEN
100
AcDbLine
 10
496.9999999999997
 20
64.20000000000005
 30
0.0
 11
496.9999999999997
 21
44.69999999999998
 31
0.0
  0
LINE
  5
9F
330
1E
100
AcDbEntity
  8
L-ZISSEN
100
AcDbLine
 10
423.0
 20
64.20000000000005
 30
0.0
 11
423.0
 21
44.69999999999993
 31
0.0
  0
LINE
  5
A0
330
1E
100
AcDbEntity
  8
L-ZISSEN
100
AcDbLine
 10
423.0
 20
64.20000000000005
 30
0.0
 11
497.0
 21
64.19999999999999
 31
0.0
  0
LINE
  5
A1
330
1E
100
AcDbEntity
  8
L-ZISSEN
100
AcDbLine
 10
426.0
 20
42.0
 30
0.0
 11
426.0
 21
44.69999999999993
 31
0.0
  0
LINE
  5
A2
330
1E
100
AcDbEntity
  8
L-ZISSEN
100
AcDbLine
 10
422.9999999999998
 20
44.69999999999993
 30
0.0
 11
509.2999999999999
 21
44.69999999999998
 31
0.0
  0
LINE
  5
A3
330
1E
100
AcDbEntity
  8
L-ZISSEN
100
AcDbLine
 10
509.2999999999999
 20
92.0
 30
0.0
 11
509.2999999999999
 21
44.69999999999998
 31
0.0
  0
LINE
  5
A4
330
1E
100
AcDbEntity
  8
L-ZISSEN
100
AcDbLine
 10
512.0
 20
92.0
 30
0.0
 11
509.2999999999999
 21
92.0
 31
0.0
  0
LINE
  5
A5
330
1E
100
AcDbEntity
  8
L-ZISSEN
100
AcDbLine
 10
512.0
 20
42.0
 30
0.0
 11
512.0
 21
92.0
 31
0.0
  0
LINE
  5
A6
330
1E
100
AcDbEntity
  8
L-ZISSEN
100
AcDbLine
 10
426.0
 20
42.0
 30
0.0
 11
512.0
 21
42.0
 31
0.0
  0
LINE
  5
A7
330
1E
100
AcDbEntity
  8
L-ZISSEN
100
AcDbLine
 10
390.0
 20
64.20000000000005
 30
0.0
 11
390.0
 21
44.69999999999993
 31
0.0
  0
LINE
  5
A8
330
1E
100
AcDbEntity
  8
L-ZISSEN
100
AcDbLine
 10
320.0000000000001
 20
64.20000000000005
 30
0.0
 11
320.0
 21
44.70000000000005
 31
0.0
  0
LINE
  5
A9
330
1E
100
AcDbEntity
  8
L-ZISSEN
100
AcDbLine
 10
320.0000000000001
 20
64.20000000000005
 30
0.0
 11
389.9999999999998
 21
64.19999999999999
 31
0.0
  0
LINE
  5
AA
330
1E
100
AcDbEntity
  8
L-TYUSIN
100
AcDbLine
 10
312.0
 20
80.0
 30
0.0
 11
342.0
 21
80.0
 31
0.0
  0
LINE
  5
AB
330
1E
100
AcDbEntity
  8
L-TYUSIN
100
AcDbLine
 10
327.0
 20
90.0
 30
0.0
 11
327.0
 21
70.0
 31
0.0
  0
ARC
  5
AC
330
1E
100
AcDbEntity
  8
L-ZISSEN
100
AcDbCircle
 10
318.4999999999987
 20
80.00000000000012
 30
0.0
 40
3.5
100
AcDbArc
 50
90.0
 51
270.0
  0
LINE
  5
AD
330
1E
100
AcDbEntity
  8
L-ZISSEN
100
AcDbLine
 10
333.0
 20
76.49999999999852
 30
0.0
 11
318.4999999999987
 21
76.49999999999852
 31
0.0
  0
LINE
  5
AE
330
1E
100
AcDbEntity
  8
L-ZISSEN
100
AcDbLine
 10
333.0
 20
83.50000000000148
 30
0.0
 11
318.4999999999987
 21
83.50000000000148
 31
0.0
  0
LINE
  5
AF
330
1E
100
AcDbEntity
  8
L-ZISSEN
100
AcDbLine
 10
377.0
 20
83.50000000000148
 30
0.0
 11
391.5000000000013
 21
83.50000000000148
 31
0.0
  0
LINE
  5
B0
330
1E
100
AcDbEntity
  8
L-ZISSEN
100
AcDbLine
 10
377.0
 20
76.49999999999852
 30
0.0
 11
391.5000000000013
 21
76.49999999999852
 31
0.0
  0
ARC
  5
B1
330
1E
100
AcDbEntity
  8
L-ZISSEN
100
AcDbCircle
 10
391.5000000000013
 20
80.00000000000012
 30
0.0
 40
3.5
100
AcDbArc
 50
270.0
 51
90.0
  0
LINE
  5
B2
330
1E
100
AcDbEntity
  8
L-ZISSEN
100
AcDbLine
 10
376.9999999999999
 20
92.0
 30
0.0
 11
399.4999999999998
 21
92.0
 31
0.0
  0
LINE
  5
B3
330
1E
100
AcDbEntity
  8
L-ZISSEN
100
AcDbLine
 10
310.4999999999999
 20
44.70000000000005
 30
0.0
 11
399.5000000000001
 21
44.69999999999993
 31
0.0
  0
LINE
  5
B4
330
1E
100
AcDbEntity
  8
L-ZISSEN
100
AcDbLine
 10
399.5
 20
92.0
 30
0.0
 11
399.5
 21
42.0
 31
0.0
  0
LINE
  5
B5
330
1E
100
AcDbEntity
  8
L-ZISSEN
100
AcDbLine
 10
310.4999999999999
 20
92.00000000000002
 30
0.0
 11
333.0
 21
91.99999999999997
 31
0.0
  0
LINE
  5
B6
330
1E
100
AcDbEntity
  8
L-ZISSEN
100
AcDbLine
 10
310.4999999999999
 20
42.0
 30
0.0
 11
310.4999999999999
 21
92.00000000000002
 31
0.0
  0
LINE
  5
B7
330
1E
100
AcDbEntity
  8
L-ZISSEN
100
AcDbLine
 10
399.5
 20
42.0
 30
0.0
 11
310.4999999999999
 21
42.0
 31
0.0
  0
SOLID
  5
BC
330
1E
100
AcDbEntity
  8
L-ZISSEN
100
AcDbTrace
 10
55.82183908045975
 20
58.86206896551726
 30
0.0
 11
56.28160919540228
 21
58.3793103448276
 31
0.0
 12
57.49999999999999
 22
60.00000000000002
 32
0.0
 13
57.49999999999999
 23
60.00000000000002
 33
0.0
  0
LINE
  5
BD
330
1E
100
AcDbEntity
  8
L-ZISSEN
100
AcDbLine
 10
56.05172413793102
 20
58.62068965517243
 30
0.0
 11
46.99999999999999
 21
50.00000000000002
 31
0.0
  0
LINE
  5
BE
330
1E
100
AcDbEntity
  8
L-ZISSEN
100
AcDbLine
 10
46.99999999999998
 20
50.00000000000002
 30
0.0
 11
44.99999999999999
 21
50.00000000000002
 31
0.0
  0
TEXT
  5
BF
330
1E
100
AcDbEntity
  8
L-ZISSEN
100
AcDbText
 10
36.99999999999998
 20
47.75000000000002
 30
0.0
 40
4.5
  1
IN
100
AcDbText
  0
TEXT
  5
C0
330
1E
100
AcDbEntity
  8
L-ZISSEN
100
AcDbText
 10
21.99999999999998
 20
40.00000000000002
 30
0.0
 40
4.5
  1
Rc 1/2
100
AcDbText
  0
SOLID
  5
C1
330
1E
100
AcDbEntity
  8
L-ZISSEN
100
AcDbTrace
 10
596.6499158227686
 20
26.17851130197755
 30
0.0
 11
596.1785113019775
 21
26.6499158227686
 31
0.0
 12
595.0
 22
25.0
 32
0.0
 13
595.0
 23
25.0
 33
0.0
  0
LINE
  5
C2
330
1E
100
AcDbEntity
  8
L-ZISSEN
100
AcDbLine
 10
596.414213562373
 20
26.41421356237311
 30
0.0
 11
605.0
 21
35.0
 31
0.0
  0
LINE
  5
C3
330
1E
100
AcDbEntity
  8
L-ZISSEN
100
AcDbLine
 10
605.0
 20
35.0
 30
0.0
 11
607.0
 21
35.0
 31
0.0
  0
TEXT
  5
C4
330
1E
100
AcDbEntity
  8
L-ZISSEN
100
AcDbText
 10
609.0
 20
32.75
 30
0.0
 40
4.5
  1
P.P
100
AcDbText
  0
ARC
  5
C5
330
1E
100
AcDbEntity
  8
L-ZISSEN
100
AcDbCircle
 10
595.0
 20
120.0
 30
0.0
 40
36.99999999999983
100
AcDbArc
 50
198.9246444160519
 51
341.0753555839481
  0
LINE
  5
C6
330
1E
100
AcDbEntity
  8
L-ZISSEN
100
AcDbLine
 10
560.0000000000001
 20
107.9999999999996
 30
0.0
 11
560.0000000000001
 21
132.0000000000003
 31
0.0
  0
LINE
  5
C7
330
1E
100
AcDbEntity
  8
L-ZISSEN
100
AcDbLine
 10
629.9999999999998
 20
107.9999999999996
 30
0.0
 11
629.9999999999998
 21
132.0000000000003
 31
0.0
  0
ARC
  5
C8
330
1E
100
AcDbEntity
  8
L-ZISSEN
100
AcDbCircle
 10
595.0
 20
120.0
 30
0.0
 40
36.99999999999983
100
AcDbArc
 50
18.9246444160518
 51
161.0753555839482
  0
SOLID
  5
C9
330
1E
100
AcDbEntity
  8
L-ZISSEN
100
AcDbTrace
 10
596.3015827469119
 20
118.4453317189662
 30
0.0
 11
596.7354436625491
 21
118.9515027872098
 31
0.0
 12
595.0
 22
120.0
 32
0.0
 13
595.0
 23
120.0
 33
0.0
  0
LINE
  5
CA
330
1E
100
AcDbEntity
  8
L-ZISSEN
100
AcDbLine
 10
596.5185132047306
 20
118.698417253088
 30
0.0
 11
630.0
 21
90.0
 31
0.0
  0
LINE
  5
CB
330
1E
100
AcDbEntity
  8
L-ZISSEN
100
AcDbLine
 10
630.0
 20
90.0
 30
0.0
 11
632.0
 21
90.0
 31
0.0
  0
TEXT
  5
CC
330
1E
100
AcDbEntity
  8
L-ZISSEN
100
AcDbText
 10
634.0
 20
87.75
 30
0.0
 40
4.5
  1
P.P
100
AcDbText
  0
SOLID
  5
CD
330
1E
100
AcDbEntity
  8
L-ZISSEN
100
AcDbTrace
 10
356.6499158227686
 20
26.17851130197758
 30
0.0
 11
356.1785113019775
 21
26.64991582276861
 31
0.0
 12
355.0
 22
25.0
 32
0.0
 13
355.0
 23
25.0
 33
0.0
  0
LINE
  5
CE
330
1E
100
AcDbEntity
  8
L-ZISSEN
100
AcDbLine
 10
356.4142135623731
 20
26.41421356237311
 30
0.0
 11
365.0
 21
35.0
 31
0.0
  0
LINE
  5
CF
330
1E
100
AcDbEntity
  8
L-ZISSEN
100
AcDbLine
 10
365.0
 20
35.0
 30
0.0
 11
367.0
 21
35.0
 31
0.0
  0
TEXT
  5
D0
330
1E
100
AcDbEntity
  8
L-ZISSEN
100
AcDbText
 10
369.0
 20
32.75
 30
0.0
 40
4.5
  1
P.P
100
AcDbText
  0
SOLID
  5
D1
330
1E
100
AcDbEntity
  8
L-ZISSEN
100
AcDbTrace
 10
461.6499158227687
 20
26.17851130197756
 30
0.0
 11
461.1785113019776
 21
26.6499158227686
 31
0.0
 12
460.0
 22
24.99999999999999
 32
0.0
 13
460.0
 23
24.99999999999999
 33
0.0
  0
LINE
  5
D2
330
1E
100
AcDbEntity
  8
L-ZISSEN
100
AcDbLine
 10
461.4142135623731
 20
26.41421356237307
 30
0.0
 11
470.0
 21
35.0
 31
0.0
  0
LINE
  5
D3
330
1E
100
AcDbEntity
  8
L-ZISSEN
100
AcDbLine
 10
470.0
 20
35.0
 30
0.0
 11
472.0
 21
35.0
 31
0.0
  0
TEXT
  5
D4
330
1E
100
AcDbEntity
  8
L-ZISSEN
100
AcDbText
 10
474.0
 20
32.74999999999999
 30
0.0
 40
4.5
  1
P.P
100
AcDbText
  0
SOLID
  5
D5
330
1E
100
AcDbEntity
  8
L-ZISSEN
100
AcDbTrace
 10
356.1785113019775
 20
153.3500841772313
 30
0.0
 11
356.6499158227686
 21
153.8214886980224
 31
0.0
 12
355.0
 22
155.0
 32
0.0
 13
355.0
 23
155.0
 33
0.0
  0
LINE
  5
D6
330
1E
100
AcDbEntity
  8
L-ZISSEN
100
AcDbLine
 10
356.4142135623731
 20
153.5857864376269
 30
0.0
 11
385.0
 21
125.0
 31
0.0
  0
LINE
  5
D7
330
1E
100
AcDbEntity
  8
L-ZISSEN
100
AcDbLine
 10
385.0
 20
125.0
 30
0.0
 11
387.0
 21
125.0
 31
0.0
  0
TEXT
  5
D8
330
1E
100
AcDbEntity
  8
L-ZISSEN
100
AcDbText
 10
389.0
 20
122.75
 30
0.0
 40
4.5
  1
P.P
100
AcDbText
  0
TEXT
  5
D9
330
1E
100
AcDbEntity
  8
L-ZISSEN
100
AcDbText
 10
560.0
 20
175.0
 30
0.0
 40
4.5
  1
MODEL NO. : 5226-97
100
AcDbText
  0
TEXT
  5
DA
330
1E
100
AcDbEntity
  8
L-ZISSEN
100
AcDbText
 10
300.0
 20
225.0
 30
0.0
 40
4.5
  1
MODEL NO. : 5514-06
100
AcDbText
  0
SOLID
  5
DB
330
1E
100
AcDbEntity
  8
L-ZISSEN
100
AcDbTrace
 10
101.1785113019775
 20
58.35008417723138
 30
0.0
 11
101.6499158227686
 21
58.82148869802242
 31
0.0
 12
100.0
 22
60.0
 32
0.0
 13
100.0
 23
60.0
 33
0.0
  0
LINE
  5
DC
330
1E
100
AcDbEntity
  8
L-ZISSEN
100
AcDbLine
 10
101.4142135623731
 20
58.5857864376269
 30
0.0
 11
124.9999999999999
 21
34.99999999999999
 31
0.0
  0
LINE
  5
DD
330
1E
100
AcDbEntity
  8
L-ZISSEN
100
AcDbLine
 10
125.0
 20
35.0
 30
0.0
 11
127.0
 21
35.0
 31
0.0
  0
TEXT
  5
DE
330
1E
100
AcDbEntity
  8
L-ZISSEN
100
AcDbText
 10
129.0
 20
32.75
 30
0.0
 40
4.5
  1
P.P
100
AcDbText
  0
SOLID
  5
DF
330
1E
100
AcDbEntity
  8
L-ZISSEN
100
AcDbTrace
 10
211.3230477593065
 20
58.46355744080523
 30
0.0
 11
211.7498373590828
 21
58.97570496053681
 31
0.0
 12
209.9999999999999
 22
59.99999999999999
 32
0.0
 13
209.9999999999999
 23
59.99999999999999
 33
0.0
  0
LINE
  5
E0
330
1E
100
AcDbEntity
  8
L-ZISSEN
100
AcDbLine
 10
211.5364425591947
 20
58.71963120067103
 30
0.0
 11
240.0
 21
35.00000000000001
 31
0.0
  0
LINE
  5
E1
330
1E
100
AcDbEntity
  8
L-ZISSEN
100
AcDbLine
 10
240.0
 20
35.00000000000001
 30
0.0
 11
242.0
 21
35.00000000000001
 31
0.0
  0
TEXT
  5
E2
330
1E
100
AcDbEntity
  8
L-ZISSEN
100
AcDbText
 10
244.0
 20
32.75000000000001
 30
0.0
 40
4.5
  1
P.P
100
AcDbText
  0
SOLID
  5
E3
330
1E
100
AcDbEntity
  8
L-ZISSEN
100
AcDbTrace
 10
338.3500841772313
 20
293.8214886980224
 30
0.0
 11
338.8214886980224
 21
293.3500841772314
 31
0.0
 12
340.0
 22
295.0
 32
0.0
 13
340.0
 23
295.0
 33
0.0
  0
LINE
  5
E4
330
1E
100
AcDbEntity
  8
L-ZISSEN
100
AcDbLine
 10
338.5857864376268
 20
293.5857864376269
 30
0.0
 11
325.0
 21
280.0
 31
0.0
  0
LINE
  5
E5
330
1E
100
AcDbEntity
  8
L-ZISSEN
100
AcDbLine
 10
325.0
 20
280.0
 30
0.0
 11
323.0
 21
280.0
 31
0.0
  0
TEXT
  5
E6
330
1E
100
AcDbEntity
  8
L-ZISSEN
100
AcDbText
 10
312.0
 20
277.7499999999999
 30
0.0
 40
4.5
  1
P.P
100
AcDbText
  0
SOLID
  5
E7
330
1E
100
AcDbEntity
  8
L-ZISSEN
100
AcDbTrace
 10
338.3500841772312
 20
398.8214886980223
 30
0.0
 11
338.8214886980223
 21
398.3500841772313
 31
0.0
 12
339.9999999999999
 22
399.9999999999999
 32
0.0
 13
339.9999999999999
 23
399.9999999999999
 33
0.0
  0
LINE
  5
E8
330
1E
100
AcDbEntity
  8
L-ZISSEN
100
AcDbLine
 10
338.5857864376268
 20
398.5857864376268
 30
0.0
 11
325.0
 21
385.0
 31
0.0
  0
LINE
  5
E9
330
1E
100
AcDbEntity
  8
L-ZISSEN
100
AcDbLine
 10
325.0
 20
385.0
 30
0.0
 11
323.0
 21
385.0
 31
0.0
  0
TEXT
  5
EA
330
1E
100
AcDbEntity
  8
L-ZISSEN
100
AcDbText
 10
312.0
 20
382.75
 30
0.0
 40
4.5
  1
P.P
100
AcDbText
  0
SOLID
  5
EB
330
1E
100
AcDbEntity
  8
L-ZISSEN
100
AcDbTrace
 10
481.2675276259735
 20
293.4174435780974
 30
0.0
 11
481.7122741614027
 21
293.9140772093269
 31
0.0
 12
480.0
 22
295.0
 32
0.0
 13
480.0
 23
295.0
 33
0.0
  0
LINE
  5
EC
330
1E
100
AcDbEntity
  8
L-ZISSEN
100
AcDbLine
 10
481.4899008936881
 20
293.6657603937121
 30
0.0
 11
496.7500000000002
 21
280.0
 31
0.0
  0
LINE
  5
ED
330
1E
100
AcDbEntity
  8
L-ZISSEN
100
AcDbLine
 10
496.7500000000002
 20
280.0
 30
0.0
 11
498.7500000000001
 21
280.0
 31
0.0
  0
TEXT
  5
EE
330
1E
100
AcDbEntity
  8
L-ZISSEN
100
AcDbText
 10
500.7500000000002
 20
277.7499999999999
 30
0.0
 40
4.5
  1
P.P
100
AcDbText
  0
TEXT
  5
EF
330
1E
100
AcDbEntity
  8
L-ZISSEN
100
AcDbText
 10
55.0
 20
285.0
 30
0.0
 40
4.5
  1
MODEL NO. : RV2-400-0 K
100
AcDbText
  0
TEXT
  5
F0
330
1E
100
AcDbEntity
  8
L-ZISSEN
100
AcDbText
 10
143.0357388198149
 20
288.75
 30
0.0
 40
4.5
  1
4
100
AcDbText
  0
TEXT
  5
F1
330
1E
100
AcDbEntity
  8
L-ZISSEN
100
AcDbText
 10
143.0357388198149
 20
282.5
 30
0.0
 40
4.5
  1
6
100
AcDbText
  0
TEXT
  5
F2
330
1E
100
AcDbEntity
  8
L-ZISSEN
100
AcDbText
 10
152.5357388198149
 20
285.0
 30
0.0
 40
4.5
  1
25
100
AcDbText
  0
TEXT
  5
F3
330
1E
100
AcDbEntity
  8
L-ZISSEN
100
AcDbText
 10
152.5357388198149
 20
278.75
 30
0.0
 40
4.5
  1
50
100
AcDbText
  0
TEXT
  5
F4
330
1E
100
AcDbEntity
  8
L-ZISSEN
100
AcDbText
 10
152.5357388198149
 20
291.25
 30
0.0
 40
4.5
  1
00
100
AcDbText
  0
LINE
  5
F5
330
1E
100
AcDbEntity
  8
L-ZISSEN
100
AcDbLine
 10
194.0
 20
42.99999999999996
 30
0.0
 11
225.9999999999999
 21
42.99999999999996
 31
0.0
  0
LINE
  5
F6
330
1E
100
AcDbEntity
  8
L-TYUSIN
100
AcDbLine
 10
398.0
 20
80.0
 30
0.0
 11
368.0
 21
80.0
 31
0.0
  0
LINE
  5
F7
330
1E
100
AcDbEntity
  8
L-TYUSIN
100
AcDbLine
 10
383.0
 20
90.0
 30
0.0
 11
383.0
 21
70.0
 31
0.0
  0
LINE
  5
FF
330
1E
100
AcDbEntity
  8
L-ZISSEN
100
AcDbLine
 10
132.4999999999999
 20
248.0
 30
0.0
 11
132.4999999999999
 21
241.0
 31
0.0
  0
LINE
  5
101
330
1E
100
AcDbEntity
  8
L-ZISSEN
100
AcDbLine
 10
132.4999999999999
 20
248.0
 30
0.0
 11
116.8300326797068
 21
248.0
 31
0.0
  0
LINE
  5
102
330
1E
100
AcDbEntity
  8
L-ZISSEN
100
AcDbLine
 10
132.4999999999999
 20
202.0
 30
0.0
 11
116.8300326797068
 21
202.0
 31
0.0
  0
LINE
  5
104
330
1E
100
AcDbEntity
  8
L-ZISSEN
100
AcDbLine
 10
132.4999999999999
 20
209.0
 30
0.0
 11
132.4999999999999
 21
202.0
 31
0.0
  0
LINE
  5
108
330
1E
100
AcDbEntity
  8
L-ZISSEN
100
AcDbLine
 10
122.0
 20
127.0
 30
0.0
 11
78.0
 21
126.9999999999999
 31
0.0
  0
LWPOLYLINE
  5
109
330
1E
100
AcDbEntity
  8
L-ZISSEN
100
AcDbPolyline
 90
        8
 70
     1
 43
0.0
 10
90.8873016277919
 20
247.0
 10
78.0
 20
234.1126983722081
 10
78.0
 20
215.8873016277919
 10
90.8873016277919
 20
203.0
 10
109.112698372208
 20
203.0
 10
122.0
 20
215.8873016277919
 10
122.0
 20
234.1126983722081
 10
109.1126983722081
 20
247.0
  0
CIRCLE
  5
10A
330
1E
100
AcDbEntity
  8
L-ZISSEN
100
AcDbCircle
 10
100.0
 20
224.9999999999999
 30
0.0
 40
12.0
  0
LWPOLYLINE
  5
10B
330
1E
100
AcDbEntity
  8
L-ZISSEN
100
AcDbPolyline
 90
        6
 70
     1
 43
0.0
 10
96.53589838486226
 20
230.9999999999999
 10
93.07179676972449
 20
224.9999999999999
 10
96.53589838486224
 20
218.9999999999999
 10
103.4641016151377
 20
218.9999999999999
 10
106.9282032302755
 20
224.9999999999999
 10
103.4641016151377
 20
230.9999999999999
  0
CIRCLE
  5
10C
330
1E
100
AcDbEntity
  8
L-ZISSEN
100
AcDbCircle
 10
100.0
 20
224.9999999999999
 30
0.0
 40
4.0
  0
LWPOLYLINE
  5
10D
330
1E
100
AcDbEntity
  8
L-ZISSEN
100
AcDbPolyline
 90
        6
 70
     1
 43
0.0
 10
98.84529946162075
 20
226.9999999999999
 10
97.6905989232415
 20
224.9999999999999
 10
98.84529946162075
 20
222.9999999999999
 10
101.1547005383792
 20
222.9999999999999
 10
102.3094010767584
 20
224.9999999999999
 10
101.1547005383792
 20
226.9999999999999
  0
LINE
  5
10F
330
1E
100
AcDbEntity
  8
L-ZISSEN
100
AcDbLine
 10
78.0
 20
126.9999999999999
 30
0.0
 11
78.0
 21
98.0
 31
0.0
  0
LINE
  5
110
330
1E
100
AcDbEntity
  8
L-ZISSEN
100
AcDbLine
 10
122.0
 20
127.0
 30
0.0
 11
121.9999999999999
 21
98.0
 31
0.0
  0
CIRCLE
  5
116
330
1E
100
AcDbEntity
  8
L-ZISSEN
100
AcDbCircle
 10
210.0
 20
59.99999999999996
 30
0.0
 40
16.0
  0
LINE
  5
122
330
1E
100
AcDbEntity
  8
L-ZISSEN
100
AcDbLine
 10
332.0000000000001
 20
339.7599999999998
 30
0.0
 11
385.9999999999996
 21
339.7599999999998
 31
0.0
  0
LINE
  5
123
330
1E
100
AcDbEntity
  8
L-ZISSEN
100
AcDbLine
 10
332.0000000000001
 20
363.2599999999998
 30
0.0
 11
385.9999999999996
 21
363.2599999999998
 31
0.0
  0
LINE
  5
124
330
1E
100
AcDbEntity
  8
L-ZISSEN
100
AcDbLine
 10
352.4214999999964
 20
363.2599999999999
 30
0.0
 11
352.4214999999963
 21
374.349340403216
 31
0.0
  0
LINE
  5
125
330
1E
100
AcDbEntity
  8
L-ZISSEN
100
AcDbLine
 10
385.9999999999996
 20
363.2599999999998
 30
0.0
 11
385.9999999999996
 21
339.7599999999998
 31
0.0
  0
LINE
  5
126
330
1E
100
AcDbEntity
  8
L-ZISSEN
100
AcDbLine
 10
365.5785000000036
 20
363.2599999999999
 30
0.0
 11
365.5785000000036
 21
377.0
 31
0.0
  0
LINE
  5
127
330
1E
100
AcDbEntity
  8
L-ZISSEN
100
AcDbLine
 10
332.0000000000001
 20
363.2599999999998
 30
0.0
 11
332.0000000000001
 21
339.7599999999998
 31
0.0
  0
LINE
  5
162
330
1E
100
AcDbEntity
  8
L-ZISSEN
100
AcDbLine
 10
90.8873016277919
 20
127.0
 30
0.0
 11
90.8873016277919
 21
97.99999999999998
 31
0.0
  0
LINE
  5
163
330
1E
100
AcDbEntity
  8
L-ZISSEN
100
AcDbLine
 10
109.112698372208
 20
127.0
 30
0.0
 11
109.112698372208
 21
97.99999999999998
 31
0.0
  0
LINE
  5
165
330
1E
100
AcDbEntity
  8
L-ZISSEN
100
AcDbLine
 10
74.5
 20
93.0
 30
0.0
 11
74.5
 21
98.0
 31
0.0
  0
LINE
  5
166
330
1E
100
AcDbEntity
  8
L-ZISSEN
100
AcDbLine
 10
74.5
 20
98.0
 30
0.0
 11
125.5
 21
98.0
 31
0.0
  0
LINE
  5
167
330
1E
100
AcDbEntity
  8
L-ZISSEN
100
AcDbLine
 10
125.5
 20
98.0
 30
0.0
 11
125.5
 21
93.0
 31
0.0
  0
LINE
  5
168
330
1E
100
AcDbEntity
  8
L-ZISSEN
100
AcDbLine
 10
219.1126983722081
 20
127.0
 30
0.0
 11
219.1126983722081
 21
97.99999999999998
 31
0.0
  0
LINE
  5
169
330
1E
100
AcDbEntity
  8
L-ZISSEN
100
AcDbLine
 10
232.0
 20
127.0
 30
0.0
 11
232.0
 21
98.0
 31
0.0
  0
LINE
  5
16A
330
1E
100
AcDbEntity
  8
L-ZISSEN
100
AcDbLine
 10
184.5
 20
98.0
 30
0.0
 11
235.5
 21
98.0
 31
0.0
  0
LINE
  5
16B
330
1E
100
AcDbEntity
  8
L-ZISSEN
100
AcDbLine
 10
235.5
 20
98.0
 30
0.0
 11
235.5
 21
93.0
 31
0.0
  0
LINE
  5
16C
330
1E
100
AcDbEntity
  8
L-ZISSEN
100
AcDbLine
 10
232.0
 20
127.0
 30
0.0
 11
188.0
 21
126.9999999999999
 31
0.0
  0
LINE
  5
16D
330
1E
100
AcDbEntity
  8
L-ZISSEN
100
AcDbLine
 10
200.8873016277919
 20
127.0
 30
0.0
 11
200.8873016277919
 21
97.99999999999998
 31
0.0
  0
LINE
  5
16E
330
1E
100
AcDbEntity
  8
L-ZISSEN
100
AcDbLine
 10
188.0
 20
126.9999999999999
 30
0.0
 11
188.0
 21
98.0
 31
0.0
  0
LINE
  5
16F
330
1E
100
AcDbEntity
  8
L-ZISSEN
100
AcDbLine
 10
184.5
 20
93.0
 30
0.0
 11
184.5
 21
98.0
 31
0.0
  0
CIRCLE
  5
170
330
1E
100
AcDbEntity
  8
L-ZISSEN
100
AcDbCircle
 10
100.0
 20
224.9999999999999
 30
0.0
 40
25.5
  0
SOLID
  5
172
330
1E
100
AcDbEntity
  8
L-ZISSEN
100
AcDbTrace
 10
101.1785113019775
 20
223.3500841772314
 30
0.0
 11
101.6499158227686
 21
223.8214886980224
 31
0.0
 12
100.0
 22
225.0
 32
0.0
 13
100.0
 23
225.0
 33
0.0
  0
LINE
  5
173
330
1E
100
AcDbEntity
  8
L-ZISSEN
100
AcDbLine
 10
101.4142135623731
 20
223.5857864376269
 30
0.0
 11
134.4436508138959
 21
190.5563491861041
 31
0.0
  0
TEXT
  5
174
330
1E
100
AcDbEntity
  8
L-ZISSEN
100
AcDbText
 10
138.4436508138959
 20
188.3063491861041
 30
0.0
 40
4.5
  1
P.P
100
AcDbText
  0
LINE
  5
175
330
1E
100
AcDbEntity
  8
L-ZISSEN
100
AcDbLine
 10
134.4436508138959
 20
190.5563491861041
 30
0.0
 11
136.4436508138959
 21
190.5563491861041
 31
0.0
  0
ENDSEC
  0
SECTION
  2
OBJECTS
  0
DICTIONARY
  5
C
330
0
100
AcDbDictionary
281
     1
  3
ACAD_GROUP
350
D
  3
ACAD_LAYOUT
350
19
  3
ACAD_MLINESTYLE
350
16
  3
ACAD_PLOTSETTINGS
350
18
  3
ACAD_PLOTSTYLENAME
350
E
  0
DICTIONARY
  5
D
102
{ACAD_REACTORS
330
C
102
}
330
C
100
AcDbDictionary
281
     1
  0
DICTIONARY
  5
19
102
{ACAD_REACTORS
330
C
102
}
330
C
100
AcDbDictionary
281
     1
  3
Model
350
21
  3
ﾚｲｱｳﾄ1
350
1D
  0
DICTIONARY
  5
16
102
{ACAD_REACTORS
330
C
102
}
330
C
100
AcDbDictionary
281
     1
  3
Standard
350
17
  0
DICTIONARY
  5
18
102
{ACAD_REACTORS
330
C
102
}
330
C
100
AcDbDictionary
281
     1
  0
ACDBDICTIONARYWDFLT
  5
E
102
{ACAD_REACTORS
330
C
102
}
330
C
100
AcDbDictionary
281
     1
  3
Normal
350
F
100
AcDbDictionaryWithDefault
340
F
  0
LAYOUT
  5
21
102
{ACAD_REACTORS
330
19
102
}
330
19
100
AcDbPlotSettings
  1

  2
FX DC 450E/550E/600 CP ART4-ADV
  4

  6

 40
0.0
 41
0.0
 42
0.0
 43
0.0
 44
0.0
 45
0.0
 46
0.0
 47
0.0
 48
0.0
 49
0.0
140
0.0
141
0.0
142
1.0
143
1.0
 70
  1712
 72
     0
 73
     0
 74
     0
  7
TACO.ctb
 75
     0
147
1.0
148
0.0
149
0.0
100
AcDbLayout
  1
Model
 70
     1
 71
     0
 10
0.0
 20
0.0
 11
12.0
 21
9.0
 12
0.0
 22
0.0
 32
0.0
 14
0.0
 24
0.0
 34
0.0
 15
0.0
 25
0.0
 35
0.0
146
0.0
 13
0.0
 23
0.0
 33
0.0
 16
1.0
 26
0.0
 36
0.0
 17
0.0
 27
1.0
 37
0.0
 76
     0
330
1E
  0
LAYOUT
  5
1D
102
{ACAD_REACTORS
330
19
102
}
330
19
100
AcDbPlotSettings
  1

  2
FX DC 450E/550E/600 CP ART4-ADV
  4

  6

 40
0.0
 41
0.0
 42
0.0
 43
0.0
 44
0.0
 45
0.0
 46
0.0
 47
0.0
 48
0.0
 49
0.0
140
0.0
141
0.0
142
1.0
143
1.0
 70
   688
 72
     0
 73
     0
 74
     5
  7
TACO.ctb
 75
    16
147
1.0
148
0.0
149
0.0
100
AcDbLayout
  1
ﾚｲｱｳﾄ1
 70
     0
 71
     1
 10
0.0
 20
0.0
 11
12.0
 21
9.0
 12
0.0
 22
0.0
 32
0.0
 14
1.000000000000000E+20
 24
1.000000000000000E+20
 34
1.000000000000000E+20
 15
-1.000000000000000E+20
 25
-1.000000000000000E+20
 35
-1.000000000000000E+20
146
0.0
 13
0.0
 23
0.0
 33
0.0
 16
1.0
 26
0.0
 36
0.0
 17
0.0
 27
1.0
 37
0.0
 76
     0
330
1A
  0
MLINESTYLE
  5
17
102
{ACAD_REACTORS
330
16
102
}
330
16
100
AcDbMlineStyle
  2
STANDARD
 70
     0
  3

 62
   256
 51
90.0
 52
90.0
 71
     2
 49
0.5
 62
   256
  6
BYLAYER
 49
-0.5
 62
   256
  6
BYLAYER
  0
ACDBPLACEHOLDER
  5
F
102
{ACAD_REACTORS
330
E
102
}
330
E
  0
ENDSEC
  0
EOF
