  0
SECTION
  2
HEADER
  9
$ACADVER
  1
AC1006
  9
$INSBASE
 10
0.0
 20
0.0
 30
0.0
  9
$EXTMIN
 10
0.000000
 20
0.000000
  9
$EXTMAX
 10
10.000000
 20
10.000000
  9
$LIMMIN
 10
0.0
 20
0.0
  9
$LIMMAX
 10
12.0
 20
9.0
  9
$ORTHOMODE
 70
     0
  9
$REGENMODE
 70
     1
  9
$FILLMODE
 70
     1
  9
$QTEXTMODE
 70
     0
  9
$MIRRTEXT
 70
     1
  9
$DRAGMODE
 70
     2
  9
$LTSCALE
 40
10.000000
  9
$OSMODE
 70
     0
  9
$ATTMODE
 70
     1
  9
$TEXTSIZE
 40
0.2
  9
$TRACEWID
 40
0.05
  9
$TEXTSTYLE
  7
STANDARD
  9
$CLAYER
  8
0
  9
$CELTYPE
  6
BYLAYER
  9
$CECOLOR
 62
   256
  9
$DIMSCALE
 40
1.0
  9
$DIMASZ
 40
0.18
  9
$DIMEXO
 40
0.0625
  9
$DIMDLI
 40
0.38
  9
$DIMRND
 40
0.0
  9
$DIMDLE
 40
0.0
  9
$DIMEXE
 40
0.18
  9
$DIMTP
 40
0.0
  9
$DIMTM
 40
0.0
  9
$DIMTXT
 40
0.18
  9
$DIMCEN
 40
0.09
  9
$DIMTSZ
 40
0.0
  9
$DIMTOL
 70
     0
  9
$DIMLIM
 70
     0
  9
$DIMTIH
 70
     1
  9
$DIMTOH
 70
     1
  9
$DIMSE1
 70
     0
  9
$DIMSE2
 70
     0
  9
$DIMTAD
 70
     0
  9
$DIMZIN
 70
     0
  9
$DIMBLK
  1

  9
$DIMASO
 70
     1
  9
$DIMSHO
 70
     0
  9
$DIMPOST
  1

  9
$DIMAPOST
  1

  9
$DIMALT
 70
     0
  9
$DIMALTD
 70
     2
  9
$DIMALTF
 40
25.4
  9
$DIMLFAC
 40
1.0
  9
$DIMTOFL
 70
     0
  9
$DIMTVP
 40
0.0
  9
$DIMTIX
 70
     0
  9
$DIMSOXD
 70
     0
  9
$DIMSAH
 70
     0
  9
$DIMBLK1
  1

  9
$DIMBLK2
  1

  9
$LUNITS
 70
     2
  9
$LUPREC
 70
     4
  9
$AXISMODE
 70
     0
  9
$AXISUNIT
 10
0.0
 20
0.0
  9
$SKETCHINC
 40
0.1
  9
$FILLETRAD
 40
0.0
  9
$AUNITS
 70
     0
  9
$AUPREC
 70
     0
  9
$MENU
  1
acad
  9
$ELEVATION
 40
0.0
  9
$THICKNESS
 40
0.0
  9
$LIMCHECK
 70
     0
  9
$BLIPMODE
 70
     1
  9
$CHAMFERA
 40
0.0
  9
$CHAMFERB
 40
0.0
  9
$SKPOLY
 70
     0
  9
$TDCREATE
 40
2448751.5905787037
  9
$TDUPDATE
 40
2448751.5905787037
  9
$TDINDWG
 40
0.0000000000
  9
$TDUSRTIMER
 40
0.0000000000
  9
$USRTIMER
 70
     1
  9
$ANGBASE
 50
0.0
  9
$ANGDIR
 70
     0
  9
$PDMODE
 70
     0
  9
$PDSIZE
 40
0.0
  9
$PLINEWID
 40
0.0
  9
$COORDS
 70
     0
  9
$SPLFRAME
 70
     0
  9
$SPLINETYPE
 70
     6
  9
$SPLINESEGS
 70
     8
  9
$ATTDIA
 70
     0
  9
$ATTREQ
 70
     1
  9
$HANDLING
 70
     0
  9
$HANDSEED
  5
0
  9
$SURFTAB1
 70
     6
  9
$SURFTAB2
 70
     6
  9
$SURFTYPE
 70
     6
  9
$SURFU
 70
     6
  9
$SURFV
 70
     6
  9
$FLATLAND
 70
     0
  9
$UCSNAME
  2

  9
$UCSORG
 10
0.0
 20
0.0
 30
0.0
  9
$UCSXDIR
 10
1.0
 20
0.0
 30
0.0
  9
$UCSYDIR
 10
0.0
 20
1.0
 30
0.0
  9
$USERI1
 70
     0
  9
$USERI2
 70
     0
  9
$USERI3
 70
     0
  9
$USERI4
 70
     0
  9
$USERI5
 70
     0
  9
$USERR1
 40
0.0
  9
$USERR2
 40
0.0
  9
$USERR3
 40
0.0
  9
$USERR4
 40
0.0
  9
$USERR5
 40
0.0
  9
$WORLDVIEW
 70
     1
  0
ENDSEC
  0
SECTION
  2
TABLES
  0
TABLE
  2
VPORT
 70
     2
  0
VPORT
  2
*ACTIVE
 70
     0
 10
0.0
 20
0.0
 11
1.0
 21
1.0
 12
7.914286
 22
4.5
 13
0.0
 23
0.0
 14
1.0
 24
1.0
 15
0.0
 25
0.0
 16
0.0
 26
0.0
 36
1.0
 17
0.0
 27
0.0
 37
0.0
 40
9.0
 41
1.75873
 42
50.0
 43
0.0
 44
0.0
 50
0.0
 51
0.0
 71
     0
 72
   100
 73
     1
 74
     1
 75
     0
 76
     0
 77
     0
 78
     0
  0
ENDTAB
  0
TABLE
  2
LTYPE
 70
     9
  0
LTYPE
  2
CONTINUOUS
 70
    64
  3
実線
 72
    65
 73
     0
 40
0.0
  0
LTYPE
  2
DASHED
 70
    64
  3
__ __ __ __ __ __ __ __ __ __ __ __ __ __ __
 72
    65
 73
     2
 40
0.75
 49
0.5
 49
-0.25
  0
LTYPE
  2
HIDDEN
 70
    64
  3
_ _ _ _ _ _ _ _ _ _ _ _ _ _ _ _ _ _ _ _ _ _ _
 72
    65
 73
     2
 40
0.375
 49
0.25
 49
-0.125
  0
LTYPE
  2
CENTER
 70
    64
  3
____ _ ____ _ ____ _ ____ _ ____ _ ____ _ ____
 72
    65
 73
     4
 40
2.0
 49
1.25
 49
-0.25
 49
0.25
 49
-0.25
  0
LTYPE
  2
PHANTOM
 70
    64
  3
_____ _ _ _____ _ _ _____ _ _ _____ _ _ ____
 72
    65
 73
     6
 40
2.5
 49
1.25
 49
-0.25
 49
0.25
 49
-0.25
 49
0.25
 49
-0.25
  0
LTYPE
  2
DOT
 70
    64
  3
...............................................
 72
    65
 73
     2
 40
0.25
 49
0.0
 49
-0.25
  0
LTYPE
  2
DASHDOT
 70
    64
  3
__ . __ . __ . __ . __ . __ . __ . __ . __ . __
 72
    65
 73
     4
 40
1.0
 49
0.5
 49
-0.25
 49
0.0
 49
-0.25
  0
LTYPE
  2
DIVIDE
 70
    64
  3
__ . . __ . . __ . . __ . . __ . . __ . . __
 72
    65
 73
     6
 40
1.25
 49
0.5
 49
-0.25
 49
0.0
 49
-0.25
 49
0.0
 49
-0.25
  0
LTYPE
  2
BORDER
 70
    64
  3
__ __ . __ __ . __ __ . __ __ . __ __ . __ __
 72
    65
 73
     6
 40
1.75
 49
0.5
 49
-0.25
 49
0.5
 49
-0.25
 49
0.0
 49
-0.25
  0
ENDTAB
  0
TABLE
  2
LAYER
 70
     2
  0
LAYER
  2
0
 70
     0
 62
     7
  6
CONTINUOUS
  0
LAYER
  2
PV
 70
     0
 62
     7
  6
CONTINUOUS
  0
ENDTAB
  0
TABLE
  2
STYLE
 70
     3
  0
STYLE
  2
STANDARD
 70
     0
 40
0.0
 41
1.0
 50
0.0
 71
     0
 42
0.2
  3
txt
  4

  0
STYLE
  2
FONT1
 70
     0
 40
0.0
 41
1.0
 50
0.0
 71
     0
 42
0.2
  3
MONOTXT
  4

  0
STYLE
  2
FONT2
 70
     0
 40
0.0
 41
1.0
 50
0.0
 71
     0
 42
0.2
  3
MONOTXT
  4
BIGFONT
  0
ENDTAB
  0
TABLE
  2
VIEW
 70
     0
  0
ENDTAB
  0
TABLE
  2
UCS
 70
     0
  0
ENDTAB
  0
TABLE
  2
DWGMGR
 70
     0
  0
ENDTAB
  0
ENDSEC
  0
SECTION
  2
BLOCKS
  0
BLOCK
  8
0
  2
01
 70
    64
 10
0.0
 20
0.0
 30
0.0
  0
ENDBLK
  8
0
  0
BLOCK
  8
0
  2
02
 70
    64
 10
0.0
 20
0.0
 30
0.0
  0
ENDBLK
  8
0
  0
ENDSEC
  0
SECTION
  2
ENTITIES
  0
CIRCLE
  8
PV
 62
     7
 10
3.763870E+002
 20
4.820440E+002
 30
0.000000E+000
 40
4.500000E+000
  0
LINE
  8
PV
 62
     7
 10
3.623040E+002
 20
4.262600E+002
 30
0.000000E+000
 11
3.874800E+002
 21
4.262600E+002
 31
0.000000E+000
  0
LINE
  8
PV
 62
     7
 10
3.874800E+002
 20
4.322600E+002
 30
0.000000E+000
 11
3.623040E+002
 21
4.322600E+002
 31
0.000000E+000
  0
CIRCLE
  8
PV
 62
     7
 10
3.763870E+002
 20
3.764770E+002
 30
0.000000E+000
 40
4.500000E+000
  0
LINE
  8
PV
 62
     7
 10
3.922710E+002
 20
4.277120E+002
 30
0.000000E+000
 11
3.485370E+002
 21
3.742600E+002
 31
0.000000E+000
  0
ARC
  8
PV
 62
     7
 10
3.935370E+002
 20
4.292600E+002
 30
0.000000E+000
 40
1.600000E+001
 50
1.908070E+002
 51
3.491930E+002
  0
ARC
  8
PV
 62
     7
 10
3.935370E+002
 20
4.292600E+002
 30
0.000000E+000
 40
1.600000E+001
 50
1.080690E+001
 51
1.691930E+002
  0
ARC
  8
PV
 62
     7
 10
3.938040E+002
 20
4.292600E+002
 30
0.000000E+000
 40
2.500000E+001
 50
1.868920E+002
 51
3.531080E+002
  0
ARC
  8
PV
 62
     7
 10
3.935370E+002
 20
4.292600E+002
 30
0.000000E+000
 40
3.000000E+001
 50
1.994710E+002
 51
3.542610E+002
  0
LINE
  8
PV
  6
CENTER
 62
     1
 10
3.238520E+002
 20
4.292600E+002
 30
0.000000E+000
 11
4.619690E+002
 21
4.292600E+002
 31
0.000000E+000
  0
LINE
  8
PV
 62
     7
 10
3.620370E+002
 20
2.927600E+002
 30
0.000000E+000
 11
3.875370E+002
 21
2.927600E+002
 31
0.000000E+000
  0
LINE
  8
PV
 62
     7
 10
3.875370E+002
 20
2.987600E+002
 30
0.000000E+000
 11
3.620370E+002
 21
2.987600E+002
 31
0.000000E+000
  0
LINE
  8
PV
 62
     7
 10
3.775370E+002
 20
2.667600E+002
 30
0.000000E+000
 11
4.095370E+002
 21
2.667600E+002
 31
0.000000E+000
  0
LINE
  8
PV
 62
     7
 10
3.685370E+002
 20
2.507600E+002
 30
0.000000E+000
 11
4.185370E+002
 21
2.507600E+002
 31
0.000000E+000
  0
ARC
  8
PV
 62
     7
 10
3.938040E+002
 20
4.292600E+002
 30
0.000000E+000
 40
2.500000E+001
 50
6.892100E+000
 51
1.731080E+002
  0
ARC
  8
PV
 62
     7
 10
3.935370E+002
 20
4.292600E+002
 30
0.000000E+000
 40
3.000000E+001
 50
5.739170E+000
 51
1.605290E+002
  0
CIRCLE
  8
PV
 62
     7
 10
3.935370E+002
 20
4.292600E+002
 30
0.000000E+000
 40
4.150000E+001
  0
CIRCLE
  8
PV
 62
     7
 10
3.935370E+002
 20
4.292600E+002
 30
0.000000E+000
 40
6.200000E+001
  0
LINE
  8
PV
 62
     7
 10
3.717200E+002
 20
1.698600E+002
 30
0.000000E+000
 11
3.807200E+002
 21
1.698600E+002
 31
0.000000E+000
  0
LINE
  8
PV
 62
     7
 10
3.685370E+002
 20
1.843890E+002
 30
0.000000E+000
 11
4.185370E+002
 21
1.843890E+002
 31
0.000000E+000
  0
LINE
  8
PV
 62
     7
 10
4.230370E+002
 20
9.776020E+001
 30
0.000000E+000
 11
3.640370E+002
 21
9.776020E+001
 31
0.000000E+000
  0
LINE
  8
PV
 62
     7
 10
3.315370E+002
 20
1.652600E+002
 30
0.000000E+000
 11
4.555370E+002
 21
1.652600E+002
 31
0.000000E+000
  0
LINE
  8
PV
 62
     7
 10
3.520370E+002
 20
1.767600E+002
 30
0.000000E+000
 11
4.350370E+002
 21
1.767600E+002
 31
0.000000E+000
  0
LINE
  8
PV
 62
     7
 10
3.315370E+002
 20
1.577600E+002
 30
0.000000E+000
 11
4.555370E+002
 21
1.577600E+002
 31
0.000000E+000
  0
LINE
  8
PV
 62
     7
 10
3.315370E+002
 20
1.577600E+002
 30
0.000000E+000
 11
4.555370E+002
 21
1.577600E+002
 31
0.000000E+000
  0
LINE
  8
PV
 62
     7
 10
3.315370E+002
 20
1.477600E+002
 30
0.000000E+000
 11
4.555370E+002
 21
1.477600E+002
 31
0.000000E+000
  0
LINE
  8
PV
  6
CENTER
 62
     1
 10
3.313350E+002
 20
1.292600E+002
 30
0.000000E+000
 11
4.567710E+002
 21
1.292600E+002
 31
0.000000E+000
  0
LINE
  8
PV
 62
     7
 10
3.645370E+002
 20
8.776020E+001
 30
0.000000E+000
 11
4.225370E+002
 21
8.776020E+001
 31
0.000000E+000
  0
LINE
  8
PV
 62
     7
 10
3.775370E+002
 20
2.667600E+002
 30
0.000000E+000
 11
3.775370E+002
 21
2.507600E+002
 31
0.000000E+000
  0
LINE
  8
PV
 62
     7
 10
2.095370E+002
 20
2.667600E+002
 30
0.000000E+000
 11
2.095370E+002
 21
2.507600E+002
 31
0.000000E+000
  0
LINE
  8
PV
 62
     7
 10
1.775370E+002
 20
2.667600E+002
 30
0.000000E+000
 11
1.775370E+002
 21
2.507600E+002
 31
0.000000E+000
  0
LINE
  8
PV
  6
CENTER
 62
     1
 10
1.935370E+002
 20
7.885800E+001
 30
0.000000E+000
 11
1.935370E+002
 21
3.118450E+002
 31
0.000000E+000
  0
LINE
  8
PV
 62
     7
 10
1.452540E+002
 20
1.698600E+002
 30
0.000000E+000
 11
1.362540E+002
 21
1.698600E+002
 31
0.000000E+000
  0
LINE
  8
PV
 62
     7
 10
1.395370E+002
 20
1.182140E+002
 30
0.000000E+000
 11
1.640370E+002
 21
1.182140E+002
 31
0.000000E+000
  0
LINE
  8
PV
 62
     7
 10
1.315370E+002
 20
1.652600E+002
 30
0.000000E+000
 11
2.555370E+002
 21
1.652600E+002
 31
0.000000E+000
  0
LINE
  8
PV
 62
     7
 10
1.315370E+002
 20
1.577600E+002
 30
0.000000E+000
 11
2.555370E+002
 21
1.577600E+002
 31
0.000000E+000
  0
LINE
  8
PV
 62
     7
 10
1.315370E+002
 20
1.577600E+002
 30
0.000000E+000
 11
2.555370E+002
 21
1.577600E+002
 31
0.000000E+000
  0
LINE
  8
PV
 62
     7
 10
1.315370E+002
 20
1.477600E+002
 30
0.000000E+000
 11
2.555370E+002
 21
1.477600E+002
 31
0.000000E+000
  0
LINE
  8
PV
 62
     7
 10
1.395370E+002
 20
1.477600E+002
 30
0.000000E+000
 11
1.395370E+002
 21
1.182140E+002
 31
0.000000E+000
  0
LINE
  8
PV
 62
     7
 10
1.315370E+002
 20
1.577600E+002
 30
0.000000E+000
 11
1.315370E+002
 21
1.652600E+002
 31
0.000000E+000
  0
LINE
  8
PV
 62
     7
 10
1.315370E+002
 20
1.577600E+002
 30
0.000000E+000
 11
1.315370E+002
 21
1.477600E+002
 31
0.000000E+000
  0
LINE
  8
PV
 62
     7
 10
1.362540E+002
 20
1.698600E+002
 30
0.000000E+000
 11
1.362540E+002
 21
1.652600E+002
 31
0.000000E+000
  0
LINE
  8
PV
 62
     7
 10
3.640370E+002
 20
9.776020E+001
 30
0.000000E+000
 11
3.640370E+002
 21
1.072600E+002
 31
0.000000E+000
  0
TEXT
  8
PV
 62
     7
 10
2.902157E+002
 20
9.630810E+001
 30
0.000000E+000
 40
4.500000E+000
  1
Rc1
 41
8.888889E-001
  7
FONT1
  0
LINE
  8
PV
 62
     7
 10
2.335370E+002
 20
1.182140E+002
 30
0.000000E+000
 11
2.335370E+002
 21
9.776020E+001
 31
0.000000E+000
  0
LINE
  8
PV
 62
     7
 10
2.230370E+002
 20
1.182140E+002
 30
0.000000E+000
 11
2.230370E+002
 21
9.776020E+001
 31
0.000000E+000
  0
LINE
  8
PV
 62
     7
 10
2.230370E+002
 20
9.776020E+001
 30
0.000000E+000
 11
2.230370E+002
 21
1.182140E+002
 31
0.000000E+000
  0
LINE
  8
PV
 62
     7
 10
1.640370E+002
 20
9.776020E+001
 30
0.000000E+000
 11
1.640370E+002
 21
1.182140E+002
 31
0.000000E+000
  0
LINE
  8
PV
 62
     7
 10
1.955580E+002
 20
1.279430E+002
 30
0.000000E+000
 11
2.340530E+002
 21
9.426020E+001
 31
0.000000E+000
  0
LINE
  8
PV
 62
     7
 10
1.535370E+002
 20
1.182140E+002
 30
0.000000E+000
 11
1.535370E+002
 21
9.776020E+001
 31
0.000000E+000
  0
LINE
  8
PV
 62
     7
 10
2.230370E+002
 20
9.776020E+001
 30
0.000000E+000
 11
1.640370E+002
 21
9.776020E+001
 31
0.000000E+000
  0
LINE
  8
PV
 62
     7
 10
1.645370E+002
 20
8.776020E+001
 30
0.000000E+000
 11
2.225370E+002
 21
8.776020E+001
 31
0.000000E+000
  0
LINE
  8
PV
 62
     7
 10
1.640370E+002
 20
9.776020E+001
 30
0.000000E+000
 11
1.535370E+002
 21
9.776020E+001
 31
0.000000E+000
  0
LINE
  8
PV
 62
     7
 10
1.645370E+002
 20
8.776020E+001
 30
0.000000E+000
 11
1.645370E+002
 21
9.776020E+001
 31
0.000000E+000
  0
LINE
  8
PV
 62
     7
 10
2.230370E+002
 20
9.776020E+001
 30
0.000000E+000
 11
2.335370E+002
 21
9.776020E+001
 31
0.000000E+000
  0
LINE
  8
PV
 62
     7
 10
2.225370E+002
 20
8.776020E+001
 30
0.000000E+000
 11
2.225370E+002
 21
9.776020E+001
 31
0.000000E+000
  0
TEXT
  8
PV
 62
     7
 10
2.379530E+002
 20
9.201020E+001
 30
0.000000E+000
 40
4.500000E+000
  1
P.P
 41
7.780000E-001
  7
FONT1
  0
LINE
  8
PV
 62
     7
 10
2.340530E+002
 20
9.426020E+001
 30
0.000000E+000
 11
2.360530E+002
 21
9.426020E+001
 31
0.000000E+000
  0
LINE
  8
PV
 62
     7
 10
3.645370E+002
 20
8.776020E+001
 30
0.000000E+000
 11
3.645370E+002
 21
9.776020E+001
 31
0.000000E+000
  0
LINE
  8
PV
 62
     7
 10
2.235370E+002
 20
1.767600E+002
 30
0.000000E+000
 11
2.185370E+002
 21
1.843890E+002
 31
0.000000E+000
  0
LINE
  8
PV
 62
     7
 10
1.635370E+002
 20
1.767600E+002
 30
0.000000E+000
 11
1.685370E+002
 21
1.843890E+002
 31
0.000000E+000
  0
LINE
  8
PV
 62
     7
 10
1.980410E+002
 20
1.667600E+002
 30
0.000000E+000
 11
2.216590E+002
 21
1.667600E+002
 31
0.000000E+000
  0
LINE
  8
PV
 62
     7
 10
2.145370E+002
 20
1.072600E+002
 30
0.000000E+000
 11
1.725370E+002
 21
1.072600E+002
 31
0.000000E+000
  0
LINE
  8
PV
  6
CENTER
 62
     1
 10
1.675990E+002
 20
1.292600E+002
 30
0.000000E+000
 11
2.174580E+002
 21
1.292600E+002
 31
0.000000E+000
  0
CIRCLE
  8
PV
 62
     7
 10
1.935370E+002
 20
1.292600E+002
 30
0.000000E+000
 40
1.662450E+001
  0
CIRCLE
  8
PV
 62
     7
 10
1.935370E+002
 20
1.292600E+002
 30
0.000000E+000
 40
1.475000E+001
  0
LINE
  8
PV
 62
     7
 10
1.520370E+002
 20
1.767600E+002
 30
0.000000E+000
 11
2.350370E+002
 21
1.767600E+002
 31
0.000000E+000
  0
LINE
  8
PV
 62
     7
 10
1.725370E+002
 20
1.477600E+002
 30
0.000000E+000
 11
1.725370E+002
 21
1.072600E+002
 31
0.000000E+000
  0
POLYLINE
  8
PV
 62
     7
 66
     1
 10
0.0
 20
0.0
 30
0.0
  0
VERTEX
  8
PV
 62
     7
 10
1.953390E+002
 20
1.276920E+002
 30
0.000000E+000
  0
VERTEX
  8
PV
 62
     7
 10
1.957780E+002
 20
1.281940E+002
 30
0.000000E+000
  0
VERTEX
  8
PV
 62
     7
 10
1.940530E+002
 20
1.292600E+002
 30
0.000000E+000
  0
VERTEX
  8
PV
 62
     7
 10
1.953390E+002
 20
1.276920E+002
 30
0.000000E+000
  0
SEQEND
  8
PV
 62
     7
  0
LINE
  8
PV
 62
     7
 10
1.707870E+002
 20
1.813600E+002
 30
0.000000E+000
 11
1.797870E+002
 21
1.813600E+002
 31
0.000000E+000
  0
LINE
  8
PV
 62
     7
 10
1.654150E+002
 20
1.667600E+002
 30
0.000000E+000
 11
1.890410E+002
 21
1.667600E+002
 31
0.000000E+000
  0
LINE
  8
PV
 62
     7
 10
1.525370E+002
 20
1.813600E+002
 30
0.000000E+000
 11
1.615370E+002
 21
1.813600E+002
 31
0.000000E+000
  0
LINE
  8
PV
 62
     7
 10
1.654150E+002
 20
1.698600E+002
 30
0.000000E+000
 11
1.564150E+002
 21
1.698600E+002
 31
0.000000E+000
  0
LINE
  8
PV
 62
     7
 10
1.520370E+002
 20
1.667600E+002
 30
0.000000E+000
 11
1.520370E+002
 21
1.767600E+002
 31
0.000000E+000
  0
LINE
  8
PV
 62
     7
 10
1.452540E+002
 20
1.698600E+002
 30
0.000000E+000
 11
1.452540E+002
 21
1.652600E+002
 31
0.000000E+000
  0
LINE
  8
PV
 62
     7
 10
1.520370E+002
 20
1.667600E+002
 30
0.000000E+000
 11
1.564150E+002
 21
1.667600E+002
 31
0.000000E+000
  0
LINE
  8
PV
 62
     7
 10
1.520370E+002
 20
1.667600E+002
 30
0.000000E+000
 11
1.520370E+002
 21
1.652600E+002
 31
0.000000E+000
  0
LINE
  8
PV
 62
     7
 10
1.564150E+002
 20
1.698600E+002
 30
0.000000E+000
 11
1.564150E+002
 21
1.652600E+002
 31
0.000000E+000
  0
LINE
  8
PV
 62
     7
 10
1.525370E+002
 20
1.813600E+002
 30
0.000000E+000
 11
1.525370E+002
 21
1.767600E+002
 31
0.000000E+000
  0
LINE
  8
PV
 62
     7
 10
1.654150E+002
 20
1.698600E+002
 30
0.000000E+000
 11
1.654150E+002
 21
1.652600E+002
 31
0.000000E+000
  0
LINE
  8
PV
 62
     7
 10
1.615370E+002
 20
1.813600E+002
 30
0.000000E+000
 11
1.615370E+002
 21
1.767600E+002
 31
0.000000E+000
  0
LINE
  8
PV
 62
     7
 10
1.707870E+002
 20
1.813600E+002
 30
0.000000E+000
 11
1.707870E+002
 21
1.767600E+002
 31
0.000000E+000
  0
LINE
  8
PV
 62
     7
 10
1.797870E+002
 20
1.813600E+002
 30
0.000000E+000
 11
1.797870E+002
 21
1.767600E+002
 31
0.000000E+000
  0
LINE
  8
PV
 62
     7
 10
1.890410E+002
 20
1.698600E+002
 30
0.000000E+000
 11
1.980410E+002
 21
1.698600E+002
 31
0.000000E+000
  0
LINE
  8
PV
 62
     7
 10
1.890410E+002
 20
1.698600E+002
 30
0.000000E+000
 11
1.890410E+002
 21
1.652600E+002
 31
0.000000E+000
  0
LINE
  8
PV
 62
     7
 10
1.980410E+002
 20
1.698600E+002
 30
0.000000E+000
 11
1.980410E+002
 21
1.652600E+002
 31
0.000000E+000
  0
LINE
  8
PV
 62
     7
 10
2.475370E+002
 20
1.477600E+002
 30
0.000000E+000
 11
2.475370E+002
 21
1.182140E+002
 31
0.000000E+000
  0
LINE
  8
PV
 62
     7
 10
2.145370E+002
 20
1.477600E+002
 30
0.000000E+000
 11
2.145370E+002
 21
1.072600E+002
 31
0.000000E+000
  0
LINE
  8
PV
 62
     7
 10
2.475370E+002
 20
1.182140E+002
 30
0.000000E+000
 11
2.230370E+002
 21
1.182140E+002
 31
0.000000E+000
  0
LINE
  8
PV
 62
     7
 10
2.255370E+002
 20
1.813600E+002
 30
0.000000E+000
 11
2.345370E+002
 21
1.813600E+002
 31
0.000000E+000
  0
LINE
  8
PV
 62
     7
 10
2.216590E+002
 20
1.698600E+002
 30
0.000000E+000
 11
2.306590E+002
 21
1.698600E+002
 31
0.000000E+000
  0
LINE
  8
PV
 62
     7
 10
2.072870E+002
 20
1.813600E+002
 30
0.000000E+000
 11
2.162870E+002
 21
1.813600E+002
 31
0.000000E+000
  0
LINE
  8
PV
 62
     7
 10
2.072870E+002
 20
1.813600E+002
 30
0.000000E+000
 11
2.072870E+002
 21
1.767600E+002
 31
0.000000E+000
  0
LINE
  8
PV
 62
     7
 10
2.216590E+002
 20
1.698600E+002
 30
0.000000E+000
 11
2.216590E+002
 21
1.652600E+002
 31
0.000000E+000
  0
LINE
  8
PV
 62
     7
 10
2.162870E+002
 20
1.813600E+002
 30
0.000000E+000
 11
2.162870E+002
 21
1.767600E+002
 31
0.000000E+000
  0
LINE
  8
PV
 62
     7
 10
2.255370E+002
 20
1.813600E+002
 30
0.000000E+000
 11
2.255370E+002
 21
1.767600E+002
 31
0.000000E+000
  0
LINE
  8
PV
 62
     7
 10
2.555370E+002
 20
1.577600E+002
 30
0.000000E+000
 11
2.555370E+002
 21
1.652600E+002
 31
0.000000E+000
  0
LINE
  8
PV
 62
     7
 10
2.555370E+002
 20
1.577600E+002
 30
0.000000E+000
 11
2.555370E+002
 21
1.477600E+002
 31
0.000000E+000
  0
LINE
  8
PV
 62
     7
 10
2.418210E+002
 20
1.698600E+002
 30
0.000000E+000
 11
2.508210E+002
 21
1.698600E+002
 31
0.000000E+000
  0
LINE
  8
PV
 62
     7
 10
2.350370E+002
 20
1.667600E+002
 30
0.000000E+000
 11
2.350370E+002
 21
1.767600E+002
 31
0.000000E+000
  0
LINE
  8
PV
 62
     7
 10
2.350370E+002
 20
1.667600E+002
 30
0.000000E+000
 11
2.350370E+002
 21
1.652600E+002
 31
0.000000E+000
  0
LINE
  8
PV
 62
     7
 10
2.306590E+002
 20
1.698600E+002
 30
0.000000E+000
 11
2.306590E+002
 21
1.652600E+002
 31
0.000000E+000
  0
LINE
  8
PV
 62
     7
 10
2.306590E+002
 20
1.667600E+002
 30
0.000000E+000
 11
2.350370E+002
 21
1.667600E+002
 31
0.000000E+000
  0
LINE
  8
PV
 62
     7
 10
2.418210E+002
 20
1.698600E+002
 30
0.000000E+000
 11
2.418210E+002
 21
1.652600E+002
 31
0.000000E+000
  0
LINE
  8
PV
 62
     7
 10
2.345370E+002
 20
1.813600E+002
 30
0.000000E+000
 11
2.345370E+002
 21
1.767600E+002
 31
0.000000E+000
  0
LINE
  8
PV
 62
     7
 10
2.508210E+002
 20
1.698600E+002
 30
0.000000E+000
 11
2.508210E+002
 21
1.652600E+002
 31
0.000000E+000
  0
LINE
  8
PV
 62
     7
 10
1.685370E+002
 20
2.507600E+002
 30
0.000000E+000
 11
2.185370E+002
 21
2.507600E+002
 31
0.000000E+000
  0
LINE
  8
PV
  6
CENTER
 62
     1
 10
1.788210E+002
 20
2.117600E+002
 30
0.000000E+000
 11
2.087590E+002
 21
2.117600E+002
 31
0.000000E+000
  0
LINE
  8
PV
 62
     7
 10
1.685370E+002
 20
1.843890E+002
 30
0.000000E+000
 11
2.185370E+002
 21
1.843890E+002
 31
0.000000E+000
  0
CIRCLE
  8
PV
 62
     7
 10
1.935370E+002
 20
2.117600E+002
 30
0.000000E+000
 40
1.000000E+001
  0
LINE
  8
PV
 62
     7
 10
1.685370E+002
 20
2.507600E+002
 30
0.000000E+000
 11
1.685370E+002
 21
1.843890E+002
 31
0.000000E+000
  0
CIRCLE
  8
PV
 62
     7
 10
1.935370E+002
 20
2.117600E+002
 30
0.000000E+000
 40
6.578500E+000
  0
LINE
  8
PV
 62
     7
 10
2.185370E+002
 20
2.507600E+002
 30
0.000000E+000
 11
2.185370E+002
 21
1.843890E+002
 31
0.000000E+000
  0
LINE
  8
PV
 62
     7
 10
3.664270E+002
 20
1.811700E+002
 30
0.000000E+000
 11
3.685370E+002
 21
1.843890E+002
 31
0.000000E+000
  0
LINE
  8
PV
 62
     7
 10
3.338730E+002
 20
1.276340E+002
 30
0.000000E+000
 11
3.167180E+002
 21
1.036720E+002
 31
0.000000E+000
  0
TEXT
  8
PV
 62
     7
 10
2.902160E+002
 20
1.044840E+002
 30
0.000000E+000
 40
4.500000E+000
  1
Rc3/4
  7
FONT1
  0
LINE
  8
PV
 62
     7
 10
3.167180E+002
 20
1.036720E+002
 30
0.000000E+000
 11
3.139750E+002
 21
1.036720E+002
 31
0.000000E+000
  0
LINE
  8
PV
 62
     7
 10
3.350370E+002
 20
1.477600E+002
 30
0.000000E+000
 11
3.350370E+002
 21
1.072600E+002
 31
0.000000E+000
  0
LINE
  8
PV
 62
     7
 10
3.350370E+002
 20
1.072600E+002
 30
0.000000E+000
 11
3.640370E+002
 21
1.072600E+002
 31
0.000000E+000
  0
POLYLINE
  8
PV
 62
     7
 66
     1
 10
0.0
 20
0.0
 30
0.0
  0
VERTEX
  8
PV
 62
     7
 10
3.336020E+002
 20
1.278280E+002
 30
0.000000E+000
  0
VERTEX
  8
PV
 62
     7
 10
3.341440E+002
 20
1.274400E+002
 30
0.000000E+000
  0
VERTEX
  8
PV
 62
     7
 10
3.350370E+002
 20
1.292600E+002
 30
0.000000E+000
  0
VERTEX
  8
PV
 62
     7
 10
3.336020E+002
 20
1.278280E+002
 30
0.000000E+000
  0
SEQEND
  8
PV
 62
     7
  0
LINE
  8
PV
 62
     7
 10
3.441370E+002
 20
1.698600E+002
 30
0.000000E+000
 11
3.531370E+002
 21
1.698600E+002
 31
0.000000E+000
  0
LINE
  8
PV
 62
     7
 10
3.315370E+002
 20
1.577600E+002
 30
0.000000E+000
 11
3.315370E+002
 21
1.652600E+002
 31
0.000000E+000
  0
LINE
  8
PV
 62
     7
 10
3.315370E+002
 20
1.577600E+002
 30
0.000000E+000
 11
3.315370E+002
 21
1.477600E+002
 31
0.000000E+000
  0
LINE
  8
PV
 62
     7
 10
3.335370E+002
 20
1.698600E+002
 30
0.000000E+000
 11
3.425370E+002
 21
1.698600E+002
 31
0.000000E+000
  0
LINE
  8
PV
 62
     7
 10
3.335370E+002
 20
1.698600E+002
 30
0.000000E+000
 11
3.335370E+002
 21
1.652600E+002
 31
0.000000E+000
  0
LINE
  8
PV
 62
     7
 10
3.441370E+002
 20
1.698600E+002
 30
0.000000E+000
 11
3.441370E+002
 21
1.652600E+002
 31
0.000000E+000
  0
LINE
  8
PV
 62
     7
 10
3.425370E+002
 20
1.698600E+002
 30
0.000000E+000
 11
3.425370E+002
 21
1.652600E+002
 31
0.000000E+000
  0
LINE
  8
PV
 62
     7
 10
3.574270E+002
 20
1.813600E+002
 30
0.000000E+000
 11
3.664270E+002
 21
1.813600E+002
 31
0.000000E+000
  0
LINE
  8
PV
 62
     7
 10
3.531370E+002
 20
1.667600E+002
 30
0.000000E+000
 11
3.717200E+002
 21
1.667600E+002
 31
0.000000E+000
  0
LINE
  8
PV
 62
     7
 10
3.520370E+002
 20
1.698600E+002
 30
0.000000E+000
 11
3.520370E+002
 21
1.767600E+002
 31
0.000000E+000
  0
LINE
  8
PV
 62
     7
 10
3.531370E+002
 20
1.698600E+002
 30
0.000000E+000
 11
3.531370E+002
 21
1.652600E+002
 31
0.000000E+000
  0
LINE
  8
PV
 62
     7
 10
3.574270E+002
 20
1.813600E+002
 30
0.000000E+000
 11
3.574270E+002
 21
1.767600E+002
 31
0.000000E+000
  0
LINE
  8
PV
 62
     7
 10
3.717200E+002
 20
1.698600E+002
 30
0.000000E+000
 11
3.717200E+002
 21
1.652600E+002
 31
0.000000E+000
  0
LINE
  8
PV
 62
     7
 10
3.664270E+002
 20
1.813600E+002
 30
0.000000E+000
 11
3.664270E+002
 21
1.767600E+002
 31
0.000000E+000
  0
TEXT
  8
PV
 62
     7
 10
3.130280E+002
 20
2.351370E+002
 30
0.000000E+000
 40
4.500000E+000
  1
Rc1/4
 41
9.333333E-001
  7
FONT1
  0
LINE
  8
PV
 62
     7
 10
3.553730E+002
 20
2.133860E+002
 30
0.000000E+000
 11
3.382180E+002
 21
2.373480E+002
 31
0.000000E+000
  0
LINE
  8
PV
 62
     7
 10
3.685370E+002
 20
2.507600E+002
 30
0.000000E+000
 11
3.685370E+002
 21
1.843890E+002
 31
0.000000E+000
  0
LINE
  8
PV
 62
     7
 10
3.565370E+002
 20
2.217600E+002
 30
0.000000E+000
 11
3.565370E+002
 21
2.017600E+002
 31
0.000000E+000
  0
LINE
  8
PV
 62
     7
 10
3.565370E+002
 20
2.017600E+002
 30
0.000000E+000
 11
3.685370E+002
 21
2.017600E+002
 31
0.000000E+000
  0
LINE
  8
PV
 62
     7
 10
3.565370E+002
 20
2.217600E+002
 30
0.000000E+000
 11
3.685370E+002
 21
2.217600E+002
 31
0.000000E+000
  0
LINE
  8
PV
  6
CENTER
 62
     1
 10
3.520370E+002
 20
2.117600E+002
 30
0.000000E+000
 11
3.727330E+002
 21
2.117600E+002
 31
0.000000E+000
  0
POLYLINE
  8
PV
 62
     7
 66
     1
 10
0.0
 20
0.0
 30
0.0
  0
VERTEX
  8
PV
 62
     7
 10
3.551020E+002
 20
2.131920E+002
 30
0.000000E+000
  0
VERTEX
  8
PV
 62
     7
 10
3.556440E+002
 20
2.135800E+002
 30
0.000000E+000
  0
VERTEX
  8
PV
 62
     7
 10
3.565370E+002
 20
2.117600E+002
 30
0.000000E+000
  0
VERTEX
  8
PV
 62
     7
 10
3.551020E+002
 20
2.131920E+002
 30
0.000000E+000
  0
SEQEND
  8
PV
 62
     7
  0
LINE
  8
PV
 62
     7
 10
3.382180E+002
 20
2.373480E+002
 30
0.000000E+000
 11
3.349170E+002
 21
2.373480E+002
 31
0.000000E+000
  0
TEXT
  8
PV
 62
     7
 10
1.320300E+002
 20
5.024040E+002
 30
0.000000E+000
 40
4.500000E+000
  1
MODEL No.
 41
9.260000E-001
  7
FONT1
  0
LINE
  8
PV
 62
     7
 10
3.623040E+002
 20
4.322600E+002
 30
0.000000E+000
 11
3.623040E+002
 21
4.262600E+002
 31
0.000000E+000
  0
CIRCLE
  8
PV
 62
     7
 10
3.380370E+002
 20
4.292600E+002
 30
0.000000E+000
 40
4.500000E+000
  0
LINE
  8
PV
 62
     7
 10
3.568040E+002
 20
4.392600E+002
 30
0.000000E+000
 11
3.568040E+002
 21
4.192600E+002
 31
0.000000E+000
  0
LINE
  8
PV
 62
     7
 10
1.850370E+002
 20
2.737600E+002
 30
0.000000E+000
 11
2.020370E+002
 21
2.737600E+002
 31
0.000000E+000
  0
LINE
  8
PV
 62
     7
 10
1.775370E+002
 20
2.667600E+002
 30
0.000000E+000
 11
2.095370E+002
 21
2.667600E+002
 31
0.000000E+000
  0
LINE
  8
PV
 62
     7
 10
1.995370E+002
 20
3.027600E+002
 30
0.000000E+000
 11
1.995370E+002
 21
2.737600E+002
 31
0.000000E+000
  0
LINE
  8
PV
 62
     7
 10
1.875370E+002
 20
2.737600E+002
 30
0.000000E+000
 11
1.875370E+002
 21
3.027600E+002
 31
0.000000E+000
  0
LINE
  8
PV
 62
     7
 10
1.850370E+002
 20
2.667600E+002
 30
0.000000E+000
 11
1.850370E+002
 21
2.737600E+002
 31
0.000000E+000
  0
LINE
  8
PV
 62
     7
 10
1.935370E+002
 20
2.737600E+002
 30
0.000000E+000
 11
1.935370E+002
 21
2.667600E+002
 31
0.000000E+000
  0
CIRCLE
  8
PV
 62
     7
 10
1.935370E+002
 20
2.957600E+002
 30
0.000000E+000
 40
3.000000E+000
  0
LINE
  8
PV
 62
     7
 10
1.995370E+002
 20
3.027600E+002
 30
0.000000E+000
 11
1.875370E+002
 21
3.027600E+002
 31
0.000000E+000
  0
LINE
  8
PV
 62
     7
 10
2.020370E+002
 20
2.667600E+002
 30
0.000000E+000
 11
2.020370E+002
 21
2.737600E+002
 31
0.000000E+000
  0
LINE
  8
PV
 62
     7
 10
3.620370E+002
 20
2.927600E+002
 30
0.000000E+000
 11
3.620370E+002
 21
2.987600E+002
 31
0.000000E+000
  0
TEXT
  8
PV
 62
     7
 10
3.363000E+002
 20
3.720100E+002
 30
0.000000E+000
 40
4.500000E+000
  1
P.P
 41
7.780000E-001
  7
FONT1
  0
LINE
  8
PV
 62
     7
 10
3.485370E+002
 20
3.742600E+002
 30
0.000000E+000
 11
3.465370E+002
 21
3.742600E+002
 31
0.000000E+000
  0
CIRCLE
  8
PV
 62
     7
 10
3.486370E+002
 20
3.966380E+002
 30
0.000000E+000
 40
4.500000E+000
  0
CIRCLE
  8
PV
 62
     7
 10
3.619270E+002
 20
4.110100E+002
 30
0.000000E+000
 40
4.500000E+000
  0
LINE
  8
PV
 62
     7
 10
3.568040E+002
 20
4.192600E+002
 30
0.000000E+000
 11
3.708920E+002
 21
4.192600E+002
 31
0.000000E+000
  0
TEXT
  8
PV
 62
     7
 10
1.964680E+002
 20
4.982400E+002
 30
0.000000E+000
 40
4.500000E+000
  1
610 (Rc1)
 41
8.333333E-001
  7
FONT1
  0
TEXT
  8
PV
 62
     7
 10
1.964686E+002
 20
5.062470E+002
 30
0.000000E+000
 40
4.500000E+000
  1
606 (Rc3/8)
 41
9.242422E-001
  7
FONT1
  0
TEXT
  8
PV
 62
     7
 10
1.740298E+002
 20
5.024040E+002
 30
0.000000E+000
 40
4.500000E+000
  1
: RV-
 41
9.334667E-001
  7
FONT1
  0
CIRCLE
  8
PV
 62
     7
 10
3.486370E+002
 20
4.618820E+002
 30
0.000000E+000
 40
4.500000E+000
  0
CIRCLE
  8
PV
 62
     7
 10
3.619270E+002
 20
4.475100E+002
 30
0.000000E+000
 40
4.500000E+000
  0
LINE
  8
PV
 62
     7
 10
3.568040E+002
 20
4.392600E+002
 30
0.000000E+000
 11
3.708920E+002
 21
4.392600E+002
 31
0.000000E+000
  0
LINE
  8
PV
 62
     7
 10
4.095370E+002
 20
2.667600E+002
 30
0.000000E+000
 11
4.095370E+002
 21
2.507600E+002
 31
0.000000E+000
  0
LINE
  8
PV
  6
CENTER
 62
     1
 10
3.935370E+002
 20
7.885800E+001
 30
0.000000E+000
 11
3.935370E+002
 21
3.118450E+002
 31
0.000000E+000
  0
LINE
  8
PV
  6
CENTER
 62
     1
 10
5.135370E+002
 20
5.278130E+002
 30
0.000000E+000
 11
5.135370E+002
 21
7.281280E+001
 31
0.000000E+000
  0
LINE
  8
PV
 62
     7
 10
4.230370E+002
 20
1.072600E+002
 30
0.000000E+000
 11
4.230370E+002
 21
9.776020E+001
 31
0.000000E+000
  0
LINE
  8
PV
 62
     7
 10
3.950420E+002
 20
1.279430E+002
 30
0.000000E+000
 11
4.335370E+002
 21
9.426020E+001
 31
0.000000E+000
  0
TEXT
  8
PV
 62
     7
 10
4.765807E+002
 20
9.630810E+001
 30
0.000000E+000
 40
4.500000E+000
  1
Rc1
 41
8.888889E-001
  7
FONT1
  0
LINE
  8
PV
 62
     7
 10
4.225370E+002
 20
8.776020E+001
 30
0.000000E+000
 11
4.225370E+002
 21
9.776020E+001
 31
0.000000E+000
  0
LINE
  8
PV
 62
     7
 10
4.335370E+002
 20
9.426020E+001
 30
0.000000E+000
 11
4.355370E+002
 21
9.426020E+001
 31
0.000000E+000
  0
TEXT
  8
PV
 62
     7
 10
4.374370E+002
 20
9.201020E+001
 30
0.000000E+000
 40
4.500000E+000
  1
P.P
 41
7.780000E-001
  7
FONT1
  0
TEXT
  8
PV
 62
     7
 10
4.765800E+002
 20
1.044840E+002
 30
0.000000E+000
 40
4.500000E+000
  1
Rc3/4
  7
FONT1
  0
LINE
  8
PV
 62
     7
 10
4.206470E+002
 20
1.811700E+002
 30
0.000000E+000
 11
4.185370E+002
 21
1.843890E+002
 31
0.000000E+000
  0
LINE
  8
PV
 62
     7
 10
4.429380E+002
 20
1.698600E+002
 30
0.000000E+000
 11
4.339380E+002
 21
1.698600E+002
 31
0.000000E+000
  0
LINE
  8
PV
 62
     7
 10
4.520370E+002
 20
1.072600E+002
 30
0.000000E+000
 11
4.230370E+002
 21
1.072600E+002
 31
0.000000E+000
  0
LINE
  8
PV
 62
     7
 10
4.035370E+002
 20
1.477600E+002
 30
0.000000E+000
 11
4.035370E+002
 21
1.182140E+002
 31
0.000000E+000
  0
LINE
  8
PV
 62
     7
 10
3.835370E+002
 20
1.477600E+002
 30
0.000000E+000
 11
3.835370E+002
 21
1.182140E+002
 31
0.000000E+000
  0
LINE
  8
PV
 62
     7
 10
4.035370E+002
 20
1.182140E+002
 30
0.000000E+000
 11
3.835370E+002
 21
1.182140E+002
 31
0.000000E+000
  0
CIRCLE
  8
PV
 62
     7
 10
3.935370E+002
 20
1.297600E+002
 30
0.000000E+000
 40
4.864000E+000
  0
POLYLINE
  8
PV
 62
     7
 66
     1
 10
0.0
 20
0.0
 30
0.0
  0
VERTEX
  8
PV
 62
     7
 10
3.948230E+002
 20
1.276920E+002
 30
0.000000E+000
  0
VERTEX
  8
PV
 62
     7
 10
3.952620E+002
 20
1.281940E+002
 30
0.000000E+000
  0
VERTEX
  8
PV
 62
     7
 10
3.935370E+002
 20
1.292600E+002
 30
0.000000E+000
  0
VERTEX
  8
PV
 62
     7
 10
3.948230E+002
 20
1.276920E+002
 30
0.000000E+000
  0
SEQEND
  8
PV
 62
     7
  0
LINE
  8
PV
 62
     7
 10
4.153550E+002
 20
1.698600E+002
 30
0.000000E+000
 11
4.063550E+002
 21
1.698600E+002
 31
0.000000E+000
  0
LINE
  8
PV
 62
     7
 10
3.890370E+002
 20
1.813600E+002
 30
0.000000E+000
 11
3.980370E+002
 21
1.813600E+002
 31
0.000000E+000
  0
LINE
  8
PV
 62
     7
 10
3.807200E+002
 20
1.667600E+002
 30
0.000000E+000
 11
4.063550E+002
 21
1.667600E+002
 31
0.000000E+000
  0
LINE
  8
PV
 62
     7
 10
3.807200E+002
 20
1.698600E+002
 30
0.000000E+000
 11
3.807200E+002
 21
1.652600E+002
 31
0.000000E+000
  0
LINE
  8
PV
 62
     7
 10
3.890370E+002
 20
1.813600E+002
 30
0.000000E+000
 11
3.890370E+002
 21
1.767600E+002
 31
0.000000E+000
  0
LINE
  8
PV
 62
     7
 10
4.063550E+002
 20
1.698600E+002
 30
0.000000E+000
 11
4.063550E+002
 21
1.652600E+002
 31
0.000000E+000
  0
LINE
  8
PV
 62
     7
 10
3.980370E+002
 20
1.813600E+002
 30
0.000000E+000
 11
3.980370E+002
 21
1.767600E+002
 31
0.000000E+000
  0
LINE
  8
PV
 62
     7
 10
4.206470E+002
 20
1.813600E+002
 30
0.000000E+000
 11
4.296470E+002
 21
1.813600E+002
 31
0.000000E+000
  0
LINE
  8
PV
 62
     7
 10
4.153550E+002
 20
1.667600E+002
 30
0.000000E+000
 11
4.339380E+002
 21
1.667600E+002
 31
0.000000E+000
  0
LINE
  8
PV
 62
     7
 10
4.153550E+002
 20
1.698600E+002
 30
0.000000E+000
 11
4.153550E+002
 21
1.652600E+002
 31
0.000000E+000
  0
LINE
  8
PV
 62
     7
 10
4.206470E+002
 20
1.813600E+002
 30
0.000000E+000
 11
4.206470E+002
 21
1.767600E+002
 31
0.000000E+000
  0
LINE
  8
PV
 62
     7
 10
4.350370E+002
 20
1.698600E+002
 30
0.000000E+000
 11
4.350370E+002
 21
1.767600E+002
 31
0.000000E+000
  0
LINE
  8
PV
 62
     7
 10
4.339380E+002
 20
1.698600E+002
 30
0.000000E+000
 11
4.339380E+002
 21
1.652600E+002
 31
0.000000E+000
  0
LINE
  8
PV
 62
     7
 10
4.296470E+002
 20
1.813600E+002
 30
0.000000E+000
 11
4.296470E+002
 21
1.767600E+002
 31
0.000000E+000
  0
LINE
  8
PV
 62
     7
 10
4.520370E+002
 20
1.477600E+002
 30
0.000000E+000
 11
4.520370E+002
 21
1.072600E+002
 31
0.000000E+000
  0
LINE
  8
PV
 62
     7
 10
4.532020E+002
 20
1.276340E+002
 30
0.000000E+000
 11
4.703570E+002
 21
1.036720E+002
 31
0.000000E+000
  0
POLYLINE
  8
PV
 62
     7
 66
     1
 10
0.0
 20
0.0
 30
0.0
  0
VERTEX
  8
PV
 62
     7
 10
4.534730E+002
 20
1.278280E+002
 30
0.000000E+000
  0
VERTEX
  8
PV
 62
     7
 10
4.529310E+002
 20
1.274400E+002
 30
0.000000E+000
  0
VERTEX
  8
PV
 62
     7
 10
4.520370E+002
 20
1.292600E+002
 30
0.000000E+000
  0
VERTEX
  8
PV
 62
     7
 10
4.534730E+002
 20
1.278280E+002
 30
0.000000E+000
  0
SEQEND
  8
PV
 62
     7
  0
LINE
  8
PV
 62
     7
 10
4.703570E+002
 20
1.036720E+002
 30
0.000000E+000
 11
4.731000E+002
 21
1.036720E+002
 31
0.000000E+000
  0
LINE
  8
PV
 62
     7
 10
4.555370E+002
 20
1.577600E+002
 30
0.000000E+000
 11
4.555370E+002
 21
1.652600E+002
 31
0.000000E+000
  0
LINE
  8
PV
 62
     7
 10
4.555370E+002
 20
1.577600E+002
 30
0.000000E+000
 11
4.555370E+002
 21
1.477600E+002
 31
0.000000E+000
  0
LINE
  8
PV
 62
     7
 10
4.535370E+002
 20
1.698600E+002
 30
0.000000E+000
 11
4.445370E+002
 21
1.698600E+002
 31
0.000000E+000
  0
LINE
  8
PV
 62
     7
 10
4.445370E+002
 20
1.698600E+002
 30
0.000000E+000
 11
4.445370E+002
 21
1.652600E+002
 31
0.000000E+000
  0
LINE
  8
PV
 62
     7
 10
4.429380E+002
 20
1.698600E+002
 30
0.000000E+000
 11
4.429380E+002
 21
1.652600E+002
 31
0.000000E+000
  0
LINE
  8
PV
 62
     7
 10
4.535370E+002
 20
1.698600E+002
 30
0.000000E+000
 11
4.535370E+002
 21
1.652600E+002
 31
0.000000E+000
  0
LINE
  8
PV
 62
     7
 10
4.185370E+002
 20
2.507600E+002
 30
0.000000E+000
 11
4.185370E+002
 21
1.843890E+002
 31
0.000000E+000
  0
POLYLINE
  8
PV
 62
     7
 66
     1
 10
0.0
 20
0.0
 30
0.0
  0
VERTEX
  8
PV
 62
     7
 10
6.145610E+002
 20
3.226910E+002
 30
0.000000E+000
  0
VERTEX
  8
PV
 62
     7
 10
6.150320E+002
 20
3.231630E+002
 30
0.000000E+000
  0
VERTEX
  8
PV
 62
     7
 10
6.162110E+002
 20
3.215130E+002
 30
0.000000E+000
  0
VERTEX
  8
PV
 62
     7
 10
6.145610E+002
 20
3.226910E+002
 30
0.000000E+000
  0
SEQEND
  8
PV
 62
     7
  0
LINE
  8
PV
 62
     7
 10
6.147960E+002
 20
3.229270E+002
 30
0.000000E+000
 11
6.012110E+002
 21
3.365130E+002
 31
0.000000E+000
  0
CIRCLE
  8
PV
 62
     7
 10
4.490370E+002
 20
4.292600E+002
 30
0.000000E+000
 40
4.500000E+000
  0
LINE
  8
PV
 62
     7
 10
4.253040E+002
 20
4.322600E+002
 30
0.000000E+000
 11
4.253040E+002
 21
4.262600E+002
 31
0.000000E+000
  0
POLYLINE
  8
PV
 62
     7
 66
     1
 10
0.0
 20
0.0
 30
0.0
  0
VERTEX
  8
PV
 62
     7
 10
3.925290E+002
 20
4.275010E+002
 30
0.000000E+000
  0
VERTEX
  8
PV
 62
     7
 10
3.920130E+002
 20
4.279230E+002
 30
0.000000E+000
  0
VERTEX
  8
PV
 62
     7
 10
3.935370E+002
 20
4.292600E+002
 30
0.000000E+000
  0
VERTEX
  8
PV
 62
     7
 10
3.925290E+002
 20
4.275010E+002
 30
0.000000E+000
  0
SEQEND
  8
PV
 62
     7
  0
CIRCLE
  8
PV
 62
     7
 10
3.938040E+002
 20
4.292600E+002
 30
0.000000E+000
 40
7.000000E+000
  0
LINE
  8
PV
  6
CENTER
 62
     1
 10
3.935370E+002
 20
3.603350E+002
 30
0.000000E+000
 11
3.935370E+002
 21
4.974090E+002
 31
0.000000E+000
  0
LINE
  8
PV
 62
     7
 10
4.250370E+002
 20
2.987600E+002
 30
0.000000E+000
 11
3.995370E+002
 21
2.987600E+002
 31
0.000000E+000
  0
LINE
  8
PV
 62
     7
 10
3.995370E+002
 20
2.927600E+002
 30
0.000000E+000
 11
4.250370E+002
 21
2.927600E+002
 31
0.000000E+000
  0
LINE
  8
PV
 62
     7
 10
3.875370E+002
 20
2.737600E+002
 30
0.000000E+000
 11
3.875370E+002
 21
3.027600E+002
 31
0.000000E+000
  0
LINE
  8
PV
 62
     7
 10
3.995370E+002
 20
3.027600E+002
 30
0.000000E+000
 11
3.995370E+002
 21
2.737600E+002
 31
0.000000E+000
  0
LINE
  8
PV
 62
     7
 10
3.837220E+002
 20
2.737600E+002
 30
0.000000E+000
 11
4.033520E+002
 21
2.737600E+002
 31
0.000000E+000
  0
LINE
  8
PV
 62
     7
 10
3.837220E+002
 20
2.667600E+002
 30
0.000000E+000
 11
3.837220E+002
 21
2.737600E+002
 31
0.000000E+000
  0
LINE
  8
PV
 62
     7
 10
3.886300E+002
 20
2.667600E+002
 30
0.000000E+000
 11
3.886300E+002
 21
2.737600E+002
 31
0.000000E+000
  0
LINE
  8
PV
 62
     7
 10
3.984450E+002
 20
2.667600E+002
 30
0.000000E+000
 11
3.984450E+002
 21
2.737600E+002
 31
0.000000E+000
  0
LINE
  8
PV
 62
     7
 10
4.033520E+002
 20
2.667600E+002
 30
0.000000E+000
 11
4.033520E+002
 21
2.737600E+002
 31
0.000000E+000
  0
LINE
  8
PV
 62
     7
 10
3.995370E+002
 20
3.027600E+002
 30
0.000000E+000
 11
3.875370E+002
 21
3.027600E+002
 31
0.000000E+000
  0
LINE
  8
PV
 62
     7
 10
4.250370E+002
 20
2.927600E+002
 30
0.000000E+000
 11
4.250370E+002
 21
2.987600E+002
 31
0.000000E+000
  0
CIRCLE
  8
PV
 62
     7
 10
4.384380E+002
 20
3.966380E+002
 30
0.000000E+000
 40
4.500000E+000
  0
CIRCLE
  8
PV
 62
     7
 10
4.106880E+002
 20
3.764770E+002
 30
0.000000E+000
 40
4.500000E+000
  0
LINE
  8
PV
 62
     7
 10
4.001290E+002
 20
4.262600E+002
 30
0.000000E+000
 11
4.253040E+002
 21
4.262600E+002
 31
0.000000E+000
  0
CIRCLE
  8
PV
 62
     7
 10
3.935370E+002
 20
3.927600E+002
 30
0.000000E+000
 40
4.500000E+000
  0
LINE
  8
PV
 62
     7
 10
3.888970E+002
 20
4.207600E+002
 30
0.000000E+000
 11
3.987120E+002
 21
4.207600E+002
 31
0.000000E+000
  0
LINE
  8
PV
 62
     7
 10
3.857220E+002
 20
4.262600E+002
 30
0.000000E+000
 11
3.888970E+002
 21
4.207600E+002
 31
0.000000E+000
  0
LINE
  8
PV
 62
     7
 10
3.987120E+002
 20
4.207600E+002
 30
0.000000E+000
 11
4.018870E+002
 21
4.262600E+002
 31
0.000000E+000
  0
CIRCLE
  8
PV
 62
     7
 10
4.251470E+002
 20
4.110100E+002
 30
0.000000E+000
 40
4.500000E+000
  0
LINE
  8
PV
 62
     7
 10
6.012110E+002
 20
3.365130E+002
 30
0.000000E+000
 11
5.992110E+002
 21
3.365130E+002
 31
0.000000E+000
  0
TEXT
  8
PV
 62
     7
 10
5.873730E+002
 20
3.342630E+002
 30
0.000000E+000
 40
4.500000E+000
  1
P.P
 41
7.780000E-001
  7
FONT1
  0
LINE
  8
PV
 62
     7
 10
6.012110E+002
 20
3.598130E+002
 30
0.000000E+000
 11
5.405110E+002
 21
3.598130E+002
 31
0.000000E+000
  0
LINE
  8
PV
 62
     7
 10
5.405110E+002
 20
3.835130E+002
 30
0.000000E+000
 11
5.405110E+002
 21
3.598130E+002
 31
0.000000E+000
  0
LINE
  8
PV
 62
     7
 10
5.382110E+002
 20
3.575130E+002
 30
0.000000E+000
 11
5.382110E+002
 21
3.835130E+002
 31
0.000000E+000
  0
LINE
  8
PV
 62
     7
 10
5.542110E+002
 20
3.575130E+002
 30
0.000000E+000
 11
5.382110E+002
 21
3.575130E+002
 31
0.000000E+000
  0
LINE
  8
PV
  6
CENTER
 62
     1
 10
5.332110E+002
 20
3.725130E+002
 30
0.000000E+000
 11
5.455110E+002
 21
3.725130E+002
 31
0.000000E+000
  0
LINE
  8
PV
 62
     7
 10
5.382110E+002
 20
3.835130E+002
 30
0.000000E+000
 11
5.405110E+002
 21
3.835130E+002
 31
0.000000E+000
  0
LINE
  8
PV
 62
     7
 10
6.012110E+002
 20
3.575130E+002
 30
0.000000E+000
 11
6.012110E+002
 21
3.598130E+002
 31
0.000000E+000
  0
CIRCLE
  8
PV
 62
     7
 10
4.384380E+002
 20
4.618820E+002
 30
0.000000E+000
 40
4.500000E+000
  0
CIRCLE
  8
PV
 62
     7
 10
3.935370E+002
 20
4.657600E+002
 30
0.000000E+000
 40
4.500000E+000
  0
LINE
  8
PV
 62
     7
 10
4.253040E+002
 20
4.322600E+002
 30
0.000000E+000
 11
4.001290E+002
 21
4.322600E+002
 31
0.000000E+000
  0
LINE
  8
PV
 62
     7
 10
3.987120E+002
 20
4.377600E+002
 30
0.000000E+000
 11
3.888970E+002
 21
4.377600E+002
 31
0.000000E+000
  0
LINE
  8
PV
 62
     7
 10
3.888970E+002
 20
4.377600E+002
 30
0.000000E+000
 11
3.857220E+002
 21
4.322600E+002
 31
0.000000E+000
  0
LINE
  8
PV
 62
     7
 10
4.018870E+002
 20
4.322600E+002
 30
0.000000E+000
 11
3.987120E+002
 21
4.377600E+002
 31
0.000000E+000
  0
CIRCLE
  8
PV
 62
     7
 10
4.251470E+002
 20
4.475100E+002
 30
0.000000E+000
 40
4.500000E+000
  0
CIRCLE
  8
PV
 62
     7
 10
4.106880E+002
 20
4.820440E+002
 30
0.000000E+000
 40
4.500000E+000
  0
TEXT
  8
PV
 62
     7
 10
5.334370E+002
 20
5.028130E+002
 30
0.000000E+000
 40
4.500000E+000
  1
MODEL No. : RV-606B
 41
9.386667E-001
  7
FONT1
  0
TEXT
  8
PV
 62
     7
 10
5.815097E+002
 20
4.959270E+002
 30
0.000000E+000
 40
4.500000E+000
  1
RV-610B
 41
9.761911E-001
  7
FONT1
  0
TEXT
  8
PV
 62
     7
 10
5.334373E+002
 20
5.128130E+002
 30
0.000000E+000
 40
4.500000E+000
  1
BRACKET : 06328
 41
9.444889E-001
  7
FONT1
  0
LINE
  8
PV
 62
     7
 10
7.565850E+002
 20
4.858130E+002
 30
0.000000E+000
 11
7.565850E+002
 21
4.228130E+002
 31
0.000000E+000
  0
ARC
  8
PV
 62
     7
 10
6.965850E+002
 20
4.078130E+002
 30
0.000000E+000
 40
4.700000E+001
 50
1.861150E+001
 51
1.613890E+002
  0
LINE
  8
PV
 62
     7
 10
6.365850E+002
 20
4.858130E+002
 30
0.000000E+000
 11
6.365850E+002
 21
4.228130E+002
 31
0.000000E+000
  0
ARC
  8
PV
 62
     7
 10
7.315850E+002
 20
3.725130E+002
 30
0.000000E+000
 40
3.400000E+000
 50
2.855580E+002
 51
9.000000E+001
  0
LINE
  8
PV
  6
CENTER
 62
     1
 10
7.390850E+002
 20
3.725130E+002
 30
0.000000E+000
 11
7.090850E+002
 21
3.725130E+002
 31
0.000000E+000
  0
LINE
  8
PV
 62
     7
 10
7.215850E+002
 20
3.835130E+002
 30
0.000000E+000
 11
7.565850E+002
 21
3.835130E+002
 31
0.000000E+000
  0
TEXT
  8
PV
 62
     7
 10
6.684850E+002
 20
3.342630E+002
 30
0.000000E+000
 40
4.500000E+000
  1
P.P
 41
7.780000E-001
  7
FONT1
  0
LINE
  8
PV
 62
     7
 10
6.951710E+002
 20
3.229270E+002
 30
0.000000E+000
 11
6.815850E+002
 21
3.365130E+002
 31
0.000000E+000
  0
POLYLINE
  8
PV
 62
     7
 66
     1
 10
0.0
 20
0.0
 30
0.0
  0
VERTEX
  8
PV
 62
     7
 10
6.954070E+002
 20
3.231630E+002
 30
0.000000E+000
  0
VERTEX
  8
PV
 62
     7
 10
6.949350E+002
 20
3.226910E+002
 30
0.000000E+000
  0
VERTEX
  8
PV
 62
     7
 10
6.965850E+002
 20
3.215130E+002
 30
0.000000E+000
  0
VERTEX
  8
PV
 62
     7
 10
6.954070E+002
 20
3.231630E+002
 30
0.000000E+000
  0
SEQEND
  8
PV
 62
     7
  0
LINE
  8
PV
 62
     7
 10
6.815850E+002
 20
3.365130E+002
 30
0.000000E+000
 11
6.795850E+002
 21
3.365130E+002
 31
0.000000E+000
  0
TEXT
  8
PV
 62
     7
 10
6.684850E+002
 20
4.205630E+002
 30
0.000000E+000
 40
4.500000E+000
  1
P.P
 41
7.780000E-001
  7
FONT1
  0
LINE
  8
PV
  6
CENTER
 62
     1
 10
6.540850E+002
 20
3.725130E+002
 30
0.000000E+000
 11
6.840850E+002
 21
3.725130E+002
 31
0.000000E+000
  0
LINE
  8
PV
 62
     7
 10
6.715850E+002
 20
3.835130E+002
 30
0.000000E+000
 11
6.365850E+002
 21
3.835130E+002
 31
0.000000E+000
  0
LINE
  8
PV
 62
     7
 10
6.365850E+002
 20
3.835130E+002
 30
0.000000E+000
 11
6.365850E+002
 21
3.621130E+002
 31
0.000000E+000
  0
LINE
  8
PV
  6
CENTER
 62
     1
 10
6.615850E+002
 20
3.800130E+002
 30
0.000000E+000
 11
6.615850E+002
 21
3.650130E+002
 31
0.000000E+000
  0
ARC
  8
PV
 62
     7
 10
6.615850E+002
 20
3.725130E+002
 30
0.000000E+000
 40
3.400000E+000
 50
9.000000E+001
 51
2.544420E+002
  0
LINE
  8
PV
 62
     7
 10
6.615850E+002
 20
3.759130E+002
 30
0.000000E+000
 11
6.707190E+002
 21
3.759130E+002
 31
0.000000E+000
  0
LINE
  8
PV
 62
     7
 10
6.365850E+002
 20
4.228130E+002
 30
0.000000E+000
 11
6.520430E+002
 21
4.228130E+002
 31
0.000000E+000
  0
LINE
  8
PV
  6
CENTER
 62
     1
 10
6.765850E+002
 20
3.800130E+002
 30
0.000000E+000
 11
6.765850E+002
 21
3.650130E+002
 31
0.000000E+000
  0
LINE
  8
PV
  6
CENTER
 62
     1
 10
7.315850E+002
 20
3.800130E+002
 30
0.000000E+000
 11
7.315850E+002
 21
3.650130E+002
 31
0.000000E+000
  0
LINE
  8
PV
  6
CENTER
 62
     1
 10
7.165850E+002
 20
3.800130E+002
 30
0.000000E+000
 11
7.165850E+002
 21
3.650130E+002
 31
0.000000E+000
  0
LINE
  8
PV
 62
     7
 10
7.315850E+002
 20
3.759130E+002
 30
0.000000E+000
 11
7.223910E+002
 21
3.759130E+002
 31
0.000000E+000
  0
POLYLINE
  8
PV
 62
     7
 66
     1
 10
0.0
 20
0.0
 30
0.0
  0
VERTEX
  8
PV
 62
     7
 10
6.954070E+002
 20
4.094630E+002
 30
0.000000E+000
  0
VERTEX
  8
PV
 62
     7
 10
6.949350E+002
 20
4.089910E+002
 30
0.000000E+000
  0
VERTEX
  8
PV
 62
     7
 10
6.965850E+002
 20
4.078130E+002
 30
0.000000E+000
  0
VERTEX
  8
PV
 62
     7
 10
6.954070E+002
 20
4.094630E+002
 30
0.000000E+000
  0
SEQEND
  8
PV
 62
     7
  0
LINE
  8
PV
 62
     7
 10
6.951710E+002
 20
4.092270E+002
 30
0.000000E+000
 11
6.815850E+002
 21
4.228130E+002
 31
0.000000E+000
  0
LINE
  8
PV
 62
     7
 10
6.815850E+002
 20
4.228130E+002
 30
0.000000E+000
 11
6.795850E+002
 21
4.228130E+002
 31
0.000000E+000
  0
LINE
  8
PV
 62
     7
 10
7.565850E+002
 20
3.835130E+002
 30
0.000000E+000
 11
7.565850E+002
 21
3.621130E+002
 31
0.000000E+000
  0
LINE
  8
PV
 62
     7
 10
7.411270E+002
 20
4.228130E+002
 30
0.000000E+000
 11
7.565850E+002
 21
4.228130E+002
 31
0.000000E+000
  0
LINE
  8
PV
 62
     7
 10
6.365850E+002
 20
4.858130E+002
 30
0.000000E+000
 11
7.565850E+002
 21
4.858130E+002
 31
0.000000E+000
  0
LINE
  8
PV
 62
     7
 10
6.365850E+002
 20
4.835130E+002
 30
0.000000E+000
 11
7.565850E+002
 21
4.835130E+002
 31
0.000000E+000
  0
CIRCLE
  8
PV
 62
     7
 10
6.794350E+002
 20
4.605960E+002
 30
0.000000E+000
 40
6.500000E+000
  0
CIRCLE
  8
PV
 62
     7
 10
6.794350E+002
 20
4.605960E+002
 30
0.000000E+000
 40
6.500000E+000
  0
CIRCLE
  8
PV
 62
     7
 10
7.137360E+002
 20
4.605960E+002
 30
0.000000E+000
 40
6.500000E+000
  0
ENDSEC
  0
EOF
