  0
SECTION
  2
HEADER
  9
$ACADVER
  1
AC1006
  9
$INSBASE
 10
0.0
 20
0.0
 30
0.0
  9
$EXTMIN
 10
30.0
 20
10.0
  9
$EXTMAX
 10
620.0
 20
339.5
  9
$LIMMIN
 10
0.0
 20
0.0
  9
$LIMMAX
 10
594.0
 20
420.0
  9
$ORTHOMODE
 70
     0
  9
$REGENMODE
 70
     1
  9
$FILLMODE
 70
     1
  9
$QTEXTMODE
 70
     0
  9
$MIRRTEXT
 70
     1
  9
$DRAGMODE
 70
     2
  9
$LTSCALE
 40
1.0
  9
$OSMODE
 70
     0
  9
$ATTMODE
 70
     1
  9
$TEXTSIZE
 40
4.5
  9
$TRACEWID
 40
0.05
  9
$TEXTSTYLE
  7
STANDARD
  9
$CLAYER
  8
L-ZISSEN
  9
$CELTYPE
  6
BYLAYER
  9
$CECOLOR
 62
   256
  9
$DIMSCALE
 40
1.0
  9
$DIMASZ
 40
2.0
  9
$DIMEXO
 40
1.0
  9
$DIMDLI
 40
0.38
  9
$DIMRND
 40
0.0
  9
$DIMDLE
 40
1.0
  9
$DIMEXE
 40
1.0
  9
$DIMTP
 40
0.0
  9
$DIMTM
 40
0.0
  9
$DIMTXT
 40
4.5
  9
$DIMCEN
 40
0.09
  9
$DIMTSZ
 40
0.0
  9
$DIMTOL
 70
     0
  9
$DIMLIM
 70
     0
  9
$DIMTIH
 70
     0
  9
$DIMTOH
 70
     0
  9
$DIMSE1
 70
     0
  9
$DIMSE2
 70
     0
  9
$DIMTAD
 70
     1
  9
$DIMZIN
 70
     0
  9
$DIMBLK
  1

  9
$DIMASO
 70
     0
  9
$DIMSHO
 70
     0
  9
$DIMPOST
  1

  9
$DIMAPOST
  1

  9
$DIMALT
 70
     0
  9
$DIMALTD
 70
     2
  9
$DIMALTF
 40
25.4
  9
$DIMLFAC
 40
1.0
  9
$DIMTOFL
 70
     1
  9
$DIMTVP
 40
0.0
  9
$DIMTIX
 70
     1
  9
$DIMSOXD
 70
     0
  9
$DIMSAH
 70
     0
  9
$DIMBLK1
  1

  9
$DIMBLK2
  1

  9
$LUNITS
 70
     2
  9
$LUPREC
 70
     4
  9
$AXISMODE
 70
     0
  9
$AXISUNIT
 10
0.0
 20
0.0
  9
$SKETCHINC
 40
0.1
  9
$FILLETRAD
 40
5.0
  9
$AUNITS
 70
     0
  9
$AUPREC
 70
     0
  9
$MENU
  1
acad
  9
$ELEVATION
 40
0.0
  9
$THICKNESS
 40
0.0
  9
$LIMCHECK
 70
     0
  9
$BLIPMODE
 70
     1
  9
$CHAMFERA
 40
1.0
  9
$CHAMFERB
 40
1.0
  9
$SKPOLY
 70
     0
  9
$TDCREATE
 40
2449605.4635641202
  9
$TDUPDATE
 40
2449654.7612603009
  9
$TDINDWG
 40
0.0067061343
  9
$TDUSRTIMER
 40
0.0067061343
  9
$USRTIMER
 70
     1
  9
$ANGBASE
 50
0.0
  9
$ANGDIR
 70
     0
  9
$PDMODE
 70
     0
  9
$PDSIZE
 40
0.0
  9
$PLINEWID
 40
0.0
  9
$COORDS
 70
     2
  9
$SPLFRAME
 70
     0
  9
$SPLINETYPE
 70
     6
  9
$SPLINESEGS
 70
     8
  9
$ATTDIA
 70
     0
  9
$ATTREQ
 70
     1
  9
$HANDLING
 70
     0
  9
$HANDSEED
  5
0
  9
$SURFTAB1
 70
     6
  9
$SURFTAB2
 70
     6
  9
$SURFTYPE
 70
     6
  9
$SURFU
 70
     6
  9
$SURFV
 70
     6
  9
$FLATLAND
 70
     0
  9
$UCSNAME
  2

  9
$UCSORG
 10
0.0
 20
0.0
 30
0.0
  9
$UCSXDIR
 10
1.0
 20
0.0
 30
0.0
  9
$UCSYDIR
 10
0.0
 20
1.0
 30
0.0
  9
$USERI1
 70
     0
  9
$USERI2
 70
     0
  9
$USERI3
 70
     0
  9
$USERI4
 70
     0
  9
$USERI5
 70
     0
  9
$USERR1
 40
0.0
  9
$USERR2
 40
0.0
  9
$USERR3
 40
0.0
  9
$USERR4
 40
0.0
  9
$USERR5
 40
0.0
  9
$WORLDVIEW
 70
     1
  0
ENDSEC
  0
SECTION
  2
TABLES
  0
TABLE
  2
VPORT
 70
     2
  0
VPORT
  2
*ACTIVE
 70
     0
 10
0.0
 20
0.0
 11
1.0
 21
1.0
 12
297.243926
 22
190.584711
 13
0.0
 23
0.0
 14
5.0
 24
5.0
 15
0.0
 25
0.0
 16
0.0
 26
0.0
 36
1.0
 17
0.0
 27
0.0
 37
0.0
 40
374.130504
 41
1.5487
 42
50.0
 43
0.0
 44
0.0
 50
0.0
 51
0.0
 71
     0
 72
   100
 73
     1
 74
     0
 75
     0
 76
     0
 77
     0
 78
     0
  0
ENDTAB
  0
TABLE
  2
LTYPE
 70
     2
  0
LTYPE
  2
CONTINUOUS
 70
    64
  3
Solid line
 72
    65
 73
     0
 40
0.0
  0
LTYPE
  2
CENTER
 70
    64
  3
____ _ ____ _ ____ _ ____ _ 
 72
    65
 73
     4
 40
60.0
 49
45.0
 49
-5.0
 49
5.0
 49
-5.0
  0
ENDTAB
  0
TABLE
  2
LAYER
 70
     3
  0
LAYER
  2
0
 70
     0
 62
     7
  6
CONTINUOUS
  0
LAYER
  2
L-ZISSEN
 70
    64
 62
     7
  6
CONTINUOUS
  0
LAYER
  2
L-TYUSIN
 70
    64
 62
     1
  6
CENTER
  0
ENDTAB
  0
TABLE
  2
STYLE
 70
     1
  0
STYLE
  2
STANDARD
 70
    64
 40
0.0
 41
1.0
 50
0.0
 71
     0
 42
4.5
  3
TXT
  4

  0
ENDTAB
  0
TABLE
  2
VIEW
 70
     0
  0
ENDTAB
  0
TABLE
  2
UCS
 70
     0
  0
ENDTAB
  0
TABLE
  2
DWGMGR
 70
     0
  0
ENDTAB
  0
ENDSEC
  0
SECTION
  2
BLOCKS
  0
ENDSEC
  0
SECTION
  2
ENTITIES
  0
LINE
  8
L-TYUSIN
 10
100.0
 20
157.0
 30
0.0
 11
100.0
 21
24.0
 31
0.0
  0
LINE
  8
L-TYUSIN
 10
68.5
 20
65.0
 30
0.0
 11
131.5
 21
65.0
 31
0.0
  0
LINE
  8
L-ZISSEN
 10
126.5
 20
78.5
 30
0.0
 11
126.5
 21
50.5
 31
0.0
  0
LINE
  8
L-ZISSEN
 10
117.5
 20
29.0
 30
0.0
 11
82.5
 21
29.0
 31
0.0
  0
LINE
  8
L-ZISSEN
 10
109.916667
 20
152.0
 30
0.0
 11
90.083333
 21
152.0
 31
0.0
  0
CIRCLE
  8
L-ZISSEN
 10
100.0
 20
210.0
 30
0.0
 40
33.5
  0
LINE
  8
L-TYUSIN
 10
61.5
 20
210.0
 30
0.0
 11
138.5
 21
210.0
 31
0.0
  0
LINE
  8
L-TYUSIN
 10
100.0
 20
248.5
 30
0.0
 11
100.0
 21
171.5
 31
0.0
  0
LINE
  8
L-ZISSEN
 10
114.75
 20
133.0
 30
0.0
 11
85.25
 21
133.0
 31
0.0
  0
LINE
  8
L-ZISSEN
 10
82.5
 20
29.0
 30
0.0
 11
82.5
 21
34.5
 31
0.0
  0
LINE
  8
L-ZISSEN
 10
117.5
 20
29.0
 30
0.0
 11
117.5
 21
34.5
 31
0.0
  0
LINE
  8
L-ZISSEN
 10
117.5
 20
34.5
 30
0.0
 11
82.5
 21
34.5
 31
0.0
  0
LINE
  8
L-ZISSEN
 10
73.5
 20
78.5
 30
0.0
 11
73.5
 21
50.5
 31
0.0
  0
LINE
  8
L-ZISSEN
 10
126.5
 20
50.5
 30
0.0
 11
117.5
 21
50.5
 31
0.0
  0
LINE
  8
L-ZISSEN
 10
116.5
 20
36.0
 30
0.0
 11
83.5
 21
36.0
 31
0.0
  0
LINE
  8
L-ZISSEN
 10
115.5
 20
34.5
 30
0.0
 11
115.5
 21
36.0
 31
0.0
  0
LINE
  8
L-ZISSEN
 10
84.5
 20
34.5
 30
0.0
 11
84.5
 21
36.0
 31
0.0
  0
LINE
  8
L-ZISSEN
 10
116.5
 20
36.0
 30
0.0
 11
116.5
 21
47.0
 31
0.0
  0
LINE
  8
L-ZISSEN
 10
83.5
 20
36.0
 30
0.0
 11
83.5
 21
47.0
 31
0.0
  0
LINE
  8
L-ZISSEN
 10
116.5
 20
47.0
 30
0.0
 11
83.5
 21
47.0
 31
0.0
  0
LINE
  8
L-ZISSEN
 10
117.5
 20
49.0
 30
0.0
 11
82.5
 21
49.0
 31
0.0
  0
LINE
  8
L-ZISSEN
 10
82.5
 20
50.5
 30
0.0
 11
82.5
 21
49.0
 31
0.0
  0
LINE
  8
L-ZISSEN
 10
117.5
 20
50.5
 30
0.0
 11
117.5
 21
49.0
 31
0.0
  0
LINE
  8
L-ZISSEN
 10
117.5
 20
49.0
 30
0.0
 11
116.5
 21
47.0
 31
0.0
  0
LINE
  8
L-ZISSEN
 10
83.5
 20
47.0
 30
0.0
 11
82.5
 21
49.0
 31
0.0
  0
LINE
  8
L-ZISSEN
 10
86.0
 20
78.5
 30
0.0
 11
86.0
 21
56.217143
 31
0.0
  0
LINE
  8
L-ZISSEN
 10
114.0
 20
78.5
 30
0.0
 11
114.0
 21
56.217143
 31
0.0
  0
ARC
  8
L-ZISSEN
 10
100.0
 20
70.5
 30
0.0
 40
20.0
 50
225.572996
 51
314.427004
  0
LINE
  8
L-ZISSEN
 10
82.5
 20
50.5
 30
0.0
 11
73.5
 21
50.5
 31
0.0
  0
LINE
  8
L-ZISSEN
 10
114.0
 20
78.5
 30
0.0
 11
86.0
 21
78.5
 31
0.0
  0
LINE
  8
L-ZISSEN
 10
130.25
 20
90.5
 30
0.0
 11
69.75
 21
90.5
 31
0.0
  0
LINE
  8
L-ZISSEN
 10
69.75
 20
90.5
 30
0.0
 11
69.75
 21
81.5
 31
0.0
  0
LINE
  8
L-ZISSEN
 10
130.25
 20
90.5
 30
0.0
 11
130.25
 21
81.5
 31
0.0
  0
LINE
  8
L-ZISSEN
 10
126.5
 20
74.0
 30
0.0
 11
114.0
 21
74.0
 31
0.0
  0
LINE
  8
L-ZISSEN
 10
126.5
 20
78.5
 30
0.0
 11
130.25
 21
81.5
 31
0.0
  0
LINE
  8
L-ZISSEN
 10
73.5
 20
78.5
 30
0.0
 11
69.75
 21
81.5
 31
0.0
  0
LINE
  8
L-ZISSEN
 10
73.5
 20
74.0
 30
0.0
 11
86.0
 21
74.0
 31
0.0
  0
ARC
  8
L-ZISSEN
 10
100.0
 20
47.333333
 30
0.0
 40
34.166667
 50
65.810486
 51
114.189514
  0
LINE
  8
L-ZISSEN
 10
133.5
 20
120.5
 30
0.0
 11
66.5
 21
120.5
 31
0.0
  0
LINE
  8
L-ZISSEN
 10
90.083333
 20
152.0
 30
0.0
 11
88.5
 21
133.0
 31
0.0
  0
LINE
  8
L-ZISSEN
 10
109.916667
 20
152.0
 30
0.0
 11
111.5
 21
133.0
 31
0.0
  0
LINE
  8
L-ZISSEN
 10
85.25
 20
133.0
 30
0.0
 11
85.25
 21
120.5
 31
0.0
  0
LINE
  8
L-ZISSEN
 10
114.75
 20
133.0
 30
0.0
 11
114.75
 21
120.5
 31
0.0
  0
LINE
  8
L-ZISSEN
 10
114.0
 20
56.217143
 30
0.0
 11
126.5
 21
56.217143
 31
0.0
  0
LINE
  8
L-ZISSEN
 10
86.0
 20
56.217143
 30
0.0
 11
73.5
 21
56.217143
 31
0.0
  0
LINE
  8
L-ZISSEN
 10
186.0
 20
56.217143
 30
0.0
 11
173.5
 21
56.217143
 31
0.0
  0
LINE
  8
L-ZISSEN
 10
214.0
 20
56.217143
 30
0.0
 11
226.5
 21
56.217143
 31
0.0
  0
LINE
  8
L-ZISSEN
 10
186.0
 20
133.0
 30
0.0
 11
186.0
 21
120.5
 31
0.0
  0
LINE
  8
L-ZISSEN
 10
233.5
 20
120.5
 30
0.0
 11
166.5
 21
120.5
 31
0.0
  0
ARC
  8
L-ZISSEN
 10
200.0
 20
47.333333
 30
0.0
 40
34.166667
 50
65.810486
 51
114.189514
  0
LINE
  8
L-ZISSEN
 10
173.5
 20
74.0
 30
0.0
 11
186.0
 21
74.0
 31
0.0
  0
LINE
  8
L-ZISSEN
 10
173.5
 20
78.5
 30
0.0
 11
169.75
 21
81.5
 31
0.0
  0
LINE
  8
L-ZISSEN
 10
226.5
 20
78.5
 30
0.0
 11
230.25
 21
81.5
 31
0.0
  0
LINE
  8
L-ZISSEN
 10
226.5
 20
74.0
 30
0.0
 11
214.0
 21
74.0
 31
0.0
  0
LINE
  8
L-ZISSEN
 10
230.25
 20
90.5
 30
0.0
 11
230.25
 21
81.5
 31
0.0
  0
LINE
  8
L-ZISSEN
 10
169.75
 20
90.5
 30
0.0
 11
169.75
 21
81.5
 31
0.0
  0
LINE
  8
L-ZISSEN
 10
230.25
 20
90.5
 30
0.0
 11
169.75
 21
90.5
 31
0.0
  0
LINE
  8
L-ZISSEN
 10
214.0
 20
78.5
 30
0.0
 11
186.0
 21
78.5
 31
0.0
  0
LINE
  8
L-ZISSEN
 10
182.5
 20
50.5
 30
0.0
 11
173.5
 21
50.5
 31
0.0
  0
ARC
  8
L-ZISSEN
 10
200.0
 20
70.5
 30
0.0
 40
20.0
 50
225.572996
 51
314.427004
  0
LINE
  8
L-ZISSEN
 10
214.0
 20
78.5
 30
0.0
 11
214.0
 21
56.217143
 31
0.0
  0
LINE
  8
L-ZISSEN
 10
186.0
 20
78.5
 30
0.0
 11
186.0
 21
56.217143
 31
0.0
  0
LINE
  8
L-ZISSEN
 10
183.5
 20
47.0
 30
0.0
 11
182.5
 21
49.0
 31
0.0
  0
LINE
  8
L-ZISSEN
 10
217.5
 20
49.0
 30
0.0
 11
216.5
 21
47.0
 31
0.0
  0
LINE
  8
L-ZISSEN
 10
217.5
 20
50.5
 30
0.0
 11
217.5
 21
49.0
 31
0.0
  0
LINE
  8
L-ZISSEN
 10
182.5
 20
50.5
 30
0.0
 11
182.5
 21
49.0
 31
0.0
  0
LINE
  8
L-ZISSEN
 10
217.5
 20
49.0
 30
0.0
 11
182.5
 21
49.0
 31
0.0
  0
LINE
  8
L-ZISSEN
 10
216.5
 20
47.0
 30
0.0
 11
183.5
 21
47.0
 31
0.0
  0
LINE
  8
L-ZISSEN
 10
183.5
 20
36.0
 30
0.0
 11
183.5
 21
47.0
 31
0.0
  0
LINE
  8
L-ZISSEN
 10
216.5
 20
36.0
 30
0.0
 11
216.5
 21
47.0
 31
0.0
  0
LINE
  8
L-ZISSEN
 10
184.5
 20
34.5
 30
0.0
 11
184.5
 21
36.0
 31
0.0
  0
LINE
  8
L-ZISSEN
 10
215.5
 20
34.5
 30
0.0
 11
215.5
 21
36.0
 31
0.0
  0
LINE
  8
L-ZISSEN
 10
216.5
 20
36.0
 30
0.0
 11
183.5
 21
36.0
 31
0.0
  0
LINE
  8
L-ZISSEN
 10
226.5
 20
50.5
 30
0.0
 11
217.5
 21
50.5
 31
0.0
  0
LINE
  8
L-ZISSEN
 10
173.5
 20
78.5
 30
0.0
 11
173.5
 21
50.5
 31
0.0
  0
LINE
  8
L-ZISSEN
 10
217.5
 20
34.5
 30
0.0
 11
182.5
 21
34.5
 31
0.0
  0
LINE
  8
L-ZISSEN
 10
217.5
 20
29.0
 30
0.0
 11
217.5
 21
34.5
 31
0.0
  0
LINE
  8
L-ZISSEN
 10
182.5
 20
29.0
 30
0.0
 11
182.5
 21
34.5
 31
0.0
  0
LINE
  8
L-ZISSEN
 10
214.0
 20
133.0
 30
0.0
 11
186.0
 21
133.0
 31
0.0
  0
LINE
  8
L-ZISSEN
 10
217.5
 20
29.0
 30
0.0
 11
182.5
 21
29.0
 31
0.0
  0
LINE
  8
L-ZISSEN
 10
226.5
 20
78.5
 30
0.0
 11
226.5
 21
50.5
 31
0.0
  0
LINE
  8
L-TYUSIN
 10
168.5
 20
65.0
 30
0.0
 11
231.5
 21
65.0
 31
0.0
  0
LINE
  8
L-TYUSIN
 10
200.0
 20
157.0
 30
0.0
 11
200.0
 21
24.0
 31
0.0
  0
LINE
  8
L-ZISSEN
 10
214.0
 20
133.0
 30
0.0
 11
214.0
 21
120.5
 31
0.0
  0
ARC
  8
L-ZISSEN
 10
100.0
 20
210.0
 30
0.0
 40
14.75
 50
108.349739
 51
251.650261
  0
CIRCLE
  8
L-ZISSEN
 10
100.0
 20
210.0
 30
0.0
 40
11.5
  0
LINE
  8
L-ZISSEN
 10
104.643544
 20
224.0
 30
0.0
 11
95.356456
 21
224.0
 31
0.0
  0
LINE
  8
L-ZISSEN
 10
104.643544
 20
196.0
 30
0.0
 11
95.356456
 21
196.0
 31
0.0
  0
ARC
  8
L-ZISSEN
 10
100.0
 20
210.0
 30
0.0
 40
14.75
 50
288.349739
 51
71.650261
  0
LINE
  8
L-ZISSEN
 10
209.916667
 20
152.0
 30
0.0
 11
190.083333
 21
152.0
 31
0.0
  0
LINE
  8
L-ZISSEN
 10
190.083333
 20
152.0
 30
0.0
 11
188.5
 21
133.0
 31
0.0
  0
LINE
  8
L-ZISSEN
 10
209.916667
 20
152.0
 30
0.0
 11
211.5
 21
133.0
 31
0.0
  0
CIRCLE
  8
L-ZISSEN
 10
100.0
 20
210.0
 30
0.0
 40
9.916667
  0
TEXT
  8
L-ZISSEN
 10
65.0
 20
265.0
 30
0.0
 40
4.5
  1
MODEL NO. : R24- 00-RN A
  0
TEXT
  8
L-ZISSEN
 10
131.25
 20
271.25
 30
0.0
 40
4.5
  1
2
  0
TEXT
  8
L-ZISSEN
 10
131.25
 20
265.0
 30
0.0
 40
4.5
  1
3
  0
TEXT
  8
L-ZISSEN
 10
131.25
 20
258.75
 30
0.0
 40
4.5
  1
4
  0
TEXT
  8
L-ZISSEN
 10
156.25
 20
258.75
 30
0.0
 40
4.5
  1
S
  0
TEXT
  8
L-ZISSEN
 10
156.25
 20
265.0
 30
0.0
 40
4.5
  1
L
  0
TEXT
  8
L-ZISSEN
 10
156.25
 20
271.25
 30
0.0
 40
4.5
  1
F
  0
LINE
  8
L-ZISSEN
 10
66.5
 20
93.5
 30
0.0
 11
69.75
 21
90.5
 31
0.0
  0
LINE
  8
L-ZISSEN
 10
66.5
 20
120.5
 30
0.0
 11
66.5
 21
93.5
 31
0.0
  0
LINE
  8
L-ZISSEN
 10
133.5
 20
120.5
 30
0.0
 11
133.5
 21
93.5
 31
0.0
  0
LINE
  8
L-ZISSEN
 10
133.5
 20
93.5
 30
0.0
 11
130.25
 21
90.5
 31
0.0
  0
LINE
  8
L-ZISSEN
 10
133.5
 20
93.5
 30
0.0
 11
66.5
 21
93.5
 31
0.0
  0
LINE
  8
L-ZISSEN
 10
233.5
 20
93.5
 30
0.0
 11
230.25
 21
90.5
 31
0.0
  0
LINE
  8
L-ZISSEN
 10
233.5
 20
93.5
 30
0.0
 11
166.5
 21
93.5
 31
0.0
  0
LINE
  8
L-ZISSEN
 10
233.5
 20
120.5
 30
0.0
 11
233.5
 21
93.5
 31
0.0
  0
LINE
  8
L-ZISSEN
 10
166.5
 20
120.5
 30
0.0
 11
166.5
 21
93.5
 31
0.0
  0
LINE
  8
L-ZISSEN
 10
104.643544
 20
133.0
 30
0.0
 11
104.643544
 21
120.5
 31
0.0
  0
LINE
  8
L-ZISSEN
 10
95.356456
 20
133.0
 30
0.0
 11
95.356456
 21
120.5
 31
0.0
  0
LINE
  8
L-ZISSEN
 10
166.5
 20
93.5
 30
0.0
 11
169.75
 21
90.5
 31
0.0
  0
CIRCLE
  8
L-ZISSEN
 10
100.0
 20
65.0
 30
0.0
 40
9.3155
  0
CIRCLE
  8
L-ZISSEN
 10
200.0
 20
65.0
 30
0.0
 40
9.3155
  0
SOLID
  8
L-ZISSEN
 10
71.694476
 20
64.077397
 30
0.0
 11
72.091295
 21
63.541693
 31
0.0
 12
73.5
 22
65.0
 32
0.0
 13
73.5
 23
65.0
 33
0.0
  0
LINE
  8
L-ZISSEN
 10
71.892886
 20
63.809545
 30
0.0
 11
60.0
 21
55.0
 31
0.0
  0
LINE
  8
L-ZISSEN
 10
60.0
 20
55.0
 30
0.0
 11
58.0
 21
55.0
 31
0.0
  0
TEXT
  8
L-ZISSEN
 10
50.0
 20
52.75
 30
0.0
 40
4.5
  1
IN
  0
TEXT
  8
L-ZISSEN
 10
30.0
 20
45.0
 30
0.0
 40
4.5
  1
NPT 1/4
  0
TEXT
  8
L-ZISSEN
 10
30.0
 20
35.0
 30
0.0
 40
4.5
  1
NPT 3/8
  0
TEXT
  8
L-ZISSEN
 10
30.0
 20
25.0
 30
0.0
 40
4.5
  1
NPT 1/2
  0
LINE
  8
L-TYUSIN
 10
270.0
 20
250.0
 30
0.0
 11
270.0
 21
10.0
 31
0.0
  0
LINE
  8
L-ZISSEN
 10
295.0
 20
210.0
 30
0.0
 11
341.0
 21
210.0
 31
0.0
  0
LINE
  8
L-ZISSEN
 10
341.0
 20
210.0
 30
0.0
 11
341.0
 21
166.0
 31
0.0
  0
LINE
  8
L-ZISSEN
 10
295.0
 20
166.0
 30
0.0
 11
295.0
 21
210.0
 31
0.0
  0
LINE
  8
L-ZISSEN
 10
295.0
 20
121.5
 30
0.0
 11
341.0
 21
121.5
 31
0.0
  0
LINE
  8
L-ZISSEN
 10
295.0
 20
80.5
 30
0.0
 11
295.0
 21
121.5
 31
0.0
  0
LINE
  8
L-ZISSEN
 10
341.0
 20
121.5
 30
0.0
 11
341.0
 21
80.5
 31
0.0
  0
LINE
  8
L-ZISSEN
 10
295.0
 20
80.5
 30
0.0
 11
341.0
 21
80.5
 31
0.0
  0
ARC
  8
L-ZISSEN
 10
318.0
 20
166.0
 30
0.0
 40
23.0
 50
180.0
 51
0.0
  0
LINE
  8
L-TYUSIN
 10
324.0
 20
114.5
 30
0.0
 11
344.0
 21
114.5
 31
0.0
  0
CIRCLE
  8
L-ZISSEN
 10
334.0
 20
114.5
 30
0.0
 40
3.5
  0
CIRCLE
  8
L-ZISSEN
 10
334.0
 20
98.5
 30
0.0
 40
3.5
  0
LINE
  8
L-TYUSIN
 10
334.0
 20
88.5
 30
0.0
 11
334.0
 21
124.5
 31
0.0
  0
LINE
  8
L-TYUSIN
 10
324.0
 20
98.5
 30
0.0
 11
344.0
 21
98.5
 31
0.0
  0
LINE
  8
L-TYUSIN
 10
312.0
 20
98.5
 30
0.0
 11
292.0
 21
98.5
 31
0.0
  0
LINE
  8
L-TYUSIN
 10
302.0
 20
88.5
 30
0.0
 11
302.0
 21
124.5
 31
0.0
  0
CIRCLE
  8
L-ZISSEN
 10
302.0
 20
98.5
 30
0.0
 40
3.5
  0
CIRCLE
  8
L-ZISSEN
 10
302.0
 20
114.5
 30
0.0
 40
3.5
  0
LINE
  8
L-TYUSIN
 10
312.0
 20
114.5
 30
0.0
 11
292.0
 21
114.5
 31
0.0
  0
LINE
  8
L-TYUSIN
 10
334.0
 20
202.7
 30
0.0
 11
334.0
 21
215.0
 31
0.0
  0
LINE
  8
L-TYUSIN
 10
302.0
 20
202.7
 30
0.0
 11
302.0
 21
215.0
 31
0.0
  0
LINE
  8
L-ZISSEN
 10
439.0
 20
121.5
 30
0.0
 11
439.0
 21
80.5
 31
0.0
  0
LINE
  8
L-ZISSEN
 10
372.0
 20
80.5
 30
0.0
 11
439.0
 21
80.5
 31
0.0
  0
TEXT
  8
L-ZISSEN
 10
285.0
 20
235.0
 30
0.0
 40
4.5
  1
WALL MOUNTING BRACKET
  0
TEXT
  8
L-ZISSEN
 10
285.0
 20
225.0
 30
0.0
 40
4.5
  1
MODEL NO. : 18-001-073
  0
LINE
  8
L-ZISSEN
 10
485.5
 20
145.5
 30
0.0
 11
524.5
 21
145.5
 31
0.0
  0
LINE
  8
L-ZISSEN
 10
524.5
 20
151.0
 30
0.0
 11
524.5
 21
145.5
 31
0.0
  0
LINE
  8
L-ZISSEN
 10
485.5
 20
151.0
 30
0.0
 11
485.5
 21
145.5
 31
0.0
  0
CIRCLE
  8
L-ZISSEN
 10
505.0
 20
185.0
 30
0.0
 40
19.5
  0
SOLID
  8
L-ZISSEN
 10
506.649916
 20
186.178511
 30
0.0
 11
506.178511
 21
186.649916
 31
0.0
 12
505.0
 22
185.0
 32
0.0
 13
505.0
 23
185.0
 33
0.0
  0
LINE
  8
L-ZISSEN
 10
506.414214
 20
186.414214
 30
0.0
 11
525.0
 21
205.0
 31
0.0
  0
LINE
  8
L-ZISSEN
 10
525.0
 20
205.0
 30
0.0
 11
527.0
 21
205.0
 31
0.0
  0
TEXT
  8
L-ZISSEN
 10
529.0
 20
202.75
 30
0.0
 40
4.5
  1
P.P
  0
TEXT
  8
L-ZISSEN
 10
475.0
 20
235.0
 30
0.0
 40
4.5
  1
PANEL NUT
  0
TEXT
  8
L-ZISSEN
 10
475.0
 20
225.0
 30
0.0
 40
4.5
  1
MODEL NO. : 2962-89
  0
TEXT
  8
L-ZISSEN
 10
522.5
 20
215.0
 30
0.0
 40
4.5
  1
2962-04
  0
LINE
  8
L-ZISSEN
 10
485.5
 20
151.0
 30
0.0
 11
524.5
 21
151.0
 31
0.0
  0
SOLID
  8
L-ZISSEN
 10
101.024295
 20
208.250163
 30
0.0
 11
101.536443
 21
208.676952
 31
0.0
 12
100.0
 22
210.0
 32
0.0
 13
100.0
 23
210.0
 33
0.0
  0
LINE
  8
L-ZISSEN
 10
101.280369
 20
208.463557
 30
0.0
 11
125.0
 21
180.0
 31
0.0
  0
LINE
  8
L-ZISSEN
 10
125.0
 20
180.0
 30
0.0
 11
127.0
 21
180.0
 31
0.0
  0
TEXT
  8
L-ZISSEN
 10
129.0
 20
177.75
 30
0.0
 40
4.5
  1
P.P
  0
SOLID
  8
L-ZISSEN
 10
319.216553
 20
164.37793
 30
0.0
 11
319.67687
 21
164.860167
 31
0.0
 12
318.0
 22
166.0
 32
0.0
 13
318.0
 23
166.0
 33
0.0
  0
LINE
  8
L-ZISSEN
 10
319.446711
 20
164.619049
 30
0.0
 11
340.0
 21
145.0
 31
0.0
  0
LINE
  8
L-ZISSEN
 10
340.0
 20
145.0
 30
0.0
 11
342.0
 21
145.0
 31
0.0
  0
TEXT
  8
L-ZISSEN
 10
344.0
 20
142.75
 30
0.0
 40
4.5
  1
P.P
  0
LINE
  8
L-TYUSIN
 10
431.7
 20
98.5
 30
0.0
 11
444.0
 21
98.5
 31
0.0
  0
LINE
  8
L-TYUSIN
 10
431.7
 20
114.5
 30
0.0
 11
444.0
 21
114.5
 31
0.0
  0
SOLID
  8
L-ZISSEN
 10
319.50968
 20
26.353506
 30
0.0
 11
318.9891
 21
26.769969
 31
0.0
 12
318.0
 22
25.0
 32
0.0
 13
318.0
 23
25.0
 33
0.0
  0
LINE
  8
L-ZISSEN
 10
319.24939
 20
26.561738
 30
0.0
 11
330.0
 21
40.0
 31
0.0
  0
LINE
  8
L-ZISSEN
 10
330.0
 20
40.0
 30
0.0
 11
332.0
 21
40.0
 31
0.0
  0
TEXT
  8
L-ZISSEN
 10
334.0
 20
37.75
 30
0.0
 40
4.5
  1
P.P
  0
SOLID
  8
L-ZISSEN
 10
396.38675
 20
26.479201
 30
0.0
 11
395.83205
 21
26.849001
 31
0.0
 12
395.0
 22
25.0
 32
0.0
 13
395.0
 23
25.0
 33
0.0
  0
LINE
  8
L-ZISSEN
 10
396.1094
 20
26.664101
 30
0.0
 11
405.0
 21
40.0
 31
0.0
  0
LINE
  8
L-ZISSEN
 10
405.0
 20
40.0
 30
0.0
 11
407.0
 21
40.0
 31
0.0
  0
TEXT
  8
L-ZISSEN
 10
409.0
 20
37.75
 30
0.0
 40
4.5
  1
P.P
  0
SOLID
  8
L-ZISSEN
 10
506.649916
 20
86.178511
 30
0.0
 11
506.178511
 21
86.649916
 31
0.0
 12
505.0
 22
85.0
 32
0.0
 13
505.0
 23
85.0
 33
0.0
  0
LINE
  8
L-ZISSEN
 10
506.414214
 20
86.414214
 30
0.0
 11
520.0
 21
100.0
 31
0.0
  0
LINE
  8
L-ZISSEN
 10
520.0
 20
100.0
 30
0.0
 11
522.0
 21
100.0
 31
0.0
  0
TEXT
  8
L-ZISSEN
 10
524.0
 20
97.75
 30
0.0
 40
4.5
  1
P.P
  0
LINE
  8
L-TYUSIN
 10
460.0
 20
250.0
 30
0.0
 11
460.0
 21
10.0
 31
0.0
  0
LINE
  8
L-ZISSEN
 10
372.0
 20
82.8
 30
0.0
 11
436.7
 21
82.8
 31
0.0
  0
LINE
  8
L-ZISSEN
 10
436.7
 20
121.5
 30
0.0
 11
436.7
 21
82.8
 31
0.0
  0
LINE
  8
L-ZISSEN
 10
295.0
 20
82.8
 30
0.0
 11
341.0
 21
82.8
 31
0.0
  0
LINE
  8
L-ZISSEN
 10
372.0
 20
82.8
 30
0.0
 11
372.0
 21
80.5
 31
0.0
  0
LINE
  8
L-ZISSEN
 10
436.7
 20
121.5
 30
0.0
 11
439.0
 21
121.5
 31
0.0
  0
ENDSEC
  0
EOF
