  0
SECTION
  2
HEADER
  9
$ACADVER
  1
AC1006
  9
$INSBASE
 10
0.0
 20
0.0
 30
0.0
  9
$EXTMIN
 10
0.0
 20
0.0
  9
$EXTMAX
 10
420.0
 20
297.0
  9
$LIMMIN
 10
0.0
 20
0.0
  9
$LIMMAX
 10
420.0
 20
297.0
  9
$ORTHOMODE
 70
     0
  9
$REGENMODE
 70
     1
  9
$FILLMODE
 70
     1
  9
$QTEXTMODE
 70
     0
  9
$MIRRTEXT
 70
     1
  9
$DRAGMODE
 70
     2
  9
$LTSCALE
 40
1.0
  9
$OSMODE
 70
     0
  9
$ATTMODE
 70
     1
  9
$TEXTSIZE
 40
4.5
  9
$TRACEWID
 40
0.05
  9
$TEXTSTYLE
  7
STANDARD
  9
$CLAYER
  8
L-ZISSEN
  9
$CELTYPE
  6
BYLAYER
  9
$CECOLOR
 62
   256
  9
$DIMSCALE
 40
1.0
  9
$DIMASZ
 40
2.0
  9
$DIMEXO
 40
1.0
  9
$DIMDLI
 40
0.38
  9
$DIMRND
 40
0.0
  9
$DIMDLE
 40
1.0
  9
$DIMEXE
 40
1.0
  9
$DIMTP
 40
0.0
  9
$DIMTM
 40
0.0
  9
$DIMTXT
 40
4.5
  9
$DIMCEN
 40
0.09
  9
$DIMTSZ
 40
0.0
  9
$DIMTOL
 70
     0
  9
$DIMLIM
 70
     0
  9
$DIMTIH
 70
     0
  9
$DIMTOH
 70
     0
  9
$DIMSE1
 70
     0
  9
$DIMSE2
 70
     0
  9
$DIMTAD
 70
     1
  9
$DIMZIN
 70
     0
  9
$DIMBLK
  1

  9
$DIMASO
 70
     0
  9
$DIMSHO
 70
     0
  9
$DIMPOST
  1

  9
$DIMAPOST
  1

  9
$DIMALT
 70
     0
  9
$DIMALTD
 70
     2
  9
$DIMALTF
 40
25.4
  9
$DIMLFAC
 40
1.0
  9
$DIMTOFL
 70
     1
  9
$DIMTVP
 40
0.0
  9
$DIMTIX
 70
     1
  9
$DIMSOXD
 70
     0
  9
$DIMSAH
 70
     0
  9
$DIMBLK1
  1

  9
$DIMBLK2
  1

  9
$LUNITS
 70
     2
  9
$LUPREC
 70
     4
  9
$AXISMODE
 70
     0
  9
$AXISUNIT
 10
0.0
 20
0.0
  9
$SKETCHINC
 40
0.1
  9
$FILLETRAD
 40
5.0
  9
$AUNITS
 70
     0
  9
$AUPREC
 70
     0
  9
$MENU
  1
acad
  9
$ELEVATION
 40
0.0
  9
$THICKNESS
 40
0.0
  9
$LIMCHECK
 70
     0
  9
$BLIPMODE
 70
     1
  9
$CHAMFERA
 40
1.0
  9
$CHAMFERB
 40
1.0
  9
$SKPOLY
 70
     0
  9
$TDCREATE
 40
2449604.7505994211
  9
$TDUPDATE
 40
2449604.7505994211
  9
$TDINDWG
 40
0.0000000000
  9
$TDUSRTIMER
 40
0.0000000000
  9
$USRTIMER
 70
     1
  9
$ANGBASE
 50
0.0
  9
$ANGDIR
 70
     0
  9
$PDMODE
 70
     0
  9
$PDSIZE
 40
0.0
  9
$PLINEWID
 40
0.0
  9
$COORDS
 70
     2
  9
$SPLFRAME
 70
     0
  9
$SPLINETYPE
 70
     6
  9
$SPLINESEGS
 70
     8
  9
$ATTDIA
 70
     0
  9
$ATTREQ
 70
     1
  9
$HANDLING
 70
     0
  9
$HANDSEED
  5
0
  9
$SURFTAB1
 70
     6
  9
$SURFTAB2
 70
     6
  9
$SURFTYPE
 70
     6
  9
$SURFU
 70
     6
  9
$SURFV
 70
     6
  9
$FLATLAND
 70
     0
  9
$UCSNAME
  2

  9
$UCSORG
 10
0.0
 20
0.0
 30
0.0
  9
$UCSXDIR
 10
1.0
 20
0.0
 30
0.0
  9
$UCSYDIR
 10
0.0
 20
1.0
 30
0.0
  9
$USERI1
 70
     0
  9
$USERI2
 70
     0
  9
$USERI3
 70
     0
  9
$USERI4
 70
     0
  9
$USERI5
 70
     0
  9
$USERR1
 40
0.0
  9
$USERR2
 40
0.0
  9
$USERR3
 40
0.0
  9
$USERR4
 40
0.0
  9
$USERR5
 40
0.0
  9
$WORLDVIEW
 70
     1
  0
ENDSEC
  0
SECTION
  2
TABLES
  0
TABLE
  2
VPORT
 70
     2
  0
VPORT
  2
*ACTIVE
 70
     0
 10
0.0
 20
0.0
 11
1.0
 21
1.0
 12
238.227989
 22
153.824519
 13
0.0
 23
0.0
 14
5.0
 24
5.0
 15
0.0
 25
0.0
 16
0.0
 26
0.0
 36
1.0
 17
0.0
 27
0.0
 37
0.0
 40
307.649038
 41
1.5487
 42
50.0
 43
0.0
 44
0.0
 50
0.0
 51
0.0
 71
     0
 72
   100
 73
     1
 74
     0
 75
     0
 76
     0
 77
     0
 78
     0
  0
ENDTAB
  0
TABLE
  2
LTYPE
 70
     2
  0
LTYPE
  2
CONTINUOUS
 70
    64
  3
Solid line
 72
    65
 73
     0
 40
0.0
  0
LTYPE
  2
CENTER
 70
    64
  3
____ _ ____ _ ____ _ ____ _ 
 72
    65
 73
     4
 40
60.0
 49
45.0
 49
-5.0
 49
5.0
 49
-5.0
  0
ENDTAB
  0
TABLE
  2
LAYER
 70
     3
  0
LAYER
  2
0
 70
     0
 62
     7
  6
CONTINUOUS
  0
LAYER
  2
L-ZISSEN
 70
    64
 62
     7
  6
CONTINUOUS
  0
LAYER
  2
L-TYUSIN
 70
    64
 62
     1
  6
CENTER
  0
ENDTAB
  0
TABLE
  2
STYLE
 70
     1
  0
STYLE
  2
STANDARD
 70
    64
 40
0.0
 41
1.0
 50
0.0
 71
     0
 42
4.5
  3
TXT
  4

  0
ENDTAB
  0
TABLE
  2
VIEW
 70
     0
  0
ENDTAB
  0
TABLE
  2
UCS
 70
     0
  0
ENDTAB
  0
TABLE
  2
DWGMGR
 70
     0
  0
ENDTAB
  0
ENDSEC
  0
SECTION
  2
BLOCKS
  0
ENDSEC
  0
SECTION
  2
ENTITIES
  0
LINE
  8
L-TYUSIN
  6
CENTER
 62
     1
 10
275.0
 20
100.0
 30
0.0
 11
275.0
 21
25.0
 31
0.0
  0
LINE
  8
L-TYUSIN
 10
135.0
 20
162.0
 30
0.0
 11
135.0
 21
32.0
 31
0.0
  0
LINE
  8
L-TYUSIN
 10
103.0
 20
50.0
 30
0.0
 11
167.0
 21
50.0
 31
0.0
  0
LINE
  8
L-ZISSEN
 10
162.0
 20
90.0
 30
0.0
 11
162.0
 21
41.0
 31
0.0
  0
LINE
  8
L-ZISSEN
 10
108.0
 20
90.0
 30
0.0
 11
108.0
 21
41.0
 31
0.0
  0
LINE
  8
L-ZISSEN
 10
145.75
 20
37.0
 30
0.0
 11
124.25
 21
37.0
 31
0.0
  0
LINE
  8
L-ZISSEN
 10
162.0
 20
41.0
 30
0.0
 11
108.0
 21
41.0
 31
0.0
  0
LINE
  8
L-ZISSEN
 10
156.25
 20
157.0
 30
0.0
 11
113.75
 21
157.0
 31
0.0
  0
LINE
  8
L-ZISSEN
 10
156.25
 20
146.0
 30
0.0
 11
113.75
 21
146.0
 31
0.0
  0
LINE
  8
L-ZISSEN
 10
113.75
 20
157.0
 30
0.0
 11
113.75
 21
146.0
 31
0.0
  0
LINE
  8
L-ZISSEN
 10
156.25
 20
157.0
 30
0.0
 11
156.25
 21
146.0
 31
0.0
  0
LINE
  8
L-TYUSIN
 10
191.0
 20
50.0
 30
0.0
 11
239.0
 21
50.0
 31
0.0
  0
LINE
  8
L-TYUSIN
 10
215.0
 20
162.0
 30
0.0
 11
215.0
 21
32.0
 31
0.0
  0
LINE
  8
L-TYUSIN
 10
102.0
 20
205.0
 30
0.0
 11
167.0
 21
205.0
 31
0.0
  0
CIRCLE
  8
L-ZISSEN
 10
135.0
 20
205.0
 30
0.0
 40
21.25
  0
LINE
  8
L-ZISSEN
 10
148.0
 20
114.0
 30
0.0
 11
122.0
 21
114.0
 31
0.0
  0
LINE
  8
L-ZISSEN
 10
162.0
 20
90.0
 30
0.0
 11
108.0
 21
90.0
 31
0.0
  0
LINE
  8
L-ZISSEN
 10
162.0
 20
58.0
 30
0.0
 11
108.0
 21
58.0
 31
0.0
  0
LINE
  8
L-ZISSEN
 10
162.0
 20
232.0
 30
0.0
 11
162.0
 21
178.0
 31
0.0
  0
LINE
  8
L-ZISSEN
 10
108.0
 20
232.0
 30
0.0
 11
108.0
 21
178.0
 31
0.0
  0
LINE
  8
L-ZISSEN
 10
108.0
 20
178.0
 30
0.0
 11
162.0
 21
178.0
 31
0.0
  0
LINE
  8
L-ZISSEN
 10
108.0
 20
232.0
 30
0.0
 11
162.0
 21
232.0
 31
0.0
  0
LINE
  8
L-ZISSEN
 10
144.814955
 20
116.3
 30
0.0
 11
125.185045
 21
116.3
 31
0.0
  0
LINE
  8
L-ZISSEN
 10
144.814955
 20
121.3
 30
0.0
 11
125.185045
 21
121.3
 31
0.0
  0
LINE
  8
L-ZISSEN
 10
124.25
 20
37.0
 30
0.0
 11
124.25
 21
41.0
 31
0.0
  0
LINE
  8
L-ZISSEN
 10
145.75
 20
37.0
 30
0.0
 11
145.75
 21
41.0
 31
0.0
  0
LINE
  8
L-ZISSEN
 10
224.5
 20
37.0
 30
0.0
 11
205.5
 21
37.0
 31
0.0
  0
LINE
  8
L-ZISSEN
 10
234.0
 20
41.0
 30
0.0
 11
196.0
 21
41.0
 31
0.0
  0
LINE
  8
L-ZISSEN
 10
205.5
 20
37.0
 30
0.0
 11
205.5
 21
41.0
 31
0.0
  0
LINE
  8
L-ZISSEN
 10
224.5
 20
37.0
 30
0.0
 11
224.5
 21
41.0
 31
0.0
  0
LINE
  8
L-TYUSIN
 10
135.0
 20
237.0
 30
0.0
 11
135.0
 21
173.0
 31
0.0
  0
LINE
  8
L-ZISSEN
 10
162.0
 20
85.0
 30
0.0
 11
108.0
 21
85.0
 31
0.0
  0
LINE
  8
L-ZISSEN
 10
162.0
 20
64.5
 30
0.0
 11
108.0
 21
64.5
 31
0.0
  0
LINE
  8
L-ZISSEN
 10
162.0
 20
63.5
 30
0.0
 11
108.0
 21
63.5
 31
0.0
  0
LINE
  8
L-ZISSEN
 10
115.5
 20
90.0
 30
0.0
 11
122.0
 21
114.0
 31
0.0
  0
LINE
  8
L-ZISSEN
 10
154.5
 20
90.0
 30
0.0
 11
148.0
 21
114.0
 31
0.0
  0
LINE
  8
L-ZISSEN
 10
120.0
 20
41.0
 30
0.0
 11
120.0
 21
58.0
 31
0.0
  0
LINE
  8
L-ZISSEN
 10
122.0
 20
41.0
 30
0.0
 11
122.0
 21
58.0
 31
0.0
  0
LINE
  8
L-ZISSEN
 10
148.0
 20
41.0
 30
0.0
 11
148.0
 21
58.0
 31
0.0
  0
LINE
  8
L-ZISSEN
 10
150.0
 20
41.0
 30
0.0
 11
150.0
 21
58.0
 31
0.0
  0
LINE
  8
L-ZISSEN
 10
242.0
 20
90.0
 30
0.0
 11
242.0
 21
58.0
 31
0.0
  0
LINE
  8
L-ZISSEN
 10
242.0
 20
58.0
 30
0.0
 11
231.5
 21
58.0
 31
0.0
  0
LINE
  8
L-ZISSEN
 10
188.0
 20
90.0
 30
0.0
 11
188.0
 21
58.0
 31
0.0
  0
LINE
  8
L-ZISSEN
 10
242.0
 20
63.5
 30
0.0
 11
188.0
 21
63.5
 31
0.0
  0
LINE
  8
L-ZISSEN
 10
242.0
 20
64.5
 30
0.0
 11
188.0
 21
64.5
 31
0.0
  0
LINE
  8
L-ZISSEN
 10
242.0
 20
85.0
 30
0.0
 11
188.0
 21
85.0
 31
0.0
  0
LINE
  8
L-ZISSEN
 10
242.0
 20
90.0
 30
0.0
 11
188.0
 21
90.0
 31
0.0
  0
LINE
  8
L-ZISSEN
 10
195.5
 20
90.0
 30
0.0
 11
202.0
 21
114.0
 31
0.0
  0
LINE
  8
L-ZISSEN
 10
234.5
 20
90.0
 30
0.0
 11
228.0
 21
114.0
 31
0.0
  0
LINE
  8
L-ZISSEN
 10
228.0
 20
114.0
 30
0.0
 11
202.0
 21
114.0
 31
0.0
  0
LINE
  8
L-ZISSEN
 10
198.5
 20
41.0
 30
0.0
 11
198.5
 21
58.0
 31
0.0
  0
LINE
  8
L-ZISSEN
 10
196.0
 20
41.0
 30
0.0
 11
196.0
 21
58.0
 31
0.0
  0
LINE
  8
L-ZISSEN
 10
231.5
 20
41.0
 30
0.0
 11
231.5
 21
58.0
 31
0.0
  0
LINE
  8
L-ZISSEN
 10
234.0
 20
41.0
 30
0.0
 11
234.0
 21
58.0
 31
0.0
  0
LINE
  8
L-ZISSEN
 10
198.5
 20
58.0
 30
0.0
 11
188.0
 21
58.0
 31
0.0
  0
LINE
  8
L-ZISSEN
 10
108.0
 20
79.75
 30
0.0
 11
107.0
 21
79.75
 31
0.0
  0
LINE
  8
L-ZISSEN
 10
107.0
 20
79.75
 30
0.0
 11
107.0
 21
69.25
 31
0.0
  0
LINE
  8
L-ZISSEN
 10
107.0
 20
69.25
 30
0.0
 11
108.0
 21
69.25
 31
0.0
  0
LINE
  8
L-ZISSEN
 10
125.185045
 20
121.3
 30
0.0
 11
125.185045
 21
116.3
 31
0.0
  0
LINE
  8
L-ZISSEN
 10
144.814955
 20
121.3
 30
0.0
 11
144.814955
 21
116.3
 31
0.0
  0
LINE
  8
L-ZISSEN
 10
223.5
 20
121.3
 30
0.0
 11
206.5
 21
121.3
 31
0.0
  0
LINE
  8
L-ZISSEN
 10
223.5
 20
116.3
 30
0.0
 11
206.5
 21
116.3
 31
0.0
  0
LINE
  8
L-ZISSEN
 10
206.5
 20
121.3
 30
0.0
 11
206.5
 21
116.3
 31
0.0
  0
LINE
  8
L-ZISSEN
 10
223.5
 20
121.3
 30
0.0
 11
223.5
 21
116.3
 31
0.0
  0
LINE
  8
L-ZISSEN
 10
236.25
 20
157.0
 30
0.0
 11
236.25
 21
146.0
 31
0.0
  0
LINE
  8
L-ZISSEN
 10
193.75
 20
157.0
 30
0.0
 11
193.75
 21
146.0
 31
0.0
  0
LINE
  8
L-ZISSEN
 10
236.25
 20
146.0
 30
0.0
 11
193.75
 21
146.0
 31
0.0
  0
LINE
  8
L-ZISSEN
 10
236.25
 20
157.0
 30
0.0
 11
193.75
 21
157.0
 31
0.0
  0
LINE
  8
L-ZISSEN
 10
142.216878
 20
138.0
 30
0.0
 11
127.783122
 21
138.0
 31
0.0
  0
LINE
  8
L-ZISSEN
 10
129.5
 20
114.0
 30
0.0
 11
129.5
 21
116.3
 31
0.0
  0
LINE
  8
L-ZISSEN
 10
140.5
 20
114.0
 30
0.0
 11
140.5
 21
116.3
 31
0.0
  0
LINE
  8
L-ZISSEN
 10
140.5
 20
121.3
 30
0.0
 11
140.5
 21
127.0
 31
0.0
  0
LINE
  8
L-ZISSEN
 10
129.5
 20
121.3
 30
0.0
 11
129.5
 21
127.0
 31
0.0
  0
LINE
  8
L-ZISSEN
 10
142.216878
 20
127.0
 30
0.0
 11
127.783122
 21
127.0
 31
0.0
  0
LINE
  8
L-ZISSEN
 10
127.783122
 20
138.0
 30
0.0
 11
127.783122
 21
127.0
 31
0.0
  0
LINE
  8
L-ZISSEN
 10
142.216878
 20
138.0
 30
0.0
 11
142.216878
 21
127.0
 31
0.0
  0
LINE
  8
L-ZISSEN
 10
209.5
 20
121.3
 30
0.0
 11
209.5
 21
127.0
 31
0.0
  0
LINE
  8
L-ZISSEN
 10
220.5
 20
121.3
 30
0.0
 11
220.5
 21
127.0
 31
0.0
  0
LINE
  8
L-ZISSEN
 10
220.5
 20
114.0
 30
0.0
 11
220.5
 21
116.3
 31
0.0
  0
LINE
  8
L-ZISSEN
 10
209.5
 20
114.0
 30
0.0
 11
209.5
 21
116.3
 31
0.0
  0
LINE
  8
L-ZISSEN
 10
221.25
 20
138.0
 30
0.0
 11
208.75
 21
138.0
 31
0.0
  0
LINE
  8
L-ZISSEN
 10
221.25
 20
127.0
 30
0.0
 11
208.75
 21
127.0
 31
0.0
  0
LINE
  8
L-ZISSEN
 10
208.75
 20
138.0
 30
0.0
 11
208.75
 21
127.0
 31
0.0
  0
LINE
  8
L-ZISSEN
 10
221.25
 20
138.0
 30
0.0
 11
221.25
 21
127.0
 31
0.0
  0
LINE
  8
L-ZISSEN
 10
132.0
 20
146.0
 30
0.0
 11
132.0
 21
138.0
 31
0.0
  0
LINE
  8
L-ZISSEN
 10
138.0
 20
146.0
 30
0.0
 11
138.0
 21
138.0
 31
0.0
  0
LINE
  8
L-ZISSEN
 10
218.0
 20
146.0
 30
0.0
 11
218.0
 21
138.0
 31
0.0
  0
LINE
  8
L-ZISSEN
 10
212.0
 20
146.0
 30
0.0
 11
212.0
 21
138.0
 31
0.0
  0
TEXT
  8
L-ZISSEN
 10
105.0
 20
250.0
 30
0.0
 40
4.5
  1
MODEL NO. : 11-818-999
  0
LINE
  8
L-ZISSEN
 10
107.0
 20
199.75
 30
0.0
 11
108.0
 21
199.75
 31
0.0
  0
LINE
  8
L-ZISSEN
 10
107.0
 20
210.25
 30
0.0
 11
107.0
 21
199.75
 31
0.0
  0
LINE
  8
L-ZISSEN
 10
108.0
 20
210.25
 30
0.0
 11
107.0
 21
210.25
 31
0.0
  0
CIRCLE
  8
L-ZISSEN
 10
215.0
 20
50.0
 30
0.0
 40
5.7225
  0
SOLID
  8
L-ZISSEN
 10
106.438243
 20
48.706932
 30
0.0
 11
106.942035
 21
48.270312
 31
0.0
 12
108.0
 22
50.0
 32
0.0
 13
108.0
 23
50.0
 33
0.0
  0
LINE
  8
L-ZISSEN
 10
106.690139
 20
48.488622
 30
0.0
 11
95.0
 21
35.0
 31
0.0
  0
LINE
  8
L-ZISSEN
 10
95.0
 20
35.0
 30
0.0
 11
93.0
 21
35.0
 31
0.0
  0
TEXT
  8
L-ZISSEN
 10
85.0
 20
32.75
 30
0.0
 40
4.5
  1
IN
  0
TEXT
  8
L-ZISSEN
 10
75.0
 20
25.0
 30
0.0
 40
4.5
  1
G 1/4
  0
TEXT
  8
L-ZISSEN
 10
15.0
 20
15.0
 30
0.0
 40
4.5
  1
(11-018-1*0 : NPT 1/4)
  0
SOLID
  8
L-ZISSEN
 10
135.933333
 20
48.2
 30
0.0
 11
136.466667
 21
48.6
 31
0.0
 12
135.0
 22
50.0
 32
0.0
 13
135.0
 23
50.0
 33
0.0
  0
LINE
  8
L-ZISSEN
 10
136.2
 20
48.4
 30
0.0
 11
150.0
 21
30.0
 31
0.0
  0
LINE
  8
L-ZISSEN
 10
150.0
 20
30.0
 30
0.0
 11
152.0
 21
30.0
 31
0.0
  0
TEXT
  8
L-ZISSEN
 10
154.0
 20
27.75
 30
0.0
 40
4.5
  1
P.P
  0
CIRCLE
  8
L-ZISSEN
 10
335.0
 20
50.0
 30
0.0
 40
5.7225
  0
SOLID
  8
L-ZISSEN
 10
336.178511
 20
48.350084
 30
0.0
 11
336.649916
 21
48.821489
 31
0.0
 12
335.0
 22
50.0
 32
0.0
 13
335.0
 23
50.0
 33
0.0
  0
LINE
  8
L-ZISSEN
 10
336.414214
 20
48.585786
 30
0.0
 11
350.0
 21
35.0
 31
0.0
  0
LINE
  8
L-ZISSEN
 10
350.0
 20
35.0
 30
0.0
 11
352.0
 21
35.0
 31
0.0
  0
TEXT
  8
L-ZISSEN
 10
354.0
 20
32.75
 30
0.0
 40
4.5
  1
P.P
  0
TEXT
  8
L-ZISSEN
 10
290.0
 20
85.0
 30
0.0
 40
4.5
  1
MODEL NO. : 11-018-1 0
  0
TEXT
  8
L-ZISSEN
 10
290.0
 20
75.0
 30
0.0
 40
4.5
  1
GAUGE PORTS
  0
TEXT
  8
L-ZISSEN
 10
368.0
 20
88.75
 30
0.0
 40
4.5
  1
1
  0
TEXT
  8
L-ZISSEN
 10
368.0
 20
81.25
 30
0.0
 40
4.5
  1
0
  0
ENDSEC
  0
EOF
