  0
SECTION
  2
HEADER
  9
$ACADVER
  1
AC1012
  9
$DWGCODEPAGE
  3
dos932
  9
$INSBASE
 10
0.0
 20
0.0
 30
0.0
  9
$EXTMIN
 10
24.99798782705102
 20
9.997285330199247
 30
-0.0015258207003583
  9
$EXTMAX
 10
800.0253772766159
 20
470.0264294613459
 30
0.0000000349246037
  9
$LIMMIN
 10
0.0
 20
0.0
  9
$LIMMAX
 10
841.0
 20
594.0
  9
$ORTHOMODE
 70
     0
  9
$REGENMODE
 70
     1
  9
$FILLMODE
 70
     1
  9
$QTEXTMODE
 70
     0
  9
$MIRRTEXT
 70
     1
  9
$DRAGMODE
 70
     2
  9
$LTSCALE
 40
1.0
  9
$OSMODE
 70
    37
  9
$ATTMODE
 70
     1
  9
$TEXTSIZE
 40
4.5
  9
$TRACEWID
 40
0.05
  9
$TEXTSTYLE
  7
STANDARD
  9
$CLAYER
  8
L-ZISSEN
  9
$CELTYPE
  6
BYLAYER
  9
$CECOLOR
 62
   256
  9
$CELTSCALE
 40
1.0
  9
$DELOBJ
 70
     1
  9
$DISPSILH
 70
     0
  9
$DIMSCALE
 40
1.0
  9
$DIMASZ
 40
2.0
  9
$DIMEXO
 40
1.0
  9
$DIMDLI
 40
0.38
  9
$DIMRND
 40
0.0
  9
$DIMDLE
 40
1.0
  9
$DIMEXE
 40
1.0
  9
$DIMTP
 40
0.0
  9
$DIMTM
 40
0.0
  9
$DIMTXT
 40
4.5
  9
$DIMCEN
 40
0.09
  9
$DIMTSZ
 40
0.0
  9
$DIMTOL
 70
     0
  9
$DIMLIM
 70
     0
  9
$DIMTIH
 70
     0
  9
$DIMTOH
 70
     0
  9
$DIMSE1
 70
     0
  9
$DIMSE2
 70
     0
  9
$DIMTAD
 70
     1
  9
$DIMZIN
 70
     0
  9
$DIMBLK
  1

  9
$DIMASO
 70
     0
  9
$DIMSHO
 70
     0
  9
$DIMPOST
  1

  9
$DIMAPOST
  1

  9
$DIMALT
 70
     0
  9
$DIMALTD
 70
     2
  9
$DIMALTF
 40
25.4
  9
$DIMLFAC
 40
1.0
  9
$DIMTOFL
 70
     1
  9
$DIMTVP
 40
0.0
  9
$DIMTIX
 70
     1
  9
$DIMSOXD
 70
     0
  9
$DIMSAH
 70
     0
  9
$DIMBLK1
  1

  9
$DIMBLK2
  1

  9
$DIMSTYLE
  2
STANDARD
  9
$DIMCLRD
 70
     0
  9
$DIMCLRE
 70
     0
  9
$DIMCLRT
 70
     0
  9
$DIMTFAC
 40
1.0
  9
$DIMGAP
 40
0.09
  9
$DIMJUST
 70
     0
  9
$DIMSD1
 70
     0
  9
$DIMSD2
 70
     0
  9
$DIMTOLJ
 70
     1
  9
$DIMTZIN
 70
     0
  9
$DIMALTZ
 70
     0
  9
$DIMALTTZ
 70
     0
  9
$DIMFIT
 70
     5
  9
$DIMUPT
 70
     0
  9
$DIMUNIT
 70
     2
  9
$DIMDEC
 70
     4
  9
$DIMTDEC
 70
     4
  9
$DIMALTU
 70
     2
  9
$DIMALTTD
 70
     2
  9
$DIMTXSTY
  7
STANDARD
  9
$DIMAUNIT
 70
     0
  9
$LUNITS
 70
     2
  9
$LUPREC
 70
     4
  9
$SKETCHINC
 40
0.1
  9
$FILLETRAD
 40
5.0
  9
$AUNITS
 70
     0
  9
$AUPREC
 70
     0
  9
$MENU
  1
acad
  9
$ELEVATION
 40
0.0
  9
$PELEVATION
 40
0.0
  9
$THICKNESS
 40
0.0
  9
$LIMCHECK
 70
     0
  9
$BLIPMODE
 70
     0
  9
$CHAMFERA
 40
1.0
  9
$CHAMFERB
 40
1.0
  9
$CHAMFERC
 40
0.0
  9
$CHAMFERD
 40
0.0
  9
$SKPOLY
 70
     0
  9
$TDCREATE
 40
2449601.738596527
  9
$TDUPDATE
 40
2453243.459554629
  9
$TDINDWG
 40
0.0002136574
  9
$TDUSRTIMER
 40
0.0002136574
  9
$USRTIMER
 70
     1
  9
$ANGBASE
 50
0.0
  9
$ANGDIR
 70
     0
  9
$PDMODE
 70
     0
  9
$PDSIZE
 40
0.0
  9
$PLINEWID
 40
0.0
  9
$COORDS
 70
     0
  9
$SPLFRAME
 70
     0
  9
$SPLINETYPE
 70
     6
  9
$SPLINESEGS
 70
     8
  9
$ATTDIA
 70
     0
  9
$ATTREQ
 70
     1
  9
$HANDLING
 70
-16383
  9
$HANDSEED
  5
12A
  9
$SURFTAB1
 70
     6
  9
$SURFTAB2
 70
     6
  9
$SURFTYPE
 70
     6
  9
$SURFU
 70
     6
  9
$SURFV
 70
     6
  9
$UCSNAME
  2

  9
$UCSORG
 10
0.0
 20
0.0
 30
0.0
  9
$UCSXDIR
 10
1.0
 20
0.0
 30
0.0
  9
$UCSYDIR
 10
0.0
 20
1.0
 30
0.0
  9
$PUCSNAME
  2

  9
$PUCSORG
 10
0.0
 20
0.0
 30
0.0
  9
$PUCSXDIR
 10
1.0
 20
0.0
 30
0.0
  9
$PUCSYDIR
 10
0.0
 20
1.0
 30
0.0
  9
$USERI1
 70
     0
  9
$USERI2
 70
     0
  9
$USERI3
 70
     0
  9
$USERI4
 70
     0
  9
$USERI5
 70
     0
  9
$USERR1
 40
0.0
  9
$USERR2
 40
0.0
  9
$USERR3
 40
0.0
  9
$USERR4
 40
0.0
  9
$USERR5
 40
0.0
  9
$WORLDVIEW
 70
     1
  9
$SHADEDGE
 70
     3
  9
$SHADEDIF
 70
    70
  9
$TILEMODE
 70
     1
  9
$MAXACTVP
 70
    64
  9
$PINSBASE
 10
0.0
 20
0.0
 30
0.0
  9
$PLIMCHECK
 70
     0
  9
$PEXTMIN
 10
1.000000000000000E+20
 20
1.000000000000000E+20
 30
1.000000000000000E+20
  9
$PEXTMAX
 10
-1.000000000000000E+20
 20
-1.000000000000000E+20
 30
-1.000000000000000E+20
  9
$PLIMMIN
 10
0.0
 20
0.0
  9
$PLIMMAX
 10
12.0
 20
9.0
  9
$UNITMODE
 70
     0
  9
$VISRETAIN
 70
     1
  9
$PLINEGEN
 70
     0
  9
$PSLTSCALE
 70
     0
  9
$TREEDEPTH
 70
  3020
  9
$PICKSTYLE
 70
     1
  9
$CMLSTYLE
  2
STANDARD
  9
$CMLJUST
 70
     0
  9
$CMLSCALE
 40
1.0
  9
$SAVEIMAGES
 70
     1
  0
ENDSEC
  0
SECTION
  2
CLASSES
  0
CLASS
  1
ACDBDICTIONARYWDFLT
  2
AcDbDictionaryWithDefault
  3
AutoCAD 2000
 90
    32768
280
     0
281
     0
  0
CLASS
  1
ACDBPLACEHOLDER
  2
AcDbPlaceHolder
  3
AutoCAD 2000
 90
    32768
280
     0
281
     0
  0
CLASS
  1
LAYOUT
  2
AcDbLayout
  3
AutoCAD 2000
 90
    32768
280
     0
281
     0
  0
CLASS
  1
LONG_TRANSACTION
  2
AcDbLongTransaction
  3
AutoCAD 2000
 90
    32768
280
     0
281
     0
  0
CLASS
  1
LWPOLYLINE
  2
AcDbPolyline
  3
AutoCAD 2000
 90
    32768
280
     0
281
     1
  0
CLASS
  1
HATCH
  2
AcDbHatch
  3
AutoCAD 2000
 90
    32768
280
     0
281
     1
  0
CLASS
  1
XRECORD
  2
AcDbXrecord
  3
AutoCAD 2000
 90
    32768
280
     0
281
     0
  0
ENDSEC
  0
SECTION
  2
TABLES
  0
TABLE
  2
VPORT
  5
8
330
0
100
AcDbSymbolTable
 70
     3
  0
VPORT
  5
125
330
8
100
AcDbSymbolTableRecord
100
AcDbViewportTableRecord
  2
*ACTIVE
 70
     0
 10
0.0
 20
0.0
 11
1.0
 21
1.0
 12
412.5116825518334
 22
240.0118573957726
 13
0.0
 23
0.0
 14
5.0
 24
5.0
 15
0.0
 25
0.0
 16
0.0
 26
0.0
 36
1.0
 17
0.0
 27
0.0
 37
0.0
 40
537.9662826434545
 41
1.45224171539961
 42
50.0
 43
0.0
 44
0.0
 50
0.0
 51
0.0
 71
     0
 72
   100
 73
     1
 74
     0
 75
     0
 76
     0
 77
     0
 78
     0
  0
ENDTAB
  0
TABLE
  2
LTYPE
  5
5
330
0
100
AcDbSymbolTable
 70
     2
  0
LTYPE
  5
13
330
5
100
AcDbSymbolTableRecord
100
AcDbLinetypeTableRecord
  2
BYBLOCK
 70
     0
  3

 72
    65
 73
     0
 40
0.0
  0
LTYPE
  5
14
330
5
100
AcDbSymbolTableRecord
100
AcDbLinetypeTableRecord
  2
BYLAYER
 70
     0
  3

 72
    65
 73
     0
 40
0.0
  0
LTYPE
  5
15
330
5
100
AcDbSymbolTableRecord
100
AcDbLinetypeTableRecord
  2
CONTINUOUS
 70
     0
  3
Solid line
 72
    65
 73
     0
 40
0.0
  0
LTYPE
  5
22
330
5
100
AcDbSymbolTableRecord
100
AcDbLinetypeTableRecord
  2
CENTER
 70
     0
  3
____ _ ____ _ ____ _ ____ _ 
 72
    65
 73
     4
 40
60.0
 49
45.0
 74
     0
 49
-5.0
 74
     0
 49
5.0
 74
     0
 49
-5.0
 74
     0
  0
ENDTAB
  0
TABLE
  2
LAYER
  5
2
330
0
100
AcDbSymbolTable
 70
     3
  0
LAYER
  5
10
330
2
100
AcDbSymbolTableRecord
100
AcDbLayerTableRecord
  2
0
 70
     0
 62
     7
  6
CONTINUOUS
  0
LAYER
  5
25
330
2
100
AcDbSymbolTableRecord
100
AcDbLayerTableRecord
  2
L-ZISSEN
 70
     0
 62
     7
  6
CONTINUOUS
  0
LAYER
  5
26
330
2
100
AcDbSymbolTableRecord
100
AcDbLayerTableRecord
  2
L-TYUSIN
 70
     0
 62
     1
  6
CENTER
  0
ENDTAB
  0
TABLE
  2
STYLE
  5
3
330
0
100
AcDbSymbolTable
 70
     1
  0
STYLE
  5
11
330
3
100
AcDbSymbolTableRecord
100
AcDbTextStyleTableRecord
  2
STANDARD
 70
     0
 40
0.0
 41
1.0
 50
0.0
 71
     0
 42
4.5
  3
TXT
  4

  0
ENDTAB
  0
TABLE
  2
VIEW
  5
6
330
0
100
AcDbSymbolTable
 70
     0
  0
ENDTAB
  0
TABLE
  2
UCS
  5
7
330
0
100
AcDbSymbolTable
 70
     0
  0
ENDTAB
  0
TABLE
  2
APPID
  5
9
330
0
100
AcDbSymbolTable
 70
     1
  0
APPID
  5
12
330
9
100
AcDbSymbolTableRecord
100
AcDbRegAppTableRecord
  2
ACAD
 70
     0
  0
ENDTAB
  0
TABLE
  2
DIMSTYLE
  5
A
330
0
100
AcDbSymbolTable
 70
     1
  0
DIMSTYLE
105
123
330
A
100
AcDbSymbolTableRecord
100
AcDbDimStyleTableRecord
  2
STANDARD
 70
     0
  3

  4

  5

  6

  7

 40
1.0
 41
0.18
 42
0.0625
 43
0.38
 44
0.18
 45
0.0
 46
0.0
 47
0.0
 48
0.0
140
0.18
141
0.09
142
0.0
143
25.4
144
1.0
145
0.0
146
1.0
147
0.09
 71
     0
 72
     0
 73
     1
 74
     1
 75
     0
 76
     0
 77
     0
 78
     0
170
     0
171
     2
172
     0
173
     0
174
     0
175
     0
176
     0
177
     0
178
     0
270
     2
271
     4
272
     4
273
     2
274
     2
340
11
275
     0
280
     0
281
     0
282
     0
283
     1
284
     0
285
     0
286
     0
287
     3
288
     0
  0
ENDTAB
  0
TABLE
  2
BLOCK_RECORD
  5
1
330
0
100
AcDbSymbolTable
 70
     0
  0
BLOCK_RECORD
  5
1E
102
{ACAD_XDICTIONARY
360
128
102
}
330
1
100
AcDbSymbolTableRecord
100
AcDbBlockTableRecord
  2
*MODEL_SPACE
  0
BLOCK_RECORD
  5
1A
102
{ACAD_XDICTIONARY
360
126
102
}
330
1
100
AcDbSymbolTableRecord
100
AcDbBlockTableRecord
  2
*PAPER_SPACE
  0
ENDTAB
  0
ENDSEC
  0
SECTION
  2
BLOCKS
  0
BLOCK
  5
29
330
1E
100
AcDbEntity
  8
0
100
AcDbBlockBegin
  2
*MODEL_SPACE
 70
     0
 10
0.0
 20
0.0
 30
0.0
  3
*MODEL_SPACE
  1

  0
ENDBLK
  5
2A
330
1E
100
AcDbEntity
  8
0
100
AcDbBlockEnd
  0
BLOCK
  5
27
330
1A
100
AcDbEntity
 67
     1
  8
0
100
AcDbBlockBegin
  2
*PAPER_SPACE
 70
     0
 10
0.0
 20
0.0
 30
0.0
  3
*PAPER_SPACE
  1

  0
ENDBLK
  5
28
330
1A
100
AcDbEntity
 67
     1
  8
0
100
AcDbBlockEnd
  0
ENDSEC
  0
SECTION
  2
ENTITIES
  0
CIRCLE
  5
2B
330
1E
100
AcDbEntity
  8
L-ZISSEN
100
AcDbCircle
 10
416.0
 20
319.9999999999999
 30
0.0
 40
27.0
  0
LINE
  5
2C
330
1E
100
AcDbEntity
  8
L-ZISSEN
100
AcDbLine
 10
400.443650813896
 20
335.5563491861042
 30
0.0
 11
424.4852813742386
 21
311.5147186257616
 31
0.0
  0
LINE
  5
2D
330
1E
100
AcDbEntity
  8
L-ZISSEN
100
AcDbLine
 10
468.9999999999998
 20
346.9999999999997
 30
0.0
 11
468.9999999999998
 21
293.0000000000002
 31
0.0
  0
LINE
  5
2E
330
1E
100
AcDbEntity
  8
L-ZISSEN
100
AcDbLine
 10
492.4999999999998
 20
346.9999999999998
 30
0.0
 11
492.4999999999998
 21
293.0000000000002
 31
0.0
  0
LINE
  5
2F
330
1E
100
AcDbEntity
  8
L-ZISSEN
100
AcDbLine
 10
492.4999999999998
 20
293.0000000000002
 30
0.0
 11
468.9999999999998
 21
293.0000000000002
 31
0.0
  0
LINE
  5
30
330
1E
100
AcDbEntity
  8
L-ZISSEN
100
AcDbLine
 10
492.4999999999998
 20
346.9999999999997
 30
0.0
 11
468.9999999999998
 21
346.9999999999997
 31
0.0
  0
TEXT
  5
31
330
1E
100
AcDbEntity
  8
L-ZISSEN
100
AcDbText
 10
355.0
 20
455.0
 30
0.0
 40
4.5
  1
PRESSURE GAUGE
100
AcDbText
  0
LINE
  5
33
330
1E
100
AcDbEntity
  8
L-TYUSIN
100
AcDbLine
 10
340.0
 20
280.0
 30
0.0
 11
800.0
 21
280.0
 31
0.0
  0
LINE
  5
34
330
1E
100
AcDbEntity
  8
L-TYUSIN
100
AcDbLine
 10
340.0
 20
470.0
 30
0.0
 11
340.0
 21
10.0
 31
0.0
  0
LINE
  5
35
330
1E
100
AcDbEntity
  8
L-TYUSIN
100
AcDbLine
 10
120.0
 20
225.0
 30
0.0
 11
120.0
 21
35.0
 31
0.0
  0
LINE
  5
36
330
1E
100
AcDbEntity
  8
L-TYUSIN
100
AcDbLine
 10
64.0
 20
100.0
 30
0.0
 11
182.0
 21
100.0
 31
0.0
  0
LINE
  5
37
330
1E
100
AcDbEntity
  8
L-TYUSIN
100
AcDbLine
 10
260.0
 20
225.0
 30
0.0
 11
260.0
 21
35.0
 31
0.0
  0
LINE
  5
38
330
1E
100
AcDbEntity
  8
L-ZISSEN
100
AcDbLine
 10
177.0
 20
78.0
 30
0.0
 11
177.0
 21
122.0
 31
0.0
  0
LINE
  5
39
330
1E
100
AcDbEntity
  8
L-ZISSEN
100
AcDbLine
 10
69.0
 20
78.0
 30
0.0
 11
69.0
 21
122.0
 31
0.0
  0
LINE
  5
3A
330
1E
100
AcDbEntity
  8
L-ZISSEN
100
AcDbLine
 10
91.0
 20
78.0
 30
0.0
 11
91.0
 21
40.0
 31
0.0
  0
LINE
  5
3B
330
1E
100
AcDbEntity
  8
L-ZISSEN
100
AcDbLine
 10
149.0
 20
78.0
 30
0.0
 11
149.0
 21
40.0
 31
0.0
  0
LINE
  5
3C
330
1E
100
AcDbEntity
  8
L-ZISSEN
100
AcDbLine
 10
149.0
 20
40.0
 30
0.0
 11
91.0
 21
40.0
 31
0.0
  0
LINE
  5
3D
330
1E
100
AcDbEntity
  8
L-ZISSEN
100
AcDbLine
 10
149.0
 20
50.0
 30
0.0
 11
91.0
 21
50.0
 31
0.0
  0
LINE
  5
3E
330
1E
100
AcDbEntity
  8
L-ZISSEN
100
AcDbLine
 10
147.5
 20
220.0
 30
0.0
 11
92.5
 21
220.0
 31
0.0
  0
LINE
  5
3F
330
1E
100
AcDbEntity
  8
L-ZISSEN
100
AcDbLine
 10
176.9999999999999
 20
122.0
 30
0.0
 11
69.0
 21
122.0
 31
0.0
  0
LINE
  5
40
330
1E
100
AcDbEntity
  8
L-ZISSEN
100
AcDbLine
 10
69.0
 20
78.0
 30
0.0
 11
177.0
 21
78.0
 31
0.0
  0
LINE
  5
41
330
1E
100
AcDbEntity
  8
L-ZISSEN
100
AcDbLine
 10
153.5
 20
131.0
 30
0.0
 11
143.2379000772446
 21
131.0
 31
0.0
  0
LINE
  5
42
330
1E
100
AcDbEntity
  8
L-ZISSEN
100
AcDbLine
 10
151.0
 20
132.0
 30
0.0
 11
143.2379000772446
 21
132.0
 31
0.0
  0
LINE
  5
43
330
1E
100
AcDbEntity
  8
L-TYUSIN
100
AcDbLine
 10
151.0
 20
81.0
 30
0.0
 11
151.0
 21
119.0
 31
0.0
  0
CIRCLE
  5
44
330
1E
100
AcDbEntity
  8
L-ZISSEN
100
AcDbCircle
 10
151.0
 20
100.0
 30
0.0
 40
12.5
  0
LINE
  5
45
330
1E
100
AcDbEntity
  8
L-ZISSEN
100
AcDbLine
 10
289.0
 20
50.0
 30
0.0
 11
231.0
 21
50.0
 31
0.0
  0
LINE
  5
46
330
1E
100
AcDbEntity
  8
L-ZISSEN
100
AcDbLine
 10
289.0
 20
40.0
 30
0.0
 11
231.0
 21
40.0
 31
0.0
  0
LINE
  5
47
330
1E
100
AcDbEntity
  8
L-ZISSEN
100
AcDbLine
 10
289.0
 20
78.0
 30
0.0
 11
289.0
 21
40.0
 31
0.0
  0
LINE
  5
48
330
1E
100
AcDbEntity
  8
L-ZISSEN
100
AcDbLine
 10
231.0
 20
78.0
 30
0.0
 11
231.0
 21
40.0
 31
0.0
  0
LINE
  5
49
330
1E
100
AcDbEntity
  8
L-ZISSEN
100
AcDbLine
 10
230.0
 20
78.0
 30
0.0
 11
290.0
 21
78.0
 31
0.0
  0
LINE
  5
4A
330
1E
100
AcDbEntity
  8
L-ZISSEN
100
AcDbLine
 10
290.0
 20
122.0
 30
0.0
 11
230.0
 21
122.0
 31
0.0
  0
LINE
  5
4B
330
1E
100
AcDbEntity
  8
L-ZISSEN
100
AcDbLine
 10
231.5
 20
112.5
 30
0.0
 11
237.5
 21
112.5
 31
0.0
  0
LINE
  5
4C
330
1E
100
AcDbEntity
  8
L-ZISSEN
100
AcDbLine
 10
231.4999999999999
 20
87.5
 30
0.0
 11
237.5
 21
87.5
 31
0.0
  0
LINE
  5
4D
330
1E
100
AcDbEntity
  8
L-ZISSEN
100
AcDbLine
 10
231.4999999999999
 20
87.5
 30
0.0
 11
231.4999999999999
 21
112.5
 31
0.0
  0
LINE
  5
4E
330
1E
100
AcDbEntity
  8
L-ZISSEN
100
AcDbLine
 10
282.5
 20
78.0
 30
0.0
 11
282.5
 21
122.0
 31
0.0
  0
LINE
  5
4F
330
1E
100
AcDbEntity
  8
L-ZISSEN
100
AcDbLine
 10
237.5
 20
78.0
 30
0.0
 11
237.5
 21
122.0
 31
0.0
  0
LINE
  5
50
330
1E
100
AcDbEntity
  8
L-ZISSEN
100
AcDbLine
 10
288.5
 20
87.5
 30
0.0
 11
288.5
 21
112.5
 31
0.0
  0
LINE
  5
51
330
1E
100
AcDbEntity
  8
L-ZISSEN
100
AcDbLine
 10
288.5
 20
87.5
 30
0.0
 11
282.5
 21
87.5
 31
0.0
  0
LINE
  5
52
330
1E
100
AcDbEntity
  8
L-ZISSEN
100
AcDbLine
 10
288.4999999999999
 20
112.5
 30
0.0
 11
282.5
 21
112.5
 31
0.0
  0
LINE
  5
53
330
1E
100
AcDbEntity
  8
L-ZISSEN
100
AcDbLine
 10
230.0
 20
122.0
 30
0.0
 11
230.0
 21
78.0
 31
0.0
  0
LINE
  5
54
330
1E
100
AcDbEntity
  8
L-ZISSEN
100
AcDbLine
 10
290.0
 20
122.0
 30
0.0
 11
290.0
 21
78.0
 31
0.0
  0
LINE
  5
55
330
1E
100
AcDbEntity
  8
L-TYUSIN
100
AcDbLine
 10
225.0
 20
100.0
 30
0.0
 11
295.0
 21
100.0
 31
0.0
  0
CIRCLE
  5
56
330
1E
100
AcDbEntity
  8
L-ZISSEN
100
AcDbCircle
 10
151.0
 20
100.0
 30
0.0
 40
5.7225
  0
CIRCLE
  5
57
330
1E
100
AcDbEntity
  8
L-ZISSEN
100
AcDbCircle
 10
260.0
 20
100.0
 30
0.0
 40
12.05849999999999
  0
LINE
  5
58
330
1E
100
AcDbEntity
  8
L-TYUSIN
100
AcDbLine
 10
151.0
 20
246.4999999999999
 30
0.0
 11
151.0
 21
313.5
 31
0.0
  0
LINE
  5
59
330
1E
100
AcDbEntity
  8
L-ZISSEN
100
AcDbLine
 10
69.0
 20
258.0
 30
0.0
 11
99.60392194562887
 21
258.0
 31
0.0
  0
LINE
  5
5A
330
1E
100
AcDbEntity
  8
L-ZISSEN
100
AcDbLine
 10
176.9999999999999
 20
302.0
 30
0.0
 11
140.3960780543712
 21
302.0
 31
0.0
  0
LINE
  5
5B
330
1E
100
AcDbEntity
  8
L-ZISSEN
100
AcDbLine
 10
69.0
 20
258.0
 30
0.0
 11
69.0
 21
302.0
 31
0.0
  0
LINE
  5
5C
330
1E
100
AcDbEntity
  8
L-ZISSEN
100
AcDbLine
 10
177.0
 20
258.0
 30
0.0
 11
177.0
 21
302.0
 31
0.0
  0
LINE
  5
5D
330
1E
100
AcDbEntity
  8
L-TYUSIN
100
AcDbLine
 10
64.0
 20
280.0
 30
0.0
 11
182.0
 21
280.0
 31
0.0
  0
LINE
  5
5E
330
1E
100
AcDbEntity
  8
L-TYUSIN
100
AcDbLine
 10
120.0
 20
315.0
 30
0.0
 11
120.0
 21
245.0
 31
0.0
  0
ARC
  5
5F
330
1E
100
AcDbEntity
  8
L-ZISSEN
100
AcDbCircle
 10
120.0
 20
280.0
 30
0.0
 40
30.0
100
AcDbArc
 50
47.16657193393254
 51
132.8334280660674
  0
LINE
  5
60
330
1E
100
AcDbEntity
  8
L-ZISSEN
100
AcDbLine
 10
163.4999999999999
 20
258.0
 30
0.0
 11
163.4999999999999
 21
251.5
 31
0.0
  0
LINE
  5
61
330
1E
100
AcDbEntity
  8
L-ZISSEN
100
AcDbLine
 10
163.4999999999999
 20
251.5
 30
0.0
 11
138.5
 21
251.5
 31
0.0
  0
LINE
  5
62
330
1E
100
AcDbEntity
  8
L-ZISSEN
100
AcDbLine
 10
138.5
 20
251.5
 30
0.0
 11
138.5
 21
256.3832686427609
 31
0.0
  0
ARC
  5
63
330
1E
100
AcDbEntity
  8
L-ZISSEN
100
AcDbCircle
 10
120.0
 20
280.0
 30
0.0
 40
30.0
100
AcDbArc
 50
227.1665719339327
 51
312.8334280660673
  0
LINE
  5
64
330
1E
100
AcDbEntity
  8
L-ZISSEN
100
AcDbLine
 10
138.5
 20
308.4999999999999
 30
0.0
 11
138.5
 21
303.6167313572391
 31
0.0
  0
LINE
  5
65
330
1E
100
AcDbEntity
  8
L-ZISSEN
100
AcDbLine
 10
163.4999999999999
 20
308.4999999999999
 30
0.0
 11
138.5
 21
308.4999999999999
 31
0.0
  0
LINE
  5
66
330
1E
100
AcDbEntity
  8
L-ZISSEN
100
AcDbLine
 10
163.4999999999999
 20
302.0
 30
0.0
 11
163.4999999999999
 21
308.4999999999999
 31
0.0
  0
LINE
  5
67
330
1E
100
AcDbEntity
  8
L-ZISSEN
100
AcDbLine
 10
99.60392194562874
 20
302.0
 30
0.0
 11
69.0
 21
302.0
 31
0.0
  0
LINE
  5
68
330
1E
100
AcDbEntity
  8
L-ZISSEN
100
AcDbLine
 10
140.3960780543711
 20
258.0
 30
0.0
 11
177.0
 21
258.0
 31
0.0
  0
ARC
  5
69
330
1E
100
AcDbEntity
  8
L-ZISSEN
100
AcDbCircle
 10
120.0
 20
280.0
 30
0.0
 40
33.5
100
AcDbArc
 50
330.4925113069094
 51
29.50748869309057
  0
ARC
  5
6A
330
1E
100
AcDbEntity
  8
L-ZISSEN
100
AcDbCircle
 10
120.0
 20
280.0
 30
0.0
 40
31.0
100
AcDbArc
 50
327.8418495128256
 51
32.15815048717432
  0
LINE
  5
6B
330
1E
100
AcDbEntity
  8
L-ZISSEN
100
AcDbLine
 10
149.1547594742264
 20
263.5
 30
0.0
 11
143.2379000772444
 21
263.5
 31
0.0
  0
LINE
  5
6C
330
1E
100
AcDbEntity
  8
L-ZISSEN
100
AcDbLine
 10
149.1547594742265
 20
296.4999999999999
 30
0.0
 11
143.2379000772444
 21
296.4999999999999
 31
0.0
  0
ARC
  5
6D
330
1E
100
AcDbEntity
  8
L-ZISSEN
100
AcDbCircle
 10
120.0
 20
280.0
 30
0.0
 40
33.5
100
AcDbArc
 50
150.4925113069094
 51
209.5074886930905
  0
ARC
  5
6E
330
1E
100
AcDbEntity
  8
L-ZISSEN
100
AcDbCircle
 10
120.0
 20
280.0
 30
0.0
 40
31.0
100
AcDbArc
 50
147.8418495128256
 51
212.1581504871743
  0
CIRCLE
  5
6F
330
1E
100
AcDbEntity
  8
L-ZISSEN
100
AcDbCircle
 10
120.0
 20
280.0
 30
0.0
 40
28.5
  0
LINE
  5
70
330
1E
100
AcDbEntity
  8
L-ZISSEN
100
AcDbLine
 10
96.76209992275548
 20
263.5
 30
0.0
 11
90.84524052577355
 21
263.5
 31
0.0
  0
LINE
  5
71
330
1E
100
AcDbEntity
  8
L-ZISSEN
100
AcDbLine
 10
96.76209992275548
 20
296.4999999999999
 30
0.0
 11
90.84524052577345
 21
296.4999999999999
 31
0.0
  0
CIRCLE
  5
72
330
1E
100
AcDbEntity
  8
L-ZISSEN
100
AcDbCircle
 10
120.0
 20
280.0
 30
0.0
 40
27.5
  0
LINE
  5
73
330
1E
100
AcDbEntity
  8
L-ZISSEN
100
AcDbLine
 10
147.5
 20
188.0
 30
0.0
 11
92.5
 21
188.0
 31
0.0
  0
LINE
  5
74
330
1E
100
AcDbEntity
  8
L-ZISSEN
100
AcDbLine
 10
92.5
 20
220.0
 30
0.0
 11
92.5
 21
188.0
 31
0.0
  0
LINE
  5
75
330
1E
100
AcDbEntity
  8
L-ZISSEN
100
AcDbLine
 10
147.5
 20
220.0
 30
0.0
 11
147.5
 21
188.0
 31
0.0
  0
LINE
  5
76
330
1E
100
AcDbEntity
  8
L-ZISSEN
100
AcDbLine
 10
86.5
 20
131.0
 30
0.0
 11
86.5
 21
122.0
 31
0.0
  0
LINE
  5
77
330
1E
100
AcDbEntity
  8
L-ZISSEN
100
AcDbLine
 10
89.0
 20
132.0
 30
0.0
 11
89.0
 21
131.0
 31
0.0
  0
LINE
  5
78
330
1E
100
AcDbEntity
  8
L-ZISSEN
100
AcDbLine
 10
151.0
 20
132.0
 30
0.0
 11
151.0
 21
131.0
 31
0.0
  0
LINE
  5
79
330
1E
100
AcDbEntity
  8
L-ZISSEN
100
AcDbLine
 10
153.5
 20
131.0
 30
0.0
 11
153.5
 21
122.0
 31
0.0
  0
LINE
  5
7A
330
1E
100
AcDbEntity
  8
L-ZISSEN
100
AcDbLine
 10
287.5
 20
220.0
 30
0.0
 11
287.5
 21
188.0
 31
0.0
  0
LINE
  5
7B
330
1E
100
AcDbEntity
  8
L-ZISSEN
100
AcDbLine
 10
232.5
 20
220.0
 30
0.0
 11
232.5
 21
188.0
 31
0.0
  0
LINE
  5
7C
330
1E
100
AcDbEntity
  8
L-ZISSEN
100
AcDbLine
 10
287.5
 20
188.0
 30
0.0
 11
232.5
 21
188.0
 31
0.0
  0
LINE
  5
7D
330
1E
100
AcDbEntity
  8
L-ZISSEN
100
AcDbLine
 10
287.5
 20
220.0
 30
0.0
 11
232.5
 21
220.0
 31
0.0
  0
LINE
  5
7E
330
1E
100
AcDbEntity
  8
L-ZISSEN
100
AcDbLine
 10
96.76209992275538
 20
132.0
 30
0.0
 11
96.76209992275538
 21
122.0
 31
0.0
  0
LINE
  5
7F
330
1E
100
AcDbEntity
  8
L-ZISSEN
100
AcDbLine
 10
91.5
 20
146.0
 30
0.0
 11
148.5
 21
146.0
 31
0.0
  0
LINE
  5
80
330
1E
100
AcDbEntity
  8
L-ZISSEN
100
AcDbLine
 10
91.5
 20
146.0
 30
0.0
 11
91.5
 21
132.0
 31
0.0
  0
LINE
  5
81
330
1E
100
AcDbEntity
  8
L-ZISSEN
100
AcDbLine
 10
148.5
 20
146.0
 30
0.0
 11
148.5
 21
132.0
 31
0.0
  0
LINE
  5
82
330
1E
100
AcDbEntity
  8
L-ZISSEN
100
AcDbLine
 10
143.2379000772446
 20
132.0
 30
0.0
 11
143.2379000772446
 21
122.0
 31
0.0
  0
LINE
  5
83
330
1E
100
AcDbEntity
  8
L-ZISSEN
100
AcDbLine
 10
96.76209992275538
 20
131.0
 30
0.0
 11
86.5
 21
131.0
 31
0.0
  0
LINE
  5
84
330
1E
100
AcDbEntity
  8
L-ZISSEN
100
AcDbLine
 10
96.76209992275538
 20
132.0
 30
0.0
 11
89.0
 21
132.0
 31
0.0
  0
LINE
  5
85
330
1E
100
AcDbEntity
  8
L-ZISSEN
100
AcDbLine
 10
97.0
 20
146.0
 30
0.0
 11
98.0
 21
188.0
 31
0.0
  0
LINE
  5
86
330
1E
100
AcDbEntity
  8
L-ZISSEN
100
AcDbLine
 10
143.0
 20
146.0
 30
0.0
 11
142.0
 21
188.0
 31
0.0
  0
LINE
  5
87
330
1E
100
AcDbEntity
  8
L-ZISSEN
100
AcDbLine
 10
231.4999999999999
 20
146.0
 30
0.0
 11
231.4999999999999
 21
122.0
 31
0.0
  0
LINE
  5
88
330
1E
100
AcDbEntity
  8
L-ZISSEN
100
AcDbLine
 10
237.0
 20
146.0
 30
0.0
 11
238.0
 21
188.0
 31
0.0
  0
LINE
  5
89
330
1E
100
AcDbEntity
  8
L-ZISSEN
100
AcDbLine
 10
231.4999999999999
 20
146.0
 30
0.0
 11
288.5
 21
146.0
 31
0.0
  0
LINE
  5
8A
330
1E
100
AcDbEntity
  8
L-ZISSEN
100
AcDbLine
 10
283.0
 20
146.0
 30
0.0
 11
282.0
 21
188.0
 31
0.0
  0
LINE
  5
8B
330
1E
100
AcDbEntity
  8
L-ZISSEN
100
AcDbLine
 10
288.4999999999999
 20
146.0
 30
0.0
 11
288.4999999999999
 21
122.0
 31
0.0
  0
LINE
  5
8C
330
1E
100
AcDbEntity
  8
L-ZISSEN
100
AcDbLine
 10
243.5
 20
132.0
 30
0.0
 11
243.5
 21
122.0
 31
0.0
  0
LINE
  5
8D
330
1E
100
AcDbEntity
  8
L-ZISSEN
100
AcDbLine
 10
243.5
 20
130.9999999999999
 30
0.0
 11
276.5
 21
131.0
 31
0.0
  0
LINE
  5
8E
330
1E
100
AcDbEntity
  8
L-ZISSEN
100
AcDbLine
 10
243.5
 20
131.9999999999999
 30
0.0
 11
276.5
 21
132.0
 31
0.0
  0
LINE
  5
8F
330
1E
100
AcDbEntity
  8
L-ZISSEN
100
AcDbLine
 10
276.5
 20
132.0
 30
0.0
 11
276.5
 21
122.0
 31
0.0
  0
SOLID
  5
90
330
1E
100
AcDbEntity
  8
L-ZISSEN
100
AcDbTrace
 10
67.39167840986569
 20
98.76532888030093
 30
0.0
 11
67.87904858869428
 21
98.31045004672759
 31
0.0
 12
69.0
 22
100.0
 32
0.0
 13
69.0
 23
100.0
 33
0.0
  0
LINE
  5
91
330
1E
100
AcDbEntity
  8
L-ZISSEN
100
AcDbLine
 10
67.63536349927997
 20
98.53788946351427
 30
0.0
 11
55.0
 21
84.99999999999998
 31
0.0
  0
LINE
  5
92
330
1E
100
AcDbEntity
  8
L-ZISSEN
100
AcDbLine
 10
55.0
 20
84.99999999999998
 30
0.0
 11
52.99999999999999
 21
84.99999999999998
 31
0.0
  0
TEXT
  5
93
330
1E
100
AcDbEntity
  8
L-ZISSEN
100
AcDbText
 10
44.99999999999999
 20
82.74999999999998
 30
0.0
 40
4.5
  1
IN
100
AcDbText
  0
TEXT
  5
94
330
1E
100
AcDbEntity
  8
L-ZISSEN
100
AcDbText
 10
25.0
 20
75.0
 30
0.0
 40
4.5
  1
Rc 3/4
100
AcDbText
  0
TEXT
  5
95
330
1E
100
AcDbEntity
  8
L-ZISSEN
100
AcDbText
 10
25.0
 20
65.0
 30
0.0
 40
4.5
  1
Rc 1
100
AcDbText
  0
TEXT
  5
96
330
1E
100
AcDbEntity
  8
L-ZISSEN
100
AcDbText
 10
70.0
 20
350.0
 30
0.0
 40
4.5
  1
MODEL NO. : R17- 00- N B
100
AcDbText
  0
TEXT
  5
97
330
1E
100
AcDbEntity
  8
L-ZISSEN
100
AcDbText
 10
135.0
 20
353.75
 30
0.0
 40
4.5
  1
6
100
AcDbText
  0
TEXT
  5
98
330
1E
100
AcDbEntity
  8
L-ZISSEN
100
AcDbText
 10
135.0
 20
347.5
 30
0.0
 40
4.5
  1
8
100
AcDbText
  0
TEXT
  5
99
330
1E
100
AcDbEntity
  8
L-ZISSEN
100
AcDbText
 10
150.0
 20
353.75
 30
0.0
 40
4.5
  1
R
100
AcDbText
  0
TEXT
  5
9A
330
1E
100
AcDbEntity
  8
L-ZISSEN
100
AcDbText
 10
150.0
 20
347.5
 30
0.0
 40
4.5
  1
N
100
AcDbText
  0
TEXT
  5
9B
330
1E
100
AcDbEntity
  8
L-ZISSEN
100
AcDbText
 10
160.0
 20
350.0
 30
0.0
 40
4.5
  1
E
100
AcDbText
  0
TEXT
  5
9C
330
1E
100
AcDbEntity
  8
L-ZISSEN
100
AcDbText
 10
160.0
 20
356.25
 30
0.0
 40
4.5
  1
L
100
AcDbText
  0
TEXT
  5
9D
330
1E
100
AcDbEntity
  8
L-ZISSEN
100
AcDbText
 10
160.0
 20
343.75
 30
0.0
 40
4.5
  1
S
100
AcDbText
  0
LINE
  5
9E
330
1E
100
AcDbEntity
  8
L-ZISSEN
100
AcDbLine
 10
616.5
 20
325.0
 30
0.0
 11
683.4999999999999
 21
325.0
 31
0.0
  0
LINE
  5
9F
330
1E
100
AcDbEntity
  8
L-ZISSEN
100
AcDbLine
 10
616.5
 20
341.0
 30
0.0
 11
683.4999999999999
 21
341.0
 31
0.0
  0
LINE
  5
A0
330
1E
100
AcDbEntity
  8
L-ZISSEN
100
AcDbLine
 10
616.5
 20
325.0
 30
0.0
 11
616.5
 21
341.0
 31
0.0
  0
LINE
  5
A1
330
1E
100
AcDbEntity
  8
L-ZISSEN
100
AcDbLine
 10
683.4999999999999
 20
325.0
 30
0.0
 11
683.4999999999999
 21
341.0
 31
0.0
  0
SOLID
  5
A2
330
1E
100
AcDbEntity
  8
L-ZISSEN
100
AcDbTrace
 10
121.3015827469119
 20
98.4453317189663
 30
0.0
 11
121.7354436625492
 21
98.95150278720983
 31
0.0
 12
120.0
 22
100.0
 32
0.0
 13
120.0
 23
100.0
 33
0.0
  0
LINE
  5
A3
330
1E
100
AcDbEntity
  8
L-ZISSEN
100
AcDbLine
 10
121.5185132047305
 20
98.69841725308807
 30
0.0
 11
155.0
 21
69.99999999999999
 31
0.0
  0
LINE
  5
A4
330
1E
100
AcDbEntity
  8
L-ZISSEN
100
AcDbLine
 10
155.0
 20
69.99999999999999
 30
0.0
 11
157.0
 21
69.99999999999999
 31
0.0
  0
TEXT
  5
A5
330
1E
100
AcDbEntity
  8
L-ZISSEN
100
AcDbText
 10
159.0
 20
67.74999999999998
 30
0.0
 40
4.5
  1
P.P
100
AcDbText
  0
SOLID
  5
A6
330
1E
100
AcDbEntity
  8
L-ZISSEN
100
AcDbTrace
 10
261.3015827469119
 20
98.44533171896632
 30
0.0
 11
261.7354436625492
 21
98.95150278720985
 31
0.0
 12
260.0
 22
100.0
 32
0.0
 13
260.0
 23
100.0
 33
0.0
  0
LINE
  5
A7
330
1E
100
AcDbEntity
  8
L-ZISSEN
100
AcDbLine
 10
261.5185132047305
 20
98.69841725308809
 30
0.0
 11
295.0
 21
70.0
 31
0.0
  0
LINE
  5
A8
330
1E
100
AcDbEntity
  8
L-ZISSEN
100
AcDbLine
 10
295.0
 20
70.0
 30
0.0
 11
297.0
 21
70.0
 31
0.0
  0
TEXT
  5
A9
330
1E
100
AcDbEntity
  8
L-ZISSEN
100
AcDbText
 10
299.0
 20
67.75
 30
0.0
 40
4.5
  1
P.P
100
AcDbText
  0
SOLID
  5
AA
330
1E
100
AcDbEntity
  8
L-ZISSEN
100
AcDbTrace
 10
651.6499158227685
 20
291.1785113019775
 30
0.0
 11
651.1785113019775
 21
291.6499158227686
 31
0.0
 12
650.0
 22
290.0
 32
0.0
 13
650.0
 23
290.0
 33
0.0
  0
LINE
  5
AB
330
1E
100
AcDbEntity
  8
L-ZISSEN
100
AcDbLine
 10
651.4142135623731
 20
291.414213562373
 30
0.0
 11
660.0
 21
300.0
 31
0.0
  0
LINE
  5
AC
330
1E
100
AcDbEntity
  8
L-ZISSEN
100
AcDbLine
 10
660.0
 20
300.0
 30
0.0
 11
662.0
 21
300.0
 31
0.0
  0
TEXT
  5
AD
330
1E
100
AcDbEntity
  8
L-ZISSEN
100
AcDbText
 10
664.0
 20
297.75
 30
0.0
 40
4.5
  1
P.P
100
AcDbText
  0
CIRCLE
  5
AE
330
1E
100
AcDbEntity
  8
L-ZISSEN
100
AcDbCircle
 10
650.0
 20
400.0
 30
0.0
 40
33.5
  0
SOLID
  5
AF
330
1E
100
AcDbEntity
  8
L-ZISSEN
100
AcDbTrace
 10
651.6499158227686
 20
401.1785113019775
 30
0.0
 11
651.1785113019775
 21
401.6499158227686
 31
0.0
 12
650.0
 22
400.0
 32
0.0
 13
650.0
 23
400.0
 33
0.0
  0
LINE
  5
B0
330
1E
100
AcDbEntity
  8
L-ZISSEN
100
AcDbLine
 10
651.4142135623731
 20
401.4142135623731
 30
0.0
 11
680.0
 21
430.0
 31
0.0
  0
LINE
  5
B1
330
1E
100
AcDbEntity
  8
L-ZISSEN
100
AcDbLine
 10
680.0
 20
430.0
 30
0.0
 11
682.0
 21
430.0
 31
0.0
  0
TEXT
  5
B2
330
1E
100
AcDbEntity
  8
L-ZISSEN
100
AcDbText
 10
684.0
 20
427.7499999999999
 30
0.0
 40
4.5
  1
P.P
100
AcDbText
  0
TEXT
  5
B3
330
1E
100
AcDbEntity
  8
L-ZISSEN
100
AcDbText
 10
615.0
 20
455.0
 30
0.0
 40
4.5
  1
MODEL NO. : 5529-89
100
AcDbText
  0
TEXT
  5
B4
330
1E
100
AcDbEntity
  8
L-ZISSEN
100
AcDbText
 10
615.0
 20
465.0
 30
0.0
 40
4.5
  1
PLASTIC PANEL NUT
100
AcDbText
  0
LINE
  5
B5
330
1E
100
AcDbEntity
  8
L-ZISSEN
100
AcDbLine
 10
492.4999999999998
 20
326.5785000000035
 30
0.0
 11
506.4999999999998
 21
326.5785000000035
 31
0.0
  0
LINE
  5
B6
330
1E
100
AcDbEntity
  8
L-ZISSEN
100
AcDbLine
 10
492.4999999999998
 20
313.4214999999964
 30
0.0
 11
506.4999999999998
 21
313.4214999999964
 31
0.0
  0
SOLID
  5
B7
330
1E
100
AcDbEntity
  8
L-ZISSEN
100
AcDbTrace
 10
533.3500841772312
 20
318.8214886980223
 30
0.0
 11
533.8214886980223
 21
318.3500841772314
 31
0.0
 12
534.9999999999998
 22
320.0
 32
0.0
 13
534.9999999999998
 23
320.0
 33
0.0
  0
LINE
  5
B8
330
1E
100
AcDbEntity
  8
L-ZISSEN
100
AcDbLine
 10
533.5857864376268
 20
318.5857864376269
 30
0.0
 11
520.0
 21
305.0
 31
0.0
  0
LINE
  5
B9
330
1E
100
AcDbEntity
  8
L-ZISSEN
100
AcDbLine
 10
520.0
 20
305.0
 30
0.0
 11
518.0
 21
305.0
 31
0.0
  0
TEXT
  5
BA
330
1E
100
AcDbEntity
  8
L-ZISSEN
100
AcDbText
 10
507.0
 20
302.7499999999999
 30
0.0
 40
4.5
  1
P.P
100
AcDbText
  0
SOLID
  5
BB
330
1E
100
AcDbEntity
  8
L-ZISSEN
100
AcDbTrace
 10
383.3500841772313
 20
318.8214886980223
 30
0.0
 11
383.8214886980224
 21
318.3500841772313
 31
0.0
 12
385.0
 22
319.9999999999999
 32
0.0
 13
385.0
 23
319.9999999999999
 33
0.0
  0
LINE
  5
BC
330
1E
100
AcDbEntity
  8
L-ZISSEN
100
AcDbLine
 10
383.5857864376269
 20
318.5857864376268
 30
0.0
 11
370.0
 21
305.0
 31
0.0
  0
LINE
  5
BD
330
1E
100
AcDbEntity
  8
L-ZISSEN
100
AcDbLine
 10
370.0
 20
305.0
 30
0.0
 11
368.0
 21
305.0
 31
0.0
  0
TEXT
  5
BE
330
1E
100
AcDbEntity
  8
L-ZISSEN
100
AcDbText
 10
357.0
 20
302.7499999999999
 30
0.0
 40
4.5
  1
P.P
100
AcDbText
  0
LINE
  5
BF
330
1E
100
AcDbEntity
  8
L-ZISSEN
100
AcDbLine
 10
422.5785000000035
 20
386.0
 30
0.0
 11
422.5785000000035
 21
400.0
 31
0.0
  0
LINE
  5
C0
330
1E
100
AcDbEntity
  8
L-ZISSEN
100
AcDbLine
 10
409.4214999999963
 20
386.0
 30
0.0
 11
409.4214999999963
 21
400.0
 31
0.0
  0
LINE
  5
C1
330
1E
100
AcDbEntity
  8
L-ZISSEN
100
AcDbLine
 10
389.0000000000001
 20
386.0
 30
0.0
 11
389.0
 21
362.5
 31
0.0
  0
LINE
  5
C2
330
1E
100
AcDbEntity
  8
L-ZISSEN
100
AcDbLine
 10
442.9999999999997
 20
386.0
 30
0.0
 11
442.9999999999997
 21
362.5
 31
0.0
  0
LINE
  5
C3
330
1E
100
AcDbEntity
  8
L-ZISSEN
100
AcDbLine
 10
389.0
 20
386.0
 30
0.0
 11
442.9999999999997
 21
386.0
 31
0.0
  0
LINE
  5
C4
330
1E
100
AcDbEntity
  8
L-ZISSEN
100
AcDbLine
 10
389.0
 20
362.5
 30
0.0
 11
442.9999999999997
 21
362.5
 31
0.0
  0
SOLID
  5
C5
330
1E
100
AcDbEntity
  8
L-ZISSEN
100
AcDbTrace
 10
383.2904234636314
 20
427.4098352521707
 30
0.0
 11
383.7363999513797
 21
426.9143058213393
 31
0.0
 12
384.9999999999999
 22
428.4999999999999
 32
0.0
 13
384.9999999999999
 23
428.4999999999999
 33
0.0
  0
LINE
  5
C6
330
1E
100
AcDbEntity
  8
L-ZISSEN
100
AcDbLine
 10
383.5134117075056
 20
427.162070536755
 30
0.0
 11
370.0
 21
415.0
 31
0.0
  0
LINE
  5
C7
330
1E
100
AcDbEntity
  8
L-ZISSEN
100
AcDbLine
 10
370.0
 20
415.0
 30
0.0
 11
368.0
 21
415.0
 31
0.0
  0
TEXT
  5
C8
330
1E
100
AcDbEntity
  8
L-ZISSEN
100
AcDbText
 10
357.0
 20
412.75
 30
0.0
 40
4.5
  1
P.P
100
AcDbText
  0
TEXT
  5
C9
330
1E
100
AcDbEntity
  8
L-ZISSEN
100
AcDbText
 10
355.0
 20
445.0
 30
0.0
 40
4.5
  1
MODEL NO. : GAB502  A
100
AcDbText
  0
TEXT
  5
CA
330
1E
100
AcDbEntity
  8
L-ZISSEN
100
AcDbText
 10
430.0
 20
448.7499999999999
 30
0.0
 40
4.5
  1
10
100
AcDbText
  0
TEXT
  5
CB
330
1E
100
AcDbEntity
  8
L-ZISSEN
100
AcDbText
 10
430.0
 20
442.4999999999999
 30
0.0
 40
4.5
  1
04
100
AcDbText
  0
LINE
  5
CC
330
1E
100
AcDbEntity
  8
L-TYUSIN
100
AcDbLine
 10
600.0
 20
470.0
 30
0.0
 11
600.0
 21
10.0
 31
0.0
  0
LINE
  5
CD
330
1E
100
AcDbEntity
  8
L-ZISSEN
100
AcDbLine
 10
355.0
 20
51.0
 30
0.0
 11
444.0
 21
51.0
 31
0.0
  0
LINE
  5
CE
330
1E
100
AcDbEntity
  8
L-ZISSEN
100
AcDbLine
 10
444.0
 20
51.0
 30
0.0
 11
444.0
 21
95.0
 31
0.0
  0
LINE
  5
CF
330
1E
100
AcDbEntity
  8
L-ZISSEN
100
AcDbLine
 10
444.0
 20
95.0
 30
0.0
 11
421.8095238095238
 21
95.0
 31
0.0
  0
LINE
  5
D0
330
1E
100
AcDbEntity
  8
L-ZISSEN
100
AcDbLine
 10
355.0
 20
95.0
 30
0.0
 11
355.0
 21
51.0
 31
0.0
  0
LINE
  5
D1
330
1E
100
AcDbEntity
  8
L-ZISSEN
100
AcDbLine
 10
355.0
 20
54.0
 30
0.0
 11
444.0
 21
54.0
 31
0.0
  0
LINE
  5
D2
330
1E
100
AcDbEntity
  8
L-ZISSEN
100
AcDbLine
 10
469.5000000000001
 20
54.0
 30
0.0
 11
581.0
 21
54.0
 31
0.0
  0
LINE
  5
D3
330
1E
100
AcDbEntity
  8
L-ZISSEN
100
AcDbLine
 10
470.0
 20
51.0
 30
0.0
 11
584.0
 21
51.0
 31
0.0
  0
LINE
  5
D4
330
1E
100
AcDbEntity
  8
L-ZISSEN
100
AcDbLine
 10
584.0
 20
51.0
 30
0.0
 11
584.0
 21
95.0
 31
0.0
  0
LINE
  5
D5
330
1E
100
AcDbEntity
  8
L-ZISSEN
100
AcDbLine
 10
470.0
 20
51.0
 30
0.0
 11
470.0
 21
54.0
 31
0.0
  0
LINE
  5
D6
330
1E
100
AcDbEntity
  8
L-ZISSEN
100
AcDbLine
 10
581.0
 20
54.0
 30
0.0
 11
581.0
 21
95.0
 31
0.0
  0
LINE
  5
D7
330
1E
100
AcDbEntity
  8
L-ZISSEN
100
AcDbLine
 10
581.0
 20
95.0
 30
0.0
 11
584.0
 21
95.0
 31
0.0
  0
LINE
  5
D8
330
1E
100
AcDbEntity
  8
L-TYUSIN
100
AcDbLine
 10
352.5000000000005
 20
81.0
 30
0.0
 11
392.4999999999993
 21
81.0
 31
0.0
  0
ARC
  5
D9
330
1E
100
AcDbEntity
  8
L-ZISSEN
100
AcDbCircle
 10
361.9999999999998
 20
81.0
 30
0.0
 40
3.5
100
AcDbArc
 50
90.0
 51
270.0
  0
LINE
  5
DA
330
1E
100
AcDbEntity
  8
L-ZISSEN
100
AcDbLine
 10
361.9999999999998
 20
77.49999999999869
 30
0.0
 11
376.7738095238095
 21
77.4999999999963
 31
0.0
  0
LINE
  5
DB
330
1E
100
AcDbEntity
  8
L-ZISSEN
100
AcDbLine
 10
361.9999999999998
 20
84.49999999999869
 30
0.0
 11
376.9404761904761
 21
84.49999999999631
 31
0.0
  0
LINE
  5
DC
330
1E
100
AcDbEntity
  8
L-TYUSIN
100
AcDbLine
 10
372.4999999999998
 20
71.0000000000004
 30
0.0
 11
372.4999999999998
 21
90.99999999999758
 31
0.0
  0
LINE
  5
DD
330
1E
100
AcDbEntity
  8
L-TYUSIN
100
AcDbLine
 10
426.5000000000001
 20
71.0000000000004
 30
0.0
 11
426.5000000000001
 21
90.99999999999758
 31
0.0
  0
LINE
  5
DE
330
1E
100
AcDbEntity
  8
L-ZISSEN
100
AcDbLine
 10
437.0
 20
84.49999999999869
 30
0.0
 11
422.0595238095239
 21
84.49999999999631
 31
0.0
  0
LINE
  5
DF
330
1E
100
AcDbEntity
  8
L-ZISSEN
100
AcDbLine
 10
437.0
 20
77.49999999999869
 30
0.0
 11
422.2261904761905
 21
77.4999999999963
 31
0.0
  0
ARC
  5
E0
330
1E
100
AcDbEntity
  8
L-ZISSEN
100
AcDbCircle
 10
437.0
 20
81.0
 30
0.0
 40
3.5
100
AcDbArc
 50
270.0
 51
90.0
  0
LINE
  5
E1
330
1E
100
AcDbEntity
  8
L-TYUSIN
100
AcDbLine
 10
406.5000000000006
 20
81.0
 30
0.0
 11
446.4999999999995
 21
81.0
 31
0.0
  0
LINE
  5
E2
330
1E
100
AcDbEntity
  8
L-TYUSIN
100
AcDbLine
 10
576.0
 20
81.0
 30
0.0
 11
589.0
 21
81.0
 31
0.0
  0
LINE
  5
E3
330
1E
100
AcDbEntity
  8
L-ZISSEN
100
AcDbLine
 10
355.0
 20
235.0
 30
0.0
 11
444.0
 21
235.0
 31
0.0
  0
LINE
  5
E4
330
1E
100
AcDbEntity
  8
L-ZISSEN
100
AcDbLine
 10
355.0
 20
232.0
 30
0.0
 11
444.0
 21
232.0
 31
0.0
  0
LINE
  5
E5
330
1E
100
AcDbEntity
  8
L-ZISSEN
100
AcDbLine
 10
355.0
 20
235.0
 30
0.0
 11
355.0
 21
232.0
 31
0.0
  0
LINE
  5
E6
330
1E
100
AcDbEntity
  8
L-ZISSEN
100
AcDbLine
 10
444.0
 20
235.0
 30
0.0
 11
444.0
 21
232.0
 31
0.0
  0
SOLID
  5
E7
330
1E
100
AcDbEntity
  8
L-ZISSEN
100
AcDbTrace
 10
398.3641675540354
 20
21.67958202116039
 30
0.0
 11
397.8808345983058
 21
21.22041571321727
 31
0.0
 12
399.5000000000001
 22
20.00000000000001
 32
0.0
 13
399.5000000000001
 23
20.00000000000001
 33
0.0
  0
LINE
  5
E8
330
1E
100
AcDbEntity
  8
L-ZISSEN
100
AcDbLine
 10
398.1225010761706
 20
21.44999886718886
 30
0.0
 11
390.0
 21
30.00000000000005
 31
0.0
  0
LINE
  5
E9
330
1E
100
AcDbEntity
  8
L-ZISSEN
100
AcDbLine
 10
390.0
 20
30.00000000000005
 30
0.0
 11
388.0
 21
30.00000000000005
 31
0.0
  0
TEXT
  5
EA
330
1E
100
AcDbEntity
  8
L-ZISSEN
100
AcDbText
 10
377.0
 20
27.75000000000005
 30
0.0
 40
4.5
  1
P.P
100
AcDbText
  0
SOLID
  5
EB
330
1E
100
AcDbEntity
  8
L-ZISSEN
100
AcDbTrace
 10
401.1182293100651
 20
152.7783433333554
 30
0.0
 11
401.4269704284327
 21
153.3692099564383
 31
0.0
 12
399.4999999999998
 22
153.9999999999999
 32
0.0
 13
399.4999999999998
 23
153.9999999999999
 33
0.0
  0
LINE
  5
EC
330
1E
100
AcDbEntity
  8
L-ZISSEN
100
AcDbLine
 10
401.2725998692489
 20
153.0737766448968
 30
0.0
 11
454.9999999999998
 21
124.9999999999999
 31
0.0
  0
LINE
  5
ED
330
1E
100
AcDbEntity
  8
L-ZISSEN
100
AcDbLine
 10
454.9999999999998
 20
124.9999999999999
 30
0.0
 11
456.9999999999999
 21
124.9999999999999
 31
0.0
  0
TEXT
  5
EE
330
1E
100
AcDbEntity
  8
L-ZISSEN
100
AcDbText
 10
458.9999999999998
 20
122.7499999999999
 30
0.0
 40
4.5
  1
P.P
100
AcDbText
  0
SOLID
  5
EF
330
1E
100
AcDbEntity
  8
L-ZISSEN
100
AcDbTrace
 10
504.749837359083
 20
21.02429503946321
 30
0.0
 11
504.3230477593067
 21
21.53644255919479
 31
0.0
 12
503.0000000000001
 22
20.00000000000004
 32
0.0
 13
503.0000000000001
 23
20.00000000000004
 33
0.0
  0
LINE
  5
F0
330
1E
100
AcDbEntity
  8
L-ZISSEN
100
AcDbLine
 10
504.5364425591948
 20
21.28036879932898
 30
0.0
 11
515.0
 21
30.0
 31
0.0
  0
LINE
  5
F1
330
1E
100
AcDbEntity
  8
L-ZISSEN
100
AcDbLine
 10
515.0
 20
30.0
 30
0.0
 11
517.0
 21
30.0
 31
0.0
  0
TEXT
  5
F2
330
1E
100
AcDbEntity
  8
L-ZISSEN
100
AcDbText
 10
519.0
 20
27.75
 30
0.0
 40
4.5
  1
P.P
100
AcDbText
  0
LINE
  5
F3
330
1E
100
AcDbEntity
  8
L-TYUSIN
100
AcDbLine
 10
426.5000000000001
 20
227.0
 30
0.0
 11
426.5000000000001
 21
240.0
 31
0.0
  0
LINE
  5
F4
330
1E
100
AcDbEntity
  8
L-TYUSIN
100
AcDbLine
 10
372.4999999999998
 20
227.0
 30
0.0
 11
372.4999999999998
 21
240.0
 31
0.0
  0
TEXT
  5
F5
330
1E
100
AcDbEntity
  8
L-ZISSEN
100
AcDbText
 10
355.0
 20
265.0
 30
0.0
 40
4.5
  1
MOUNTING BRACKET & PANEL NUT
100
AcDbText
  0
TEXT
  5
F6
330
1E
100
AcDbEntity
  8
L-ZISSEN
100
AcDbText
 10
355.0
 20
255.0
 30
0.0
 40
4.5
  1
MODEL NO : 5570-04
100
AcDbText
  0
TEXT
  5
F7
330
1E
100
AcDbEntity
  8
L-ZISSEN
100
AcDbText
 10
684.0
 20
212.7499999999999
 30
0.0
 40
4.5
  1
P.P
100
AcDbText
  0
LINE
  5
F8
330
1E
100
AcDbEntity
  8
L-ZISSEN
100
AcDbLine
 10
680.0
 20
215.0
 30
0.0
 11
682.0
 21
215.0
 31
0.0
  0
LINE
  5
F9
330
1E
100
AcDbEntity
  8
L-ZISSEN
100
AcDbLine
 10
651.4142135623731
 20
186.4142135623731
 30
0.0
 11
680.0
 21
215.0
 31
0.0
  0
SOLID
  5
FA
330
1E
100
AcDbEntity
  8
L-ZISSEN
100
AcDbTrace
 10
651.6499158227686
 20
186.1785113019775
 30
0.0
 11
651.1785113019775
 21
186.6499158227686
 31
0.0
 12
650.0
 22
185.0
 32
0.0
 13
650.0
 23
185.0
 33
0.0
  0
TEXT
  5
FB
330
1E
100
AcDbEntity
  8
L-ZISSEN
100
AcDbText
 10
664.0
 20
72.75
 30
0.0
 40
4.5
  1
P.P
100
AcDbText
  0
LINE
  5
FC
330
1E
100
AcDbEntity
  8
L-ZISSEN
100
AcDbLine
 10
660.0
 20
75.0
 30
0.0
 11
662.0
 21
75.0
 31
0.0
  0
LINE
  5
FD
330
1E
100
AcDbEntity
  8
L-ZISSEN
100
AcDbLine
 10
651.4142135623731
 20
66.41421356237311
 30
0.0
 11
660.0
 21
75.0
 31
0.0
  0
SOLID
  5
FE
330
1E
100
AcDbEntity
  8
L-ZISSEN
100
AcDbTrace
 10
651.6499158227685
 20
66.17851130197755
 30
0.0
 11
651.1785113019775
 21
66.64991582276861
 31
0.0
 12
650.0
 22
65.0
 32
0.0
 13
650.0
 23
65.0
 33
0.0
  0
LINE
  5
FF
330
1E
100
AcDbEntity
  8
L-ZISSEN
100
AcDbLine
 10
683.4999999999999
 20
100.0
 30
0.0
 11
683.4999999999999
 21
120.0
 31
0.0
  0
LINE
  5
100
330
1E
100
AcDbEntity
  8
L-ZISSEN
100
AcDbLine
 10
616.5
 20
100.0
 30
0.0
 11
616.5
 21
120.0
 31
0.0
  0
LINE
  5
101
330
1E
100
AcDbEntity
  8
L-ZISSEN
100
AcDbLine
 10
616.5
 20
100.0
 30
0.0
 11
683.4999999999999
 21
100.0
 31
0.0
  0
ARC
  5
102
330
1E
100
AcDbEntity
  8
L-ZISSEN
100
AcDbCircle
 10
650.0
 20
185.0
 30
0.0
 40
37.0
100
AcDbArc
 50
198.9246444160507
 51
341.0753555839495
  0
LINE
  5
103
330
1E
100
AcDbEntity
  8
L-ZISSEN
100
AcDbLine
 10
614.9999999999997
 20
173.0000000000009
 30
0.0
 11
614.9999999999997
 21
196.9999999999996
 31
0.0
  0
LINE
  5
104
330
1E
100
AcDbEntity
  8
L-ZISSEN
100
AcDbLine
 10
685.0000000000004
 20
173.0000000000009
 30
0.0
 11
685.0000000000004
 21
196.9999999999996
 31
0.0
  0
ARC
  5
105
330
1E
100
AcDbEntity
  8
L-ZISSEN
100
AcDbCircle
 10
650.0
 20
185.0
 30
0.0
 40
37.0
100
AcDbArc
 50
18.92464441605046
 51
161.0753555839492
  0
LINE
  5
106
330
1E
100
AcDbEntity
  8
L-ZISSEN
100
AcDbLine
 10
616.5
 20
120.0
 30
0.0
 11
683.4999999999999
 21
120.0
 31
0.0
  0
LINE
  5
107
330
1E
100
AcDbEntity
  8
L-ZISSEN
100
AcDbLine
 10
366.0
 20
54.0
 30
0.0
 11
366.0
 21
70.0
 31
0.0
  0
LINE
  5
108
330
1E
100
AcDbEntity
  8
L-ZISSEN
100
AcDbLine
 10
366.0
 20
70.0
 30
0.0
 11
433.0
 21
70.0
 31
0.0
  0
LINE
  5
109
330
1E
100
AcDbEntity
  8
L-ZISSEN
100
AcDbLine
 10
433.0
 20
54.0
 30
0.0
 11
433.0
 21
70.0
 31
0.0
  0
CIRCLE
  5
10A
330
1E
100
AcDbEntity
  8
L-ZISSEN
100
AcDbCircle
 10
399.4999999999998
 20
158.9999999999999
 30
0.0
 40
33.5
  0
LINE
  5
10B
330
1E
100
AcDbEntity
  8
L-ZISSEN
100
AcDbLine
 10
536.5000000000001
 20
54.0
 30
0.0
 11
536.5000000000001
 21
70.0
 31
0.0
  0
LINE
  5
10C
330
1E
100
AcDbEntity
  8
L-ZISSEN
100
AcDbLine
 10
469.5000000000001
 20
70.0
 30
0.0
 11
536.5000000000001
 21
70.0
 31
0.0
  0
LINE
  5
10D
330
1E
100
AcDbEntity
  8
L-ZISSEN
100
AcDbLine
 10
469.5000000000001
 20
54.0
 30
0.0
 11
469.5000000000001
 21
70.0
 31
0.0
  0
LINE
  5
10E
330
1E
100
AcDbEntity
  8
L-ZISSEN
100
AcDbLine
 10
377.1904761904762
 20
95.0
 30
0.0
 11
355.0
 21
95.0
 31
0.0
  0
LINE
  5
10F
330
1E
100
AcDbEntity
  8
L-ZISSEN
100
AcDbLine
 10
441.4999999999998
 20
153.9999999999999
 30
0.0
 11
444.0
 21
232.0
 31
0.0
  0
LINE
  5
110
330
1E
100
AcDbEntity
  8
L-ZISSEN
100
AcDbLine
 10
357.5000000000002
 20
153.9999999999999
 30
0.0
 11
355.0
 21
232.0
 31
0.0
  0
ARC
  5
111
330
1E
100
AcDbEntity
  8
L-ZISSEN
100
AcDbCircle
 10
383.6642216190975
 20
153.9999999999999
 30
0.0
 40
26.16422161909753
100
AcDbArc
 50
179.9999999999998
 51
207.7973417330421
  0
ARC
  5
112
330
1E
100
AcDbEntity
  8
L-ZISSEN
100
AcDbCircle
 10
391.2976558665762
 20
158.0242007180946
 30
0.0
 40
34.79344579222544
100
AcDbArc
 50
207.7973417330415
 51
231.8427734126307
  0
ARC
  5
113
330
1E
100
AcDbEntity
  8
L-ZISSEN
100
AcDbCircle
 10
396.2626491931655
 20
164.3432831337535
 30
0.0
 40
42.82973606255322
100
AcDbArc
 50
231.8427734126307
 51
251.9723395290526
  0
ARC
  5
114
330
1E
100
AcDbEntity
  8
L-ZISSEN
100
AcDbCircle
 10
399.4999999999998
 20
174.2904819643228
 30
0.0
 40
53.29048196432287
100
AcDbArc
 50
251.9723395290525
 51
270.0
  0
ARC
  5
115
330
1E
100
AcDbEntity
  8
L-ZISSEN
100
AcDbCircle
 10
399.4999999999998
 20
174.2904819643232
 30
0.0
 40
53.29048196432329
100
AcDbArc
 50
270.0
 51
288.0276604709471
  0
ARC
  5
116
330
1E
100
AcDbEntity
  8
L-ZISSEN
100
AcDbCircle
 10
402.7373508068341
 20
164.3432831337537
 30
0.0
 40
42.82973606255344
100
AcDbArc
 50
288.0276604709472
 51
308.1572265873691
  0
ARC
  5
117
330
1E
100
AcDbEntity
  8
L-ZISSEN
100
AcDbCircle
 10
407.7023441334231
 20
158.0242007180951
 30
0.0
 40
34.79344579222606
100
AcDbArc
 50
308.1572265873691
 51
332.2026582669581
  0
ARC
  5
118
330
1E
100
AcDbEntity
  8
L-ZISSEN
100
AcDbCircle
 10
415.3357783809018
 20
154.0
 30
0.0
 40
26.16422161909793
100
AcDbArc
 50
332.2026582669583
 51
359.9999999999999
  0
TEXT
  5
119
330
1E
100
AcDbEntity
  8
L-ZISSEN
100
AcDbText
 10
615.0
 20
265.0
 30
0.0
 40
4.5
  1
METAL PANEL NUT
100
AcDbText
  0
TEXT
  5
11A
330
1E
100
AcDbEntity
  8
L-ZISSEN
100
AcDbText
 10
615.0
 20
255.0
 30
0.0
 40
4.5
  1
MODEL NO. : 5226-97
100
AcDbText
  0
LINE
  5
11B
330
1E
100
AcDbEntity
  8
L-ZISSEN
100
AcDbLine
 10
713.0000000000001
 20
120.0
 30
0.0
 11
787.0
 21
120.0
 31
0.0
  0
LINE
  5
11C
330
1E
100
AcDbEntity
  8
L-ZISSEN
100
AcDbLine
 10
713.0000000000001
 20
100.0
 30
0.0
 11
787.0
 21
100.0
 31
0.0
  0
SOLID
  5
11D
330
1E
100
AcDbEntity
  8
L-ZISSEN
100
AcDbTrace
 10
751.6499158227685
 20
66.17851130197755
 30
0.0
 11
751.1785113019775
 21
66.64991582276861
 31
0.0
 12
750.0
 22
65.0
 32
0.0
 13
750.0
 23
65.0
 33
0.0
  0
LINE
  5
11E
330
1E
100
AcDbEntity
  8
L-ZISSEN
100
AcDbLine
 10
751.4142135623731
 20
66.41421356237311
 30
0.0
 11
760.0
 21
75.0
 31
0.0
  0
LINE
  5
11F
330
1E
100
AcDbEntity
  8
L-ZISSEN
100
AcDbLine
 10
760.0
 20
75.0
 30
0.0
 11
762.0
 21
75.0
 31
0.0
  0
TEXT
  5
120
330
1E
100
AcDbEntity
  8
L-ZISSEN
100
AcDbText
 10
764.0
 20
72.75
 30
0.0
 40
4.5
  1
P.P
100
AcDbText
  0
LINE
  5
121
330
1E
100
AcDbEntity
  8
L-ZISSEN
100
AcDbLine
 10
787.0
 20
120.0
 30
0.0
 11
787.0
 21
100.0
 31
0.0
  0
LINE
  5
122
330
1E
100
AcDbEntity
  8
L-ZISSEN
100
AcDbLine
 10
713.0000000000001
 20
120.0
 30
0.0
 11
713.0000000000001
 21
100.0
 31
0.0
  0
ENDSEC
  0
SECTION
  2
OBJECTS
  0
DICTIONARY
  5
C
330
0
100
AcDbDictionary
  3
ACAD_GROUP
350
D
  3
ACAD_LAYOUT
350
19
  3
ACAD_MLINESTYLE
350
16
  3
ACAD_PLOTSETTINGS
350
18
1001
ACAD
1000
TREAT_AS_HARD
1070
     0
  0
DICTIONARY
  5
128
330
1E
100
AcDbDictionary
  3
ACAD_LAYOUTSELFREF
350
129
  0
DICTIONARY
  5
126
330
1A
100
AcDbDictionary
  3
ACAD_LAYOUTSELFREF
350
127
  0
DICTIONARY
  5
D
102
{ACAD_REACTORS
330
C
102
}
330
C
100
AcDbDictionary
1001
ACAD
1000
TREAT_AS_HARD
1070
     0
  0
DICTIONARY
  5
19
102
{ACAD_REACTORS
330
C
102
}
330
C
100
AcDbDictionary
1001
ACAD
1000
TREAT_AS_HARD
1070
     0
  0
DICTIONARY
  5
16
102
{ACAD_REACTORS
330
C
102
}
330
C
100
AcDbDictionary
  3
STANDARD
350
17
1001
ACAD
1000
TREAT_AS_HARD
1070
     0
  0
DICTIONARY
  5
18
102
{ACAD_REACTORS
330
C
102
}
330
C
100
AcDbDictionary
1001
ACAD
1000
TREAT_AS_HARD
1070
     0
  0
XRECORD
  5
129
102
{ACAD_REACTORS
330
128
102
}
330
128
100
AcDbXrecord
340
1E
  0
XRECORD
  5
127
102
{ACAD_REACTORS
330
126
102
}
330
126
100
AcDbXrecord
340
1A
  0
MLINESTYLE
  5
17
102
{ACAD_REACTORS
330
16
102
}
330
16
100
AcDbMlineStyle
  2
STANDARD
 70
     0
  3

 62
   256
 51
90.0
 52
90.0
 71
     2
 49
0.5
 62
   256
  6
BYLAYER
 49
-0.5
 62
   256
  6
BYLAYER
  0
ENDSEC
  0
EOF
