  0
SECTION
  2
HEADER
  9
$ACADVER
  1
AC1006
  9
$INSBASE
 10
-27.5
 20
-237.5
 30
0.0
  9
$EXTMIN
 10
27.0
 20
5.0
  9
$EXTMAX
 10
460.0
 20
275.0
  9
$LIMMIN
 10
0.0
 20
0.0
  9
$LIMMAX
 10
420.0
 20
297.0
  9
$ORTHOMODE
 70
     0
  9
$REGENMODE
 70
     1
  9
$FILLMODE
 70
     1
  9
$QTEXTMODE
 70
     0
  9
$MIRRTEXT
 70
     1
  9
$DRAGMODE
 70
     2
  9
$LTSCALE
 40
1.0
  9
$OSMODE
 70
     0
  9
$ATTMODE
 70
     1
  9
$TEXTSIZE
 40
4.5
  9
$TRACEWID
 40
0.05
  9
$TEXTSTYLE
  7
STANDARD
  9
$CLAYER
  8
L-ZISSEN
  9
$CELTYPE
  6
BYLAYER
  9
$CECOLOR
 62
   256
  9
$DIMSCALE
 40
1.0
  9
$DIMASZ
 40
2.0
  9
$DIMEXO
 40
0.0625
  9
$DIMDLI
 40
0.38
  9
$DIMRND
 40
0.0
  9
$DIMDLE
 40
0.0
  9
$DIMEXE
 40
0.18
  9
$DIMTP
 40
0.0
  9
$DIMTM
 40
0.0
  9
$DIMTXT
 40
4.5
  9
$DIMCEN
 40
0.09
  9
$DIMTSZ
 40
0.0
  9
$DIMTOL
 70
     0
  9
$DIMLIM
 70
     0
  9
$DIMTIH
 70
     1
  9
$DIMTOH
 70
     1
  9
$DIMSE1
 70
     0
  9
$DIMSE2
 70
     0
  9
$DIMTAD
 70
     0
  9
$DIMZIN
 70
     0
  9
$DIMBLK
  1

  9
$DIMASO
 70
     0
  9
$DIMSHO
 70
     0
  9
$DIMPOST
  1

  9
$DIMAPOST
  1

  9
$DIMALT
 70
     0
  9
$DIMALTD
 70
     2
  9
$DIMALTF
 40
25.4
  9
$DIMLFAC
 40
1.0
  9
$DIMTOFL
 70
     0
  9
$DIMTVP
 40
0.0
  9
$DIMTIX
 70
     0
  9
$DIMSOXD
 70
     0
  9
$DIMSAH
 70
     0
  9
$DIMBLK1
  1

  9
$DIMBLK2
  1

  9
$LUNITS
 70
     2
  9
$LUPREC
 70
     4
  9
$AXISMODE
 70
     0
  9
$AXISUNIT
 10
0.0
 20
0.0
  9
$SKETCHINC
 40
0.1
  9
$FILLETRAD
 40
0.0
  9
$AUNITS
 70
     0
  9
$AUPREC
 70
     0
  9
$MENU
  1
acad
  9
$ELEVATION
 40
0.0
  9
$THICKNESS
 40
0.0
  9
$LIMCHECK
 70
     0
  9
$BLIPMODE
 70
     1
  9
$CHAMFERA
 40
0.0
  9
$CHAMFERB
 40
0.0
  9
$SKPOLY
 70
     0
  9
$TDCREATE
 40
2449587.7908373843
  9
$TDUPDATE
 40
2449587.7908373843
  9
$TDINDWG
 40
0.0000000000
  9
$TDUSRTIMER
 40
0.0000000000
  9
$USRTIMER
 70
     1
  9
$ANGBASE
 50
0.0
  9
$ANGDIR
 70
     0
  9
$PDMODE
 70
     0
  9
$PDSIZE
 40
0.0
  9
$PLINEWID
 40
0.0
  9
$COORDS
 70
     2
  9
$SPLFRAME
 70
     0
  9
$SPLINETYPE
 70
     6
  9
$SPLINESEGS
 70
     8
  9
$ATTDIA
 70
     0
  9
$ATTREQ
 70
     1
  9
$HANDLING
 70
     0
  9
$HANDSEED
  5
0
  9
$SURFTAB1
 70
     6
  9
$SURFTAB2
 70
     6
  9
$SURFTYPE
 70
     6
  9
$SURFU
 70
     6
  9
$SURFV
 70
     6
  9
$FLATLAND
 70
     0
  9
$UCSNAME
  2

  9
$UCSORG
 10
0.0
 20
0.0
 30
0.0
  9
$UCSXDIR
 10
1.0
 20
0.0
 30
0.0
  9
$UCSYDIR
 10
0.0
 20
1.0
 30
0.0
  9
$USERI1
 70
     0
  9
$USERI2
 70
     0
  9
$USERI3
 70
     0
  9
$USERI4
 70
     0
  9
$USERI5
 70
     0
  9
$USERR1
 40
0.0
  9
$USERR2
 40
0.0
  9
$USERR3
 40
0.0
  9
$USERR4
 40
0.0
  9
$USERR5
 40
0.0
  9
$WORLDVIEW
 70
     1
  0
ENDSEC
  0
SECTION
  2
TABLES
  0
TABLE
  2
VPORT
 70
     2
  0
VPORT
  2
*ACTIVE
 70
     0
 10
0.0
 20
0.0
 11
1.0
 21
1.0
 12
238.227989
 22
153.824519
 13
0.0
 23
0.0
 14
5.0
 24
5.0
 15
0.0
 25
0.0
 16
0.0
 26
0.0
 36
1.0
 17
0.0
 27
0.0
 37
0.0
 40
307.649038
 41
1.5487
 42
50.0
 43
0.0
 44
0.0
 50
0.0
 51
0.0
 71
     0
 72
   100
 73
     1
 74
     0
 75
     0
 76
     0
 77
     0
 78
     0
  0
ENDTAB
  0
TABLE
  2
LTYPE
 70
     2
  0
LTYPE
  2
CONTINUOUS
 70
    64
  3
Solid line
 72
    65
 73
     0
 40
0.0
  0
LTYPE
  2
CENTER
 70
    64
  3
____ _ ____ _ ____ _ 
 72
    65
 73
     4
 40
60.0
 49
45.0
 49
-5.0
 49
5.0
 49
-5.0
  0
ENDTAB
  0
TABLE
  2
LAYER
 70
     3
  0
LAYER
  2
0
 70
     0
 62
     7
  6
CONTINUOUS
  0
LAYER
  2
L-ZISSEN
 70
    64
 62
     7
  6
CONTINUOUS
  0
LAYER
  2
L-TYUSIN
 70
    64
 62
     1
  6
CENTER
  0
ENDTAB
  0
TABLE
  2
STYLE
 70
     1
  0
STYLE
  2
STANDARD
 70
    64
 40
0.0
 41
1.0
 50
0.0
 71
     0
 42
4.5
  3
txt
  4

  0
ENDTAB
  0
TABLE
  2
VIEW
 70
     0
  0
ENDTAB
  0
TABLE
  2
UCS
 70
     0
  0
ENDTAB
  0
TABLE
  2
DWGMGR
 70
     0
  0
ENDTAB
  0
ENDSEC
  0
SECTION
  2
BLOCKS
  0
ENDSEC
  0
SECTION
  2
ENTITIES
  0
LINE
  8
L-TYUSIN
 10
86.0
 20
100.0
 30
0.0
 11
177.0
 21
100.0
 31
0.0
  0
LINE
  8
L-TYUSIN
 10
135.0
 20
84.0
 30
0.0
 11
135.0
 21
148.5
 31
0.0
  0
LINE
  8
L-ZISSEN
 10
154.0
 20
89.0
 30
0.0
 11
154.0
 21
113.0
 31
0.0
  0
LINE
  8
L-ZISSEN
 10
109.0
 20
113.0
 30
0.0
 11
109.0
 21
89.0
 31
0.0
  0
LINE
  8
L-ZISSEN
 10
154.0
 20
89.0
 30
0.0
 11
109.0
 21
89.0
 31
0.0
  0
LINE
  8
L-ZISSEN
 10
154.0
 20
113.0
 30
0.0
 11
109.0
 21
113.0
 31
0.0
  0
LINE
  8
L-ZISSEN
 10
109.0
 20
200.0
 30
0.0
 11
109.0
 21
180.0
 31
0.0
  0
LINE
  8
L-TYUSIN
 10
86.0
 20
190.0
 30
0.0
 11
177.0
 21
190.0
 31
0.0
  0
LINE
  8
L-ZISSEN
 10
152.0
 20
173.0
 30
0.0
 11
152.0
 21
207.0
 31
0.0
  0
LINE
  8
L-ZISSEN
 10
118.0
 20
207.0
 30
0.0
 11
152.0
 21
207.0
 31
0.0
  0
LINE
  8
L-ZISSEN
 10
118.0
 20
173.0
 30
0.0
 11
152.0
 21
173.0
 31
0.0
  0
LINE
  8
L-ZISSEN
 10
118.0
 20
173.0
 30
0.0
 11
118.0
 21
207.0
 31
0.0
  0
LINE
  8
L-ZISSEN
 10
109.0
 20
180.0
 30
0.0
 11
118.0
 21
180.0
 31
0.0
  0
LINE
  8
L-ZISSEN
 10
109.0
 20
200.0
 30
0.0
 11
118.0
 21
200.0
 31
0.0
  0
LINE
  8
L-ZISSEN
 10
154.0
 20
200.0
 30
0.0
 11
154.0
 21
180.0
 31
0.0
  0
LINE
  8
L-ZISSEN
 10
152.0
 20
180.0
 30
0.0
 11
154.0
 21
180.0
 31
0.0
  0
LINE
  8
L-ZISSEN
 10
152.0
 20
200.0
 30
0.0
 11
154.0
 21
200.0
 31
0.0
  0
LINE
  8
L-TYUSIN
 10
135.0
 20
168.0
 30
0.0
 11
135.0
 21
212.0
 31
0.0
  0
LINE
  8
L-TYUSIN
 10
135.0
 20
18.0
 30
0.0
 11
135.0
 21
62.0
 31
0.0
  0
LINE
  8
L-ZISSEN
 10
152.0
 20
50.0
 30
0.0
 11
154.0
 21
50.0
 31
0.0
  0
LINE
  8
L-ZISSEN
 10
152.0
 20
30.0
 30
0.0
 11
154.0
 21
30.0
 31
0.0
  0
LINE
  8
L-ZISSEN
 10
154.0
 20
50.0
 30
0.0
 11
154.0
 21
30.0
 31
0.0
  0
LINE
  8
L-ZISSEN
 10
109.0
 20
50.0
 30
0.0
 11
118.0
 21
50.0
 31
0.0
  0
LINE
  8
L-ZISSEN
 10
109.0
 20
30.0
 30
0.0
 11
118.0
 21
30.0
 31
0.0
  0
LINE
  8
L-ZISSEN
 10
118.0
 20
23.0
 30
0.0
 11
118.0
 21
57.0
 31
0.0
  0
LINE
  8
L-ZISSEN
 10
118.0
 20
23.0
 30
0.0
 11
152.0
 21
23.0
 31
0.0
  0
LINE
  8
L-ZISSEN
 10
118.0
 20
57.0
 30
0.0
 11
152.0
 21
57.0
 31
0.0
  0
LINE
  8
L-ZISSEN
 10
152.0
 20
23.0
 30
0.0
 11
152.0
 21
57.0
 31
0.0
  0
LINE
  8
L-TYUSIN
 10
86.0
 20
40.0
 30
0.0
 11
177.0
 21
40.0
 31
0.0
  0
LINE
  8
L-ZISSEN
 10
109.0
 20
50.0
 30
0.0
 11
109.0
 21
30.0
 31
0.0
  0
LINE
  8
L-ZISSEN
 10
121.5
 20
53.5
 30
0.0
 11
121.5
 21
26.5
 31
0.0
  0
LINE
  8
L-ZISSEN
 10
128.5
 20
53.5
 30
0.0
 11
121.5
 21
53.5
 31
0.0
  0
LINE
  8
L-ZISSEN
 10
128.5
 20
53.5
 30
0.0
 11
128.5
 21
26.5
 31
0.0
  0
LINE
  8
L-ZISSEN
 10
128.5
 20
26.5
 30
0.0
 11
121.5
 21
26.5
 31
0.0
  0
LINE
  8
L-ZISSEN
 10
141.5
 20
26.5
 30
0.0
 11
148.5
 21
26.5
 31
0.0
  0
LINE
  8
L-ZISSEN
 10
141.5
 20
53.5
 30
0.0
 11
141.5
 21
26.5
 31
0.0
  0
LINE
  8
L-ZISSEN
 10
141.5
 20
53.5
 30
0.0
 11
148.5
 21
53.5
 31
0.0
  0
LINE
  8
L-ZISSEN
 10
148.5
 20
53.5
 30
0.0
 11
148.5
 21
26.5
 31
0.0
  0
LINE
  8
L-ZISSEN
 10
125.0
 20
53.5
 30
0.0
 11
125.0
 21
57.0
 31
0.0
  0
LINE
  8
L-ZISSEN
 10
145.0
 20
53.5
 30
0.0
 11
145.0
 21
57.0
 31
0.0
  0
LINE
  8
L-ZISSEN
 10
125.0
 20
26.5
 30
0.0
 11
125.0
 21
23.0
 31
0.0
  0
LINE
  8
L-ZISSEN
 10
145.0
 20
26.5
 30
0.0
 11
145.0
 21
23.0
 31
0.0
  0
LINE
  8
L-ZISSEN
 10
128.5
 20
92.400658
 30
0.0
 11
128.5
 21
89.0
 31
0.0
  0
LINE
  8
L-ZISSEN
 10
121.5
 20
97.0
 30
0.0
 11
121.5
 21
89.0
 31
0.0
  0
LINE
  8
L-ZISSEN
 10
141.5
 20
92.400658
 30
0.0
 11
141.5
 21
89.0
 31
0.0
  0
LINE
  8
L-ZISSEN
 10
148.5
 20
97.0
 30
0.0
 11
148.5
 21
89.0
 31
0.0
  0
LINE
  8
L-ZISSEN
 10
148.5
 20
97.0
 30
0.0
 11
144.539392
 21
97.0
 31
0.0
  0
LINE
  8
L-ZISSEN
 10
125.460608
 20
97.0
 30
0.0
 11
121.5
 21
97.0
 31
0.0
  0
ARC
  8
L-ZISSEN
 10
135.0
 20
100.0
 30
0.0
 40
10.0
 50
143.130102
 51
36.869898
  0
LINE
  8
L-TYUSIN
 10
145.0
 20
84.0
 30
0.0
 11
145.0
 21
94.0
 31
0.0
  0
LINE
  8
L-TYUSIN
 10
125.0
 20
84.0
 30
0.0
 11
125.0
 21
94.0
 31
0.0
  0
LINE
  8
L-ZISSEN
 10
118.0
 20
106.0
 30
0.0
 11
118.0
 21
129.0
 31
0.0
  0
LINE
  8
L-ZISSEN
 10
152.0
 20
106.0
 30
0.0
 11
152.0
 21
129.0
 31
0.0
  0
LINE
  8
L-ZISSEN
 10
152.0
 20
106.0
 30
0.0
 11
143.0
 21
106.0
 31
0.0
  0
LINE
  8
L-ZISSEN
 10
127.0
 20
106.0
 30
0.0
 11
118.0
 21
106.0
 31
0.0
  0
LINE
  8
L-ZISSEN
 10
42.0
 20
106.0
 30
0.0
 11
33.0
 21
106.0
 31
0.0
  0
LINE
  8
L-ZISSEN
 10
67.0
 20
106.0
 30
0.0
 11
58.0
 21
106.0
 31
0.0
  0
LINE
  8
L-ZISSEN
 10
67.0
 20
89.0
 30
0.0
 11
67.0
 21
129.0
 31
0.0
  0
LINE
  8
L-ZISSEN
 10
33.0
 20
89.0
 30
0.0
 11
33.0
 21
129.0
 31
0.0
  0
LINE
  8
L-TYUSIN
 10
40.0
 20
84.0
 30
0.0
 11
40.0
 21
94.0
 31
0.0
  0
LINE
  8
L-TYUSIN
 10
60.0
 20
84.0
 30
0.0
 11
60.0
 21
94.0
 31
0.0
  0
CIRCLE
  8
L-ZISSEN
 10
50.0
 20
100.0
 30
0.0
 40
10.0
  0
LINE
  8
L-ZISSEN
 10
40.460608
 20
97.0
 30
0.0
 11
36.5
 21
97.0
 31
0.0
  0
LINE
  8
L-ZISSEN
 10
63.5
 20
97.0
 30
0.0
 11
59.539392
 21
97.0
 31
0.0
  0
LINE
  8
L-ZISSEN
 10
63.5
 20
97.0
 30
0.0
 11
63.5
 21
89.0
 31
0.0
  0
LINE
  8
L-ZISSEN
 10
36.5
 20
97.0
 30
0.0
 11
36.5
 21
89.0
 31
0.0
  0
LINE
  8
L-ZISSEN
 10
67.0
 20
113.0
 30
0.0
 11
33.0
 21
113.0
 31
0.0
  0
LINE
  8
L-ZISSEN
 10
67.0
 20
89.0
 30
0.0
 11
33.0
 21
89.0
 31
0.0
  0
LINE
  8
L-TYUSIN
 10
50.0
 20
84.0
 30
0.0
 11
50.0
 21
148.5
 31
0.0
  0
LINE
  8
L-TYUSIN
 10
28.0
 20
100.0
 30
0.0
 11
72.0
 21
100.0
 31
0.0
  0
LINE
  8
L-ZISSEN
 10
147.5
 20
143.5
 30
0.0
 11
122.5
 21
143.5
 31
0.0
  0
LINE
  8
L-ZISSEN
 10
152.0
 20
129.0
 30
0.0
 11
118.0
 21
129.0
 31
0.0
  0
LINE
  8
L-ZISSEN
 10
122.5
 20
143.5
 30
0.0
 11
122.5
 21
129.0
 31
0.0
  0
LINE
  8
L-ZISSEN
 10
147.5
 20
144.0
 30
0.0
 11
147.5
 21
129.0
 31
0.0
  0
LINE
  8
L-ZISSEN
 10
147.5
 20
144.0
 30
0.0
 11
145.2
 21
144.0
 31
0.0
  0
CIRCLE
  8
L-ZISSEN
 10
135.0
 20
190.0
 30
0.0
 40
12.5
  0
LINE
  8
L-ZISSEN
 10
145.2
 20
190.0
 30
0.0
 11
147.433319
 21
191.289407
 31
0.0
  0
LINE
  8
L-ZISSEN
 10
145.2
 20
190.0
 30
0.0
 11
147.433319
 21
188.710593
 31
0.0
  0
LINE
  8
L-ZISSEN
 10
145.2
 20
144.0
 30
0.0
 11
145.2
 21
143.5
 31
0.0
  0
ARC
  8
L-ZISSEN
 10
135.0
 20
135.5
 30
0.0
 40
2.5
 50
0.0
 51
180.0
  0
LINE
  8
L-ZISSEN
 10
132.5
 20
135.5
 30
0.0
 11
132.5
 21
129.0
 31
0.0
  0
LINE
  8
L-ZISSEN
 10
137.5
 20
135.5
 30
0.0
 11
137.5
 21
129.0
 31
0.0
  0
LINE
  8
L-ZISSEN
 10
137.5
 20
174.5
 30
0.0
 11
132.5
 21
174.5
 31
0.0
  0
LINE
  8
L-ZISSEN
 10
137.5
 20
177.752551
 30
0.0
 11
137.5
 21
174.5
 31
0.0
  0
LINE
  8
L-ZISSEN
 10
132.5
 20
177.752551
 30
0.0
 11
132.5
 21
174.5
 31
0.0
  0
LINE
  8
L-ZISSEN
 10
132.5
 20
202.247449
 30
0.0
 11
132.5
 21
205.5
 31
0.0
  0
LINE
  8
L-ZISSEN
 10
137.5
 20
202.247449
 30
0.0
 11
137.5
 21
205.5
 31
0.0
  0
LINE
  8
L-ZISSEN
 10
137.5
 20
205.5
 30
0.0
 11
132.5
 21
205.5
 31
0.0
  0
LINE
  8
L-ZISSEN
 10
51.289407
 20
144.0
 30
0.0
 11
48.710593
 21
144.0
 31
0.0
  0
LINE
  8
L-ZISSEN
 10
62.5
 20
143.5
 30
0.0
 11
62.5
 21
129.0
 31
0.0
  0
LINE
  8
L-ZISSEN
 10
37.5
 20
143.5
 30
0.0
 11
37.5
 21
129.0
 31
0.0
  0
LINE
  8
L-ZISSEN
 10
67.0
 20
129.0
 30
0.0
 11
33.0
 21
129.0
 31
0.0
  0
LINE
  8
L-ZISSEN
 10
62.5
 20
143.5
 30
0.0
 11
37.5
 21
143.5
 31
0.0
  0
LINE
  8
L-ZISSEN
 10
51.289407
 20
144.0
 30
0.0
 11
51.289407
 21
143.5
 31
0.0
  0
LINE
  8
L-ZISSEN
 10
48.710593
 20
144.0
 30
0.0
 11
48.710593
 21
143.5
 31
0.0
  0
LINE
  8
L-ZISSEN
 10
62.5
 20
138.0
 30
0.0
 11
65.5
 21
138.0
 31
0.0
  0
LINE
  8
L-ZISSEN
 10
65.5
 20
138.0
 30
0.0
 11
65.5
 21
129.0
 31
0.0
  0
LINE
  8
L-ZISSEN
 10
37.5
 20
138.0
 30
0.0
 11
34.5
 21
138.0
 31
0.0
  0
LINE
  8
L-ZISSEN
 10
34.5
 20
138.0
 30
0.0
 11
34.5
 21
129.0
 31
0.0
  0
LINE
  8
L-ZISSEN
 10
234.5
 20
138.0
 30
0.0
 11
234.5
 21
129.0
 31
0.0
  0
LINE
  8
L-ZISSEN
 10
237.5
 20
138.0
 30
0.0
 11
234.5
 21
138.0
 31
0.0
  0
LINE
  8
L-ZISSEN
 10
265.5
 20
138.0
 30
0.0
 11
265.5
 21
129.0
 31
0.0
  0
LINE
  8
L-ZISSEN
 10
262.5
 20
138.0
 30
0.0
 11
265.5
 21
138.0
 31
0.0
  0
LINE
  8
L-ZISSEN
 10
248.710593
 20
144.0
 30
0.0
 11
248.710593
 21
143.5
 31
0.0
  0
LINE
  8
L-ZISSEN
 10
251.289407
 20
144.0
 30
0.0
 11
251.289407
 21
143.5
 31
0.0
  0
LINE
  8
L-ZISSEN
 10
262.5
 20
143.5
 30
0.0
 11
237.5
 21
143.5
 31
0.0
  0
LINE
  8
L-ZISSEN
 10
267.0
 20
129.0
 30
0.0
 11
233.0
 21
129.0
 31
0.0
  0
LINE
  8
L-ZISSEN
 10
237.5
 20
143.5
 30
0.0
 11
237.5
 21
129.0
 31
0.0
  0
LINE
  8
L-ZISSEN
 10
262.5
 20
143.5
 30
0.0
 11
262.5
 21
129.0
 31
0.0
  0
LINE
  8
L-ZISSEN
 10
251.289407
 20
144.0
 30
0.0
 11
248.710593
 21
144.0
 31
0.0
  0
LINE
  8
L-TYUSIN
 10
228.0
 20
100.0
 30
0.0
 11
272.0
 21
100.0
 31
0.0
  0
LINE
  8
L-TYUSIN
 10
250.0
 20
84.0
 30
0.0
 11
250.0
 21
148.5
 31
0.0
  0
LINE
  8
L-ZISSEN
 10
267.0
 20
89.0
 30
0.0
 11
233.0
 21
89.0
 31
0.0
  0
LINE
  8
L-ZISSEN
 10
267.0
 20
113.0
 30
0.0
 11
233.0
 21
113.0
 31
0.0
  0
LINE
  8
L-ZISSEN
 10
236.5
 20
97.0
 30
0.0
 11
236.5
 21
89.0
 31
0.0
  0
LINE
  8
L-ZISSEN
 10
263.5
 20
97.0
 30
0.0
 11
263.5
 21
89.0
 31
0.0
  0
LINE
  8
L-ZISSEN
 10
263.5
 20
97.0
 30
0.0
 11
259.539392
 21
97.0
 31
0.0
  0
LINE
  8
L-ZISSEN
 10
240.460608
 20
97.0
 30
0.0
 11
236.5
 21
97.0
 31
0.0
  0
CIRCLE
  8
L-ZISSEN
 10
250.0
 20
100.0
 30
0.0
 40
10.0
  0
LINE
  8
L-TYUSIN
 10
260.0
 20
84.0
 30
0.0
 11
260.0
 21
94.0
 31
0.0
  0
LINE
  8
L-TYUSIN
 10
240.0
 20
84.0
 30
0.0
 11
240.0
 21
94.0
 31
0.0
  0
LINE
  8
L-ZISSEN
 10
233.0
 20
89.0
 30
0.0
 11
233.0
 21
129.0
 31
0.0
  0
LINE
  8
L-ZISSEN
 10
267.0
 20
89.0
 30
0.0
 11
267.0
 21
129.0
 31
0.0
  0
LINE
  8
L-ZISSEN
 10
267.0
 20
106.0
 30
0.0
 11
258.0
 21
106.0
 31
0.0
  0
LINE
  8
L-ZISSEN
 10
242.0
 20
106.0
 30
0.0
 11
233.0
 21
106.0
 31
0.0
  0
CIRCLE
  8
L-ZISSEN
 10
135.0
 20
190.0
 30
0.0
 40
9.5
  0
LINE
  8
L-ZISSEN
 10
158.0
 20
49.3
 30
0.0
 11
158.0
 21
30.7
 31
0.0
  0
LINE
  8
L-ZISSEN
 10
172.0
 20
44.6
 30
0.0
 11
172.0
 21
35.4
 31
0.0
  0
LINE
  8
L-ZISSEN
 10
158.0
 20
49.3
 30
0.0
 11
154.0
 21
49.3
 31
0.0
  0
LINE
  8
L-ZISSEN
 10
158.0
 20
30.7
 30
0.0
 11
154.0
 21
30.7
 31
0.0
  0
LINE
  8
L-ZISSEN
 10
168.0
 20
45.55625
 30
0.0
 11
168.0
 21
34.44375
 31
0.0
  0
LINE
  8
L-ZISSEN
 10
172.0
 20
35.4
 30
0.0
 11
168.0
 21
35.4
 31
0.0
  0
LINE
  8
L-ZISSEN
 10
172.0
 20
44.6
 30
0.0
 11
168.0
 21
44.6
 31
0.0
  0
LINE
  8
L-ZISSEN
 10
168.0
 20
34.44375
 30
0.0
 11
158.0
 21
34.44375
 31
0.0
  0
LINE
  8
L-ZISSEN
 10
168.0
 20
45.55625
 30
0.0
 11
158.0
 21
45.55625
 31
0.0
  0
LINE
  8
L-ZISSEN
 10
105.0
 20
30.7
 30
0.0
 11
109.0
 21
30.7
 31
0.0
  0
LINE
  8
L-ZISSEN
 10
105.0
 20
49.3
 30
0.0
 11
109.0
 21
49.3
 31
0.0
  0
LINE
  8
L-ZISSEN
 10
95.0
 20
45.55625
 30
0.0
 11
105.0
 21
45.55625
 31
0.0
  0
LINE
  8
L-ZISSEN
 10
95.0
 20
34.44375
 30
0.0
 11
105.0
 21
34.44375
 31
0.0
  0
LINE
  8
L-ZISSEN
 10
91.0
 20
44.6
 30
0.0
 11
95.0
 21
44.6
 31
0.0
  0
LINE
  8
L-ZISSEN
 10
91.0
 20
35.4
 30
0.0
 11
95.0
 21
35.4
 31
0.0
  0
LINE
  8
L-ZISSEN
 10
95.0
 20
45.55625
 30
0.0
 11
95.0
 21
34.44375
 31
0.0
  0
LINE
  8
L-ZISSEN
 10
91.0
 20
44.6
 30
0.0
 11
91.0
 21
35.4
 31
0.0
  0
LINE
  8
L-ZISSEN
 10
105.0
 20
49.3
 30
0.0
 11
105.0
 21
30.7
 31
0.0
  0
LINE
  8
L-ZISSEN
 10
168.0
 20
195.55625
 30
0.0
 11
158.0
 21
195.55625
 31
0.0
  0
LINE
  8
L-ZISSEN
 10
168.0
 20
184.44375
 30
0.0
 11
158.0
 21
184.44375
 31
0.0
  0
LINE
  8
L-ZISSEN
 10
172.0
 20
194.6
 30
0.0
 11
168.0
 21
194.6
 31
0.0
  0
LINE
  8
L-ZISSEN
 10
172.0
 20
185.4
 30
0.0
 11
168.0
 21
185.4
 31
0.0
  0
LINE
  8
L-ZISSEN
 10
168.0
 20
195.55625
 30
0.0
 11
168.0
 21
184.44375
 31
0.0
  0
LINE
  8
L-ZISSEN
 10
158.0
 20
180.7
 30
0.0
 11
154.0
 21
180.7
 31
0.0
  0
LINE
  8
L-ZISSEN
 10
158.0
 20
199.3
 30
0.0
 11
154.0
 21
199.3
 31
0.0
  0
LINE
  8
L-ZISSEN
 10
172.0
 20
194.6
 30
0.0
 11
172.0
 21
185.4
 31
0.0
  0
LINE
  8
L-ZISSEN
 10
158.0
 20
199.3
 30
0.0
 11
158.0
 21
180.7
 31
0.0
  0
LINE
  8
L-ZISSEN
 10
105.0
 20
199.3
 30
0.0
 11
105.0
 21
180.7
 31
0.0
  0
LINE
  8
L-ZISSEN
 10
91.0
 20
194.6
 30
0.0
 11
91.0
 21
185.4
 31
0.0
  0
LINE
  8
L-ZISSEN
 10
95.0
 20
195.55625
 30
0.0
 11
95.0
 21
184.44375
 31
0.0
  0
LINE
  8
L-ZISSEN
 10
91.0
 20
185.4
 30
0.0
 11
95.0
 21
185.4
 31
0.0
  0
LINE
  8
L-ZISSEN
 10
91.0
 20
194.6
 30
0.0
 11
95.0
 21
194.6
 31
0.0
  0
LINE
  8
L-ZISSEN
 10
95.0
 20
184.44375
 30
0.0
 11
105.0
 21
184.44375
 31
0.0
  0
LINE
  8
L-ZISSEN
 10
95.0
 20
195.55625
 30
0.0
 11
105.0
 21
195.55625
 31
0.0
  0
LINE
  8
L-ZISSEN
 10
105.0
 20
199.3
 30
0.0
 11
109.0
 21
199.3
 31
0.0
  0
LINE
  8
L-ZISSEN
 10
105.0
 20
180.7
 30
0.0
 11
109.0
 21
180.7
 31
0.0
  0
LINE
  8
L-ZISSEN
 10
105.0
 20
108.5
 30
0.0
 11
105.0
 21
91.5
 31
0.0
  0
LINE
  8
L-ZISSEN
 10
91.0
 20
104.6
 30
0.0
 11
91.0
 21
95.4
 31
0.0
  0
LINE
  8
L-ZISSEN
 10
95.0
 20
105.55625
 30
0.0
 11
95.0
 21
94.44375
 31
0.0
  0
LINE
  8
L-ZISSEN
 10
91.0
 20
95.4
 30
0.0
 11
95.0
 21
95.4
 31
0.0
  0
LINE
  8
L-ZISSEN
 10
91.0
 20
104.6
 30
0.0
 11
95.0
 21
104.6
 31
0.0
  0
LINE
  8
L-ZISSEN
 10
95.0
 20
94.44375
 30
0.0
 11
105.0
 21
94.44375
 31
0.0
  0
LINE
  8
L-ZISSEN
 10
95.0
 20
105.55625
 30
0.0
 11
105.0
 21
105.55625
 31
0.0
  0
LINE
  8
L-ZISSEN
 10
168.0
 20
105.55625
 30
0.0
 11
158.0
 21
105.55625
 31
0.0
  0
LINE
  8
L-ZISSEN
 10
168.0
 20
94.44375
 30
0.0
 11
158.0
 21
94.44375
 31
0.0
  0
LINE
  8
L-ZISSEN
 10
172.0
 20
104.6
 30
0.0
 11
168.0
 21
104.6
 31
0.0
  0
LINE
  8
L-ZISSEN
 10
172.0
 20
95.4
 30
0.0
 11
168.0
 21
95.4
 31
0.0
  0
LINE
  8
L-ZISSEN
 10
168.0
 20
105.55625
 30
0.0
 11
168.0
 21
94.44375
 31
0.0
  0
LINE
  8
L-ZISSEN
 10
172.0
 20
104.6
 30
0.0
 11
172.0
 21
95.4
 31
0.0
  0
LINE
  8
L-ZISSEN
 10
158.0
 20
108.5
 30
0.0
 11
158.0
 21
91.5
 31
0.0
  0
LINE
  8
L-ZISSEN
 10
244.52558
 20
107.518027
 30
0.0
 11
240.751988
 21
100.981973
 31
0.0
  0
LINE
  8
L-ZISSEN
 10
240.751988
 20
99.018027
 30
0.0
 11
244.52558
 21
92.481973
 31
0.0
  0
LINE
  8
L-ZISSEN
 10
246.226408
 20
91.5
 30
0.0
 11
253.773592
 21
91.5
 31
0.0
  0
LINE
  8
L-ZISSEN
 10
255.47442
 20
92.481973
 30
0.0
 11
259.248012
 21
99.018027
 31
0.0
  0
LINE
  8
L-ZISSEN
 10
259.248012
 20
100.981973
 30
0.0
 11
255.47442
 21
107.518027
 31
0.0
  0
LINE
  8
L-ZISSEN
 10
253.773592
 20
108.5
 30
0.0
 11
246.226408
 21
108.5
 31
0.0
  0
ARC
  8
L-ZISSEN
 10
250.0
 20
100.0
 30
0.0
 40
9.3
 50
113.938926
 51
126.061074
  0
ARC
  8
L-ZISSEN
 10
250.0
 20
100.0
 30
0.0
 40
9.3
 50
173.938926
 51
186.061074
  0
ARC
  8
L-ZISSEN
 10
250.0
 20
100.0
 30
0.0
 40
9.3
 50
233.938926
 51
246.061074
  0
ARC
  8
L-ZISSEN
 10
250.0
 20
100.0
 30
0.0
 40
9.3
 50
293.938926
 51
306.061074
  0
ARC
  8
L-ZISSEN
 10
250.0
 20
100.0
 30
0.0
 40
9.3
 50
353.938926
 51
6.061074
  0
ARC
  8
L-ZISSEN
 10
250.0
 20
100.0
 30
0.0
 40
9.3
 50
53.938926
 51
66.061074
  0
CIRCLE
  8
L-ZISSEN
 10
250.0
 20
100.0
 30
0.0
 40
5.55625
  0
CIRCLE
  8
L-ZISSEN
 10
250.0
 20
100.0
 30
0.0
 40
4.6
  0
CIRCLE
  8
L-ZISSEN
 10
250.0
 20
100.0
 30
0.0
 40
2.25
  0
CIRCLE
  8
L-ZISSEN
 10
50.0
 20
100.0
 30
0.0
 40
2.25
  0
CIRCLE
  8
L-ZISSEN
 10
50.0
 20
100.0
 30
0.0
 40
4.6
  0
CIRCLE
  8
L-ZISSEN
 10
50.0
 20
100.0
 30
0.0
 40
5.55625
  0
ARC
  8
L-ZISSEN
 10
50.0
 20
100.0
 30
0.0
 40
9.3
 50
53.938926
 51
66.061074
  0
ARC
  8
L-ZISSEN
 10
50.0
 20
100.0
 30
0.0
 40
9.3
 50
353.938926
 51
6.061074
  0
ARC
  8
L-ZISSEN
 10
50.0
 20
100.0
 30
0.0
 40
9.3
 50
293.938926
 51
306.061074
  0
ARC
  8
L-ZISSEN
 10
50.0
 20
100.0
 30
0.0
 40
9.3
 50
233.938926
 51
246.061074
  0
ARC
  8
L-ZISSEN
 10
50.0
 20
100.0
 30
0.0
 40
9.3
 50
173.938926
 51
186.061074
  0
ARC
  8
L-ZISSEN
 10
50.0
 20
100.0
 30
0.0
 40
9.3
 50
113.938926
 51
126.061074
  0
LINE
  8
L-ZISSEN
 10
53.773592
 20
108.5
 30
0.0
 11
46.226408
 21
108.5
 31
0.0
  0
LINE
  8
L-ZISSEN
 10
59.248012
 20
100.981973
 30
0.0
 11
55.47442
 21
107.518027
 31
0.0
  0
LINE
  8
L-ZISSEN
 10
55.47442
 20
92.481973
 30
0.0
 11
59.248012
 21
99.018027
 31
0.0
  0
LINE
  8
L-ZISSEN
 10
46.226408
 20
91.5
 30
0.0
 11
53.773592
 21
91.5
 31
0.0
  0
LINE
  8
L-ZISSEN
 10
40.751988
 20
99.018027
 30
0.0
 11
44.52558
 21
92.481973
 31
0.0
  0
LINE
  8
L-ZISSEN
 10
44.52558
 20
107.518027
 30
0.0
 11
40.751988
 21
100.981973
 31
0.0
  0
LINE
  8
L-ZISSEN
 10
105.0
 20
108.5
 30
0.0
 11
109.0
 21
108.5
 31
0.0
  0
LINE
  8
L-ZISSEN
 10
105.0
 20
91.5
 30
0.0
 11
109.0
 21
91.5
 31
0.0
  0
LINE
  8
L-ZISSEN
 10
154.0
 20
91.5
 30
0.0
 11
158.0
 21
91.5
 31
0.0
  0
LINE
  8
L-ZISSEN
 10
154.0
 20
108.5
 30
0.0
 11
158.0
 21
108.5
 31
0.0
  0
SOLID
  8
L-ZISSEN
 10
172.9891
 20
98.230031
 30
0.0
 11
173.50968
 21
98.646494
 31
0.0
 12
172.0
 22
100.0
 32
0.0
 13
172.0
 23
100.0
 33
0.0
  0
LINE
  8
L-ZISSEN
 10
173.24939
 20
98.438262
 30
0.0
 11
180.0
 21
90.0
 31
0.0
  0
LINE
  8
L-ZISSEN
 10
180.0
 20
90.0
 30
0.0
 11
182.0
 21
90.0
 31
0.0
  0
TEXT
  8
L-ZISSEN
 10
184.0
 20
87.75
 30
0.0
 40
4.5
  1
IN
  0
TEXT
  8
L-ZISSEN
 10
180.0
 20
80.0
 30
0.0
 40
4.5
  1
7/16-20UNF
  0
SOLID
  8
L-ZISSEN
 10
133.80743
 20
98.360217
 30
0.0
 11
134.403715
 21
98.062074
 31
0.0
 12
135.0
 22
100.0
 32
0.0
 13
135.0
 23
100.0
 33
0.0
  0
LINE
  8
L-ZISSEN
 10
134.105573
 20
98.211146
 30
0.0
 11
125.0
 21
80.0
 31
0.0
  0
LINE
  8
L-ZISSEN
 10
125.0
 20
80.0
 30
0.0
 11
123.0
 21
80.0
 31
0.0
  0
TEXT
  8
L-ZISSEN
 10
112.0
 20
77.75
 30
0.0
 40
4.5
  1
P.P
  0
SOLID
  8
L-ZISSEN
 10
133.685178
 20
188.456513
 30
0.0
 11
134.256839
 21
188.113516
 31
0.0
 12
135.0
 22
190.0
 32
0.0
 13
135.0
 23
190.0
 33
0.0
  0
LINE
  8
L-ZISSEN
 10
133.971008
 20
188.285014
 30
0.0
 11
120.0
 21
165.0
 31
0.0
  0
LINE
  8
L-ZISSEN
 10
120.0
 20
165.0
 30
0.0
 11
118.0
 21
165.0
 31
0.0
  0
TEXT
  8
L-ZISSEN
 10
107.0
 20
162.75
 30
0.0
 40
4.5
  1
P.P
  0
SOLID
  8
L-ZISSEN
 10
250.596285
 20
98.062074
 30
0.0
 11
251.19257
 21
98.360217
 31
0.0
 12
250.0
 22
100.0
 32
0.0
 13
250.0
 23
100.0
 33
0.0
  0
LINE
  8
L-ZISSEN
 10
250.894427
 20
98.211146
 30
0.0
 11
260.0
 21
80.0
 31
0.0
  0
LINE
  8
L-ZISSEN
 10
260.0
 20
80.0
 30
0.0
 11
262.0
 21
80.0
 31
0.0
  0
TEXT
  8
L-ZISSEN
 10
264.0
 20
77.75
 30
0.0
 40
4.5
  1
P.P
  0
SOLID
  8
L-ZISSEN
 10
48.80743
 20
98.360217
 30
0.0
 11
49.403715
 21
98.062074
 31
0.0
 12
50.0
 22
100.0
 32
0.0
 13
50.0
 23
100.0
 33
0.0
  0
LINE
  8
L-ZISSEN
 10
49.105573
 20
98.211146
 30
0.0
 11
40.0
 21
80.0
 31
0.0
  0
LINE
  8
L-ZISSEN
 10
40.0
 20
80.0
 30
0.0
 11
38.0
 21
80.0
 31
0.0
  0
TEXT
  8
L-ZISSEN
 10
27.0
 20
77.75
 30
0.0
 40
4.5
  1
P.P
  0
LINE
  8
L-TYUSIN
 10
290.0
 20
275.0
 30
0.0
 11
290.0
 21
5.0
 31
0.0
  0
LINE
  8
L-TYUSIN
 10
290.0
 20
175.0
 30
0.0
 11
460.0
 21
175.0
 31
0.0
  0
TEXT
  8
L-ZISSEN
 10
30.0
 20
225.0
 30
0.0
 40
4.5
  1
MODEL NO. : RN1-2G0-CY1*
  0
CIRCLE
  8
L-ZISSEN
 10
125.0
 20
50.0
 30
0.0
 40
1.65
  0
CIRCLE
  8
L-ZISSEN
 10
145.0
 20
30.0
 30
0.0
 40
1.65
  0
LINE
  8
L-ZISSEN
 10
416.5
 20
196.5
 30
0.0
 11
416.5
 21
213.5
 31
0.0
  0
LINE
  8
L-ZISSEN
 10
416.5
 20
249.814955
 30
0.0
 11
416.5
 21
230.185045
 31
0.0
  0
LINE
  8
L-ZISSEN
 10
440.092523
 20
213.5
 30
0.0
 11
435.185045
 21
205.0
 31
0.0
  0
LINE
  8
L-ZISSEN
 10
435.185045
 20
205.0
 30
0.0
 11
440.092523
 21
196.5
 31
0.0
  0
LINE
  8
L-ZISSEN
 10
440.092523
 20
196.5
 30
0.0
 11
449.907477
 21
196.5
 31
0.0
  0
LINE
  8
L-ZISSEN
 10
449.907477
 20
196.5
 30
0.0
 11
454.814955
 21
205.0
 31
0.0
  0
LINE
  8
L-ZISSEN
 10
454.814955
 20
205.0
 30
0.0
 11
449.907477
 21
213.5
 31
0.0
  0
LINE
  8
L-ZISSEN
 10
449.907477
 20
213.5
 30
0.0
 11
440.092523
 21
213.5
 31
0.0
  0
CIRCLE
  8
L-ZISSEN
 10
445.0
 20
205.0
 30
0.0
 40
4.6
  0
SOLID
  8
L-ZISSEN
 10
443.61325
 20
203.520799
 30
0.0
 11
444.16795
 21
203.150999
 31
0.0
 12
445.0
 22
205.0
 32
0.0
 13
445.0
 23
205.0
 33
0.0
  0
LINE
  8
L-ZISSEN
 10
443.8906
 20
203.335899
 30
0.0
 11
435.0
 21
190.0
 31
0.0
  0
LINE
  8
L-ZISSEN
 10
435.0
 20
190.0
 30
0.0
 11
433.0
 21
190.0
 31
0.0
  0
TEXT
  8
L-ZISSEN
 10
422.0
 20
187.75
 30
0.0
 40
4.5
  1
P.P
  0
LINE
  8
L-ZISSEN
 10
416.5
 20
213.5
 30
0.0
 11
404.0
 21
213.5
 31
0.0
  0
LINE
  8
L-ZISSEN
 10
416.5
 20
196.5
 30
0.0
 11
404.0
 21
196.5
 31
0.0
  0
SOLID
  8
L-ZISSEN
 10
383.61325
 20
203.520799
 30
0.0
 11
384.16795
 21
203.150999
 31
0.0
 12
385.0
 22
205.0
 32
0.0
 13
385.0
 23
205.0
 33
0.0
  0
LINE
  8
L-ZISSEN
 10
383.8906
 20
203.335899
 30
0.0
 11
375.0
 21
190.0
 31
0.0
  0
LINE
  8
L-ZISSEN
 10
375.0
 20
190.0
 30
0.0
 11
373.0
 21
190.0
 31
0.0
  0
TEXT
  8
L-ZISSEN
 10
362.0
 20
187.75
 30
0.0
 40
4.5
  1
P.P
  0
LINE
  8
L-ZISSEN
 10
416.5
 20
230.185045
 30
0.0
 11
404.0
 21
230.185045
 31
0.0
  0
LINE
  8
L-ZISSEN
 10
416.5
 20
249.814955
 30
0.0
 11
404.0
 21
249.814955
 31
0.0
  0
SOLID
  8
L-ZISSEN
 10
383.61325
 20
238.520799
 30
0.0
 11
384.16795
 21
238.150999
 31
0.0
 12
385.0
 22
240.0
 32
0.0
 13
385.0
 23
240.0
 33
0.0
  0
LINE
  8
L-ZISSEN
 10
383.8906
 20
238.335899
 30
0.0
 11
375.0
 21
225.0
 31
0.0
  0
LINE
  8
L-ZISSEN
 10
375.0
 20
225.0
 30
0.0
 11
373.0
 21
225.0
 31
0.0
  0
TEXT
  8
L-ZISSEN
 10
362.0
 20
222.75
 30
0.0
 40
4.5
  1
P.P
  0
LINE
  8
L-TYUSIN
 10
290.0
 20
75.0
 30
0.0
 11
460.0
 21
75.0
 31
0.0
  0
TEXT
  8
L-ZISSEN
 10
362.0
 20
122.75
 30
0.0
 40
4.5
  1
P.P
  0
LINE
  8
L-ZISSEN
 10
375.0
 20
125.0
 30
0.0
 11
373.0
 21
125.0
 31
0.0
  0
LINE
  8
L-ZISSEN
 10
383.8906
 20
138.335899
 30
0.0
 11
375.0
 21
125.0
 31
0.0
  0
SOLID
  8
L-ZISSEN
 10
383.61325
 20
138.520799
 30
0.0
 11
384.16795
 21
138.150999
 31
0.0
 12
385.0
 22
140.0
 32
0.0
 13
385.0
 23
140.0
 33
0.0
  0
LINE
  8
L-ZISSEN
 10
346.5
 20
149.814955
 30
0.0
 11
359.0
 21
149.814955
 31
0.0
  0
LINE
  8
L-ZISSEN
 10
346.5
 20
130.185045
 30
0.0
 11
359.0
 21
130.185045
 31
0.0
  0
TEXT
  8
L-ZISSEN
 10
362.0
 20
87.75
 30
0.0
 40
4.5
  1
P.P
  0
LINE
  8
L-ZISSEN
 10
375.0
 20
90.0
 30
0.0
 11
373.0
 21
90.0
 31
0.0
  0
LINE
  8
L-ZISSEN
 10
383.8906
 20
103.335899
 30
0.0
 11
375.0
 21
90.0
 31
0.0
  0
SOLID
  8
L-ZISSEN
 10
383.61325
 20
103.520799
 30
0.0
 11
384.16795
 21
103.150999
 31
0.0
 12
385.0
 22
105.0
 32
0.0
 13
385.0
 23
105.0
 33
0.0
  0
LINE
  8
L-ZISSEN
 10
346.5
 20
96.5
 30
0.0
 11
359.0
 21
96.5
 31
0.0
  0
LINE
  8
L-ZISSEN
 10
346.5
 20
113.5
 30
0.0
 11
359.0
 21
113.5
 31
0.0
  0
TEXT
  8
L-ZISSEN
 10
302.0
 20
87.75
 30
0.0
 40
4.5
  1
P.P
  0
LINE
  8
L-ZISSEN
 10
315.0
 20
90.0
 30
0.0
 11
313.0
 21
90.0
 31
0.0
  0
LINE
  8
L-ZISSEN
 10
323.8906
 20
103.335899
 30
0.0
 11
315.0
 21
90.0
 31
0.0
  0
SOLID
  8
L-ZISSEN
 10
323.61325
 20
103.520799
 30
0.0
 11
324.16795
 21
103.150999
 31
0.0
 12
325.0
 22
105.0
 32
0.0
 13
325.0
 23
105.0
 33
0.0
  0
CIRCLE
  8
L-ZISSEN
 10
325.0
 20
105.0
 30
0.0
 40
4.6
  0
LINE
  8
L-ZISSEN
 10
329.907477
 20
113.5
 30
0.0
 11
320.092523
 21
113.5
 31
0.0
  0
LINE
  8
L-ZISSEN
 10
334.814955
 20
105.0
 30
0.0
 11
329.907477
 21
113.5
 31
0.0
  0
LINE
  8
L-ZISSEN
 10
329.907477
 20
96.5
 30
0.0
 11
334.814955
 21
105.0
 31
0.0
  0
LINE
  8
L-ZISSEN
 10
320.092523
 20
96.5
 30
0.0
 11
329.907477
 21
96.5
 31
0.0
  0
LINE
  8
L-ZISSEN
 10
315.185045
 20
105.0
 30
0.0
 11
320.092523
 21
96.5
 31
0.0
  0
LINE
  8
L-ZISSEN
 10
320.092523
 20
113.5
 30
0.0
 11
315.185045
 21
105.0
 31
0.0
  0
LINE
  8
L-ZISSEN
 10
346.5
 20
149.814955
 30
0.0
 11
346.5
 21
130.185045
 31
0.0
  0
LINE
  8
L-ZISSEN
 10
346.5
 20
96.5
 30
0.0
 11
346.5
 21
113.5
 31
0.0
  0
SOLID
  8
L-ZISSEN
 10
383.61325
 20
28.520799
 30
0.0
 11
384.16795
 21
28.150999
 31
0.0
 12
385.0
 22
30.0
 32
0.0
 13
385.0
 23
30.0
 33
0.0
  0
LINE
  8
L-ZISSEN
 10
383.8906
 20
28.335899
 30
0.0
 11
375.0
 21
15.0
 31
0.0
  0
LINE
  8
L-ZISSEN
 10
375.0
 20
15.0
 30
0.0
 11
373.0
 21
15.0
 31
0.0
  0
TEXT
  8
L-ZISSEN
 10
362.0
 20
12.75
 30
0.0
 40
4.5
  1
P.P
  0
CIRCLE
  8
L-ZISSEN
 10
385.0
 20
30.0
 30
0.0
 40
5.7225
  0
TEXT
  8
L-ZISSEN
 10
295.0
 20
65.0
 30
0.0
 40
4.5
  1
GAUGE PORT
  0
TEXT
  8
L-ZISSEN
 10
295.0
 20
260.0
 30
0.0
 40
4.5
  1
MODEL NO. : RN1-2G0-CY *
  0
TEXT
  8
L-ZISSEN
 10
385.0
 20
263.75
 30
0.0
 40
4.5
  1
3
  0
TEXT
  8
L-ZISSEN
 10
385.0
 20
256.25
 30
0.0
 40
4.5
  1
8
  0
TEXT
  8
L-ZISSEN
 10
385.0
 20
156.25
 30
0.0
 40
4.5
  1
7
  0
TEXT
  8
L-ZISSEN
 10
385.0
 20
163.75
 30
0.0
 40
4.5
  1
2
  0
TEXT
  8
L-ZISSEN
 10
295.0
 20
160.0
 30
0.0
 40
4.5
  1
MODEL NO. : RN1-2G0-CY *
  0
TEXT
  8
L-ZISSEN
 10
295.0
 20
55.0
 30
0.0
 40
4.5
  1
MODEL NO. : RN1-2G0-CY *
  0
TEXT
  8
L-ZISSEN
 10
385.0
 20
61.25
 30
0.0
 40
4.5
  1
6
  0
TEXT
  8
L-ZISSEN
 10
385.0
 20
55.0
 30
0.0
 40
4.5
  1
7
  0
TEXT
  8
L-ZISSEN
 10
385.0
 20
48.75
 30
0.0
 40
4.5
  1
8
  0
ENDSEC
  0
EOF
