  0
SECTION
  2
HEADER
  9
$ACADVER
  1
AC1006
  9
$INSBASE
 10
-27.5
 20
-237.5
 30
0.0
  9
$EXTMIN
 10
0.0
 20
0.0
  9
$EXTMAX
 10
335.0
 20
210.0
  9
$LIMMIN
 10
0.0
 20
0.0
  9
$LIMMAX
 10
297.0
 20
210.0
  9
$ORTHOMODE
 70
     0
  9
$REGENMODE
 70
     1
  9
$FILLMODE
 70
     1
  9
$QTEXTMODE
 70
     0
  9
$MIRRTEXT
 70
     1
  9
$DRAGMODE
 70
     2
  9
$LTSCALE
 40
1.0
  9
$OSMODE
 70
     0
  9
$ATTMODE
 70
     1
  9
$TEXTSIZE
 40
4.5
  9
$TRACEWID
 40
0.05
  9
$TEXTSTYLE
  7
STANDARD
  9
$CLAYER
  8
L-ZISSEN
  9
$CELTYPE
  6
BYLAYER
  9
$CECOLOR
 62
   256
  9
$DIMSCALE
 40
1.0
  9
$DIMASZ
 40
2.0
  9
$DIMEXO
 40
0.0625
  9
$DIMDLI
 40
0.38
  9
$DIMRND
 40
0.0
  9
$DIMDLE
 40
0.0
  9
$DIMEXE
 40
0.18
  9
$DIMTP
 40
0.0
  9
$DIMTM
 40
0.0
  9
$DIMTXT
 40
4.5
  9
$DIMCEN
 40
0.09
  9
$DIMTSZ
 40
0.0
  9
$DIMTOL
 70
     0
  9
$DIMLIM
 70
     0
  9
$DIMTIH
 70
     1
  9
$DIMTOH
 70
     1
  9
$DIMSE1
 70
     0
  9
$DIMSE2
 70
     0
  9
$DIMTAD
 70
     0
  9
$DIMZIN
 70
     0
  9
$DIMBLK
  1

  9
$DIMASO
 70
     0
  9
$DIMSHO
 70
     0
  9
$DIMPOST
  1

  9
$DIMAPOST
  1

  9
$DIMALT
 70
     0
  9
$DIMALTD
 70
     2
  9
$DIMALTF
 40
25.4
  9
$DIMLFAC
 40
1.0
  9
$DIMTOFL
 70
     0
  9
$DIMTVP
 40
0.0
  9
$DIMTIX
 70
     0
  9
$DIMSOXD
 70
     0
  9
$DIMSAH
 70
     0
  9
$DIMBLK1
  1

  9
$DIMBLK2
  1

  9
$LUNITS
 70
     2
  9
$LUPREC
 70
     4
  9
$AXISMODE
 70
     0
  9
$AXISUNIT
 10
0.0
 20
0.0
  9
$SKETCHINC
 40
0.1
  9
$FILLETRAD
 40
0.0
  9
$AUNITS
 70
     0
  9
$AUPREC
 70
     0
  9
$MENU
  1
acad
  9
$ELEVATION
 40
0.0
  9
$THICKNESS
 40
0.0
  9
$LIMCHECK
 70
     0
  9
$BLIPMODE
 70
     1
  9
$CHAMFERA
 40
0.0
  9
$CHAMFERB
 40
0.0
  9
$SKPOLY
 70
     0
  9
$TDCREATE
 40
2449587.6174305556
  9
$TDUPDATE
 40
2449587.6174305556
  9
$TDINDWG
 40
0.0000000000
  9
$TDUSRTIMER
 40
0.0000000000
  9
$USRTIMER
 70
     1
  9
$ANGBASE
 50
0.0
  9
$ANGDIR
 70
     0
  9
$PDMODE
 70
     0
  9
$PDSIZE
 40
0.0
  9
$PLINEWID
 40
0.0
  9
$COORDS
 70
     2
  9
$SPLFRAME
 70
     0
  9
$SPLINETYPE
 70
     6
  9
$SPLINESEGS
 70
     8
  9
$ATTDIA
 70
     0
  9
$ATTREQ
 70
     1
  9
$HANDLING
 70
     0
  9
$HANDSEED
  5
0
  9
$SURFTAB1
 70
     6
  9
$SURFTAB2
 70
     6
  9
$SURFTYPE
 70
     6
  9
$SURFU
 70
     6
  9
$SURFV
 70
     6
  9
$FLATLAND
 70
     0
  9
$UCSNAME
  2

  9
$UCSORG
 10
0.0
 20
0.0
 30
0.0
  9
$UCSXDIR
 10
1.0
 20
0.0
 30
0.0
  9
$UCSYDIR
 10
0.0
 20
1.0
 30
0.0
  9
$USERI1
 70
     0
  9
$USERI2
 70
     0
  9
$USERI3
 70
     0
  9
$USERI4
 70
     0
  9
$USERI5
 70
     0
  9
$USERR1
 40
0.0
  9
$USERR2
 40
0.0
  9
$USERR3
 40
0.0
  9
$USERR4
 40
0.0
  9
$USERR5
 40
0.0
  9
$WORLDVIEW
 70
     1
  0
ENDSEC
  0
SECTION
  2
TABLES
  0
TABLE
  2
VPORT
 70
     2
  0
VPORT
  2
*ACTIVE
 70
     0
 10
0.0
 20
0.0
 11
1.0
 21
1.0
 12
168.444033
 22
108.764811
 13
0.0
 23
0.0
 14
5.0
 24
5.0
 15
0.0
 25
0.0
 16
0.0
 26
0.0
 36
1.0
 17
0.0
 27
0.0
 37
0.0
 40
217.529623
 41
1.5487
 42
50.0
 43
0.0
 44
0.0
 50
0.0
 51
0.0
 71
     0
 72
   100
 73
     1
 74
     0
 75
     0
 76
     0
 77
     0
 78
     0
  0
ENDTAB
  0
TABLE
  2
LTYPE
 70
     2
  0
LTYPE
  2
CONTINUOUS
 70
    64
  3
Solid line
 72
    65
 73
     0
 40
0.0
  0
LTYPE
  2
CENTER
 70
    64
  3
____ _ ____ _ ____ _ 
 72
    65
 73
     4
 40
60.0
 49
45.0
 49
-5.0
 49
5.0
 49
-5.0
  0
ENDTAB
  0
TABLE
  2
LAYER
 70
     3
  0
LAYER
  2
0
 70
     0
 62
     7
  6
CONTINUOUS
  0
LAYER
  2
L-ZISSEN
 70
    64
 62
     7
  6
CONTINUOUS
  0
LAYER
  2
L-TYUSIN
 70
    64
 62
     1
  6
CENTER
  0
ENDTAB
  0
TABLE
  2
STYLE
 70
     1
  0
STYLE
  2
STANDARD
 70
    64
 40
0.0
 41
1.0
 50
0.0
 71
     0
 42
4.5
  3
txt
  4

  0
ENDTAB
  0
TABLE
  2
VIEW
 70
     0
  0
ENDTAB
  0
TABLE
  2
UCS
 70
     0
  0
ENDTAB
  0
TABLE
  2
DWGMGR
 70
     0
  0
ENDTAB
  0
ENDSEC
  0
SECTION
  2
BLOCKS
  0
ENDSEC
  0
SECTION
  2
ENTITIES
  0
LINE
  8
L-ZISSEN
 10
83.25
 20
96.19
 30
0.0
 11
83.25
 21
83.24
 31
0.0
  0
LINE
  8
L-ZISSEN
 10
56.75
 20
96.19
 30
0.0
 11
56.75
 21
83.24
 31
0.0
  0
LINE
  8
L-ZISSEN
 10
55.0
 20
82.24
 30
0.0
 11
85.0
 21
82.24
 31
0.0
  0
LINE
  8
L-ZISSEN
 10
55.0
 20
74.94
 30
0.0
 11
55.0
 21
82.24
 31
0.0
  0
LINE
  8
L-TYUSIN
 62
     1
 10
70.0
 20
29.34
 30
0.0
 11
70.0
 21
108.54
 31
0.0
  0
LINE
  8
L-ZISSEN
 10
50.75
 20
69.34
 30
0.0
 11
89.25
 21
69.34
 31
0.0
  0
LINE
  8
L-ZISSEN
 10
50.75
 20
57.24
 30
0.0
 11
50.75
 21
69.34
 31
0.0
  0
LINE
  8
L-ZISSEN
 10
89.25
 20
57.24
 30
0.0
 11
89.25
 21
69.34
 31
0.0
  0
LINE
  8
L-ZISSEN
 10
85.0
 20
74.94
 30
0.0
 11
85.0
 21
82.24
 31
0.0
  0
LINE
  8
L-ZISSEN
 10
50.75
 20
57.24
 30
0.0
 11
89.25
 21
57.24
 31
0.0
  0
LINE
  8
L-TYUSIN
 62
     1
 10
145.0
 20
29.34
 30
0.0
 11
145.0
 21
108.54
 31
0.0
  0
LINE
  8
L-ZISSEN
 10
83.75
 20
100.19
 30
0.0
 11
83.75
 21
96.19
 31
0.0
  0
LINE
  8
L-ZISSEN
 10
56.25
 20
100.19
 30
0.0
 11
56.25
 21
96.19
 31
0.0
  0
LINE
  8
L-ZISSEN
 10
82.5
 20
100.19
 30
0.0
 11
82.5
 21
103.54
 31
0.0
  0
CIRCLE
  8
L-ZISSEN
 10
70.0
 20
150.0
 30
0.0
 40
15.0
  0
CIRCLE
  8
L-ZISSEN
 10
70.0
 20
150.0
 30
0.0
 40
13.5
  0
CIRCLE
  8
L-ZISSEN
 10
70.0
 20
150.0
 30
0.0
 40
11.5
  0
LINE
  8
L-TYUSIN
 62
     1
 10
70.0
 20
125.0
 30
0.0
 11
70.0
 21
175.0
 31
0.0
  0
LINE
  8
L-TYUSIN
 62
     1
 10
33.5
 20
150.0
 30
0.0
 11
106.5
 21
150.0
 31
0.0
  0
ARC
  8
L-ZISSEN
 10
220.0
 20
114.0
 30
0.0
 40
15.5
 50
0.0
 51
180.0
  0
LINE
  8
L-ZISSEN
 10
201.0
 20
142.0
 30
0.0
 11
201.0
 21
100.0
 31
0.0
  0
LINE
  8
L-ZISSEN
 10
239.0
 20
139.7
 30
0.0
 11
201.0
 21
139.7
 31
0.0
  0
LINE
  8
L-ZISSEN
 10
239.0
 20
142.0
 30
0.0
 11
201.0
 21
142.0
 31
0.0
  0
LINE
  8
L-ZISSEN
 10
239.0
 20
100.0
 30
0.0
 11
239.0
 21
142.0
 31
0.0
  0
LINE
  8
L-ZISSEN
 10
235.5
 20
114.0
 30
0.0
 11
235.5
 21
100.0
 31
0.0
  0
LINE
  8
L-ZISSEN
 10
204.5
 20
114.0
 30
0.0
 11
204.5
 21
100.0
 31
0.0
  0
ARC
  8
L-ZISSEN
 10
220.0
 20
100.0
 30
0.0
 40
15.5
 50
180.0
 51
0.0
  0
ARC
  8
L-ZISSEN
 10
220.0
 20
100.0
 30
0.0
 40
19.0
 50
180.0
 51
0.0
  0
LINE
  8
L-ZISSEN
 10
239.0
 20
65.0
 30
0.0
 11
201.0
 21
65.0
 31
0.0
  0
CIRCLE
  8
L-ZISSEN
 10
211.5
 20
49.0
 30
0.0
 40
2.75
  0
CIRCLE
  8
L-ZISSEN
 10
228.5
 20
56.0
 30
0.0
 40
2.75
  0
LINE
  8
L-ZISSEN
 10
201.0
 20
65.0
 30
0.0
 11
201.0
 21
40.0
 31
0.0
  0
LINE
  8
L-ZISSEN
 10
239.0
 20
42.3
 30
0.0
 11
201.0
 21
42.3
 31
0.0
  0
LINE
  8
L-ZISSEN
 10
239.0
 20
40.0
 30
0.0
 11
201.0
 21
40.0
 31
0.0
  0
LINE
  8
L-ZISSEN
 10
239.0
 20
40.0
 30
0.0
 11
239.0
 21
65.0
 31
0.0
  0
LINE
  8
L-ZISSEN
 10
254.0
 20
42.3
 30
0.0
 11
312.7
 21
42.3
 31
0.0
  0
LINE
  8
L-ZISSEN
 10
315.0
 20
40.0
 30
0.0
 11
254.0
 21
40.0
 31
0.0
  0
LINE
  8
L-ZISSEN
 10
312.7
 20
65.0
 30
0.0
 11
312.7
 21
42.3
 31
0.0
  0
LINE
  8
L-ZISSEN
 10
315.0
 20
65.0
 30
0.0
 11
315.0
 21
40.0
 31
0.0
  0
LINE
  8
L-ZISSEN
 10
254.0
 20
40.0
 30
0.0
 11
254.0
 21
42.3
 31
0.0
  0
LINE
  8
L-ZISSEN
 10
57.5
 20
100.19
 30
0.0
 11
57.5
 21
103.54
 31
0.0
  0
LINE
  8
L-ZISSEN
 10
60.0
 20
82.24
 30
0.0
 11
60.0
 21
83.24
 31
0.0
  0
LINE
  8
L-ZISSEN
 10
80.0
 20
82.24
 30
0.0
 11
80.0
 21
83.24
 31
0.0
  0
LINE
  8
L-ZISSEN
 10
315.0
 20
65.0
 30
0.0
 11
312.7
 21
65.0
 31
0.0
  0
LINE
  8
L-TYUSIN
 10
221.999999
 20
56.0
 30
0.0
 11
235.0
 21
56.0
 31
0.0
  0
LINE
  8
L-TYUSIN
 10
228.5
 20
62.5
 30
0.0
 11
228.5
 21
49.5
 31
0.0
  0
LINE
  8
L-TYUSIN
 10
211.5
 20
55.5
 30
0.0
 11
211.5
 21
42.5
 31
0.0
  0
LINE
  8
L-TYUSIN
 10
204.999999
 20
49.0
 30
0.0
 11
218.0
 21
49.0
 31
0.0
  0
LINE
  8
L-TYUSIN
 10
307.7
 20
49.0
 30
0.0
 11
320.0
 21
49.0
 31
0.0
  0
LINE
  8
L-TYUSIN
 10
307.7
 20
56.0
 30
0.0
 11
320.0
 21
56.0
 31
0.0
  0
LINE
  8
L-TYUSIN
 10
228.5
 20
147.0
 30
0.0
 11
228.5
 21
134.7
 31
0.0
  0
LINE
  8
L-TYUSIN
 10
211.5
 20
147.0
 30
0.0
 11
211.5
 21
134.7
 31
0.0
  0
LINE
  8
L-ZISSEN
 10
125.75
 20
57.24
 30
0.0
 11
164.25
 21
57.24
 31
0.0
  0
LINE
  8
L-ZISSEN
 10
125.75
 20
57.24
 30
0.0
 11
125.75
 21
69.34
 31
0.0
  0
LINE
  8
L-ZISSEN
 10
125.7
 20
69.34
 30
0.0
 11
164.3
 21
69.34
 31
0.0
  0
LINE
  8
L-ZISSEN
 10
164.25
 20
57.24
 30
0.0
 11
164.25
 21
69.34
 31
0.0
  0
TEXT
  8
L-ZISSEN
 10
200.0
 20
155.0
 30
0.0
 40
4.5
  1
BRACKET
  0
LINE
  8
L-ZISSEN
 10
50.7
 20
74.94
 30
0.0
 11
50.7
 21
69.34
 31
0.0
  0
LINE
  8
L-ZISSEN
 10
89.3
 20
74.94
 30
0.0
 11
89.3
 21
69.34
 31
0.0
  0
LINE
  8
L-ZISSEN
 10
50.7
 20
74.94
 30
0.0
 11
89.3
 21
74.94
 31
0.0
  0
LINE
  8
L-TYUSIN
 10
190.0
 20
165.0
 30
0.0
 11
190.0
 21
20.0
 31
0.0
  0
CIRCLE
  8
L-ZISSEN
 10
70.0
 20
150.0
 30
0.0
 40
19.3
  0
LINE
  8
L-ZISSEN
 10
125.7
 20
74.94
 30
0.0
 11
164.3
 21
74.94
 31
0.0
  0
LINE
  8
L-ZISSEN
 10
125.7
 20
74.94
 30
0.0
 11
125.7
 21
69.34
 31
0.0
  0
LINE
  8
L-ZISSEN
 10
164.3
 20
74.94
 30
0.0
 11
164.3
 21
69.34
 31
0.0
  0
LINE
  8
L-TYUSIN
 10
33.5
 20
44.34
 30
0.0
 11
106.5
 21
44.34
 31
0.0
  0
LINE
  8
L-ZISSEN
 10
63.0
 20
34.34
 30
0.0
 11
77.0
 21
34.34
 31
0.0
  0
LINE
  8
L-ZISSEN
 10
83.411585
 20
39.34
 30
0.0
 11
56.588415
 21
39.34
 31
0.0
  0
LINE
  8
L-ZISSEN
 10
63.0
 20
34.34
 30
0.0
 11
63.0
 21
39.34
 31
0.0
  0
LINE
  8
L-ZISSEN
 10
77.0
 20
34.34
 30
0.0
 11
77.0
 21
39.34
 31
0.0
  0
LINE
  8
L-ZISSEN
 10
38.5
 20
40.84
 30
0.0
 11
38.5
 21
47.84
 31
0.0
  0
LINE
  8
L-ZISSEN
 10
38.5
 20
47.84
 30
0.0
 11
40.5
 21
47.84
 31
0.0
  0
LINE
  8
L-ZISSEN
 10
38.5
 20
40.84
 30
0.0
 11
40.5
 21
40.84
 31
0.0
  0
LINE
  8
L-ZISSEN
 10
55.963333
 20
57.24
 30
0.0
 11
56.588415
 21
39.34
 31
0.0
  0
LINE
  8
L-ZISSEN
 10
84.036667
 20
57.24
 30
0.0
 11
83.411585
 21
39.34
 31
0.0
  0
LINE
  8
L-ZISSEN
 10
40.5
 20
40.44
 30
0.0
 11
40.5
 21
48.24
 31
0.0
  0
LINE
  8
L-ZISSEN
 10
40.5
 20
48.24
 30
0.0
 11
44.5
 21
48.24
 31
0.0
  0
LINE
  8
L-ZISSEN
 10
44.5
 20
48.24
 30
0.0
 11
44.5
 21
40.44
 31
0.0
  0
LINE
  8
L-ZISSEN
 10
44.5
 20
40.44
 30
0.0
 11
40.5
 21
40.44
 31
0.0
  0
LINE
  8
L-ZISSEN
 10
44.5
 20
47.84
 30
0.0
 11
56.291588
 21
47.84
 31
0.0
  0
LINE
  8
L-ZISSEN
 10
44.5
 20
40.84
 30
0.0
 11
56.536034
 21
40.84
 31
0.0
  0
LINE
  8
L-ZISSEN
 10
95.5
 20
40.84
 30
0.0
 11
83.463966
 21
40.84
 31
0.0
  0
LINE
  8
L-ZISSEN
 10
95.5
 20
47.84
 30
0.0
 11
83.708412
 21
47.84
 31
0.0
  0
LINE
  8
L-ZISSEN
 10
95.5
 20
40.44
 30
0.0
 11
99.5
 21
40.44
 31
0.0
  0
LINE
  8
L-ZISSEN
 10
95.5
 20
48.24
 30
0.0
 11
95.5
 21
40.44
 31
0.0
  0
LINE
  8
L-ZISSEN
 10
99.5
 20
48.24
 30
0.0
 11
95.5
 21
48.24
 31
0.0
  0
LINE
  8
L-ZISSEN
 10
99.5
 20
40.44
 30
0.0
 11
99.5
 21
48.24
 31
0.0
  0
LINE
  8
L-ZISSEN
 10
101.5
 20
40.84
 30
0.0
 11
99.5
 21
40.84
 31
0.0
  0
LINE
  8
L-ZISSEN
 10
101.5
 20
47.84
 30
0.0
 11
99.5
 21
47.84
 31
0.0
  0
LINE
  8
L-ZISSEN
 10
101.5
 20
40.84
 30
0.0
 11
101.5
 21
47.84
 31
0.0
  0
LINE
  8
L-ZISSEN
 10
138.0
 20
34.34
 30
0.0
 11
152.0
 21
34.34
 31
0.0
  0
LINE
  8
L-ZISSEN
 10
138.0
 20
34.34
 30
0.0
 11
138.0
 21
39.34
 31
0.0
  0
LINE
  8
L-ZISSEN
 10
158.411585
 20
39.34
 30
0.0
 11
131.588415
 21
39.34
 31
0.0
  0
LINE
  8
L-ZISSEN
 10
152.0
 20
34.34
 30
0.0
 11
152.0
 21
39.34
 31
0.0
  0
LINE
  8
L-ZISSEN
 10
159.036667
 20
57.24
 30
0.0
 11
158.411585
 21
39.34
 31
0.0
  0
LINE
  8
L-ZISSEN
 10
130.963333
 20
57.24
 30
0.0
 11
131.588415
 21
39.34
 31
0.0
  0
LINE
  8
L-TYUSIN
 10
125.0
 20
44.34
 30
0.0
 11
165.0
 21
44.34
 31
0.0
  0
CIRCLE
  8
L-ZISSEN
 10
145.0
 20
44.34
 30
0.0
 40
3.9
  0
CIRCLE
  8
L-ZISSEN
 10
145.0
 20
44.34
 30
0.0
 40
3.5
  0
CIRCLE
  8
L-ZISSEN
 10
145.0
 20
44.34
 30
0.0
 40
2.0
  0
SOLID
  8
L-ZISSEN
 10
36.907339
 20
43.085192
 30
0.0
 11
37.400394
 21
42.636481
 31
0.0
 12
38.5
 22
44.34
 32
0.0
 13
38.5
 23
44.34
 33
0.0
  0
LINE
  8
L-ZISSEN
 10
37.153866
 20
42.860837
 30
0.0
 11
30.0
 21
35.0
 31
0.0
  0
LINE
  8
L-ZISSEN
 10
30.0
 20
35.0
 30
0.0
 11
28.0
 21
35.0
 31
0.0
  0
TEXT
  8
L-ZISSEN
 10
20.0
 20
32.75
 30
0.0
 40
4.5
  1
IN
  0
TEXT
  8
L-ZISSEN
 10
35.0
 20
185.0
 30
0.0
 40
4.5
  1
MODEL NO : R31-N01- 100
  0
TEXT
  8
L-ZISSEN
 10
113.75
 20
188.75
 30
0.0
 40
4.5
  1
B
  0
TEXT
  8
L-ZISSEN
 10
113.75
 20
182.5
 30
0.0
 40
4.5
  1
C
  0
LINE
  8
L-ZISSEN
 10
101.5
 20
146.5
 30
0.0
 11
101.5
 21
153.5
 31
0.0
  0
LINE
  8
L-ZISSEN
 10
101.5
 20
153.5
 30
0.0
 11
99.5
 21
153.5
 31
0.0
  0
LINE
  8
L-ZISSEN
 10
101.5
 20
146.5
 30
0.0
 11
99.5
 21
146.5
 31
0.0
  0
LINE
  8
L-ZISSEN
 10
99.5
 20
146.1
 30
0.0
 11
99.5
 21
153.9
 31
0.0
  0
LINE
  8
L-ZISSEN
 10
99.5
 20
153.9
 30
0.0
 11
95.5
 21
153.9
 31
0.0
  0
LINE
  8
L-ZISSEN
 10
95.5
 20
153.9
 30
0.0
 11
95.5
 21
146.1
 31
0.0
  0
LINE
  8
L-ZISSEN
 10
95.5
 20
146.1
 30
0.0
 11
99.5
 21
146.1
 31
0.0
  0
LINE
  8
L-ZISSEN
 10
95.5
 20
153.5
 30
0.0
 11
88.979989
 21
153.5
 31
0.0
  0
LINE
  8
L-ZISSEN
 10
95.5
 20
146.5
 30
0.0
 11
88.979989
 21
146.5
 31
0.0
  0
LINE
  8
L-ZISSEN
 10
44.5
 20
146.5
 30
0.0
 11
51.020011
 21
146.5
 31
0.0
  0
LINE
  8
L-ZISSEN
 10
44.5
 20
153.5
 30
0.0
 11
51.020011
 21
153.5
 31
0.0
  0
LINE
  8
L-ZISSEN
 10
44.5
 20
146.1
 30
0.0
 11
40.5
 21
146.1
 31
0.0
  0
LINE
  8
L-ZISSEN
 10
44.5
 20
153.9
 30
0.0
 11
44.5
 21
146.1
 31
0.0
  0
LINE
  8
L-ZISSEN
 10
40.5
 20
153.9
 30
0.0
 11
44.5
 21
153.9
 31
0.0
  0
LINE
  8
L-ZISSEN
 10
40.5
 20
146.1
 30
0.0
 11
40.5
 21
153.9
 31
0.0
  0
LINE
  8
L-ZISSEN
 10
38.5
 20
146.5
 30
0.0
 11
40.5
 21
146.5
 31
0.0
  0
LINE
  8
L-ZISSEN
 10
38.5
 20
153.5
 30
0.0
 11
40.5
 21
153.5
 31
0.0
  0
LINE
  8
L-ZISSEN
 10
38.5
 20
146.5
 30
0.0
 11
38.5
 21
153.5
 31
0.0
  0
LINE
  8
L-ZISSEN
 10
57.5
 20
103.54
 30
0.0
 11
82.5
 21
103.54
 31
0.0
  0
LINE
  8
L-ZISSEN
 10
56.75
 20
83.24
 30
0.0
 11
83.25
 21
83.24
 31
0.0
  0
LINE
  8
L-ZISSEN
 10
56.25
 20
100.19
 30
0.0
 11
83.75
 21
100.19
 31
0.0
  0
LINE
  8
L-ZISSEN
 10
56.25
 20
96.19
 30
0.0
 11
83.75
 21
96.19
 31
0.0
  0
LINE
  8
L-ZISSEN
 10
131.25
 20
96.19
 30
0.0
 11
158.75
 21
96.19
 31
0.0
  0
LINE
  8
L-ZISSEN
 10
131.25
 20
100.19
 30
0.0
 11
158.75
 21
100.19
 31
0.0
  0
LINE
  8
L-ZISSEN
 10
131.75
 20
83.24
 30
0.0
 11
158.25
 21
83.24
 31
0.0
  0
LINE
  8
L-ZISSEN
 10
132.5
 20
103.54
 30
0.0
 11
157.5
 21
103.54
 31
0.0
  0
LINE
  8
L-ZISSEN
 10
155.0
 20
82.24
 30
0.0
 11
155.0
 21
83.24
 31
0.0
  0
LINE
  8
L-ZISSEN
 10
135.0
 20
82.24
 30
0.0
 11
135.0
 21
83.24
 31
0.0
  0
LINE
  8
L-ZISSEN
 10
132.5
 20
100.19
 30
0.0
 11
132.5
 21
103.54
 31
0.0
  0
LINE
  8
L-ZISSEN
 10
157.5
 20
100.19
 30
0.0
 11
157.5
 21
103.54
 31
0.0
  0
LINE
  8
L-ZISSEN
 10
131.25
 20
100.19
 30
0.0
 11
131.25
 21
96.19
 31
0.0
  0
LINE
  8
L-ZISSEN
 10
158.75
 20
100.19
 30
0.0
 11
158.75
 21
96.19
 31
0.0
  0
LINE
  8
L-ZISSEN
 10
160.0
 20
74.94
 30
0.0
 11
160.0
 21
82.24
 31
0.0
  0
LINE
  8
L-ZISSEN
 10
130.0
 20
74.94
 30
0.0
 11
130.0
 21
82.24
 31
0.0
  0
LINE
  8
L-ZISSEN
 10
130.0
 20
82.24
 30
0.0
 11
160.0
 21
82.24
 31
0.0
  0
LINE
  8
L-ZISSEN
 10
131.75
 20
96.19
 30
0.0
 11
131.75
 21
83.24
 31
0.0
  0
LINE
  8
L-ZISSEN
 10
158.25
 20
96.19
 30
0.0
 11
158.25
 21
83.24
 31
0.0
  0
ENDSEC
  0
EOF
