  0
SECTION
  2
HEADER
  9
$ACADVER
  1
AC1006
  9
$INSBASE
 10
0.0
 20
0.0
 30
0.0
  9
$EXTMIN
 10
15.0
 20
30.0
  9
$EXTMAX
 10
660.0
 20
390.0
  9
$LIMMIN
 10
0.0
 20
0.0
  9
$LIMMAX
 10
594.0
 20
420.0
  9
$ORTHOMODE
 70
     0
  9
$REGENMODE
 70
     1
  9
$FILLMODE
 70
     1
  9
$QTEXTMODE
 70
     0
  9
$MIRRTEXT
 70
     1
  9
$DRAGMODE
 70
     2
  9
$LTSCALE
 40
1.0
  9
$OSMODE
 70
     0
  9
$ATTMODE
 70
     1
  9
$TEXTSIZE
 40
4.5
  9
$TRACEWID
 40
0.05
  9
$TEXTSTYLE
  7
STANDARD
  9
$CLAYER
  8
L-ZISSEN
  9
$CELTYPE
  6
BYLAYER
  9
$CECOLOR
 62
   256
  9
$DIMSCALE
 40
1.0
  9
$DIMASZ
 40
2.0
  9
$DIMEXO
 40
1.0
  9
$DIMDLI
 40
0.38
  9
$DIMRND
 40
0.0
  9
$DIMDLE
 40
1.0
  9
$DIMEXE
 40
1.0
  9
$DIMTP
 40
0.0
  9
$DIMTM
 40
0.0
  9
$DIMTXT
 40
4.5
  9
$DIMCEN
 40
0.09
  9
$DIMTSZ
 40
0.0
  9
$DIMTOL
 70
     0
  9
$DIMLIM
 70
     0
  9
$DIMTIH
 70
     0
  9
$DIMTOH
 70
     0
  9
$DIMSE1
 70
     0
  9
$DIMSE2
 70
     0
  9
$DIMTAD
 70
     1
  9
$DIMZIN
 70
     0
  9
$DIMBLK
  1

  9
$DIMASO
 70
     0
  9
$DIMSHO
 70
     0
  9
$DIMPOST
  1

  9
$DIMAPOST
  1

  9
$DIMALT
 70
     0
  9
$DIMALTD
 70
     2
  9
$DIMALTF
 40
25.4
  9
$DIMLFAC
 40
1.0
  9
$DIMTOFL
 70
     1
  9
$DIMTVP
 40
0.0
  9
$DIMTIX
 70
     1
  9
$DIMSOXD
 70
     0
  9
$DIMSAH
 70
     0
  9
$DIMBLK1
  1

  9
$DIMBLK2
  1

  9
$LUNITS
 70
     2
  9
$LUPREC
 70
     4
  9
$AXISMODE
 70
     0
  9
$AXISUNIT
 10
0.0
 20
0.0
  9
$SKETCHINC
 40
0.1
  9
$FILLETRAD
 40
5.0
  9
$AUNITS
 70
     0
  9
$AUPREC
 70
     0
  9
$MENU
  1
acad
  9
$ELEVATION
 40
0.0
  9
$THICKNESS
 40
0.0
  9
$LIMCHECK
 70
     0
  9
$BLIPMODE
 70
     1
  9
$CHAMFERA
 40
1.0
  9
$CHAMFERB
 40
1.0
  9
$SKPOLY
 70
     0
  9
$TDCREATE
 40
2449653.6400854168
  9
$TDUPDATE
 40
2449653.6400854168
  9
$TDINDWG
 40
0.0000000000
  9
$TDUSRTIMER
 40
0.0000000000
  9
$USRTIMER
 70
     1
  9
$ANGBASE
 50
0.0
  9
$ANGDIR
 70
     0
  9
$PDMODE
 70
     0
  9
$PDSIZE
 40
0.0
  9
$PLINEWID
 40
0.0
  9
$COORDS
 70
     2
  9
$SPLFRAME
 70
     0
  9
$SPLINETYPE
 70
     6
  9
$SPLINESEGS
 70
     8
  9
$ATTDIA
 70
     0
  9
$ATTREQ
 70
     1
  9
$HANDLING
 70
     0
  9
$HANDSEED
  5
0
  9
$SURFTAB1
 70
     6
  9
$SURFTAB2
 70
     6
  9
$SURFTYPE
 70
     6
  9
$SURFU
 70
     6
  9
$SURFV
 70
     6
  9
$FLATLAND
 70
     0
  9
$UCSNAME
  2

  9
$UCSORG
 10
0.0
 20
0.0
 30
0.0
  9
$UCSXDIR
 10
1.0
 20
0.0
 30
0.0
  9
$UCSYDIR
 10
0.0
 20
1.0
 30
0.0
  9
$USERI1
 70
     0
  9
$USERI2
 70
     0
  9
$USERI3
 70
     0
  9
$USERI4
 70
     0
  9
$USERI5
 70
     0
  9
$USERR1
 40
0.0
  9
$USERR2
 40
0.0
  9
$USERR3
 40
0.0
  9
$USERR4
 40
0.0
  9
$USERR5
 40
0.0
  9
$WORLDVIEW
 70
     1
  0
ENDSEC
  0
SECTION
  2
TABLES
  0
TABLE
  2
VPORT
 70
     2
  0
VPORT
  2
*ACTIVE
 70
     0
 10
0.0
 20
0.0
 11
1.0
 21
1.0
 12
341.062933
 22
226.4204
 13
0.0
 23
0.0
 14
5.0
 24
5.0
 15
0.0
 25
0.0
 16
0.0
 26
0.0
 36
1.0
 17
0.0
 27
0.0
 37
0.0
 40
450.118988
 41
1.5487
 42
50.0
 43
0.0
 44
0.0
 50
0.0
 51
0.0
 71
     0
 72
   100
 73
     1
 74
     0
 75
     0
 76
     0
 77
     0
 78
     0
  0
ENDTAB
  0
TABLE
  2
LTYPE
 70
     2
  0
LTYPE
  2
CONTINUOUS
 70
    64
  3
Solid line
 72
    65
 73
     0
 40
0.0
  0
LTYPE
  2
CENTER
 70
    64
  3
____ _ ____ _ ____ _ ____ _ 
 72
    65
 73
     4
 40
60.0
 49
45.0
 49
-5.0
 49
5.0
 49
-5.0
  0
ENDTAB
  0
TABLE
  2
LAYER
 70
     3
  0
LAYER
  2
0
 70
     0
 62
     7
  6
CONTINUOUS
  0
LAYER
  2
L-ZISSEN
 70
    64
 62
     7
  6
CONTINUOUS
  0
LAYER
  2
L-TYUSIN
 70
    64
 62
     1
  6
CENTER
  0
ENDTAB
  0
TABLE
  2
STYLE
 70
     1
  0
STYLE
  2
STANDARD
 70
    64
 40
0.0
 41
1.0
 50
0.0
 71
     0
 42
4.5
  3
TXT
  4

  0
ENDTAB
  0
TABLE
  2
VIEW
 70
     0
  0
ENDTAB
  0
TABLE
  2
UCS
 70
     0
  0
ENDTAB
  0
TABLE
  2
DWGMGR
 70
     0
  0
ENDTAB
  0
ENDSEC
  0
SECTION
  2
BLOCKS
  0
ENDSEC
  0
SECTION
  2
ENTITIES
  0
CIRCLE
  8
L-ZISSEN
 10
310.0
 20
245.0
 30
0.0
 40
27.0
  0
LINE
  8
L-ZISSEN
 10
294.443651
 20
260.556349
 30
0.0
 11
318.485281
 21
236.514719
 31
0.0
  0
LINE
  8
L-ZISSEN
 10
375.0
 20
272.0
 30
0.0
 11
375.0
 21
218.0
 31
0.0
  0
LINE
  8
L-ZISSEN
 10
380.0
 20
272.0
 30
0.0
 11
380.0
 21
218.0
 31
0.0
  0
LINE
  8
L-ZISSEN
 10
398.5
 20
271.0
 30
0.0
 11
398.5
 21
219.0
 31
0.0
  0
LINE
  8
L-ZISSEN
 10
398.5
 20
219.0
 30
0.0
 11
380.0
 21
219.0
 31
0.0
  0
LINE
  8
L-ZISSEN
 10
380.0
 20
218.0
 30
0.0
 11
375.0
 21
218.0
 31
0.0
  0
LINE
  8
L-ZISSEN
 10
398.5
 20
271.0
 30
0.0
 11
380.0
 21
271.0
 31
0.0
  0
LINE
  8
L-ZISSEN
 10
380.0
 20
272.0
 30
0.0
 11
375.0
 21
272.0
 31
0.0
  0
LINE
  8
L-ZISSEN
 10
398.5
 20
251.0
 30
0.0
 11
404.5
 21
251.0
 31
0.0
  0
LINE
  8
L-ZISSEN
 10
404.5
 20
251.0
 30
0.0
 11
404.5
 21
239.0
 31
0.0
  0
LINE
  8
L-ZISSEN
 10
404.5
 20
239.0
 30
0.0
 11
398.5
 21
239.0
 31
0.0
  0
LINE
  8
L-ZISSEN
 10
404.5
 20
249.864
 30
0.0
 11
411.0
 21
249.864
 31
0.0
  0
LINE
  8
L-ZISSEN
 10
404.5
 20
240.136
 30
0.0
 11
411.0
 21
240.136
 31
0.0
  0
SOLID
  8
L-ZISSEN
 10
308.463557
 20
243.676952
 30
0.0
 11
308.975705
 21
243.250163
 31
0.0
 12
310.0
 22
245.0
 32
0.0
 13
310.0
 23
245.0
 33
0.0
  0
LINE
  8
L-ZISSEN
 10
308.719631
 20
243.463557
 30
0.0
 11
285.0
 21
215.0
 31
0.0
  0
LINE
  8
L-ZISSEN
 10
285.0
 20
215.0
 30
0.0
 11
283.0
 21
215.0
 31
0.0
  0
TEXT
  8
L-ZISSEN
 10
272.0
 20
212.75
 30
0.0
 40
4.5
  1
P.P
  0
LINE
  8
L-ZISSEN
 10
314.864
 20
313.5
 30
0.0
 11
314.864
 21
320.0
 31
0.0
  0
LINE
  8
L-ZISSEN
 10
305.136
 20
313.5
 30
0.0
 11
305.136
 21
320.0
 31
0.0
  0
LINE
  8
L-ZISSEN
 10
316.0
 20
313.5
 30
0.0
 11
316.0
 21
307.5
 31
0.0
  0
LINE
  8
L-ZISSEN
 10
304.0
 20
313.5
 30
0.0
 11
316.0
 21
313.5
 31
0.0
  0
LINE
  8
L-ZISSEN
 10
304.0
 20
307.5
 30
0.0
 11
304.0
 21
313.5
 31
0.0
  0
LINE
  8
L-ZISSEN
 10
283.0
 20
289.0
 30
0.0
 11
283.0
 21
284.0
 31
0.0
  0
LINE
  8
L-ZISSEN
 10
284.0
 20
307.5
 30
0.0
 11
284.0
 21
289.0
 31
0.0
  0
LINE
  8
L-ZISSEN
 10
337.0
 20
289.0
 30
0.0
 11
337.0
 21
284.0
 31
0.0
  0
LINE
  8
L-ZISSEN
 10
336.0
 20
307.5
 30
0.0
 11
336.0
 21
289.0
 31
0.0
  0
LINE
  8
L-ZISSEN
 10
284.0
 20
307.5
 30
0.0
 11
336.0
 21
307.5
 31
0.0
  0
LINE
  8
L-ZISSEN
 10
283.0
 20
289.0
 30
0.0
 11
337.0
 21
289.0
 31
0.0
  0
LINE
  8
L-ZISSEN
 10
283.0
 20
284.0
 30
0.0
 11
337.0
 21
284.0
 31
0.0
  0
LINE
  8
L-TYUSIN
 10
265.0
 20
205.0
 30
0.0
 11
460.0
 21
205.0
 31
0.0
  0
LINE
  8
L-TYUSIN
 10
90.0
 20
112.0
 30
0.0
 11
90.0
 21
40.5
 31
0.0
  0
LINE
  8
L-TYUSIN
 10
45.0
 20
60.0
 30
0.0
 11
135.0
 21
60.0
 31
0.0
  0
LINE
  8
L-TYUSIN
 10
155.0
 20
60.0
 30
0.0
 11
245.0
 21
60.0
 31
0.0
  0
LINE
  8
L-TYUSIN
 10
200.0
 20
112.0
 30
0.0
 11
200.0
 21
40.5
 31
0.0
  0
LINE
  8
L-ZISSEN
 10
194.75
 20
45.5
 30
0.0
 11
205.25
 21
45.5
 31
0.0
  0
LINE
  8
L-ZISSEN
 10
241.5
 20
79.0
 30
0.0
 11
158.5
 21
79.0
 31
0.0
  0
LINE
  8
L-ZISSEN
 10
158.5
 20
72.0
 30
0.0
 11
241.5
 21
72.0
 31
0.0
  0
LINE
  8
L-ZISSEN
 10
158.5
 20
67.0
 30
0.0
 11
160.0
 21
67.0
 31
0.0
  0
LINE
  8
L-ZISSEN
 10
158.5
 20
93.5
 30
0.0
 11
158.5
 21
67.0
 31
0.0
  0
LINE
  8
L-ZISSEN
 10
241.5
 20
93.5
 30
0.0
 11
241.5
 21
67.0
 31
0.0
  0
LINE
  8
L-ZISSEN
 10
240.0
 20
50.0
 30
0.0
 11
240.0
 21
72.0
 31
0.0
  0
LINE
  8
L-ZISSEN
 10
160.0
 20
50.0
 30
0.0
 11
160.0
 21
72.0
 31
0.0
  0
LINE
  8
L-ZISSEN
 10
240.0
 20
67.0
 30
0.0
 11
241.5
 21
67.0
 31
0.0
  0
LINE
  8
L-ZISSEN
 10
205.25
 20
45.5
 30
0.0
 11
205.25
 21
51.488978
 31
0.0
  0
LINE
  8
L-ZISSEN
 10
194.75
 20
45.5
 30
0.0
 11
194.75
 21
51.488978
 31
0.0
  0
LINE
  8
L-ZISSEN
 10
220.0
 20
50.0
 30
0.0
 11
220.0
 21
67.0
 31
0.0
  0
LINE
  8
L-ZISSEN
 10
180.0
 20
50.0
 30
0.0
 11
180.0
 21
67.0
 31
0.0
  0
ARC
  8
L-ZISSEN
 10
200.0
 20
60.0
 30
0.0
 40
10.0
 50
180.0
 51
0.0
  0
LINE
  8
L-ZISSEN
 10
190.0
 20
60.0
 30
0.0
 11
190.0
 21
71.0
 31
0.0
  0
LINE
  8
L-ZISSEN
 10
210.0
 20
60.0
 30
0.0
 11
210.0
 21
71.0
 31
0.0
  0
LINE
  8
L-ZISSEN
 10
220.0
 20
52.0
 30
0.0
 11
206.0
 21
52.0
 31
0.0
  0
LINE
  8
L-ZISSEN
 10
240.0
 20
50.0
 30
0.0
 11
220.0
 21
50.0
 31
0.0
  0
LINE
  8
L-ZISSEN
 10
180.0
 20
50.0
 30
0.0
 11
160.0
 21
50.0
 31
0.0
  0
LINE
  8
L-ZISSEN
 10
194.0
 20
52.0
 30
0.0
 11
180.0
 21
52.0
 31
0.0
  0
LINE
  8
L-ZISSEN
 10
70.0
 20
50.0
 30
0.0
 11
50.0
 21
50.0
 31
0.0
  0
LINE
  8
L-ZISSEN
 10
130.0
 20
50.0
 30
0.0
 11
110.0
 21
50.0
 31
0.0
  0
LINE
  8
L-ZISSEN
 10
110.0
 20
52.0
 30
0.0
 11
96.0
 21
52.0
 31
0.0
  0
LINE
  8
L-ZISSEN
 10
100.0
 20
60.0
 30
0.0
 11
100.0
 21
71.0
 31
0.0
  0
LINE
  8
L-ZISSEN
 10
80.0
 20
60.0
 30
0.0
 11
80.0
 21
71.0
 31
0.0
  0
ARC
  8
L-ZISSEN
 10
90.0
 20
60.0
 30
0.0
 40
10.0
 50
180.0
 51
0.0
  0
LINE
  8
L-ZISSEN
 10
70.0
 20
50.0
 30
0.0
 11
70.0
 21
67.0
 31
0.0
  0
LINE
  8
L-ZISSEN
 10
110.0
 20
50.0
 30
0.0
 11
110.0
 21
67.0
 31
0.0
  0
LINE
  8
L-ZISSEN
 10
84.75
 20
45.5
 30
0.0
 11
84.75
 21
49.170417
 31
0.0
  0
LINE
  8
L-ZISSEN
 10
95.25
 20
45.5
 30
0.0
 11
95.25
 21
51.488978
 31
0.0
  0
LINE
  8
L-ZISSEN
 10
130.0
 20
67.0
 30
0.0
 11
131.5
 21
67.0
 31
0.0
  0
LINE
  8
L-ZISSEN
 10
50.0
 20
50.0
 30
0.0
 11
50.0
 21
72.0
 31
0.0
  0
LINE
  8
L-ZISSEN
 10
130.0
 20
50.0
 30
0.0
 11
130.0
 21
72.0
 31
0.0
  0
LINE
  8
L-ZISSEN
 10
131.5
 20
93.5
 30
0.0
 11
131.5
 21
67.0
 31
0.0
  0
LINE
  8
L-ZISSEN
 10
48.5
 20
93.5
 30
0.0
 11
48.5
 21
67.0
 31
0.0
  0
LINE
  8
L-ZISSEN
 10
48.5
 20
67.0
 30
0.0
 11
50.0
 21
67.0
 31
0.0
  0
LINE
  8
L-ZISSEN
 10
48.5
 20
72.0
 30
0.0
 11
131.5
 21
72.0
 31
0.0
  0
LINE
  8
L-ZISSEN
 10
131.5
 20
79.0
 30
0.0
 11
48.5
 21
79.0
 31
0.0
  0
LINE
  8
L-ZISSEN
 10
84.75
 20
45.5
 30
0.0
 11
95.25
 21
45.5
 31
0.0
  0
LINE
  8
L-ZISSEN
 10
84.75
 20
49.170417
 30
0.0
 11
70.0
 21
52.037527
 31
0.0
  0
LINE
  8
L-ZISSEN
  6
CONTINUOUS
 62
     7
 10
347.0
 20
41.5
 30
0.0
 11
347.0
 21
60.0
 31
0.0
  0
LINE
  8
L-ZISSEN
  6
CONTINUOUS
 62
     7
 10
399.0
 20
60.0
 30
0.0
 11
399.0
 21
41.5
 31
0.0
  0
LINE
  8
L-ZISSEN
  6
CONTINUOUS
 62
     7
 10
346.0
 20
60.0
 30
0.0
 11
400.0
 21
60.0
 31
0.0
  0
LINE
  8
L-ZISSEN
  6
CONTINUOUS
 62
     7
 10
400.0
 20
65.0
 30
0.0
 11
400.0
 21
60.0
 31
0.0
  0
LINE
  8
L-ZISSEN
  6
CONTINUOUS
 62
     7
 10
399.0
 20
41.5
 30
0.0
 11
347.0
 21
41.5
 31
0.0
  0
LINE
  8
L-ZISSEN
  6
CONTINUOUS
 62
     7
 10
346.0
 20
65.0
 30
0.0
 11
346.0
 21
60.0
 31
0.0
  0
LINE
  8
L-ZISSEN
  6
CONTINUOUS
 62
     7
 10
346.0
 20
65.0
 30
0.0
 11
400.0
 21
65.0
 31
0.0
  0
LINE
  8
L-ZISSEN
  6
CONTINUOUS
 62
     7
 10
411.0
 20
44.75
 30
0.0
 11
406.0
 21
44.75
 31
0.0
  0
LINE
  8
L-ZISSEN
  6
CONTINUOUS
 62
     7
 10
411.0
 20
55.25
 30
0.0
 11
406.0
 21
55.25
 31
0.0
  0
LINE
  8
L-ZISSEN
  6
CONTINUOUS
 62
     7
 10
406.0
 20
44.0
 30
0.0
 11
399.0
 21
44.0
 31
0.0
  0
LINE
  8
L-ZISSEN
  6
CONTINUOUS
 62
     7
 10
406.0
 20
56.0
 30
0.0
 11
406.0
 21
44.0
 31
0.0
  0
LINE
  8
L-ZISSEN
  6
CONTINUOUS
 62
     7
 10
399.0
 20
56.0
 30
0.0
 11
406.0
 21
56.0
 31
0.0
  0
LINE
  8
L-ZISSEN
 10
62.890073
 20
98.1
 30
0.0
 11
62.890073
 21
93.5
 31
0.0
  0
LINE
  8
L-ZISSEN
 10
53.890073
 20
98.1
 30
0.0
 11
53.890073
 21
93.5
 31
0.0
  0
LINE
  8
L-TYUSIN
 10
90.0
 20
231.5
 30
0.0
 11
90.0
 21
138.5
 31
0.0
  0
LINE
  8
L-TYUSIN
 10
43.5
 20
185.0
 30
0.0
 11
136.5
 21
185.0
 31
0.0
  0
ARC
  8
L-ZISSEN
 10
90.0
 20
185.0
 30
0.0
 40
41.5
 50
190.826179
 51
159.091764
  0
CIRCLE
  8
L-ZISSEN
 10
121.609927
 20
203.25
 30
0.0
 40
4.5
  0
CIRCLE
  8
L-ZISSEN
 10
58.390073
 20
203.25
 30
0.0
 40
4.5
  0
CIRCLE
  8
L-ZISSEN
 10
58.390073
 20
166.75
 30
0.0
 40
4.5
  0
CIRCLE
  8
L-ZISSEN
 10
121.609927
 20
166.75
 30
0.0
 40
4.5
  0
CIRCLE
  8
L-ZISSEN
 10
90.0
 20
148.5
 30
0.0
 40
4.5
  0
CIRCLE
  8
L-ZISSEN
 10
90.0
 20
221.5
 30
0.0
 40
4.5
  0
LINE
  8
L-ZISSEN
 10
158.5
 20
80.27
 30
0.0
 11
241.5
 21
80.27
 31
0.0
  0
LINE
  8
L-ZISSEN
 10
62.890073
 20
98.1
 30
0.0
 11
53.890073
 21
98.1
 31
0.0
  0
LINE
  8
L-ZISSEN
 10
94.5
 20
98.1
 30
0.0
 11
85.5
 21
98.1
 31
0.0
  0
LINE
  8
L-ZISSEN
 10
85.5
 20
98.1
 30
0.0
 11
85.5
 21
93.5
 31
0.0
  0
LINE
  8
L-ZISSEN
 10
94.5
 20
98.1
 30
0.0
 11
94.5
 21
93.5
 31
0.0
  0
LINE
  8
L-ZISSEN
 10
126.109927
 20
98.1
 30
0.0
 11
117.109927
 21
98.1
 31
0.0
  0
LINE
  8
L-ZISSEN
 10
117.109927
 20
98.1
 30
0.0
 11
117.109927
 21
93.5
 31
0.0
  0
LINE
  8
L-ZISSEN
 10
126.109927
 20
98.1
 30
0.0
 11
126.109927
 21
93.5
 31
0.0
  0
CIRCLE
  8
L-ZISSEN
 10
90.0
 20
60.0
 30
0.0
 40
4.283
  0
CIRCLE
  8
L-ZISSEN
 10
200.0
 20
60.0
 30
0.0
 40
5.7225
  0
LINE
  8
L-ZISSEN
 10
168.0
 20
98.1
 30
0.0
 11
159.0
 21
98.1
 31
0.0
  0
LINE
  8
L-ZISSEN
 10
159.0
 20
98.1
 30
0.0
 11
159.0
 21
93.5
 31
0.0
  0
LINE
  8
L-ZISSEN
 10
168.0
 20
98.1
 30
0.0
 11
168.0
 21
93.5
 31
0.0
  0
LINE
  8
L-ZISSEN
 10
186.25
 20
98.1
 30
0.0
 11
177.25
 21
98.1
 31
0.0
  0
LINE
  8
L-ZISSEN
 10
177.25
 20
98.1
 30
0.0
 11
177.25
 21
93.5
 31
0.0
  0
LINE
  8
L-ZISSEN
 10
186.25
 20
98.1
 30
0.0
 11
186.25
 21
93.5
 31
0.0
  0
LINE
  8
L-ZISSEN
 10
222.75
 20
98.1
 30
0.0
 11
213.75
 21
98.1
 31
0.0
  0
LINE
  8
L-ZISSEN
 10
213.75
 20
98.1
 30
0.0
 11
213.75
 21
93.5
 31
0.0
  0
LINE
  8
L-ZISSEN
 10
222.75
 20
98.1
 30
0.0
 11
222.75
 21
93.5
 31
0.0
  0
LINE
  8
L-ZISSEN
 10
241.0
 20
98.1
 30
0.0
 11
232.0
 21
98.1
 31
0.0
  0
LINE
  8
L-ZISSEN
 10
232.0
 20
98.1
 30
0.0
 11
232.0
 21
93.5
 31
0.0
  0
LINE
  8
L-ZISSEN
 10
241.0
 20
98.1
 30
0.0
 11
241.0
 21
93.5
 31
0.0
  0
TEXT
  8
L-ZISSEN
 10
45.0
 20
255.0
 30
0.0
 40
4.5
  1
MODEL No. : NRV-502JD
  0
SOLID
  8
L-ZISSEN
 10
90.933333
 20
183.2
 30
0.0
 11
91.466667
 21
183.6
 31
0.0
 12
90.0
 22
185.0
 32
0.0
 13
90.0
 23
185.0
 33
0.0
  0
LINE
  8
L-ZISSEN
 10
91.2
 20
183.4
 30
0.0
 11
120.0
 21
145.0
 31
0.0
  0
LINE
  8
L-ZISSEN
 10
120.0
 20
145.0
 30
0.0
 11
122.0
 21
145.0
 31
0.0
  0
TEXT
  8
L-ZISSEN
 10
124.0
 20
142.75
 30
0.0
 40
4.5
  1
P.P
  0
SOLID
  8
L-ZISSEN
 10
88.685178
 20
58.456513
 30
0.0
 11
89.256839
 21
58.113516
 31
0.0
 12
90.0
 22
60.0
 32
0.0
 13
90.0
 23
60.0
 33
0.0
  0
LINE
  8
L-ZISSEN
 10
88.971008
 20
58.285014
 30
0.0
 11
75.0
 21
35.0
 31
0.0
  0
LINE
  8
L-ZISSEN
 10
75.0
 20
35.0
 30
0.0
 11
73.0
 21
35.0
 31
0.0
  0
TEXT
  8
L-ZISSEN
 10
62.0
 20
32.75
 30
0.0
 40
4.5
  1
P.P
  0
SOLID
  8
L-ZISSEN
 10
200.743161
 20
58.113516
 30
0.0
 11
201.314822
 21
58.456513
 31
0.0
 12
200.0
 22
60.0
 32
0.0
 13
200.0
 23
60.0
 33
0.0
  0
LINE
  8
L-ZISSEN
 10
201.028992
 20
58.285014
 30
0.0
 11
215.0
 21
35.0
 31
0.0
  0
LINE
  8
L-ZISSEN
 10
215.0
 20
35.0
 30
0.0
 11
217.0
 21
35.0
 31
0.0
  0
TEXT
  8
L-ZISSEN
 10
219.0
 20
32.75
 30
0.0
 40
4.5
  1
P.P
  0
TEXT
  8
L-ZISSEN
 10
275.0
 20
370.0
 30
0.0
 40
4.5
  1
T TYPE PRESSURE GAUGE
  0
SOLID
  8
L-ZISSEN
 10
449.744091
 20
243.408208
 30
0.0
 11
450.328234
 21
243.086929
 31
0.0
 12
451.0
 22
245.0
 32
0.0
 13
451.0
 23
245.0
 33
0.0
  0
LINE
  8
L-ZISSEN
 10
450.036163
 20
243.247568
 30
0.0
 11
440.0
 21
225.0
 31
0.0
  0
LINE
  8
L-ZISSEN
 10
440.0
 20
225.0
 30
0.0
 11
438.0
 21
225.0
 31
0.0
  0
TEXT
  8
L-ZISSEN
 10
427.0
 20
222.75
 30
0.0
 40
4.5
  1
P.P
  0
SOLID
  8
L-ZISSEN
 10
48.350084
 20
58.821489
 30
0.0
 11
48.821489
 21
58.350084
 31
0.0
 12
50.0
 22
60.0
 32
0.0
 13
50.0
 23
60.0
 33
0.0
  0
LINE
  8
L-ZISSEN
 10
48.585786
 20
58.585786
 30
0.0
 11
40.0
 21
50.0
 31
0.0
  0
LINE
  8
L-ZISSEN
 10
40.0
 20
50.0
 30
0.0
 11
38.0
 21
50.0
 31
0.0
  0
TEXT
  8
L-ZISSEN
 10
30.0
 20
47.75
 30
0.0
 40
4.5
  1
IN
  0
TEXT
  8
L-ZISSEN
 10
15.0
 20
40.0
 30
0.0
 40
4.5
  1
Rc 1/4
  0
SOLID
  8
L-ZISSEN
 10
308.533333
 20
358.6
 30
0.0
 11
309.066667
 21
358.2
 31
0.0
 12
310.0
 22
360.0
 32
0.0
 13
310.0
 23
360.0
 33
0.0
  0
LINE
  8
L-ZISSEN
 10
308.8
 20
358.4
 30
0.0
 11
295.0
 21
340.0
 31
0.0
  0
LINE
  8
L-ZISSEN
 10
295.0
 20
340.0
 30
0.0
 11
293.0
 21
340.0
 31
0.0
  0
TEXT
  8
L-ZISSEN
 10
282.0
 20
337.75
 30
0.0
 40
4.5
  1
P.P
  0
LINE
  8
L-ZISSEN
  6
CONTINUOUS
 62
     7
 10
283.0
 20
65.0
 30
0.0
 11
337.0
 21
65.0
 31
0.0
  0
LINE
  8
L-ZISSEN
  6
CONTINUOUS
 62
     7
 10
283.0
 20
65.0
 30
0.0
 11
283.0
 21
60.0
 31
0.0
  0
LINE
  8
L-ZISSEN
  6
CONTINUOUS
 62
     7
 10
336.0
 20
41.5
 30
0.0
 11
284.0
 21
41.5
 31
0.0
  0
LINE
  8
L-ZISSEN
  6
CONTINUOUS
 62
     7
 10
337.0
 20
65.0
 30
0.0
 11
337.0
 21
60.0
 31
0.0
  0
LINE
  8
L-ZISSEN
  6
CONTINUOUS
 62
     7
 10
283.0
 20
60.0
 30
0.0
 11
337.0
 21
60.0
 31
0.0
  0
LINE
  8
L-ZISSEN
  6
CONTINUOUS
 62
     7
 10
336.0
 20
60.0
 30
0.0
 11
336.0
 21
41.5
 31
0.0
  0
LINE
  8
L-ZISSEN
  6
CONTINUOUS
 62
     7
 10
284.0
 20
41.5
 30
0.0
 11
284.0
 21
60.0
 31
0.0
  0
CIRCLE
  8
L-ZISSEN
 10
310.0
 20
110.0
 30
0.0
 40
27.0
  0
LINE
  8
L-ZISSEN
 10
325.556349
 20
94.443651
 30
0.0
 11
301.514719
 21
118.485281
 31
0.0
  0
LINE
  8
L-ZISSEN
  6
CONTINUOUS
 62
     7
 10
315.25
 20
148.0
 30
0.0
 11
315.25
 21
143.0
 31
0.0
  0
LINE
  8
L-ZISSEN
  6
CONTINUOUS
 62
     7
 10
304.75
 20
148.0
 30
0.0
 11
304.75
 21
143.0
 31
0.0
  0
LINE
  8
L-ZISSEN
  6
CONTINUOUS
 62
     7
 10
316.0
 20
143.0
 30
0.0
 11
316.0
 21
136.324893
 31
0.0
  0
LINE
  8
L-ZISSEN
  6
CONTINUOUS
 62
     7
 10
304.0
 20
143.0
 30
0.0
 11
316.0
 21
143.0
 31
0.0
  0
LINE
  8
L-ZISSEN
  6
CONTINUOUS
 62
     7
 10
304.0
 20
136.324893
 30
0.0
 11
304.0
 21
143.0
 31
0.0
  0
SOLID
  8
L-ZISSEN
 10
308.270312
 20
186.942035
 30
0.0
 11
308.706932
 21
186.438243
 31
0.0
 12
310.0
 22
188.0
 32
0.0
 13
310.0
 23
188.0
 33
0.0
  0
LINE
  8
L-ZISSEN
 10
308.488622
 20
186.690139
 30
0.0
 11
295.0
 21
175.0
 31
0.0
  0
LINE
  8
L-ZISSEN
 10
295.0
 20
175.0
 30
0.0
 11
293.0
 21
175.0
 31
0.0
  0
TEXT
  8
L-ZISSEN
 10
282.0
 20
172.75
 30
0.0
 40
4.5
  1
P.P
  0
SOLID
  8
L-ZISSEN
 10
308.61325
 20
48.520799
 30
0.0
 11
309.16795
 21
48.150999
 31
0.0
 12
310.0
 22
50.0
 32
0.0
 13
310.0
 23
50.0
 33
0.0
  0
LINE
  8
L-ZISSEN
 10
308.8906
 20
48.335899
 30
0.0
 11
300.0
 21
35.0
 31
0.0
  0
LINE
  8
L-ZISSEN
 10
300.0
 20
35.0
 30
0.0
 11
298.0
 21
35.0
 31
0.0
  0
TEXT
  8
L-ZISSEN
 10
287.0
 20
32.75
 30
0.0
 40
4.5
  1
P.P
  0
SOLID
  8
L-ZISSEN
 10
449.548471
 20
48.584311
 30
0.0
 11
450.086074
 21
48.190069
 31
0.0
 12
451.0
 22
50.0
 32
0.0
 13
451.0
 23
50.0
 33
0.0
  0
LINE
  8
L-ZISSEN
 10
449.817273
 20
48.38719
 30
0.0
 11
440.0
 21
35.0
 31
0.0
  0
LINE
  8
L-ZISSEN
 10
440.0
 20
35.0
 30
0.0
 11
438.0
 21
35.0
 31
0.0
  0
TEXT
  8
L-ZISSEN
 10
427.0
 20
32.75
 30
0.0
 40
4.5
  1
P.P
  0
TEXT
  8
L-ZISSEN
 10
275.0
 20
195.0
 30
0.0
 40
4.5
  1
Q TYPE PRESSURE GAUGE
  0
LINE
  8
L-TYUSIN
 10
265.0
 20
380.0
 30
0.0
 11
265.0
 21
30.0
 31
0.0
  0
LINE
  8
L-ZISSEN
 10
131.5
 20
80.25
 30
0.0
 11
48.5
 21
80.25
 31
0.0
  0
LINE
  8
L-ZISSEN
 10
131.5
 20
85.75
 30
0.0
 11
48.5
 21
85.75
 31
0.0
  0
LINE
  8
L-ZISSEN
 10
131.5
 20
87.0
 30
0.0
 11
46.0
 21
87.0
 31
0.0
  0
LINE
  8
L-ZISSEN
 10
131.5
 20
93.5
 30
0.0
 11
48.5
 21
93.5
 31
0.0
  0
LINE
  8
L-ZISSEN
 10
109.74167
 20
100.0
 30
0.0
 11
68.0
 21
100.0
 31
0.0
  0
LINE
  8
L-ZISSEN
 10
101.0
 20
107.0
 30
0.0
 11
79.0
 21
107.0
 31
0.0
  0
LINE
  8
L-ZISSEN
 10
79.0
 20
107.0
 30
0.0
 11
79.0
 21
100.0
 31
0.0
  0
LINE
  8
L-ZISSEN
 10
101.0
 20
107.0
 30
0.0
 11
101.0
 21
100.0
 31
0.0
  0
LINE
  8
L-ZISSEN
 10
62.890073
 20
95.745935
 30
0.0
 11
70.25833
 21
100.0
 31
0.0
  0
LINE
  8
L-ZISSEN
 10
117.109927
 20
95.745935
 30
0.0
 11
109.74167
 21
100.0
 31
0.0
  0
CIRCLE
  8
L-ZISSEN
 10
90.0
 20
185.0
 30
0.0
 40
11.0
  0
ARC
  8
L-ZISSEN
 10
90.0
 20
185.0
 30
0.0
 40
31.0
 50
199.470154
 51
160.529846
  0
CIRCLE
  8
L-ZISSEN
 10
90.0
 20
185.0
 30
0.0
 40
19.74167
  0
LINE
  8
L-TYUSIN
 10
57.0
 20
201.5
 30
0.0
 11
57.0
 21
168.5
 31
0.0
  0
CIRCLE
  8
L-ZISSEN
 10
57.0
 20
185.0
 30
0.0
 40
11.0
  0
LINE
  8
L-TYUSIN
 10
57.0
 20
112.0
 30
0.0
 11
57.0
 21
83.922983
 31
0.0
  0
LINE
  8
L-ZISSEN
 10
46.0
 20
107.0
 30
0.0
 11
46.0
 21
87.0
 31
0.0
  0
LINE
  8
L-ZISSEN
 10
68.0
 20
107.0
 30
0.0
 11
46.0
 21
107.0
 31
0.0
  0
LINE
  8
L-ZISSEN
 10
68.0
 20
107.0
 30
0.0
 11
68.0
 21
100.0
 31
0.0
  0
LINE
  8
L-ZISSEN
 10
241.5
 20
87.0
 30
0.0
 11
158.5
 21
87.0
 31
0.0
  0
LINE
  8
L-ZISSEN
 10
241.5
 20
85.75
 30
0.0
 11
158.5
 21
85.75
 31
0.0
  0
LINE
  8
L-ZISSEN
 10
241.5
 20
93.5
 30
0.0
 11
158.5
 21
93.5
 31
0.0
  0
LINE
  8
L-ZISSEN
 10
219.74167
 20
100.0
 30
0.0
 11
180.25833
 21
100.0
 31
0.0
  0
LINE
  8
L-ZISSEN
 10
169.0
 20
93.5
 30
0.0
 11
180.25833
 21
100.0
 31
0.0
  0
LINE
  8
L-ZISSEN
 10
211.0
 20
107.0
 30
0.0
 11
189.0
 21
107.0
 31
0.0
  0
LINE
  8
L-ZISSEN
 10
189.0
 20
107.0
 30
0.0
 11
189.0
 21
100.0
 31
0.0
  0
LINE
  8
L-ZISSEN
 10
211.0
 20
107.0
 30
0.0
 11
211.0
 21
100.0
 31
0.0
  0
LINE
  8
L-ZISSEN
 10
231.0
 20
93.5
 30
0.0
 11
219.74167
 21
100.0
 31
0.0
  0
ARC
  8
L-ZISSEN
 10
52.851649
 20
193.0
 30
0.0
 40
7.0
 50
23.222875
 51
211.594568
  0
CIRCLE
  8
L-ZISSEN
 10
90.0
 20
185.0
 30
0.0
 40
5.7225
  0
CIRCLE
  8
L-ZISSEN
 10
57.0
 20
185.0
 30
0.0
 40
5.7225
  0
LINE
  8
L-TYUSIN
 10
460.0
 20
380.0
 30
0.0
 11
460.0
 21
30.0
 31
0.0
  0
TEXT
  8
L-ZISSEN
 10
614.0
 20
32.75
 30
0.0
 40
4.5
  1
P.P
  0
LINE
  8
L-ZISSEN
 10
610.0
 20
35.0
 30
0.0
 11
612.0
 21
35.0
 31
0.0
  0
LINE
  8
L-ZISSEN
 10
596.028992
 20
58.285014
 30
0.0
 11
610.0
 21
35.0
 31
0.0
  0
SOLID
  8
L-ZISSEN
 10
595.743161
 20
58.113516
 30
0.0
 11
596.314822
 21
58.456513
 31
0.0
 12
595.0
 22
60.0
 32
0.0
 13
595.0
 23
60.0
 33
0.0
  0
TEXT
  8
L-ZISSEN
 10
492.0
 20
32.75
 30
0.0
 40
4.5
  1
P.P
  0
LINE
  8
L-ZISSEN
 10
505.0
 20
35.0
 30
0.0
 11
503.0
 21
35.0
 31
0.0
  0
LINE
  8
L-ZISSEN
 10
518.971008
 20
58.285014
 30
0.0
 11
505.0
 21
35.0
 31
0.0
  0
SOLID
  8
L-ZISSEN
 10
518.685178
 20
58.456513
 30
0.0
 11
519.256839
 21
58.113516
 31
0.0
 12
520.0
 22
60.0
 32
0.0
 13
520.0
 23
60.0
 33
0.0
  0
LINE
  8
L-ZISSEN
 10
565.0
 20
205.0
 30
0.0
 11
475.0
 21
205.0
 31
0.0
  0
LINE
  8
L-ZISSEN
 10
562.5
 20
202.5
 30
0.0
 11
477.5
 21
202.5
 31
0.0
  0
LINE
  8
L-ZISSEN
 10
565.0
 20
205.0
 30
0.0
 11
565.0
 21
131.0
 31
0.0
  0
LINE
  8
L-ZISSEN
 10
562.5
 20
131.0
 30
0.0
 11
565.0
 21
131.0
 31
0.0
  0
LINE
  8
L-ZISSEN
 10
562.5
 20
202.5
 30
0.0
 11
562.5
 21
131.0
 31
0.0
  0
LINE
  8
L-ZISSEN
 10
477.5
 20
131.0
 30
0.0
 11
475.0
 21
131.0
 31
0.0
  0
LINE
  8
L-ZISSEN
 10
477.5
 20
202.5
 30
0.0
 11
477.5
 21
157.51219
 31
0.0
  0
LINE
  8
L-ZISSEN
 10
475.0
 20
205.0
 30
0.0
 11
475.0
 21
131.0
 31
0.0
  0
LINE
  8
L-ZISSEN
 10
477.5
 20
109.0
 30
0.0
 11
477.5
 21
107.0
 31
0.0
  0
LINE
  8
L-ZISSEN
 10
475.0
 20
109.0
 30
0.0
 11
475.0
 21
46.0
 31
0.0
  0
LINE
  8
L-ZISSEN
 10
562.5
 20
109.0
 30
0.0
 11
562.5
 21
46.0
 31
0.0
  0
LINE
  8
L-ZISSEN
 10
565.0
 20
109.0
 30
0.0
 11
565.0
 21
46.0
 31
0.0
  0
LINE
  8
L-ZISSEN
 10
475.0
 20
46.0
 30
0.0
 11
514.75
 21
46.0
 31
0.0
  0
LINE
  8
L-ZISSEN
 10
477.5
 20
74.0
 30
0.0
 11
475.0
 21
74.0
 31
0.0
  0
LINE
  8
L-ZISSEN
 10
562.5
 20
74.0
 30
0.0
 11
565.0
 21
74.0
 31
0.0
  0
LINE
  8
L-ZISSEN
 10
475.0
 20
109.0
 30
0.0
 11
565.0
 21
109.0
 31
0.0
  0
LINE
  8
L-ZISSEN
 10
647.497423
 20
109.0
 30
0.0
 11
655.0
 21
109.0
 31
0.0
  0
LINE
  8
L-ZISSEN
 10
595.0
 20
46.0
 30
0.0
 11
655.0
 21
46.0
 31
0.0
  0
ARC
  8
L-ZISSEN
 10
595.0
 20
60.0
 30
0.0
 40
14.0
 50
90.0
 51
270.0
  0
LINE
  8
L-ZISSEN
 10
595.0
 20
74.0
 30
0.0
 11
638.119201
 21
74.0
 31
0.0
  0
LINE
  8
L-ZISSEN
 10
655.0
 20
109.0
 30
0.0
 11
655.0
 21
46.0
 31
0.0
  0
LINE
  8
L-ZISSEN
 10
647.497423
 20
109.0
 30
0.0
 11
638.119201
 21
74.0
 31
0.0
  0
LINE
  8
L-ZISSEN
 10
477.5
 20
87.0
 30
0.0
 11
477.5
 21
46.0
 31
0.0
  0
LINE
  8
L-TYUSIN
 10
527.5
 20
98.0
 30
0.0
 11
557.5
 21
98.0
 31
0.0
  0
LINE
  8
L-TYUSIN
 10
650.0
 20
98.0
 30
0.0
 11
660.0
 21
98.0
 31
0.0
  0
ARC
  8
L-ZISSEN
 10
535.0
 20
98.0
 30
0.0
 40
3.4
 50
90.0
 51
143.968121
  0
ARC
  8
L-ZISSEN
 10
550.0
 20
98.0
 30
0.0
 40
3.4
 50
1.685413
 51
90.0
  0
LINE
  8
L-ZISSEN
 10
550.0
 20
101.4
 30
0.0
 11
535.0
 21
101.4
 31
0.0
  0
LINE
  8
L-TYUSIN
 10
542.5
 20
105.5
 30
0.0
 11
542.5
 21
90.5
 31
0.0
  0
LINE
  8
L-ZISSEN
 10
498.0
 20
101.4
 30
0.0
 11
505.0
 21
101.4
 31
0.0
  0
LINE
  8
L-TYUSIN
 10
497.5
 20
105.5
 30
0.0
 11
497.5
 21
90.5
 31
0.0
  0
ARC
  8
L-ZISSEN
 10
505.0
 20
98.0
 30
0.0
 40
3.4
 50
36.031879
 51
90.0
  0
LINE
  8
L-TYUSIN
 10
512.5
 20
98.0
 30
0.0
 11
482.5
 21
98.0
 31
0.0
  0
LINE
  8
L-ZISSEN
 10
525.25
 20
46.0
 30
0.0
 11
565.0
 21
46.0
 31
0.0
  0
LINE
  8
L-TYUSIN
 10
497.5
 20
210.0
 30
0.0
 11
497.5
 21
197.5
 31
0.0
  0
LINE
  8
L-TYUSIN
 10
542.5
 20
210.0
 30
0.0
 11
542.5
 21
197.5
 31
0.0
  0
LINE
  8
L-ZISSEN
 10
477.5
 20
139.454732
 30
0.0
 11
477.5
 21
131.0
 31
0.0
  0
SOLID
  8
L-ZISSEN
 10
521.649916
 20
146.178511
 30
0.0
 11
521.178511
 21
146.649916
 31
0.0
 12
520.0
 22
145.0
 32
0.0
 13
520.0
 23
145.0
 33
0.0
  0
LINE
  8
L-ZISSEN
 10
521.414214
 20
146.414214
 30
0.0
 11
535.0
 21
160.0
 31
0.0
  0
LINE
  8
L-ZISSEN
 10
535.0
 20
160.0
 30
0.0
 11
537.0
 21
160.0
 31
0.0
  0
TEXT
  8
L-ZISSEN
 10
539.0
 20
157.75
 30
0.0
 40
4.5
  1
P.P
  0
TEXT
  8
L-ZISSEN
 10
475.0
 20
220.0
 30
0.0
 40
4.5
  1
BRACKET
  0
ENDSEC
  0
EOF
