  0
SECTION
  2
HEADER
  9
$ACADVER
  1
AC1012
  9
$DWGCODEPAGE
  3
dos932
  9
$INSBASE
 10
0.0
 20
0.0
 30
0.0
  9
$EXTMIN
 10
59.99999999999968
 20
40.0
 30
0.0
  9
$EXTMAX
 10
802.9999999999999
 20
434.4999999999999
 30
0.0
  9
$LIMMIN
 10
0.0
 20
0.0
  9
$LIMMAX
 10
841.0
 20
594.0
  9
$ORTHOMODE
 70
     0
  9
$REGENMODE
 70
     1
  9
$FILLMODE
 70
     1
  9
$QTEXTMODE
 70
     0
  9
$MIRRTEXT
 70
     1
  9
$DRAGMODE
 70
     2
  9
$LTSCALE
 40
1.0
  9
$OSMODE
 70
    37
  9
$ATTMODE
 70
     1
  9
$TEXTSIZE
 40
4.5
  9
$TRACEWID
 40
0.05
  9
$TEXTSTYLE
  7
STANDARD
  9
$CLAYER
  8
L-ZISSEN
  9
$CELTYPE
  6
BYLAYER
  9
$CECOLOR
 62
   256
  9
$CELTSCALE
 40
1.0
  9
$DELOBJ
 70
     1
  9
$DISPSILH
 70
     0
  9
$DIMSCALE
 40
1.0
  9
$DIMASZ
 40
2.0
  9
$DIMEXO
 40
1.0
  9
$DIMDLI
 40
0.38
  9
$DIMRND
 40
0.0
  9
$DIMDLE
 40
1.0
  9
$DIMEXE
 40
1.0
  9
$DIMTP
 40
0.0
  9
$DIMTM
 40
0.0
  9
$DIMTXT
 40
4.5
  9
$DIMCEN
 40
0.09
  9
$DIMTSZ
 40
0.0
  9
$DIMTOL
 70
     0
  9
$DIMLIM
 70
     0
  9
$DIMTIH
 70
     0
  9
$DIMTOH
 70
     0
  9
$DIMSE1
 70
     0
  9
$DIMSE2
 70
     0
  9
$DIMTAD
 70
     1
  9
$DIMZIN
 70
     0
  9
$DIMBLK
  1

  9
$DIMASO
 70
     0
  9
$DIMSHO
 70
     0
  9
$DIMPOST
  1

  9
$DIMAPOST
  1

  9
$DIMALT
 70
     0
  9
$DIMALTD
 70
     2
  9
$DIMALTF
 40
25.4
  9
$DIMLFAC
 40
1.0
  9
$DIMTOFL
 70
     1
  9
$DIMTVP
 40
0.0
  9
$DIMTIX
 70
     1
  9
$DIMSOXD
 70
     0
  9
$DIMSAH
 70
     0
  9
$DIMBLK1
  1

  9
$DIMBLK2
  1

  9
$DIMSTYLE
  2
STANDARD
  9
$DIMCLRD
 70
     0
  9
$DIMCLRE
 70
     0
  9
$DIMCLRT
 70
     0
  9
$DIMTFAC
 40
1.0
  9
$DIMGAP
 40
0.09
  9
$DIMJUST
 70
     0
  9
$DIMSD1
 70
     0
  9
$DIMSD2
 70
     0
  9
$DIMTOLJ
 70
     1
  9
$DIMTZIN
 70
     0
  9
$DIMALTZ
 70
     0
  9
$DIMALTTZ
 70
     0
  9
$DIMFIT
 70
     5
  9
$DIMUPT
 70
     0
  9
$DIMUNIT
 70
     2
  9
$DIMDEC
 70
     4
  9
$DIMTDEC
 70
     4
  9
$DIMALTU
 70
     2
  9
$DIMALTTD
 70
     2
  9
$DIMTXSTY
  7
STANDARD
  9
$DIMAUNIT
 70
     0
  9
$LUNITS
 70
     2
  9
$LUPREC
 70
     4
  9
$SKETCHINC
 40
0.1
  9
$FILLETRAD
 40
5.0
  9
$AUNITS
 70
     0
  9
$AUPREC
 70
     0
  9
$MENU
  1
acad
  9
$ELEVATION
 40
0.0
  9
$PELEVATION
 40
0.0
  9
$THICKNESS
 40
0.0
  9
$LIMCHECK
 70
     0
  9
$BLIPMODE
 70
     0
  9
$CHAMFERA
 40
1.0
  9
$CHAMFERB
 40
1.0
  9
$CHAMFERC
 40
0.0
  9
$CHAMFERD
 40
0.0
  9
$SKPOLY
 70
     0
  9
$TDCREATE
 40
2449569.676009490
  9
$TDUPDATE
 40
2453243.462504977
  9
$TDINDWG
 40
0.0002053241
  9
$TDUSRTIMER
 40
0.0002053241
  9
$USRTIMER
 70
     1
  9
$ANGBASE
 50
0.0
  9
$ANGDIR
 70
     0
  9
$PDMODE
 70
     0
  9
$PDSIZE
 40
0.0
  9
$PLINEWID
 40
0.0
  9
$COORDS
 70
     0
  9
$SPLFRAME
 70
     0
  9
$SPLINETYPE
 70
     6
  9
$SPLINESEGS
 70
     8
  9
$ATTDIA
 70
     0
  9
$ATTREQ
 70
     1
  9
$HANDLING
 70
-16383
  9
$HANDSEED
  5
20C
  9
$SURFTAB1
 70
     6
  9
$SURFTAB2
 70
     6
  9
$SURFTYPE
 70
     6
  9
$SURFU
 70
     6
  9
$SURFV
 70
     6
  9
$UCSNAME
  2

  9
$UCSORG
 10
0.0
 20
0.0
 30
0.0
  9
$UCSXDIR
 10
1.0
 20
0.0
 30
0.0
  9
$UCSYDIR
 10
0.0
 20
1.0
 30
0.0
  9
$PUCSNAME
  2

  9
$PUCSORG
 10
0.0
 20
0.0
 30
0.0
  9
$PUCSXDIR
 10
1.0
 20
0.0
 30
0.0
  9
$PUCSYDIR
 10
0.0
 20
1.0
 30
0.0
  9
$USERI1
 70
     0
  9
$USERI2
 70
     0
  9
$USERI3
 70
     0
  9
$USERI4
 70
     0
  9
$USERI5
 70
     0
  9
$USERR1
 40
0.0
  9
$USERR2
 40
0.0
  9
$USERR3
 40
0.0
  9
$USERR4
 40
0.0
  9
$USERR5
 40
0.0
  9
$WORLDVIEW
 70
     1
  9
$SHADEDGE
 70
     3
  9
$SHADEDIF
 70
    70
  9
$TILEMODE
 70
     1
  9
$MAXACTVP
 70
    64
  9
$PINSBASE
 10
0.0
 20
0.0
 30
0.0
  9
$PLIMCHECK
 70
     0
  9
$PEXTMIN
 10
1.000000000000000E+20
 20
1.000000000000000E+20
 30
1.000000000000000E+20
  9
$PEXTMAX
 10
-1.000000000000000E+20
 20
-1.000000000000000E+20
 30
-1.000000000000000E+20
  9
$PLIMMIN
 10
0.0
 20
0.0
  9
$PLIMMAX
 10
12.0
 20
9.0
  9
$UNITMODE
 70
     0
  9
$VISRETAIN
 70
     1
  9
$PLINEGEN
 70
     0
  9
$PSLTSCALE
 70
     0
  9
$TREEDEPTH
 70
  3020
  9
$PICKSTYLE
 70
     1
  9
$CMLSTYLE
  2
STANDARD
  9
$CMLJUST
 70
     0
  9
$CMLSCALE
 40
1.0
  9
$SAVEIMAGES
 70
     1
  0
ENDSEC
  0
SECTION
  2
CLASSES
  0
CLASS
  1
ACDBDICTIONARYWDFLT
  2
AcDbDictionaryWithDefault
  3
AutoCAD 2000
 90
    32768
280
     0
281
     0
  0
CLASS
  1
ACDBPLACEHOLDER
  2
AcDbPlaceHolder
  3
AutoCAD 2000
 90
    32768
280
     0
281
     0
  0
CLASS
  1
LAYOUT
  2
AcDbLayout
  3
AutoCAD 2000
 90
    32768
280
     0
281
     0
  0
CLASS
  1
LONG_TRANSACTION
  2
AcDbLongTransaction
  3
AutoCAD 2000
 90
    32768
280
     0
281
     0
  0
CLASS
  1
LWPOLYLINE
  2
AcDbPolyline
  3
AutoCAD 2000
 90
    32768
280
     0
281
     1
  0
CLASS
  1
HATCH
  2
AcDbHatch
  3
AutoCAD 2000
 90
    32768
280
     0
281
     1
  0
CLASS
  1
XRECORD
  2
AcDbXrecord
  3
AutoCAD 2000
 90
    32768
280
     0
281
     0
  0
ENDSEC
  0
SECTION
  2
TABLES
  0
TABLE
  2
VPORT
  5
8
330
0
100
AcDbSymbolTable
 70
     3
  0
VPORT
  5
207
330
8
100
AcDbSymbolTableRecord
100
AcDbViewportTableRecord
  2
*ACTIVE
 70
     0
 10
0.0
 20
0.0
 11
1.0
 21
1.0
 12
476.4559780290102
 22
328.0831097031976
 13
0.0
 23
0.0
 14
5.0
 24
5.0
 15
0.0
 25
0.0
 16
0.0
 26
0.0
 36
1.0
 17
0.0
 27
0.0
 37
0.0
 40
656.1662194063952
 41
1.45224171539961
 42
50.0
 43
0.0
 44
0.0
 50
0.0
 51
0.0
 71
     0
 72
   100
 73
     1
 74
     0
 75
     0
 76
     0
 77
     0
 78
     0
  0
ENDTAB
  0
TABLE
  2
LTYPE
  5
5
330
0
100
AcDbSymbolTable
 70
     2
  0
LTYPE
  5
13
330
5
100
AcDbSymbolTableRecord
100
AcDbLinetypeTableRecord
  2
BYBLOCK
 70
     0
  3

 72
    65
 73
     0
 40
0.0
  0
LTYPE
  5
14
330
5
100
AcDbSymbolTableRecord
100
AcDbLinetypeTableRecord
  2
BYLAYER
 70
     0
  3

 72
    65
 73
     0
 40
0.0
  0
LTYPE
  5
15
330
5
100
AcDbSymbolTableRecord
100
AcDbLinetypeTableRecord
  2
CONTINUOUS
 70
     0
  3
Solid line
 72
    65
 73
     0
 40
0.0
  0
LTYPE
  5
22
330
5
100
AcDbSymbolTableRecord
100
AcDbLinetypeTableRecord
  2
CENTER
 70
     0
  3
____ _ ____ _ ____ _ ____ _ 
 72
    65
 73
     4
 40
60.0
 49
45.0
 74
     0
 49
-5.0
 74
     0
 49
5.0
 74
     0
 49
-5.0
 74
     0
  0
ENDTAB
  0
TABLE
  2
LAYER
  5
2
330
0
100
AcDbSymbolTable
 70
     3
  0
LAYER
  5
10
330
2
100
AcDbSymbolTableRecord
100
AcDbLayerTableRecord
  2
0
 70
     0
 62
     7
  6
CONTINUOUS
  0
LAYER
  5
25
330
2
100
AcDbSymbolTableRecord
100
AcDbLayerTableRecord
  2
L-ZISSEN
 70
     0
 62
     7
  6
CONTINUOUS
  0
LAYER
  5
26
330
2
100
AcDbSymbolTableRecord
100
AcDbLayerTableRecord
  2
L-TYUSIN
 70
     0
 62
     1
  6
CENTER
  0
ENDTAB
  0
TABLE
  2
STYLE
  5
3
330
0
100
AcDbSymbolTable
 70
     1
  0
STYLE
  5
11
330
3
100
AcDbSymbolTableRecord
100
AcDbTextStyleTableRecord
  2
STANDARD
 70
     0
 40
0.0
 41
1.0
 50
0.0
 71
     0
 42
4.5
  3
TXT
  4

  0
ENDTAB
  0
TABLE
  2
VIEW
  5
6
330
0
100
AcDbSymbolTable
 70
     0
  0
ENDTAB
  0
TABLE
  2
UCS
  5
7
330
0
100
AcDbSymbolTable
 70
     0
  0
ENDTAB
  0
TABLE
  2
APPID
  5
9
330
0
100
AcDbSymbolTable
 70
     1
  0
APPID
  5
12
330
9
100
AcDbSymbolTableRecord
100
AcDbRegAppTableRecord
  2
ACAD
 70
     0
  0
ENDTAB
  0
TABLE
  2
DIMSTYLE
  5
A
330
0
100
AcDbSymbolTable
 70
     1
  0
DIMSTYLE
105
205
330
A
100
AcDbSymbolTableRecord
100
AcDbDimStyleTableRecord
  2
STANDARD
 70
     0
  3

  4

  5

  6

  7

 40
1.0
 41
0.18
 42
0.0625
 43
0.38
 44
0.18
 45
0.0
 46
0.0
 47
0.0
 48
0.0
140
0.18
141
0.09
142
0.0
143
25.4
144
1.0
145
0.0
146
1.0
147
0.09
 71
     0
 72
     0
 73
     1
 74
     1
 75
     0
 76
     0
 77
     0
 78
     0
170
     0
171
     2
172
     0
173
     0
174
     0
175
     0
176
     0
177
     0
178
     0
270
     2
271
     4
272
     4
273
     2
274
     2
340
11
275
     0
280
     0
281
     0
282
     0
283
     1
284
     0
285
     0
286
     0
287
     3
288
     0
  0
ENDTAB
  0
TABLE
  2
BLOCK_RECORD
  5
1
330
0
100
AcDbSymbolTable
 70
     0
  0
BLOCK_RECORD
  5
1E
102
{ACAD_XDICTIONARY
360
20A
102
}
330
1
100
AcDbSymbolTableRecord
100
AcDbBlockTableRecord
  2
*MODEL_SPACE
  0
BLOCK_RECORD
  5
1A
102
{ACAD_XDICTIONARY
360
208
102
}
330
1
100
AcDbSymbolTableRecord
100
AcDbBlockTableRecord
  2
*PAPER_SPACE
  0
ENDTAB
  0
ENDSEC
  0
SECTION
  2
BLOCKS
  0
BLOCK
  5
29
330
1E
100
AcDbEntity
  8
0
100
AcDbBlockBegin
  2
*MODEL_SPACE
 70
     0
 10
0.0
 20
0.0
 30
0.0
  3
*MODEL_SPACE
  1

  0
ENDBLK
  5
2A
330
1E
100
AcDbEntity
  8
0
100
AcDbBlockEnd
  0
BLOCK
  5
27
330
1A
100
AcDbEntity
 67
     1
  8
0
100
AcDbBlockBegin
  2
*PAPER_SPACE
 70
     0
 10
0.0
 20
0.0
 30
0.0
  3
*PAPER_SPACE
  1

  0
ENDBLK
  5
28
330
1A
100
AcDbEntity
 67
     1
  8
0
100
AcDbBlockEnd
  0
ENDSEC
  0
SECTION
  2
ENTITIES
  0
LINE
  5
2B
330
1E
100
AcDbEntity
  8
L-TYUSIN
  6
CENTER
 62
     1
100
AcDbLine
 10
130.0
 20
218.7000000000001
 30
0.0
 11
130.0
 21
46.0
 31
0.0
  0
LINE
  5
2C
330
1E
100
AcDbEntity
  8
L-ZISSEN
100
AcDbLine
 10
91.0
 20
164.0000000000001
 30
0.0
 11
91.0
 21
157.0000000000001
 31
0.0
  0
LINE
  5
2D
330
1E
100
AcDbEntity
  8
L-ZISSEN
100
AcDbLine
 10
168.9999999999999
 20
164.0000000000001
 30
0.0
 11
168.9999999999998
 21
157.0000000000002
 31
0.0
  0
LINE
  5
2E
330
1E
100
AcDbEntity
  8
L-ZISSEN
  6
CONTINUOUS
 62
     7
100
AcDbLine
 10
166.5000000000001
 20
134.2303039929146
 30
0.0
 11
166.4999999999998
 21
147.6698729810785
 31
0.0
  0
LINE
  5
2F
330
1E
100
AcDbEntity
  8
L-ZISSEN
  6
CONTINUOUS
 62
     7
100
AcDbLine
 10
169.0
 20
157.0000000000001
 30
0.0
 11
166.4999999999998
 21
147.6698729810785
 31
0.0
  0
LINE
  5
30
330
1E
100
AcDbEntity
  8
L-ZISSEN
100
AcDbLine
 10
163.0000000000001
 20
134.2303039929146
 30
0.0
 11
166.5000000000001
 21
134.2303039929146
 31
0.0
  0
LINE
  5
31
330
1E
100
AcDbEntity
  8
L-ZISSEN
100
AcDbLine
 10
96.99999999999988
 20
134.2303039929146
 30
0.0
 11
93.49999999999988
 21
134.2303039929146
 31
0.0
  0
LINE
  5
32
330
1E
100
AcDbEntity
  8
L-ZISSEN
  6
CONTINUOUS
 62
     7
100
AcDbLine
 10
81.49999999999989
 20
69.00000000000023
 30
0.0
 11
89.00000000000005
 21
69.00000000000023
 31
0.0
  0
LINE
  5
33
330
1E
100
AcDbEntity
  8
L-ZISSEN
  6
CONTINUOUS
 62
     7
100
AcDbLine
 10
81.49999999999989
 20
69.00000000000023
 30
0.0
 11
81.5
 21
79.00000000000023
 31
0.0
  0
LINE
  5
34
330
1E
100
AcDbEntity
  8
L-ZISSEN
  6
CONTINUOUS
 62
     7
100
AcDbLine
 10
73.99999999999988
 20
77.50000000000023
 30
0.0
 11
81.5
 21
77.50000000000023
 31
0.0
  0
LINE
  5
35
330
1E
100
AcDbEntity
  8
L-ZISSEN
  6
CONTINUOUS
 62
     7
100
AcDbLine
 10
157.0
 20
47.99999999999994
 30
0.0
 11
157.0
 21
55.50000000000006
 31
0.0
  0
LINE
  5
36
330
1E
100
AcDbEntity
  8
L-ZISSEN
  6
CONTINUOUS
 62
     7
100
AcDbLine
 10
147.0
 20
47.99999999999994
 30
0.0
 11
157.0
 21
47.99999999999994
 31
0.0
  0
LINE
  5
37
330
1E
100
AcDbEntity
  8
L-ZISSEN
  6
CONTINUOUS
 62
     7
100
AcDbLine
 10
147.0
 20
47.99999999999994
 30
0.0
 11
147.0
 21
55.50000000000006
 31
0.0
  0
LINE
  5
38
330
1E
100
AcDbEntity
  8
L-TYUSIN
  6
CENTER
 62
     1
100
AcDbLine
 10
69.0
 20
100.0000000000001
 30
0.0
 11
190.9999999999999
 21
100.0000000000001
 31
0.0
  0
LINE
  5
39
330
1E
100
AcDbEntity
  8
L-TYUSIN
  6
CENTER
 62
     1
100
AcDbLine
 10
157.0
 20
134.0000000000001
 30
0.0
 11
103.0
 21
134.0000000000001
 31
0.0
  0
LINE
  5
3A
330
1E
100
AcDbEntity
  8
L-ZISSEN
  6
CONTINUOUS
 62
     7
100
AcDbLine
 10
200.0
 20
162.0000000000001
 30
0.0
 11
60.00000000000006
 21
162.0000000000003
 31
0.0
  0
LINE
  5
3B
330
1E
100
AcDbEntity
  8
L-ZISSEN
  6
CONTINUOUS
 62
     7
100
AcDbLine
 10
103.0
 20
47.99999999999994
 30
0.0
 11
103.0
 21
55.50000000000006
 31
0.0
  0
LINE
  5
3C
330
1E
100
AcDbEntity
  8
L-ZISSEN
  6
CONTINUOUS
 62
     7
100
AcDbLine
 10
103.0
 20
47.99999999999994
 30
0.0
 11
113.0
 21
47.99999999999994
 31
0.0
  0
LINE
  5
3D
330
1E
100
AcDbEntity
  8
L-ZISSEN
  6
CONTINUOUS
 62
     7
100
AcDbLine
 10
113.0
 20
47.99999999999994
 30
0.0
 11
113.0
 21
55.50000000000006
 31
0.0
  0
LINE
  5
3E
330
1E
100
AcDbEntity
  8
L-ZISSEN
  6
CONTINUOUS
 62
     7
100
AcDbLine
 10
113.0
 20
52.50000000000006
 30
0.0
 11
147.0
 21
52.50000000000006
 31
0.0
  0
LINE
  5
3F
330
1E
100
AcDbEntity
  8
L-ZISSEN
  6
CONTINUOUS
 62
     7
100
AcDbLine
 10
102.0
 20
55.50000000000006
 30
0.0
 11
157.9999999999999
 21
55.50000000000006
 31
0.0
  0
CIRCLE
  5
40
330
1E
100
AcDbEntity
  8
L-ZISSEN
  6
CONTINUOUS
 62
     7
100
AcDbCircle
 10
156.0
 20
112.0000000000001
 30
0.0
 40
5.0
  0
CIRCLE
  5
41
330
1E
100
AcDbEntity
  8
L-ZISSEN
  6
CONTINUOUS
 62
     7
100
AcDbCircle
 10
104.0
 20
112.0000000000001
 30
0.0
 40
5.0
  0
CIRCLE
  5
42
330
1E
100
AcDbEntity
  8
L-ZISSEN
  6
CONTINUOUS
 62
     7
100
AcDbCircle
 10
156.0
 20
156.0000000000001
 30
0.0
 40
5.0
  0
LINE
  5
43
330
1E
100
AcDbEntity
  8
L-ZISSEN
  6
CONTINUOUS
 62
     7
100
AcDbLine
 10
88.99999999999989
 20
133.0000000000001
 30
0.0
 11
97.0
 21
133.0000000000001
 31
0.0
  0
LINE
  5
44
330
1E
100
AcDbEntity
  8
L-ZISSEN
  6
CONTINUOUS
 62
     7
100
AcDbLine
 10
74.00000000000023
 20
77.50000000000023
 30
0.0
 11
73.99999999999988
 21
122.5000000000001
 31
0.0
  0
LINE
  5
45
330
1E
100
AcDbEntity
  8
L-ZISSEN
  6
CONTINUOUS
 62
     7
100
AcDbLine
 10
89.00000000000005
 20
67.00000000000017
 30
0.0
 11
88.99999999999982
 21
133.0000000000001
 31
0.0
  0
LINE
  5
46
330
1E
100
AcDbEntity
  8
L-ZISSEN
  6
CONTINUOUS
 62
     7
100
AcDbLine
 10
81.49999999999989
 20
131.0000000000001
 30
0.0
 11
81.5
 21
121.0000000000001
 31
0.0
  0
LINE
  5
47
330
1E
100
AcDbEntity
  8
L-ZISSEN
  6
CONTINUOUS
 62
     7
100
AcDbLine
 10
81.49999999999989
 20
131.0000000000001
 30
0.0
 11
88.99999999999995
 21
131.0000000000001
 31
0.0
  0
CIRCLE
  5
48
330
1E
100
AcDbEntity
  8
L-ZISSEN
  6
CONTINUOUS
 62
     7
100
AcDbCircle
 10
104.0
 20
156.0000000000001
 30
0.0
 40
5.0
  0
CIRCLE
  5
49
330
1E
100
AcDbEntity
  8
L-ZISSEN
  6
CONTINUOUS
 62
     7
100
AcDbCircle
 10
130.0
 20
134.0000000000001
 30
0.0
 40
22.5
  0
LINE
  5
4A
330
1E
100
AcDbEntity
  8
L-ZISSEN
  6
CONTINUOUS
 62
     7
100
AcDbLine
 10
96.99999999999988
 20
164.0000000000001
 30
0.0
 11
97.0
 21
67.00000000000017
 31
0.0
  0
LINE
  5
4B
330
1E
100
AcDbEntity
  8
L-ZISSEN
  6
CONTINUOUS
 62
     7
100
AcDbLine
 10
163.0
 20
164.0000000000001
 30
0.0
 11
163.0
 21
67.00000000000017
 31
0.0
  0
LINE
  5
4C
330
1E
100
AcDbEntity
  8
L-ZISSEN
  6
CONTINUOUS
 62
     7
100
AcDbLine
 10
96.99999999999988
 20
106.0000000000001
 30
0.0
 11
163.0
 21
106.0000000000001
 31
0.0
  0
LINE
  5
4D
330
1E
100
AcDbEntity
  8
L-ZISSEN
  6
CONTINUOUS
 62
     7
100
AcDbLine
 10
102.0
 20
67.00000000000017
 30
0.0
 11
89.00000000000011
 21
67.00000000000017
 31
0.0
  0
LINE
  5
4E
330
1E
100
AcDbEntity
  8
L-ZISSEN
  6
CONTINUOUS
 62
     7
100
AcDbLine
 10
102.0
 20
55.50000000000006
 30
0.0
 11
102.0
 21
67.00000000000017
 31
0.0
  0
LINE
  5
4F
330
1E
100
AcDbEntity
  8
L-ZISSEN
  6
CONTINUOUS
 62
     7
100
AcDbLine
 10
91.0
 20
157.0000000000001
 30
0.0
 11
93.50000000000012
 21
147.6698729810785
 31
0.0
  0
LINE
  5
50
330
1E
100
AcDbEntity
  8
L-ZISSEN
  6
CONTINUOUS
 62
     7
100
AcDbLine
 10
93.49999999999988
 20
134.2303039929146
 30
0.0
 11
93.50000000000012
 21
147.6698729810785
 31
0.0
  0
LINE
  5
51
330
1E
100
AcDbEntity
  8
L-ZISSEN
  6
CONTINUOUS
 62
     7
100
AcDbLine
 10
158.0
 20
55.50000000000006
 30
0.0
 11
158.0
 21
67.00000000000017
 31
0.0
  0
LINE
  5
52
330
1E
100
AcDbEntity
  8
L-ZISSEN
  6
CONTINUOUS
 62
     7
100
AcDbLine
 10
102.0
 20
60.00000000000017
 30
0.0
 11
158.0
 21
60.00000000000017
 31
0.0
  0
CIRCLE
  5
53
330
1E
100
AcDbEntity
  8
L-ZISSEN
100
AcDbCircle
 10
130.0
 20
134.0000000000001
 30
0.0
 40
15.1455
  0
LINE
  5
54
330
1E
100
AcDbEntity
  8
L-ZISSEN
  6
CONTINUOUS
 62
     7
100
AcDbLine
 10
107.5000000000001
 20
251.0000000000004
 30
0.0
 11
107.5000000000001
 21
252.2267362874491
 31
0.0
  0
LINE
  5
55
330
1E
100
AcDbEntity
  8
L-ZISSEN
  6
CONTINUOUS
 62
     7
100
AcDbLine
 10
152.5000000000002
 20
251.0000000000003
 30
0.0
 11
152.5000000000002
 21
252.2267362874491
 31
0.0
  0
LINE
  5
56
330
1E
100
AcDbEntity
  8
L-ZISSEN
  6
CONTINUOUS
 62
     7
100
AcDbLine
 10
81.49999999999989
 20
79.00000000000023
 30
0.0
 11
89.00000000000005
 21
79.00000000000023
 31
0.0
  0
LINE
  5
57
330
1E
100
AcDbEntity
  8
L-ZISSEN
  6
CONTINUOUS
 62
     7
100
AcDbLine
 10
81.49999999999989
 20
121.0000000000001
 30
0.0
 11
88.99999999999995
 21
121.0000000000001
 31
0.0
  0
LINE
  5
58
330
1E
100
AcDbEntity
  8
L-ZISSEN
  6
CONTINUOUS
 62
     7
100
AcDbLine
 10
73.99999999999988
 20
122.5000000000001
 30
0.0
 11
81.5
 21
122.5000000000001
 31
0.0
  0
TEXT
  5
59
330
1E
100
AcDbEntity
  8
L-ZISSEN
100
AcDbText
 10
60.0
 20
420.0
 30
0.0
 40
4.5
  1
MODEL NO. : R58- 03-M0B0
100
AcDbText
  0
LINE
  5
5B
330
1E
100
AcDbEntity
  8
L-ZISSEN
  6
CONTINUOUS
 62
     7
100
AcDbLine
 10
186.0000000000001
 20
122.5000000000001
 30
0.0
 11
178.5
 21
122.5000000000001
 31
0.0
  0
LINE
  5
5C
330
1E
100
AcDbEntity
  8
L-ZISSEN
  6
CONTINUOUS
 62
     7
100
AcDbLine
 10
178.5000000000001
 20
121.0000000000001
 30
0.0
 11
171.0000000000001
 21
121.0000000000001
 31
0.0
  0
LINE
  5
5D
330
1E
100
AcDbEntity
  8
L-ZISSEN
  6
CONTINUOUS
 62
     7
100
AcDbLine
 10
178.5000000000001
 20
79.00000000000023
 30
0.0
 11
171.0
 21
79.00000000000023
 31
0.0
  0
LINE
  5
5E
330
1E
100
AcDbEntity
  8
L-ZISSEN
  6
CONTINUOUS
 62
     7
100
AcDbLine
 10
178.5000000000001
 20
131.0000000000001
 30
0.0
 11
171.0000000000001
 21
131.0000000000001
 31
0.0
  0
LINE
  5
5F
330
1E
100
AcDbEntity
  8
L-ZISSEN
  6
CONTINUOUS
 62
     7
100
AcDbLine
 10
178.5000000000001
 20
131.0000000000001
 30
0.0
 11
178.5
 21
121.0000000000001
 31
0.0
  0
LINE
  5
60
330
1E
100
AcDbEntity
  8
L-ZISSEN
  6
CONTINUOUS
 62
     7
100
AcDbLine
 10
171.0
 20
67.00000000000017
 30
0.0
 11
171.0000000000002
 21
133.0000000000001
 31
0.0
  0
LINE
  5
61
330
1E
100
AcDbEntity
  8
L-ZISSEN
  6
CONTINUOUS
 62
     7
100
AcDbLine
 10
185.9999999999998
 20
77.50000000000023
 30
0.0
 11
186.0000000000001
 21
122.5000000000001
 31
0.0
  0
LINE
  5
62
330
1E
100
AcDbEntity
  8
L-ZISSEN
  6
CONTINUOUS
 62
     7
100
AcDbLine
 10
171.0000000000001
 20
133.0000000000001
 30
0.0
 11
163.0
 21
133.0000000000001
 31
0.0
  0
LINE
  5
63
330
1E
100
AcDbEntity
  8
L-ZISSEN
  6
CONTINUOUS
 62
     7
100
AcDbLine
 10
186.0000000000001
 20
77.50000000000023
 30
0.0
 11
178.5
 21
77.50000000000023
 31
0.0
  0
LINE
  5
64
330
1E
100
AcDbEntity
  8
L-ZISSEN
  6
CONTINUOUS
 62
     7
100
AcDbLine
 10
178.5000000000001
 20
69.00000000000023
 30
0.0
 11
178.5
 21
79.00000000000023
 31
0.0
  0
LINE
  5
65
330
1E
100
AcDbEntity
  8
L-ZISSEN
  6
CONTINUOUS
 62
     7
100
AcDbLine
 10
178.5000000000001
 20
69.00000000000023
 30
0.0
 11
171.0
 21
69.00000000000023
 31
0.0
  0
LINE
  5
66
330
1E
100
AcDbEntity
  8
L-ZISSEN
  6
CONTINUOUS
 62
     7
100
AcDbLine
 10
158.0
 20
67.00000000000017
 30
0.0
 11
170.9999999999999
 21
67.00000000000017
 31
0.0
  0
CIRCLE
  5
67
330
1E
100
AcDbEntity
  8
L-ZISSEN
100
AcDbCircle
 10
315.0000000000002
 20
100.0
 30
0.0
 40
15.1455
  0
LINE
  5
68
330
1E
100
AcDbEntity
  8
L-ZISSEN
100
AcDbLine
 10
351.0000000000004
 20
162.0
 30
0.0
 11
351.0000000000004
 21
106.0
 31
0.0
  0
LINE
  5
69
330
1E
100
AcDbEntity
  8
L-ZISSEN
  6
CONTINUOUS
 62
     7
100
AcDbLine
 10
263.5000000000009
 20
107.0000000000001
 30
0.0
 11
271.0000000000004
 21
107.0
 31
0.0
  0
LINE
  5
6A
330
1E
100
AcDbEntity
  8
L-ZISSEN
  6
CONTINUOUS
 62
     7
100
AcDbLine
 10
263.5000000000009
 20
107.0000000000001
 30
0.0
 11
263.5000000000009
 21
117.0000000000001
 31
0.0
  0
LINE
  5
6B
330
1E
100
AcDbEntity
  8
L-ZISSEN
  6
CONTINUOUS
 62
     7
100
AcDbLine
 10
263.5000000000009
 20
117.0000000000001
 30
0.0
 11
271.0000000000004
 21
117.0000000000002
 31
0.0
  0
LINE
  5
6C
330
1E
100
AcDbEntity
  8
L-ZISSEN
  6
CONTINUOUS
 62
     7
100
AcDbLine
 10
263.5000000000009
 20
150.9999999999999
 30
0.0
 11
271.0000000000004
 21
150.9999999999998
 31
0.0
  0
LINE
  5
6D
330
1E
100
AcDbEntity
  8
L-ZISSEN
  6
CONTINUOUS
 62
     7
100
AcDbLine
 10
263.5000000000009
 20
161.0
 30
0.0
 11
263.5000000000009
 21
150.9999999999999
 31
0.0
  0
LINE
  5
6E
330
1E
100
AcDbEntity
  8
L-ZISSEN
  6
CONTINUOUS
 62
     7
100
AcDbLine
 10
263.5000000000009
 20
160.9999999999999
 30
0.0
 11
271.0000000000004
 21
161.0
 31
0.0
  0
LINE
  5
6F
330
1E
100
AcDbEntity
  8
L-TYUSIN
  6
CENTER
 62
     1
100
AcDbLine
 10
384.8000000000002
 20
140.0000000000002
 30
0.0
 11
398.0000000000003
 21
140.0000000000002
 31
0.0
  0
LINE
  5
70
330
1E
100
AcDbEntity
  8
L-ZISSEN
  6
CONTINUOUS
 62
     7
100
AcDbLine
 10
284.0000000000004
 20
133.0
 30
0.0
 11
346.0000000000002
 21
133.0000000000001
 31
0.0
  0
LINE
  5
71
330
1E
100
AcDbEntity
  8
L-ZISSEN
  6
CONTINUOUS
 62
     7
100
AcDbLine
 10
287.0000000000002
 20
106.0
 30
0.0
 11
271.0000000000004
 21
106.0
 31
0.0
  0
LINE
  5
72
330
1E
100
AcDbEntity
  8
L-ZISSEN
  6
CONTINUOUS
 62
     7
100
AcDbLine
 10
287.0000000000002
 20
55.49999999999989
 30
0.0
 11
287.0000000000002
 21
133.0
 31
0.0
  0
CIRCLE
  5
73
330
1E
100
AcDbEntity
  8
L-ZISSEN
  6
CONTINUOUS
 62
     7
100
AcDbCircle
 10
293.0000000000002
 20
74.0
 30
0.0
 40
5.0
  0
CIRCLE
  5
74
330
1E
100
AcDbEntity
  8
L-ZISSEN
  6
CONTINUOUS
 62
     7
100
AcDbCircle
 10
293.0000000000002
 20
126.0
 30
0.0
 40
5.0
  0
CIRCLE
  5
75
330
1E
100
AcDbEntity
  8
L-ZISSEN
  6
CONTINUOUS
 62
     7
100
AcDbCircle
 10
315.0000000000002
 20
99.99999999999989
 30
0.0
 40
22.5
  0
LINE
  5
76
330
1E
100
AcDbEntity
  8
L-ZISSEN
  6
CONTINUOUS
 62
     7
100
AcDbLine
 10
271.0000000000004
 20
162.0
 30
0.0
 11
393.0000000000004
 21
162.0
 31
0.0
  0
LINE
  5
77
330
1E
100
AcDbEntity
  8
L-ZISSEN
  6
CONTINUOUS
 62
     7
100
AcDbLine
 10
256.0000000000004
 20
156.4999999999999
 30
0.0
 11
263.5000000000004
 21
156.4999999999999
 31
0.0
  0
LINE
  5
78
330
1E
100
AcDbEntity
  8
L-ZISSEN
  6
CONTINUOUS
 62
     7
100
AcDbLine
 10
256.0000000000004
 20
111.4999999999999
 30
0.0
 11
256.0000000000004
 21
156.4999999999999
 31
0.0
  0
LINE
  5
79
330
1E
100
AcDbEntity
  8
L-ZISSEN
  6
CONTINUOUS
 62
     7
100
AcDbLine
 10
256.0000000000004
 20
111.4999999999999
 30
0.0
 11
263.5000000000004
 21
111.4999999999999
 31
0.0
  0
LINE
  5
7A
330
1E
100
AcDbEntity
  8
L-ZISSEN
  6
CONTINUOUS
 62
     7
100
AcDbLine
 10
271.0000000000004
 20
161.9999999999999
 30
0.0
 11
271.0000000000004
 21
106.0
 31
0.0
  0
LINE
  5
7B
330
1E
100
AcDbEntity
  8
L-ZISSEN
  6
CONTINUOUS
 62
     7
100
AcDbLine
 10
346.0000000000002
 20
157.0
 30
0.0
 11
284.0000000000004
 21
157.0
 31
0.0
  0
LINE
  5
7C
330
1E
100
AcDbEntity
  8
L-ZISSEN
  6
CONTINUOUS
 62
     7
100
AcDbLine
 10
279.0000000000004
 20
162.0
 30
0.0
 11
279.0000000000004
 21
106.0
 31
0.0
  0
LINE
  5
7D
330
1E
100
AcDbEntity
  8
L-ZISSEN
  6
CONTINUOUS
 62
     7
100
AcDbLine
 10
310.0000000000002
 20
134.2303039929164
 30
0.0
 11
310.0000000000002
 21
147.0
 31
0.0
  0
LINE
  5
7E
330
1E
100
AcDbEntity
  8
L-ZISSEN
  6
CONTINUOUS
 62
     7
100
AcDbLine
 10
322.5000000000002
 20
164.0000000000001
 30
0.0
 11
322.5000000000002
 21
157.0
 31
0.0
  0
LINE
  5
7F
330
1E
100
AcDbEntity
  8
L-ZISSEN
  6
CONTINUOUS
 62
     7
100
AcDbLine
 10
322.5000000000002
 20
157.0
 30
0.0
 11
320.0000000000002
 21
147.0
 31
0.0
  0
LINE
  5
80
330
1E
100
AcDbEntity
  8
L-ZISSEN
  6
CONTINUOUS
 62
     7
100
AcDbLine
 10
307.5000000000002
 20
157.0
 30
0.0
 11
310.0000000000002
 21
147.0
 31
0.0
  0
LINE
  5
81
330
1E
100
AcDbEntity
  8
L-ZISSEN
  6
CONTINUOUS
 62
     7
100
AcDbLine
 10
307.5000000000002
 20
164.0000000000001
 30
0.0
 11
307.5000000000002
 21
157.0
 31
0.0
  0
LINE
  5
82
330
1E
100
AcDbEntity
  8
L-ZISSEN
  6
CONTINUOUS
 62
     7
100
AcDbLine
 10
343.0000000000002
 20
55.49999999999982
 30
0.0
 11
343.0000000000004
 21
132.9999999999998
 31
0.0
  0
CIRCLE
  5
83
330
1E
100
AcDbEntity
  8
L-ZISSEN
  6
CONTINUOUS
 62
     7
100
AcDbCircle
 10
337.0000000000002
 20
126.0
 30
0.0
 40
5.0
  0
CIRCLE
  5
84
330
1E
100
AcDbEntity
  8
L-ZISSEN
  6
CONTINUOUS
 62
     7
100
AcDbCircle
 10
337.0000000000002
 20
74.0
 30
0.0
 40
5.0
  0
LINE
  5
85
330
1E
100
AcDbEntity
  8
L-ZISSEN
  6
CONTINUOUS
 62
     7
100
AcDbLine
 10
346.0000000000002
 20
162.0
 30
0.0
 11
346.0000000000002
 21
132.9999999999998
 31
0.0
  0
LINE
  5
86
330
1E
100
AcDbEntity
  8
L-ZISSEN
  6
CONTINUOUS
 62
     7
100
AcDbLine
 10
284.0000000000004
 20
162.0
 30
0.0
 11
284.0000000000004
 21
133.0
 31
0.0
  0
LINE
  5
87
330
1E
100
AcDbEntity
  8
L-ZISSEN
  6
CONTINUOUS
 62
     7
100
AcDbLine
 10
298.0
 20
52.49999999999989
 30
0.0
 11
332.0000000000004
 21
52.49999999999989
 31
0.0
  0
LINE
  5
88
330
1E
100
AcDbEntity
  8
L-ZISSEN
  6
CONTINUOUS
 62
     7
100
AcDbLine
 10
287.0000000000002
 20
55.49999999999989
 30
0.0
 11
343.0000000000002
 21
55.49999999999989
 31
0.0
  0
LINE
  5
89
330
1E
100
AcDbEntity
  8
L-ZISSEN
  6
CONTINUOUS
 62
     7
100
AcDbLine
 10
342.0000000000004
 20
47.99999999999977
 30
0.0
 11
332.0000000000003
 21
47.99999999999977
 31
0.0
  0
LINE
  5
8A
330
1E
100
AcDbEntity
  8
L-ZISSEN
  6
CONTINUOUS
 62
     7
100
AcDbLine
 10
342.0000000000004
 20
47.99999999999977
 30
0.0
 11
342.0000000000004
 21
55.49999999999989
 31
0.0
  0
LINE
  5
8B
330
1E
100
AcDbEntity
  8
L-TYUSIN
  6
CENTER
 62
     1
100
AcDbLine
 10
289.0000000000004
 20
100.0
 30
0.0
 11
341.0
 21
100.0
 31
0.0
  0
LINE
  5
8C
330
1E
100
AcDbEntity
  8
L-ZISSEN
  6
CONTINUOUS
 62
     7
100
AcDbLine
 10
343.0000000000004
 20
106.0
 30
0.0
 11
353.3000000000004
 21
106.0
 31
0.0
  0
LINE
  5
8D
330
1E
100
AcDbEntity
  8
L-ZISSEN
  6
CONTINUOUS
 62
     7
100
AcDbLine
 10
393.0000000000003
 20
120.0
 30
0.0
 11
393.0000000000005
 21
162.0
 31
0.0
  0
LINE
  5
8E
330
1E
100
AcDbEntity
  8
L-TYUSIN
  6
CENTER
 62
     1
100
AcDbLine
 10
353.3942030565695
 20
134.0
 30
0.0
 11
251.0000000000004
 21
134.0
 31
0.0
  0
LINE
  5
8F
330
1E
100
AcDbEntity
  8
L-ZISSEN
100
AcDbLine
 10
320.0000000000002
 20
134.2303039929164
 30
0.0
 11
310.0000000000002
 21
134.2303039929164
 31
0.0
  0
LINE
  5
90
330
1E
100
AcDbEntity
  8
L-ZISSEN
  6
CONTINUOUS
 62
     7
100
AcDbLine
 10
320.0000000000002
 20
134.2303039929164
 30
0.0
 11
320.0000000000002
 21
147.0
 31
0.0
  0
LINE
  5
91
330
1E
100
AcDbEntity
  8
L-ZISSEN
  6
CONTINUOUS
 62
     7
100
AcDbLine
 10
287.0000000000002
 20
67.0
 30
0.0
 11
343.0000000000002
 21
66.99999999999988
 31
0.0
  0
LINE
  5
92
330
1E
100
AcDbEntity
  8
L-ZISSEN
  6
CONTINUOUS
 62
     7
100
AcDbLine
 10
287.0000000000002
 20
59.99999999999994
 30
0.0
 11
343.0000000000002
 21
60.0
 31
0.0
  0
LINE
  5
93
330
1E
100
AcDbEntity
  8
L-ZISSEN
  6
CONTINUOUS
 62
     7
100
AcDbLine
 10
332.0000000000003
 20
47.99999999999977
 30
0.0
 11
332.0000000000003
 21
55.49999999999989
 31
0.0
  0
LINE
  5
94
330
1E
100
AcDbEntity
  8
L-ZISSEN
  6
CONTINUOUS
 62
     7
100
AcDbLine
 10
288.0000000000002
 20
48.00000000000039
 30
0.0
 11
288.0000000000002
 21
55.49999999999989
 31
0.0
  0
LINE
  5
95
330
1E
100
AcDbEntity
  8
L-ZISSEN
  6
CONTINUOUS
 62
     7
100
AcDbLine
 10
298.0000000000003
 20
48.00000000000039
 30
0.0
 11
298.0000000000003
 21
55.49999999999989
 31
0.0
  0
LINE
  5
96
330
1E
100
AcDbEntity
  8
L-ZISSEN
  6
CONTINUOUS
 62
     7
100
AcDbLine
 10
298.0000000000003
 20
48.00000000000039
 30
0.0
 11
288.0000000000002
 21
48.00000000000039
 31
0.0
  0
LINE
  5
97
330
1E
100
AcDbEntity
  8
L-TYUSIN
  6
CENTER
 62
     1
100
AcDbLine
 10
315.0000000000002
 20
221.2000000000006
 30
0.0
 11
315.0000000000002
 21
46.0
 31
0.0
  0
LINE
  5
98
330
1E
100
AcDbEntity
  8
L-TYUSIN
  6
CENTER
 62
     1
100
AcDbLine
 10
130.0000000000002
 20
243.0000000000004
 30
0.0
 11
129.9999999999998
 21
377.0000000000004
 31
0.0
  0
LINE
  5
99
330
1E
100
AcDbEntity
  8
L-ZISSEN
  6
CONTINUOUS
 62
     7
100
AcDbLine
 10
482.0
 20
67.00000000000017
 30
0.0
 11
469.0
 21
67.00000000000017
 31
0.0
  0
LINE
  5
9A
330
1E
100
AcDbEntity
  8
L-ZISSEN
  6
CONTINUOUS
 62
     7
100
AcDbLine
 10
461.4999999999997
 20
69.00000000000023
 30
0.0
 11
469.0
 21
69.00000000000023
 31
0.0
  0
LINE
  5
9B
330
1E
100
AcDbEntity
  8
L-ZISSEN
  6
CONTINUOUS
 62
     7
100
AcDbLine
 10
461.4999999999997
 20
69.00000000000023
 30
0.0
 11
461.5
 21
79.00000000000023
 31
0.0
  0
LINE
  5
9C
330
1E
100
AcDbEntity
  8
L-ZISSEN
  6
CONTINUOUS
 62
     7
100
AcDbLine
 10
453.9999999999998
 20
77.50000000000023
 30
0.0
 11
461.5
 21
77.50000000000023
 31
0.0
  0
LINE
  5
9D
330
1E
100
AcDbEntity
  8
L-ZISSEN
  6
CONTINUOUS
 62
     7
100
AcDbLine
 10
454.0000000000002
 20
77.50000000000023
 30
0.0
 11
453.9999999999997
 21
120.0000000000002
 31
0.0
  0
LINE
  5
9E
330
1E
100
AcDbEntity
  8
L-ZISSEN
  6
CONTINUOUS
 62
     7
100
AcDbLine
 10
469.0
 20
67.00000000000017
 30
0.0
 11
468.9999999999997
 21
120.0000000000002
 31
0.0
  0
LINE
  5
9F
330
1E
100
AcDbEntity
  8
L-ZISSEN
  6
CONTINUOUS
 62
     7
100
AcDbLine
 10
461.4999999999997
 20
79.00000000000023
 30
0.0
 11
469.0
 21
79.00000000000023
 31
0.0
  0
LINE
  5
A0
330
1E
100
AcDbEntity
  8
L-ZISSEN
  6
CONTINUOUS
 62
     7
100
AcDbLine
 10
558.5
 20
79.00000000000023
 30
0.0
 11
551.0
 21
79.00000000000023
 31
0.0
  0
LINE
  5
A1
330
1E
100
AcDbEntity
  8
L-ZISSEN
  6
CONTINUOUS
 62
     7
100
AcDbLine
 10
543.0
 20
106.0000000000002
 30
0.0
 11
477.0
 21
106.0000000000002
 31
0.0
  0
LINE
  5
A2
330
1E
100
AcDbEntity
  8
L-ZISSEN
  6
CONTINUOUS
 62
     7
100
AcDbLine
 10
538.0
 20
60.00000000000017
 30
0.0
 11
482.0
 21
60.00000000000017
 31
0.0
  0
LINE
  5
A3
330
1E
100
AcDbEntity
  8
L-ZISSEN
  6
CONTINUOUS
 62
     7
100
AcDbLine
 10
482.0
 20
55.50000000000006
 30
0.0
 11
482.0
 21
67.00000000000017
 31
0.0
  0
LINE
  5
A4
330
1E
100
AcDbEntity
  8
L-ZISSEN
  6
CONTINUOUS
 62
     7
100
AcDbLine
 10
538.0
 20
55.50000000000006
 30
0.0
 11
538.0
 21
67.00000000000017
 31
0.0
  0
LINE
  5
A5
330
1E
100
AcDbEntity
  8
L-ZISSEN
  6
CONTINUOUS
 62
     7
100
AcDbLine
 10
538.0
 20
67.00000000000017
 30
0.0
 11
550.9999999999998
 21
67.00000000000017
 31
0.0
  0
LINE
  5
A6
330
1E
100
AcDbEntity
  8
L-ZISSEN
  6
CONTINUOUS
 62
     7
100
AcDbLine
 10
477.0
 20
164.0000000000001
 30
0.0
 11
477.0
 21
67.00000000000017
 31
0.0
  0
LINE
  5
A7
330
1E
100
AcDbEntity
  8
L-ZISSEN
  6
CONTINUOUS
 62
     7
100
AcDbLine
 10
543.0
 20
164.0000000000001
 30
0.0
 11
543.0
 21
67.00000000000017
 31
0.0
  0
CIRCLE
  5
A8
330
1E
100
AcDbEntity
  8
L-ZISSEN
  6
CONTINUOUS
 62
     7
100
AcDbCircle
 10
536.0
 20
156.0000000000001
 30
0.0
 40
5.0
  0
LINE
  5
A9
330
1E
100
AcDbEntity
  8
L-ZISSEN
  6
CONTINUOUS
 62
     7
100
AcDbLine
 10
551.0
 20
67.00000000000017
 30
0.0
 11
551.0000000000001
 21
120.0000000000001
 31
0.0
  0
LINE
  5
AA
330
1E
100
AcDbEntity
  8
L-ZISSEN
  6
CONTINUOUS
 62
     7
100
AcDbLine
 10
565.9999999999997
 20
77.50000000000023
 30
0.0
 11
566.0000000000001
 21
120.0000000000001
 31
0.0
  0
CIRCLE
  5
AB
330
1E
100
AcDbEntity
  8
L-ZISSEN
  6
CONTINUOUS
 62
     7
100
AcDbCircle
 10
484.0
 20
156.0000000000001
 30
0.0
 40
5.0
  0
CIRCLE
  5
AC
330
1E
100
AcDbEntity
  8
L-ZISSEN
  6
CONTINUOUS
 62
     7
100
AcDbCircle
 10
536.0
 20
112.0000000000001
 30
0.0
 40
5.0
  0
CIRCLE
  5
AD
330
1E
100
AcDbEntity
  8
L-ZISSEN
  6
CONTINUOUS
 62
     7
100
AcDbCircle
 10
484.0
 20
112.0000000000001
 30
0.0
 40
5.0
  0
LINE
  5
AE
330
1E
100
AcDbEntity
  8
L-ZISSEN
  6
CONTINUOUS
 62
     7
100
AcDbLine
 10
538.0
 20
55.50000000000006
 30
0.0
 11
482.0
 21
55.50000000000006
 31
0.0
  0
LINE
  5
AF
330
1E
100
AcDbEntity
  8
L-ZISSEN
  6
CONTINUOUS
 62
     7
100
AcDbLine
 10
527.0
 20
52.50000000000006
 30
0.0
 11
493.0
 21
52.50000000000006
 31
0.0
  0
LINE
  5
B0
330
1E
100
AcDbEntity
  8
L-ZISSEN
  6
CONTINUOUS
 62
     7
100
AcDbLine
 10
527.0
 20
47.99999999999994
 30
0.0
 11
527.0
 21
55.50000000000006
 31
0.0
  0
LINE
  5
B1
330
1E
100
AcDbEntity
  8
L-ZISSEN
  6
CONTINUOUS
 62
     7
100
AcDbLine
 10
537.0
 20
47.99999999999994
 30
0.0
 11
527.0
 21
47.99999999999994
 31
0.0
  0
LINE
  5
B2
330
1E
100
AcDbEntity
  8
L-ZISSEN
  6
CONTINUOUS
 62
     7
100
AcDbLine
 10
537.0
 20
47.99999999999994
 30
0.0
 11
537.0
 21
55.50000000000006
 31
0.0
  0
LINE
  5
B3
330
1E
100
AcDbEntity
  8
L-ZISSEN
  6
CONTINUOUS
 62
     7
100
AcDbLine
 10
439.9999999999999
 20
162.0000000000001
 30
0.0
 11
580.0
 21
162.0000000000003
 31
0.0
  0
LINE
  5
B4
330
1E
100
AcDbEntity
  8
L-TYUSIN
  6
CENTER
 62
     1
100
AcDbLine
 10
571.0
 20
100.0000000000001
 30
0.0
 11
449.0
 21
100.0000000000001
 31
0.0
  0
LINE
  5
B5
330
1E
100
AcDbEntity
  8
L-ZISSEN
  6
CONTINUOUS
 62
     7
100
AcDbLine
 10
493.0
 20
47.99999999999994
 30
0.0
 11
493.0
 21
55.50000000000006
 31
0.0
  0
LINE
  5
B6
330
1E
100
AcDbEntity
  8
L-ZISSEN
  6
CONTINUOUS
 62
     7
100
AcDbLine
 10
493.0
 20
47.99999999999994
 30
0.0
 11
483.0
 21
47.99999999999994
 31
0.0
  0
LINE
  5
B7
330
1E
100
AcDbEntity
  8
L-ZISSEN
  6
CONTINUOUS
 62
     7
100
AcDbLine
 10
483.0
 20
47.99999999999994
 30
0.0
 11
483.0
 21
55.50000000000006
 31
0.0
  0
LINE
  5
B8
330
1E
100
AcDbEntity
  8
L-ZISSEN
  6
CONTINUOUS
 62
     7
100
AcDbLine
 10
566.0000000000001
 20
77.50000000000023
 30
0.0
 11
558.4999999999999
 21
77.50000000000023
 31
0.0
  0
LINE
  5
B9
330
1E
100
AcDbEntity
  8
L-ZISSEN
  6
CONTINUOUS
 62
     7
100
AcDbLine
 10
558.5
 20
69.00000000000023
 30
0.0
 11
558.4999999999999
 21
79.00000000000023
 31
0.0
  0
LINE
  5
BA
330
1E
100
AcDbEntity
  8
L-ZISSEN
  6
CONTINUOUS
 62
     7
100
AcDbLine
 10
558.5
 20
69.00000000000023
 30
0.0
 11
551.0
 21
69.00000000000023
 31
0.0
  0
LINE
  5
BB
330
1E
100
AcDbEntity
  8
L-TYUSIN
  6
CENTER
 62
     1
100
AcDbLine
 10
510.0
 20
218.7000000000001
 30
0.0
 11
510.0
 21
46.0
 31
0.0
  0
LINE
  5
BC
330
1E
100
AcDbEntity
  8
L-ZISSEN
100
AcDbLine
 10
152.5000000000002
 20
251.0000000000005
 30
0.0
 11
149.0525588832581
 21
251.0000000000005
 31
0.0
  0
LINE
  5
BD
330
1E
100
AcDbEntity
  8
L-TYUSIN
  6
CENTER
 62
     1
100
AcDbLine
 10
63.00000000000003
 20
310.0000000000004
 30
0.0
 11
196.9999999999999
 21
310.0000000000003
 31
0.0
  0
LINE
  5
BE
330
1E
100
AcDbEntity
  8
L-ZISSEN
100
AcDbLine
 10
163.0
 20
362.4880938880432
 30
0.0
 11
163.0
 21
385.7000000000005
 31
0.0
  0
SOLID
  5
BF
330
1E
100
AcDbEntity
  8
L-ZISSEN
100
AcDbTrace
 10
187.3632174348738
 20
98.49908383433094
 30
0.0
 11
187.7763136272598
 21
99.02233901135321
 31
0.0
 12
186.0
 22
100.0000000000001
 32
0.0
 13
186.0
 23
100.0000000000001
 33
0.0
  0
LINE
  5
C0
330
1E
100
AcDbEntity
  8
L-ZISSEN
100
AcDbLine
 10
187.5697655310668
 20
98.76071142284207
 30
0.0
 11
205.0
 21
85.0
 31
0.0
  0
LINE
  5
C1
330
1E
100
AcDbEntity
  8
L-ZISSEN
100
AcDbLine
 10
205.0
 20
85.0
 30
0.0
 11
207.0
 21
85.0
 31
0.0
  0
TEXT
  5
C2
330
1E
100
AcDbEntity
  8
L-ZISSEN
100
AcDbText
 10
209.0
 20
82.75000000000002
 30
0.0
 40
4.5
  1
IN
100
AcDbText
  0
TEXT
  5
C3
330
1E
100
AcDbEntity
  8
L-ZISSEN
100
AcDbText
 10
210.0
 20
75.0
 30
0.0
 40
4.5
  1
Rc 1/2
100
AcDbText
  0
TEXT
  5
C4
330
1E
100
AcDbEntity
  8
L-ZISSEN
100
AcDbText
 10
210.0
 20
65.0
 30
0.0
 40
4.5
  1
Rc 3/4
100
AcDbText
  0
TEXT
  5
C5
330
1E
100
AcDbEntity
  8
L-ZISSEN
100
AcDbText
 10
210.0
 20
55.0
 30
0.0
 40
4.5
  1
Rc 1
100
AcDbText
  0
TEXT
  5
C6
330
1E
100
AcDbEntity
  8
L-ZISSEN
100
AcDbText
 10
210.0
 20
45.0
 30
0.0
 40
4.5
  1
Rc 1-1/4
100
AcDbText
  0
TEXT
  5
C7
330
1E
100
AcDbEntity
  8
L-ZISSEN
100
AcDbText
 10
126.0
 20
416.0
 30
0.0
 40
4.5
  1
8
100
AcDbText
  0
TEXT
  5
C8
330
1E
100
AcDbEntity
  8
L-ZISSEN
100
AcDbText
 10
126.0
 20
423.0
 30
0.0
 40
4.5
  1
6
100
AcDbText
  0
TEXT
  5
C9
330
1E
100
AcDbEntity
  8
L-ZISSEN
100
AcDbText
 10
126.0
 20
430.0
 30
0.0
 40
4.5
  1
4
100
AcDbText
  0
TEXT
  5
CA
330
1E
100
AcDbEntity
  8
L-ZISSEN
100
AcDbText
 10
126.0
 20
409.0
 30
0.0
 40
4.5
  1
A
100
AcDbText
  0
LINE
  5
CB
330
1E
100
AcDbEntity
  8
L-ZISSEN
100
AcDbLine
 10
68.0
 20
193.7
 30
0.0
 11
68.0
 21
174.4999999999975
 31
0.0
  0
LINE
  5
CC
330
1E
100
AcDbEntity
  8
L-ZISSEN
100
AcDbLine
 10
68.0
 20
184.5000000000001
 30
0.0
 11
192.0
 21
184.5000000000001
 31
0.0
  0
LINE
  5
CD
330
1E
100
AcDbEntity
  8
L-ZISSEN
100
AcDbLine
 10
68.99999999999988
 20
163.0000000000001
 30
0.0
 11
91.0
 21
163.0000000000001
 31
0.0
  0
LINE
  5
CE
330
1E
100
AcDbEntity
  8
L-ZISSEN
100
AcDbLine
 10
68.99999999999988
 20
163.0000000000001
 30
0.0
 11
69.0
 21
174.5000000000001
 31
0.0
  0
LINE
  5
CF
330
1E
100
AcDbEntity
  8
L-ZISSEN
100
AcDbLine
 10
191.0
 20
163.0000000000001
 30
0.0
 11
191.0
 21
174.5000000000001
 31
0.0
  0
LINE
  5
D0
330
1E
100
AcDbEntity
  8
L-ZISSEN
100
AcDbLine
 10
191.9999999999998
 20
193.7000000000001
 30
0.0
 11
192.0000000000001
 21
174.4999999999901
 31
0.0
  0
LINE
  5
D1
330
1E
100
AcDbEntity
  8
L-ZISSEN
100
AcDbLine
 10
191.0
 20
163.0000000000001
 30
0.0
 11
169.0
 21
163.0000000000001
 31
0.0
  0
LINE
  5
D2
330
1E
100
AcDbEntity
  8
L-ZISSEN
  6
CONTINUOUS
 62
     7
100
AcDbLine
 10
169.0
 20
162.0
 30
0.0
 11
91.0
 21
162.0000000000002
 31
0.0
  0
LINE
  5
D3
330
1E
100
AcDbEntity
  8
L-ZISSEN
100
AcDbLine
 10
68.00000000000011
 20
174.4999999999975
 30
0.0
 11
192.0
 21
174.4999999999901
 31
0.0
  0
LINE
  5
D4
330
1E
100
AcDbEntity
  8
L-ZISSEN
  6
CONTINUOUS
 62
     7
100
AcDbLine
 10
80.0
 20
174.4999999999968
 30
0.0
 11
80.0
 21
166.8867513459482
 31
0.0
  0
LINE
  5
D5
330
1E
100
AcDbEntity
  8
L-ZISSEN
  6
CONTINUOUS
 62
     7
100
AcDbLine
 10
180.0
 20
174.4999999999909
 30
0.0
 11
180.0
 21
166.8867513459482
 31
0.0
  0
LINE
  5
D6
330
1E
100
AcDbEntity
  8
L-ZISSEN
100
AcDbLine
 10
85.0
 20
164.0000000000001
 30
0.0
 11
175.0
 21
164.0000000000001
 31
0.0
  0
LINE
  5
D7
330
1E
100
AcDbEntity
  8
L-ZISSEN
100
AcDbLine
 10
85.0
 20
164.0000000000001
 30
0.0
 11
80.0
 21
166.8867513459482
 31
0.0
  0
LINE
  5
D8
330
1E
100
AcDbEntity
  8
L-ZISSEN
100
AcDbLine
 10
175.0
 20
164.0000000000001
 30
0.0
 11
180.0
 21
166.8867513459482
 31
0.0
  0
LINE
  5
D9
330
1E
100
AcDbEntity
  8
L-ZISSEN
100
AcDbLine
 10
68.99999999999988
 20
213.7
 30
0.0
 11
83.49999999999999
 21
213.7
 31
0.0
  0
LINE
  5
DA
330
1E
100
AcDbEntity
  8
L-ZISSEN
100
AcDbLine
 10
68.99999999999988
 20
213.7
 30
0.0
 11
68.99999999999988
 21
193.7
 31
0.0
  0
LINE
  5
DB
330
1E
100
AcDbEntity
  8
L-ZISSEN
100
AcDbLine
 10
190.9999999999998
 20
216.2000000000002
 30
0.0
 11
191.0
 21
193.7000000000001
 31
0.0
  0
LINE
  5
DC
330
1E
100
AcDbEntity
  8
L-ZISSEN
100
AcDbLine
 10
176.4999999999998
 20
216.2000000000002
 30
0.0
 11
190.9999999999998
 21
216.2000000000002
 31
0.0
  0
LINE
  5
DD
330
1E
100
AcDbEntity
  8
L-ZISSEN
100
AcDbLine
 10
88.49999999999999
 20
213.7
 30
0.0
 11
88.49999999999999
 21
211.7
 31
0.0
  0
LINE
  5
DE
330
1E
100
AcDbEntity
  8
L-ZISSEN
100
AcDbLine
 10
88.49999999999999
 20
213.7
 30
0.0
 11
171.4999999999998
 21
213.7000000000001
 31
0.0
  0
LINE
  5
DF
330
1E
100
AcDbEntity
  8
L-ZISSEN
100
AcDbLine
 10
68.0
 20
193.7000000000001
 30
0.0
 11
191.9999999999998
 21
193.7000000000001
 31
0.0
  0
LINE
  5
E0
330
1E
100
AcDbEntity
  8
L-ZISSEN
100
AcDbLine
 10
83.49999999999978
 20
213.7
 30
0.0
 11
83.49999999999981
 21
206.6999999999999
 31
0.0
  0
LINE
  5
E1
330
1E
100
AcDbEntity
  8
L-ZISSEN
100
AcDbLine
 10
88.49999999999999
 20
211.7
 30
0.0
 11
171.4999999999998
 21
211.7000000000001
 31
0.0
  0
LINE
  5
E2
330
1E
100
AcDbEntity
  8
L-ZISSEN
100
AcDbLine
 10
176.5
 20
216.2000000000002
 30
0.0
 11
176.5
 21
206.7000000000001
 31
0.0
  0
LINE
  5
E3
330
1E
100
AcDbEntity
  8
L-ZISSEN
100
AcDbLine
 10
178.6517494606962
 20
205.9735270449306
 30
0.0
 11
178.6517494606962
 21
199.1
 31
0.0
  0
LINE
  5
E4
330
1E
100
AcDbEntity
  8
L-ZISSEN
100
AcDbLine
 10
186.9155238480659
 20
205.9735270449305
 30
0.0
 11
186.9155238480659
 21
199.1
 31
0.0
  0
LINE
  5
E5
330
1E
100
AcDbEntity
  8
L-ZISSEN
100
AcDbLine
 10
171.4999999999998
 20
213.7000000000001
 30
0.0
 11
171.4999999999998
 21
211.6828427124747
 31
0.0
  0
ARC
  5
E6
330
1E
100
AcDbEntity
  8
L-ZISSEN
100
AcDbCircle
 10
182.7836366543811
 20
205.9735270449306
 30
0.0
 40
4.13188719368486
100
AcDbArc
 50
359.9999999999992
 51
180.0000000000008
  0
LINE
  5
E7
330
1E
100
AcDbEntity
  8
L-ZISSEN
100
AcDbLine
 10
102.6279184977677
 20
199.1
 30
0.0
 11
102.6279184977677
 21
193.7
 31
0.0
  0
LINE
  5
E8
330
1E
100
AcDbEntity
  8
L-ZISSEN
100
AcDbLine
 10
92.12791849776772
 20
199.1
 30
0.0
 11
92.12791849776772
 21
193.7
 31
0.0
  0
LINE
  5
E9
330
1E
100
AcDbEntity
  8
L-ZISSEN
100
AcDbLine
 10
80.0
 20
166.8867513459482
 30
0.0
 11
180.0
 21
166.8867513459482
 31
0.0
  0
LINE
  5
EA
330
1E
100
AcDbEntity
  8
L-TYUSIN
  6
CENTER
 62
     1
100
AcDbLine
 10
197.5000000000002
 20
140.0000000000002
 30
0.0
 11
167.5000000000001
 21
140.0000000000002
 31
0.0
  0
LINE
  5
EB
330
1E
100
AcDbEntity
  8
L-TYUSIN
  6
CENTER
 62
     1
100
AcDbLine
 10
190.0
 20
147.5000000000004
 30
0.0
 11
190.0
 21
132.5
 31
0.0
  0
LINE
  5
EC
330
1E
100
AcDbEntity
  8
L-TYUSIN
  6
CENTER
 62
     1
100
AcDbLine
 10
175.0
 20
147.5000000000004
 30
0.0
 11
175.0
 21
132.5
 31
0.0
  0
ARC
  5
ED
330
1E
100
AcDbEntity
  8
L-ZISSEN
100
AcDbCircle
 10
175.0
 20
140.0000000000002
 30
0.0
 40
3.5
100
AcDbArc
 50
90.0
 51
270.0
  0
ARC
  5
EE
330
1E
100
AcDbEntity
  8
L-ZISSEN
100
AcDbCircle
 10
190.0
 20
140.0000000000002
 30
0.0
 40
3.5
100
AcDbArc
 50
270.0
 51
90.0
  0
LINE
  5
EF
330
1E
100
AcDbEntity
  8
L-ZISSEN
100
AcDbLine
 10
175.0
 20
136.4999999999998
 30
0.0
 11
190.0
 21
136.5000000000009
 31
0.0
  0
LINE
  5
F0
330
1E
100
AcDbEntity
  8
L-ZISSEN
100
AcDbLine
 10
175.0
 20
143.5000000000006
 30
0.0
 11
190.0
 21
143.4999999999995
 31
0.0
  0
LINE
  5
F1
330
1E
100
AcDbEntity
  8
L-ZISSEN
  6
CONTINUOUS
 62
     7
100
AcDbLine
 10
199.9999999999999
 20
120.0000000000001
 30
0.0
 11
186.0000000000001
 21
120.0000000000001
 31
0.0
  0
LINE
  5
F2
330
1E
100
AcDbEntity
  8
L-ZISSEN
  6
CONTINUOUS
 62
     7
100
AcDbLine
 10
73.99999999999991
 20
120.0000000000002
 30
0.0
 11
60.00000000000008
 21
120.0000000000003
 31
0.0
  0
LINE
  5
F3
330
1E
100
AcDbEntity
  8
L-ZISSEN
  6
CONTINUOUS
 62
     7
100
AcDbLine
 10
165.3
 20
134.2303039929146
 30
0.0
 11
165.3
 21
133.0000000000001
 31
0.0
  0
LINE
  5
F4
330
1E
100
AcDbEntity
  8
L-ZISSEN
  6
CONTINUOUS
 62
     7
100
AcDbLine
 10
94.69999999999998
 20
134.2303039929146
 30
0.0
 11
94.69999999999998
 21
133.0000000000001
 31
0.0
  0
LINE
  5
F5
330
1E
100
AcDbEntity
  8
L-ZISSEN
  6
CONTINUOUS
 62
     7
100
AcDbLine
 10
351.0000000000004
 20
120.0
 30
0.0
 11
393.0000000000004
 21
120.0
 31
0.0
  0
LINE
  5
F6
330
1E
100
AcDbEntity
  8
L-ZISSEN
  6
CONTINUOUS
 62
     7
100
AcDbLine
 10
390.7000000000003
 20
120.0
 30
0.0
 11
390.7000000000005
 21
162.0
 31
0.0
  0
LINE
  5
F7
330
1E
100
AcDbEntity
  8
L-ZISSEN
100
AcDbLine
 10
353.3000000000004
 20
120.0
 30
0.0
 11
353.3000000000004
 21
106.0
 31
0.0
  0
LINE
  5
F8
330
1E
100
AcDbEntity
  8
L-ZISSEN
100
AcDbLine
 10
200.0
 20
162.0000000000001
 30
0.0
 11
199.9999999999999
 21
120.0000000000001
 31
0.0
  0
LINE
  5
F9
330
1E
100
AcDbEntity
  8
L-ZISSEN
100
AcDbLine
 10
60.00000000000003
 20
162.0000000000001
 30
0.0
 11
60.00000000000008
 21
120.0000000000001
 31
0.0
  0
LINE
  5
FA
330
1E
100
AcDbEntity
  8
L-ZISSEN
100
AcDbLine
 10
85.0
 20
136.4999999999998
 30
0.0
 11
70.0
 21
136.5000000000009
 31
0.0
  0
ARC
  5
FB
330
1E
100
AcDbEntity
  8
L-ZISSEN
100
AcDbCircle
 10
85.0
 20
140.0000000000002
 30
0.0
 40
3.5
100
AcDbArc
 50
270.0
 51
90.0
  0
ARC
  5
FC
330
1E
100
AcDbEntity
  8
L-ZISSEN
100
AcDbCircle
 10
70.0
 20
140.0000000000002
 30
0.0
 40
3.5
100
AcDbArc
 50
90.0
 51
270.0
  0
LINE
  5
FD
330
1E
100
AcDbEntity
  8
L-ZISSEN
100
AcDbLine
 10
85.0
 20
143.5000000000006
 30
0.0
 11
70.0
 21
143.4999999999995
 31
0.0
  0
LINE
  5
FE
330
1E
100
AcDbEntity
  8
L-TYUSIN
  6
CENTER
 62
     1
100
AcDbLine
 10
62.49999999999977
 20
140.0000000000002
 30
0.0
 11
92.49999999999989
 21
140.0000000000002
 31
0.0
  0
LINE
  5
FF
330
1E
100
AcDbEntity
  8
L-TYUSIN
  6
CENTER
 62
     1
100
AcDbLine
 10
85.0
 20
147.5000000000004
 30
0.0
 11
85.0
 21
132.5
 31
0.0
  0
LINE
  5
100
330
1E
100
AcDbEntity
  8
L-TYUSIN
  6
CENTER
 62
     1
100
AcDbLine
 10
70.0
 20
147.5000000000004
 30
0.0
 11
70.0
 21
132.5
 31
0.0
  0
LINE
  5
101
330
1E
100
AcDbEntity
  8
L-ZISSEN
100
AcDbLine
 10
555.0
 20
143.5000000000006
 30
0.0
 11
570.0
 21
143.4999999999995
 31
0.0
  0
LINE
  5
102
330
1E
100
AcDbEntity
  8
L-ZISSEN
100
AcDbLine
 10
555.0
 20
136.4999999999998
 30
0.0
 11
570.0
 21
136.5000000000009
 31
0.0
  0
ARC
  5
103
330
1E
100
AcDbEntity
  8
L-ZISSEN
100
AcDbCircle
 10
570.0
 20
140.0000000000002
 30
0.0
 40
3.5
100
AcDbArc
 50
270.0
 51
90.0
  0
ARC
  5
104
330
1E
100
AcDbEntity
  8
L-ZISSEN
100
AcDbCircle
 10
555.0
 20
140.0000000000002
 30
0.0
 40
3.5
100
AcDbArc
 50
90.0
 51
270.0
  0
LINE
  5
105
330
1E
100
AcDbEntity
  8
L-TYUSIN
  6
CENTER
 62
     1
100
AcDbLine
 10
570.0
 20
147.5000000000004
 30
0.0
 11
570.0
 21
132.5
 31
0.0
  0
LINE
  5
106
330
1E
100
AcDbEntity
  8
L-TYUSIN
  6
CENTER
 62
     1
100
AcDbLine
 10
555.0
 20
147.5000000000004
 30
0.0
 11
555.0
 21
132.5
 31
0.0
  0
LINE
  5
107
330
1E
100
AcDbEntity
  8
L-TYUSIN
  6
CENTER
 62
     1
100
AcDbLine
 10
577.5000000000002
 20
140.0000000000002
 30
0.0
 11
547.5000000000001
 21
140.0000000000002
 31
0.0
  0
LINE
  5
108
330
1E
100
AcDbEntity
  8
L-ZISSEN
100
AcDbLine
 10
465.0
 20
143.5000000000006
 30
0.0
 11
450.0
 21
143.4999999999995
 31
0.0
  0
ARC
  5
109
330
1E
100
AcDbEntity
  8
L-ZISSEN
100
AcDbCircle
 10
450.0
 20
140.0000000000002
 30
0.0
 40
3.5
100
AcDbArc
 50
90.0
 51
270.0
  0
ARC
  5
10A
330
1E
100
AcDbEntity
  8
L-ZISSEN
100
AcDbCircle
 10
465.0
 20
140.0000000000002
 30
0.0
 40
3.5
100
AcDbArc
 50
270.0
 51
90.0
  0
LINE
  5
10B
330
1E
100
AcDbEntity
  8
L-ZISSEN
100
AcDbLine
 10
465.0
 20
136.4999999999998
 30
0.0
 11
450.0
 21
136.5000000000009
 31
0.0
  0
LINE
  5
10C
330
1E
100
AcDbEntity
  8
L-TYUSIN
  6
CENTER
 62
     1
100
AcDbLine
 10
442.4999999999998
 20
140.0000000000002
 30
0.0
 11
472.4999999999998
 21
140.0000000000002
 31
0.0
  0
LINE
  5
10D
330
1E
100
AcDbEntity
  8
L-TYUSIN
  6
CENTER
 62
     1
100
AcDbLine
 10
450.0
 20
147.5000000000004
 30
0.0
 11
450.0
 21
132.5
 31
0.0
  0
LINE
  5
10E
330
1E
100
AcDbEntity
  8
L-TYUSIN
  6
CENTER
 62
     1
100
AcDbLine
 10
465.0
 20
147.5000000000004
 30
0.0
 11
465.0
 21
132.5
 31
0.0
  0
LINE
  5
10F
330
1E
100
AcDbEntity
  8
L-ZISSEN
100
AcDbLine
 10
440.0
 20
162.0000000000001
 30
0.0
 11
440.0000000000001
 21
120.0000000000001
 31
0.0
  0
LINE
  5
110
330
1E
100
AcDbEntity
  8
L-ZISSEN
  6
CONTINUOUS
 62
     7
100
AcDbLine
 10
477.0
 20
120.0000000000002
 30
0.0
 11
440.0
 21
120.0000000000003
 31
0.0
  0
LINE
  5
111
330
1E
100
AcDbEntity
  8
L-ZISSEN
  6
CONTINUOUS
 62
     7
100
AcDbLine
 10
580.0
 20
120.0000000000001
 30
0.0
 11
543.0
 21
120.0000000000001
 31
0.0
  0
LINE
  5
112
330
1E
100
AcDbEntity
  8
L-ZISSEN
100
AcDbLine
 10
580.0
 20
162.0000000000001
 30
0.0
 11
580.0
 21
120.0000000000001
 31
0.0
  0
LINE
  5
113
330
1E
100
AcDbEntity
  8
L-ZISSEN
100
AcDbLine
 10
92.12791849776772
 20
199.1
 30
0.0
 11
102.6279184977677
 21
199.1
 31
0.0
  0
LINE
  5
114
330
1E
100
AcDbEntity
  8
L-ZISSEN
100
AcDbLine
 10
135.25
 20
199.1
 30
0.0
 11
135.25
 21
193.7
 31
0.0
  0
LINE
  5
115
330
1E
100
AcDbEntity
  8
L-ZISSEN
100
AcDbLine
 10
124.75
 20
199.1
 30
0.0
 11
135.25
 21
199.1
 31
0.0
  0
LINE
  5
116
330
1E
100
AcDbEntity
  8
L-ZISSEN
100
AcDbLine
 10
124.75
 20
199.1
 30
0.0
 11
124.75
 21
193.7
 31
0.0
  0
LINE
  5
117
330
1E
100
AcDbEntity
  8
L-ZISSEN
100
AcDbLine
 10
157.3720815022322
 20
199.1
 30
0.0
 11
167.8720815022322
 21
199.1
 31
0.0
  0
LINE
  5
118
330
1E
100
AcDbEntity
  8
L-ZISSEN
100
AcDbLine
 10
157.3720815022322
 20
199.1
 30
0.0
 11
157.3720815022322
 21
193.7
 31
0.0
  0
LINE
  5
119
330
1E
100
AcDbEntity
  8
L-ZISSEN
100
AcDbLine
 10
167.8720815022322
 20
199.1
 30
0.0
 11
167.8720815022322
 21
193.7
 31
0.0
  0
LINE
  5
11A
330
1E
100
AcDbEntity
  8
L-ZISSEN
100
AcDbLine
 10
177.5336366543811
 20
199.1
 30
0.0
 11
188.0336366543811
 21
199.1
 31
0.0
  0
LINE
  5
11B
330
1E
100
AcDbEntity
  8
L-ZISSEN
100
AcDbLine
 10
177.5336366543811
 20
199.1
 30
0.0
 11
177.5336366543811
 21
193.7
 31
0.0
  0
LINE
  5
11C
330
1E
100
AcDbEntity
  8
L-ZISSEN
100
AcDbLine
 10
188.0336366543811
 20
199.1
 30
0.0
 11
188.0336366543811
 21
193.7
 31
0.0
  0
LINE
  5
11D
330
1E
100
AcDbEntity
  8
L-ZISSEN
100
AcDbLine
 10
71.9663633456189
 20
199.1000000000008
 30
0.0
 11
82.46636334561889
 21
199.1000000000008
 31
0.0
  0
LINE
  5
11E
330
1E
100
AcDbEntity
  8
L-ZISSEN
100
AcDbLine
 10
71.9663633456189
 20
199.1000000000008
 30
0.0
 11
71.9663633456189
 21
193.7000000000009
 31
0.0
  0
LINE
  5
11F
330
1E
100
AcDbEntity
  8
L-ZISSEN
100
AcDbLine
 10
82.46636334561889
 20
199.1000000000008
 30
0.0
 11
82.46636334561889
 21
193.7000000000009
 31
0.0
  0
ARC
  5
120
330
1E
100
AcDbEntity
  8
L-ZISSEN
100
AcDbCircle
 10
130.0
 20
310.0000000000004
 30
0.0
 40
62.0
100
AcDbArc
 50
4.636229744588146
 51
355.3637702554152
  0
LINE
  5
121
330
1E
100
AcDbEntity
  8
L-ZISSEN
100
AcDbLine
 10
200.0
 20
385.7000000000005
 30
0.0
 11
200.0
 21
388.0000000000005
 31
0.0
  0
LINE
  5
122
330
1E
100
AcDbEntity
  8
L-ZISSEN
100
AcDbLine
 10
200.0
 20
388.0000000000005
 30
0.0
 11
160.7
 21
388.0000000000005
 31
0.0
  0
LINE
  5
123
330
1E
100
AcDbEntity
  8
L-ZISSEN
100
AcDbLine
 10
200.0
 20
385.7000000000005
 30
0.0
 11
163.0
 21
385.7000000000005
 31
0.0
  0
LINE
  5
124
330
1E
100
AcDbEntity
  8
L-ZISSEN
100
AcDbLine
 10
160.7
 20
363.8656662448358
 30
0.0
 11
160.7
 21
388.0000000000005
 31
0.0
  0
LINE
  5
125
330
1E
100
AcDbEntity
  8
L-ZISSEN
100
AcDbLine
 10
110.9474411167418
 20
251.0000000000005
 30
0.0
 11
107.4999999999995
 21
251.0000000000005
 31
0.0
  0
LINE
  5
126
330
1E
100
AcDbEntity
  8
L-TYUSIN
  6
CENTER
 62
     1
100
AcDbLine
 10
175.0
 20
393.0000000000005
 30
0.0
 11
175.0
 21
380.7000000000005
 31
0.0
  0
LINE
  5
127
330
1E
100
AcDbEntity
  8
L-TYUSIN
  6
CENTER
 62
     1
100
AcDbLine
 10
190.0
 20
393.0000000000005
 30
0.0
 11
190.0
 21
380.7000000000005
 31
0.0
  0
LINE
  5
128
330
1E
100
AcDbEntity
  8
L-TYUSIN
  6
CENTER
 62
     1
100
AcDbLine
 10
69.99999999999971
 20
393.0000000000005
 30
0.0
 11
69.99999999999971
 21
380.7000000000005
 31
0.0
  0
LINE
  5
129
330
1E
100
AcDbEntity
  8
L-TYUSIN
  6
CENTER
 62
     1
100
AcDbLine
 10
84.99999999999971
 20
393.0000000000005
 30
0.0
 11
84.99999999999971
 21
380.7000000000005
 31
0.0
  0
LINE
  5
12A
330
1E
100
AcDbEntity
  8
L-ZISSEN
100
AcDbLine
 10
99.29999999999967
 20
363.8656662448358
 30
0.0
 11
99.29999999999967
 21
388.0000000000005
 31
0.0
  0
LINE
  5
12B
330
1E
100
AcDbEntity
  8
L-ZISSEN
100
AcDbLine
 10
59.99999999999968
 20
385.7000000000005
 30
0.0
 11
96.99999999999967
 21
385.7000000000005
 31
0.0
  0
LINE
  5
12C
330
1E
100
AcDbEntity
  8
L-ZISSEN
100
AcDbLine
 10
59.99999999999968
 20
388.0000000000005
 30
0.0
 11
99.29999999999967
 21
388.0000000000005
 31
0.0
  0
LINE
  5
12D
330
1E
100
AcDbEntity
  8
L-ZISSEN
100
AcDbLine
 10
59.99999999999968
 20
385.7000000000005
 30
0.0
 11
59.99999999999968
 21
388.0000000000005
 31
0.0
  0
LINE
  5
12E
330
1E
100
AcDbEntity
  8
L-ZISSEN
100
AcDbLine
 10
96.99999999999967
 20
362.4880938880432
 30
0.0
 11
96.99999999999967
 21
385.7000000000005
 31
0.0
  0
CIRCLE
  5
12F
330
1E
100
AcDbEntity
  8
L-ZISSEN
100
AcDbCircle
 10
130.0
 20
310.0000000000003
 30
0.0
 40
41.5
  0
ARC
  5
130
330
1E
100
AcDbEntity
  8
L-ZISSEN
100
AcDbCircle
 10
130.0
 20
310.0000000000003
 30
0.0
 40
48.0
100
AcDbArc
 50
13.86194967204919
 51
169.1930771251405
  0
LINE
  5
131
330
1E
100
AcDbEntity
  8
L-ZISSEN
100
AcDbLine
 10
68.0
 20
185.7000000000001
 30
0.0
 11
192.0
 21
185.7000000000001
 31
0.0
  0
LINE
  5
132
330
1E
100
AcDbEntity
  8
L-ZISSEN
100
AcDbLine
 10
82.0
 20
205.2
 30
0.0
 11
82.0
 21
199.1000000000008
 31
0.0
  0
LINE
  5
133
330
1E
100
AcDbEntity
  8
L-ZISSEN
100
AcDbLine
 10
88.49999999999999
 20
211.7
 30
0.0
 11
82.0
 21
205.2
 31
0.0
  0
LINE
  5
134
330
1E
100
AcDbEntity
  8
L-ZISSEN
100
AcDbLine
 10
171.5
 20
211.7
 30
0.0
 11
178.0
 21
205.2000000000001
 31
0.0
  0
LINE
  5
135
330
1E
100
AcDbEntity
  8
L-ZISSEN
100
AcDbLine
 10
82.0
 20
205.2
 30
0.0
 11
178.0
 21
205.2000000000001
 31
0.0
  0
LINE
  5
136
330
1E
100
AcDbEntity
  8
L-ZISSEN
100
AcDbLine
 10
176.5
 20
216.2000000000002
 30
0.0
 11
171.7499999999999
 21
211.4500000000001
 31
0.0
  0
LINE
  5
137
330
1E
100
AcDbEntity
  8
L-ZISSEN
100
AcDbLine
 10
83.49999999999978
 20
213.7
 30
0.0
 11
86.99999999999986
 21
210.1999999999999
 31
0.0
  0
LINE
  5
138
330
1E
100
AcDbEntity
  8
L-ZISSEN
100
AcDbLine
 10
191.0
 20
321.0905365064092
 30
0.0
 11
191.0000000000001
 21
298.9094634935929
 31
0.0
  0
LINE
  5
139
330
1E
100
AcDbEntity
  8
L-ZISSEN
100
AcDbLine
 10
190.924133149352
 20
298.4999999999998
 30
0.0
 11
186.9155238480666
 21
298.4999999999998
 31
0.0
  0
ARC
  5
13A
330
1E
100
AcDbEntity
  8
L-ZISSEN
100
AcDbCircle
 10
182.7836366543811
 20
292.8495568121907
 30
0.0
 40
7.0
100
AcDbArc
 50
53.82385789555872
 51
126.176142104447
  0
LINE
  5
13B
330
1E
100
AcDbEntity
  8
L-ZISSEN
100
AcDbLine
 10
178.6517494606956
 20
298.4999999999998
 30
0.0
 11
176.6020385820191
 21
298.4999999999998
 31
0.0
  0
LINE
  5
13C
330
1E
100
AcDbEntity
  8
L-ZISSEN
100
AcDbLine
 10
190.924133149352
 20
321.5000000000008
 30
0.0
 11
186.9155238480666
 21
321.5000000000008
 31
0.0
  0
ARC
  5
13D
330
1E
100
AcDbEntity
  8
L-ZISSEN
100
AcDbCircle
 10
182.7836366543811
 20
327.1504431878099
 30
0.0
 40
7.0
100
AcDbArc
 50
233.8238578955529
 51
306.1761421044412
  0
LINE
  5
13E
330
1E
100
AcDbEntity
  8
L-ZISSEN
100
AcDbLine
 10
178.6517494606956
 20
321.5000000000008
 30
0.0
 11
176.6020385820191
 21
321.5000000000008
 31
0.0
  0
LINE
  5
13F
330
1E
100
AcDbEntity
  8
L-ZISSEN
100
AcDbLine
 10
176.6020385820192
 20
298.4999999999998
 30
0.0
 11
171.7499999999999
 21
303.3520385820191
 31
0.0
  0
LINE
  5
140
330
1E
100
AcDbEntity
  8
L-ZISSEN
100
AcDbLine
 10
170.7982075779114
 20
302.4002461599305
 30
0.0
 11
171.7499999999999
 21
303.3520385820191
 31
0.0
  0
LINE
  5
141
330
1E
100
AcDbEntity
  8
L-ZISSEN
100
AcDbLine
 10
170.7982075779114
 20
317.5997538400701
 30
0.0
 11
171.7499999999999
 21
316.6479614179815
 31
0.0
  0
LINE
  5
142
330
1E
100
AcDbEntity
  8
L-ZISSEN
100
AcDbLine
 10
176.6020385820192
 20
321.5000000000008
 30
0.0
 11
171.7499999999999
 21
316.6479614179815
 31
0.0
  0
LINE
  5
143
330
1E
100
AcDbEntity
  8
L-ZISSEN
100
AcDbLine
 10
176.602038582019
 20
298.4999999999999
 30
0.0
 11
176.6020385820191
 21
321.5000000000007
 31
0.0
  0
LINE
  5
144
330
1E
100
AcDbEntity
  8
L-ZISSEN
100
AcDbLine
 10
68.99999999999988
 20
301.0000000000012
 30
0.0
 11
68.99999999999988
 21
318.9999999999996
 31
0.0
  0
LINE
  5
145
330
1E
100
AcDbEntity
  8
L-ZISSEN
100
AcDbLine
 10
68.99999999999988
 20
301.0000000000012
 30
0.0
 11
82.85129906349453
 21
301.0000000000012
 31
0.0
  0
LINE
  5
146
330
1E
100
AcDbEntity
  8
L-ZISSEN
100
AcDbLine
 10
68.99999999999988
 20
318.9999999999996
 30
0.0
 11
82.85129906349467
 21
318.9999999999996
 31
0.0
  0
LINE
  5
147
330
1E
100
AcDbEntity
  8
L-ZISSEN
100
AcDbLine
 10
82.8512990634945
 20
301.0000000000012
 30
0.0
 11
86.99999999999988
 21
305.1487009365065
 31
0.0
  0
LINE
  5
148
330
1E
100
AcDbEntity
  8
L-ZISSEN
100
AcDbLine
 10
89.08352075090174
 20
303.0651801856047
 30
0.0
 11
86.99999999999988
 21
305.1487009365065
 31
0.0
  0
LINE
  5
149
330
1E
100
AcDbEntity
  8
L-ZISSEN
100
AcDbLine
 10
89.08352075090174
 20
316.934819814396
 30
0.0
 11
86.99999999999988
 21
314.8512990634941
 31
0.0
  0
LINE
  5
14A
330
1E
100
AcDbEntity
  8
L-ZISSEN
100
AcDbLine
 10
82.8512990634945
 20
318.9999999999995
 30
0.0
 11
86.99999999999988
 21
314.8512990634941
 31
0.0
  0
ARC
  5
14B
330
1E
100
AcDbEntity
  8
L-ZISSEN
100
AcDbCircle
 10
130.0
 20
310.0000000000003
 30
0.0
 40
48.0
100
AcDbArc
 50
190.8069228748592
 51
346.1380503279508
  0
LINE
  5
14C
330
1E
100
AcDbEntity
  8
L-ZISSEN
100
AcDbLine
 10
82.85129906349451
 20
301.0000000000012
 30
0.0
 11
82.85129906349451
 21
318.9999999999995
 31
0.0
  0
CIRCLE
  5
14D
330
1E
100
AcDbEntity
  8
L-ZISSEN
100
AcDbCircle
 10
182.7836366543811
 20
292.8495568121908
 30
0.0
 40
5.25
  0
CIRCLE
  5
14E
330
1E
100
AcDbEntity
  8
L-ZISSEN
100
AcDbCircle
 10
130.0000000000001
 20
365.5000000000005
 30
0.0
 40
5.25
  0
CIRCLE
  5
14F
330
1E
100
AcDbEntity
  8
L-ZISSEN
100
AcDbCircle
 10
162.6220815022324
 20
265.0995568121907
 30
0.0
 40
5.25
  0
CIRCLE
  5
150
330
1E
100
AcDbEntity
  8
L-ZISSEN
100
AcDbCircle
 10
130.0000000000001
 20
254.5000000000002
 30
0.0
 40
5.25
  0
CIRCLE
  5
151
330
1E
100
AcDbEntity
  8
L-ZISSEN
100
AcDbCircle
 10
97.37791849776769
 20
265.0995568121907
 30
0.0
 40
5.25
  0
CIRCLE
  5
152
330
1E
100
AcDbEntity
  8
L-ZISSEN
100
AcDbCircle
 10
77.21636334561899
 20
292.8495568121908
 30
0.0
 40
5.25
  0
CIRCLE
  5
153
330
1E
100
AcDbEntity
  8
L-ZISSEN
100
AcDbCircle
 10
97.37791849776769
 20
354.9004431878099
 30
0.0
 40
5.25
  0
CIRCLE
  5
154
330
1E
100
AcDbEntity
  8
L-ZISSEN
100
AcDbCircle
 10
77.21636334561899
 20
327.1504431878098
 30
0.0
 40
5.25
  0
CIRCLE
  5
155
330
1E
100
AcDbEntity
  8
L-ZISSEN
100
AcDbCircle
 10
162.6220815022324
 20
354.9004431878099
 30
0.0
 40
5.25
  0
CIRCLE
  5
156
330
1E
100
AcDbEntity
  8
L-ZISSEN
100
AcDbCircle
 10
182.7836366543811
 20
327.1504431878098
 30
0.0
 40
5.25
  0
LINE
  5
157
330
1E
100
AcDbEntity
  8
L-ZISSEN
100
AcDbLine
 10
267.0000000000002
 20
205.2
 30
0.0
 11
303.5108747069236
 21
205.2
 31
0.0
  0
LINE
  5
158
330
1E
100
AcDbEntity
  8
L-ZISSEN
100
AcDbLine
 10
273.5000000000002
 20
211.7
 30
0.0
 11
267.0000000000002
 21
205.2
 31
0.0
  0
LINE
  5
159
330
1E
100
AcDbEntity
  8
L-ZISSEN
100
AcDbLine
 10
267.0000000000002
 20
205.2
 30
0.0
 11
267.0000000000002
 21
199.1000000000008
 31
0.0
  0
LINE
  5
15A
330
1E
100
AcDbEntity
  8
L-ZISSEN
100
AcDbLine
 10
253.0000000000002
 20
185.7000000000001
 30
0.0
 11
377.0000000000002
 21
185.7000000000001
 31
0.0
  0
LINE
  5
15B
330
1E
100
AcDbEntity
  8
L-ZISSEN
100
AcDbLine
 10
375.7500000000004
 20
199.1
 30
0.0
 11
375.7500000000004
 21
193.7
 31
0.0
  0
LINE
  5
15C
330
1E
100
AcDbEntity
  8
L-ZISSEN
100
AcDbLine
 10
365.2500000000004
 20
199.1
 30
0.0
 11
365.2500000000004
 21
193.7
 31
0.0
  0
LINE
  5
15D
330
1E
100
AcDbEntity
  8
L-ZISSEN
100
AcDbLine
 10
365.2500000000004
 20
199.1
 30
0.0
 11
375.7500000000004
 21
199.1
 31
0.0
  0
LINE
  5
15E
330
1E
100
AcDbEntity
  8
L-ZISSEN
100
AcDbLine
 10
365.1504431878098
 20
199.1
 30
0.0
 11
365.1504431878098
 21
193.7
 31
0.0
  0
LINE
  5
15F
330
1E
100
AcDbEntity
  8
L-ZISSEN
100
AcDbLine
 10
354.6504431878098
 20
199.1
 30
0.0
 11
354.6504431878098
 21
193.7
 31
0.0
  0
LINE
  5
160
330
1E
100
AcDbEntity
  8
L-ZISSEN
100
AcDbLine
 10
354.6504431878098
 20
199.1
 30
0.0
 11
365.1504431878098
 21
199.1
 31
0.0
  0
LINE
  5
161
330
1E
100
AcDbEntity
  8
L-ZISSEN
100
AcDbLine
 10
326.9004431878097
 20
199.1
 30
0.0
 11
326.9004431878097
 21
193.7
 31
0.0
  0
LINE
  5
162
330
1E
100
AcDbEntity
  8
L-ZISSEN
100
AcDbLine
 10
326.9004431878097
 20
199.1
 30
0.0
 11
337.4004431878097
 21
199.1
 31
0.0
  0
LINE
  5
163
330
1E
100
AcDbEntity
  8
L-ZISSEN
100
AcDbLine
 10
337.4004431878097
 20
199.1
 30
0.0
 11
337.4004431878097
 21
193.7
 31
0.0
  0
LINE
  5
164
330
1E
100
AcDbEntity
  8
L-ZISSEN
100
AcDbLine
 10
265.0000000000002
 20
166.8867513459482
 30
0.0
 11
310.1255074690536
 21
166.8867513459482
 31
0.0
  0
LINE
  5
165
330
1E
100
AcDbEntity
  8
L-ZISSEN
100
AcDbLine
 10
356.5000000000001
 20
213.7000000000001
 30
0.0
 11
356.5000000000001
 21
211.6828427124747
 31
0.0
  0
LINE
  5
166
330
1E
100
AcDbEntity
  8
L-ZISSEN
100
AcDbLine
 10
273.5000000000002
 20
211.7
 30
0.0
 11
305.8758562045523
 21
211.7000000000001
 31
0.0
  0
LINE
  5
167
330
1E
100
AcDbEntity
  8
L-ZISSEN
100
AcDbLine
 10
253.0000000000002
 20
193.7000000000001
 30
0.0
 11
377.0000000000001
 21
193.7000000000001
 31
0.0
  0
LINE
  5
168
330
1E
100
AcDbEntity
  8
L-ZISSEN
100
AcDbLine
 10
273.5000000000002
 20
213.7
 30
0.0
 11
307.8410894683611
 21
213.7000000000001
 31
0.0
  0
LINE
  5
169
330
1E
100
AcDbEntity
  8
L-ZISSEN
100
AcDbLine
 10
273.5000000000002
 20
213.7
 30
0.0
 11
273.5000000000002
 21
211.7
 31
0.0
  0
LINE
  5
16A
330
1E
100
AcDbEntity
  8
L-ZISSEN
100
AcDbLine
 10
360.0000000000002
 20
164.0000000000001
 30
0.0
 11
365.0000000000002
 21
166.8867513459482
 31
0.0
  0
LINE
  5
16B
330
1E
100
AcDbEntity
  8
L-ZISSEN
100
AcDbLine
 10
270.0000000000002
 20
164.0000000000001
 30
0.0
 11
265.0000000000002
 21
166.8867513459482
 31
0.0
  0
LINE
  5
16C
330
1E
100
AcDbEntity
  8
L-ZISSEN
100
AcDbLine
 10
270.0000000000002
 20
164.0000000000001
 30
0.0
 11
312.0000000000006
 21
164.0000000000001
 31
0.0
  0
LINE
  5
16D
330
1E
100
AcDbEntity
  8
L-ZISSEN
  6
CONTINUOUS
 62
     7
100
AcDbLine
 10
365.0000000000002
 20
174.4999999999909
 30
0.0
 11
365.0000000000002
 21
166.8867513459482
 31
0.0
  0
LINE
  5
16E
330
1E
100
AcDbEntity
  8
L-ZISSEN
  6
CONTINUOUS
 62
     7
100
AcDbLine
 10
265.0000000000002
 20
174.4999999999968
 30
0.0
 11
265.0000000000002
 21
166.8867513459482
 31
0.0
  0
LINE
  5
16F
330
1E
100
AcDbEntity
  8
L-ZISSEN
100
AcDbLine
 10
253.0000000000003
 20
174.4999999999975
 30
0.0
 11
377.0000000000002
 21
174.4999999999901
 31
0.0
  0
LINE
  5
170
330
1E
100
AcDbEntity
  8
L-ZISSEN
100
AcDbLine
 10
377.0000000000001
 20
193.7000000000001
 30
0.0
 11
377.0000000000003
 21
174.4999999999901
 31
0.0
  0
LINE
  5
171
330
1E
100
AcDbEntity
  8
L-ZISSEN
100
AcDbLine
 10
253.0000000000002
 20
184.5000000000001
 30
0.0
 11
377.0000000000002
 21
184.5000000000001
 31
0.0
  0
LINE
  5
172
330
1E
100
AcDbEntity
  8
L-ZISSEN
100
AcDbLine
 10
253.0000000000002
 20
193.7
 30
0.0
 11
253.0000000000002
 21
174.4999999999975
 31
0.0
  0
LINE
  5
173
330
1E
100
AcDbEntity
  8
L-ZISSEN
100
AcDbLine
 10
283.5000000000002
 20
164.0000000000001
 30
0.0
 11
283.5000000000002
 21
162.0
 31
0.0
  0
LINE
  5
174
330
1E
100
AcDbEntity
  8
L-ZISSEN
100
AcDbLine
 10
346.5000000000001
 20
164.0000000000001
 30
0.0
 11
346.5000000000001
 21
162.0
 31
0.0
  0
ARC
  5
175
330
1E
100
AcDbEntity
  8
L-ZISSEN
100
AcDbCircle
 10
315.0000000000002
 20
168.0000000000001
 30
0.0
 40
5.0
100
AcDbArc
 50
180.0
 51
0.0
  0
LINE
  5
176
330
1E
100
AcDbEntity
  8
L-ZISSEN
100
AcDbLine
 10
310.0000000000004
 20
168.0000000000001
 30
0.0
 11
310.0000000000008
 21
174.4999999999941
 31
0.0
  0
LINE
  5
177
330
1E
100
AcDbEntity
  8
L-ZISSEN
100
AcDbLine
 10
320.0
 20
168.0000000000001
 30
0.0
 11
319.9999999999996
 21
174.4999999999941
 31
0.0
  0
LINE
  5
178
330
1E
100
AcDbEntity
  8
L-ZISSEN
100
AcDbLine
 10
317.9999999999997
 20
164.0000000000001
 30
0.0
 11
360.0000000000002
 21
164.0000000000001
 31
0.0
  0
LINE
  5
179
330
1E
100
AcDbEntity
  8
L-ZISSEN
100
AcDbLine
 10
319.8744925309467
 20
166.8867513459482
 30
0.0
 11
365.0000000000002
 21
166.8867513459482
 31
0.0
  0
LINE
  5
17A
330
1E
100
AcDbEntity
  8
L-ZISSEN
100
AcDbLine
 10
178.0
 20
205.2000000000001
 30
0.0
 11
178.0
 21
199.1
 31
0.0
  0
LINE
  5
17B
330
1E
100
AcDbEntity
  8
L-ZISSEN
100
AcDbLine
 10
356.5000000000003
 20
211.7
 30
0.0
 11
363.0000000000003
 21
205.2
 31
0.0
  0
LINE
  5
17C
330
1E
100
AcDbEntity
  8
L-ZISSEN
100
AcDbLine
 10
363.0000000000003
 20
205.2
 30
0.0
 11
363.0000000000003
 21
199.1000000000008
 31
0.0
  0
LINE
  5
17D
330
1E
100
AcDbEntity
  8
L-ZISSEN
100
AcDbLine
 10
292.5995568121907
 20
199.1
 30
0.0
 11
292.5995568121907
 21
193.7
 31
0.0
  0
LINE
  5
17E
330
1E
100
AcDbEntity
  8
L-ZISSEN
100
AcDbLine
 10
303.0995568121907
 20
199.1
 30
0.0
 11
292.5995568121907
 21
199.1
 31
0.0
  0
LINE
  5
17F
330
1E
100
AcDbEntity
  8
L-ZISSEN
100
AcDbLine
 10
303.0995568121907
 20
199.1
 30
0.0
 11
303.0995568121907
 21
193.7
 31
0.0
  0
LINE
  5
180
330
1E
100
AcDbEntity
  8
L-ZISSEN
100
AcDbLine
 10
275.3495568121906
 20
199.1
 30
0.0
 11
264.8495568121906
 21
199.1
 31
0.0
  0
LINE
  5
181
330
1E
100
AcDbEntity
  8
L-ZISSEN
100
AcDbLine
 10
275.3495568121906
 20
199.1
 30
0.0
 11
275.3495568121906
 21
193.7
 31
0.0
  0
LINE
  5
182
330
1E
100
AcDbEntity
  8
L-ZISSEN
100
AcDbLine
 10
264.8495568121906
 20
199.1
 30
0.0
 11
264.8495568121906
 21
193.7
 31
0.0
  0
LINE
  5
183
330
1E
100
AcDbEntity
  8
L-ZISSEN
100
AcDbLine
 10
264.75
 20
199.1
 30
0.0
 11
254.25
 21
199.1
 31
0.0
  0
LINE
  5
184
330
1E
100
AcDbEntity
  8
L-ZISSEN
100
AcDbLine
 10
264.75
 20
199.1
 30
0.0
 11
264.75
 21
193.7
 31
0.0
  0
LINE
  5
185
330
1E
100
AcDbEntity
  8
L-ZISSEN
100
AcDbLine
 10
254.25
 20
199.1
 30
0.0
 11
254.25
 21
193.7
 31
0.0
  0
ARC
  5
186
330
1E
100
AcDbEntity
  8
L-ZISSEN
100
AcDbCircle
 10
315.0000000000002
 20
204.7000000000001
 30
0.0
 40
11.5
100
AcDbArc
 50
0.0
 51
180.0
  0
LINE
  5
187
330
1E
100
AcDbEntity
  8
L-ZISSEN
100
AcDbLine
 10
322.1589105316392
 20
213.7000000000001
 30
0.0
 11
356.5000000000001
 21
213.7000000000001
 31
0.0
  0
LINE
  5
188
330
1E
100
AcDbEntity
  8
L-ZISSEN
100
AcDbLine
 10
324.1241437954482
 20
211.7000000000001
 30
0.0
 11
356.5000000000001
 21
211.7000000000001
 31
0.0
  0
LINE
  5
189
330
1E
100
AcDbEntity
  8
L-ZISSEN
100
AcDbLine
 10
303.4999999999997
 20
204.7000000000001
 30
0.0
 11
303.4999999999997
 21
193.7000000000001
 31
0.0
  0
LINE
  5
18A
330
1E
100
AcDbEntity
  8
L-ZISSEN
100
AcDbLine
 10
326.5000000000007
 20
204.7000000000001
 30
0.0
 11
326.5000000000007
 21
193.7000000000001
 31
0.0
  0
LINE
  5
18B
330
1E
100
AcDbEntity
  8
L-ZISSEN
100
AcDbLine
 10
326.4891252930768
 20
205.2
 30
0.0
 11
363.0000000000003
 21
205.2
 31
0.0
  0
LINE
  5
18C
330
1E
100
AcDbEntity
  8
L-ZISSEN
100
AcDbLine
 10
462.0
 20
205.2000000000001
 30
0.0
 11
462.0
 21
199.1
 31
0.0
  0
LINE
  5
18D
330
1E
100
AcDbEntity
  8
L-ZISSEN
100
AcDbLine
 10
556.5000000000002
 20
213.7
 30
0.0
 11
553.0000000000001
 21
210.1999999999999
 31
0.0
  0
LINE
  5
18E
330
1E
100
AcDbEntity
  8
L-ZISSEN
100
AcDbLine
 10
463.4999999999999
 20
216.2000000000002
 30
0.0
 11
468.25
 21
211.4500000000001
 31
0.0
  0
LINE
  5
18F
330
1E
100
AcDbEntity
  8
L-ZISSEN
100
AcDbLine
 10
558.0
 20
205.2
 30
0.0
 11
462.0
 21
205.2000000000001
 31
0.0
  0
LINE
  5
190
330
1E
100
AcDbEntity
  8
L-ZISSEN
100
AcDbLine
 10
468.5
 20
211.7
 30
0.0
 11
462.0
 21
205.2000000000001
 31
0.0
  0
LINE
  5
191
330
1E
100
AcDbEntity
  8
L-ZISSEN
100
AcDbLine
 10
551.4999999999999
 20
211.7
 30
0.0
 11
558.0
 21
205.2
 31
0.0
  0
LINE
  5
192
330
1E
100
AcDbEntity
  8
L-ZISSEN
100
AcDbLine
 10
558.0
 20
205.2
 30
0.0
 11
558.0
 21
199.1000000000008
 31
0.0
  0
LINE
  5
193
330
1E
100
AcDbEntity
  8
L-ZISSEN
100
AcDbLine
 10
448.0
 20
185.7000000000001
 30
0.0
 11
572.0
 21
185.7000000000001
 31
0.0
  0
LINE
  5
194
330
1E
100
AcDbEntity
  8
L-ZISSEN
100
AcDbLine
 10
557.5336366543811
 20
199.1000000000008
 30
0.0
 11
557.5336366543811
 21
193.7000000000009
 31
0.0
  0
LINE
  5
195
330
1E
100
AcDbEntity
  8
L-ZISSEN
100
AcDbLine
 10
568.033636654381
 20
199.1000000000008
 30
0.0
 11
568.033636654381
 21
193.7000000000009
 31
0.0
  0
LINE
  5
196
330
1E
100
AcDbEntity
  8
L-ZISSEN
100
AcDbLine
 10
568.033636654381
 20
199.1000000000008
 30
0.0
 11
557.5336366543811
 21
199.1000000000008
 31
0.0
  0
LINE
  5
197
330
1E
100
AcDbEntity
  8
L-ZISSEN
100
AcDbLine
 10
451.9663633456189
 20
199.1
 30
0.0
 11
451.9663633456189
 21
193.7
 31
0.0
  0
LINE
  5
198
330
1E
100
AcDbEntity
  8
L-ZISSEN
100
AcDbLine
 10
462.4663633456188
 20
199.1
 30
0.0
 11
462.4663633456188
 21
193.7
 31
0.0
  0
LINE
  5
199
330
1E
100
AcDbEntity
  8
L-ZISSEN
100
AcDbLine
 10
462.4663633456188
 20
199.1
 30
0.0
 11
451.9663633456189
 21
199.1
 31
0.0
  0
LINE
  5
19A
330
1E
100
AcDbEntity
  8
L-ZISSEN
100
AcDbLine
 10
472.1279184977677
 20
199.1
 30
0.0
 11
472.1279184977677
 21
193.7
 31
0.0
  0
LINE
  5
19B
330
1E
100
AcDbEntity
  8
L-ZISSEN
100
AcDbLine
 10
482.6279184977677
 20
199.1
 30
0.0
 11
482.6279184977677
 21
193.7
 31
0.0
  0
LINE
  5
19C
330
1E
100
AcDbEntity
  8
L-ZISSEN
100
AcDbLine
 10
482.6279184977677
 20
199.1
 30
0.0
 11
472.1279184977677
 21
199.1
 31
0.0
  0
LINE
  5
19D
330
1E
100
AcDbEntity
  8
L-ZISSEN
100
AcDbLine
 10
515.2499999999999
 20
199.1
 30
0.0
 11
515.2499999999999
 21
193.7
 31
0.0
  0
LINE
  5
19E
330
1E
100
AcDbEntity
  8
L-ZISSEN
100
AcDbLine
 10
515.2499999999999
 20
199.1
 30
0.0
 11
504.75
 21
199.1
 31
0.0
  0
LINE
  5
19F
330
1E
100
AcDbEntity
  8
L-ZISSEN
100
AcDbLine
 10
504.75
 20
199.1
 30
0.0
 11
504.75
 21
193.7
 31
0.0
  0
LINE
  5
1A0
330
1E
100
AcDbEntity
  8
L-ZISSEN
100
AcDbLine
 10
547.8720815022322
 20
199.1
 30
0.0
 11
537.3720815022323
 21
199.1
 31
0.0
  0
LINE
  5
1A1
330
1E
100
AcDbEntity
  8
L-ZISSEN
100
AcDbLine
 10
460.0
 20
166.8867513459482
 30
0.0
 11
560.0
 21
166.8867513459482
 31
0.0
  0
LINE
  5
1A2
330
1E
100
AcDbEntity
  8
L-ZISSEN
100
AcDbLine
 10
547.8720815022322
 20
199.1
 30
0.0
 11
547.8720815022322
 21
193.7
 31
0.0
  0
LINE
  5
1A3
330
1E
100
AcDbEntity
  8
L-ZISSEN
100
AcDbLine
 10
537.3720815022323
 20
199.1
 30
0.0
 11
537.3720815022323
 21
193.7
 31
0.0
  0
ARC
  5
1A4
330
1E
100
AcDbEntity
  8
L-ZISSEN
100
AcDbCircle
 10
457.2163633456189
 20
205.9735270449306
 30
0.0
 40
4.13188719368486
100
AcDbArc
 50
-0.0000000000008072
 51
-179.9999999999991
  0
LINE
  5
1A5
330
1E
100
AcDbEntity
  8
L-ZISSEN
100
AcDbLine
 10
468.5000000000001
 20
213.7000000000001
 30
0.0
 11
468.5000000000001
 21
211.6828427124747
 31
0.0
  0
LINE
  5
1A6
330
1E
100
AcDbEntity
  8
L-ZISSEN
100
AcDbLine
 10
453.084476151934
 20
205.9735270449305
 30
0.0
 11
453.084476151934
 21
199.1
 31
0.0
  0
LINE
  5
1A7
330
1E
100
AcDbEntity
  8
L-ZISSEN
100
AcDbLine
 10
461.3482505393037
 20
205.9735270449306
 30
0.0
 11
461.3482505393037
 21
199.1
 31
0.0
  0
LINE
  5
1A8
330
1E
100
AcDbEntity
  8
L-ZISSEN
100
AcDbLine
 10
463.4999999999999
 20
216.2000000000002
 30
0.0
 11
463.4999999999999
 21
206.7000000000001
 31
0.0
  0
LINE
  5
1A9
330
1E
100
AcDbEntity
  8
L-ZISSEN
100
AcDbLine
 10
551.4999999999999
 20
211.7
 30
0.0
 11
468.5000000000001
 21
211.7000000000001
 31
0.0
  0
LINE
  5
1AA
330
1E
100
AcDbEntity
  8
L-ZISSEN
100
AcDbLine
 10
556.5000000000002
 20
213.7
 30
0.0
 11
556.5000000000002
 21
206.6999999999999
 31
0.0
  0
LINE
  5
1AB
330
1E
100
AcDbEntity
  8
L-ZISSEN
100
AcDbLine
 10
572.0
 20
193.7000000000001
 30
0.0
 11
448.0000000000001
 21
193.7000000000001
 31
0.0
  0
LINE
  5
1AC
330
1E
100
AcDbEntity
  8
L-ZISSEN
100
AcDbLine
 10
551.4999999999999
 20
213.7
 30
0.0
 11
468.5000000000001
 21
213.7000000000001
 31
0.0
  0
LINE
  5
1AD
330
1E
100
AcDbEntity
  8
L-ZISSEN
100
AcDbLine
 10
551.4999999999999
 20
213.7
 30
0.0
 11
551.4999999999999
 21
211.7
 31
0.0
  0
LINE
  5
1AE
330
1E
100
AcDbEntity
  8
L-ZISSEN
100
AcDbLine
 10
463.5000000000001
 20
216.2000000000002
 30
0.0
 11
449.0000000000001
 21
216.2000000000002
 31
0.0
  0
LINE
  5
1AF
330
1E
100
AcDbEntity
  8
L-ZISSEN
100
AcDbLine
 10
449.0000000000001
 20
216.2000000000002
 30
0.0
 11
449.0
 21
193.7000000000001
 31
0.0
  0
LINE
  5
1B0
330
1E
100
AcDbEntity
  8
L-ZISSEN
100
AcDbLine
 10
571.0
 20
213.7
 30
0.0
 11
571.0
 21
193.7
 31
0.0
  0
LINE
  5
1B1
330
1E
100
AcDbEntity
  8
L-ZISSEN
100
AcDbLine
 10
571.0
 20
213.7
 30
0.0
 11
556.5
 21
213.7
 31
0.0
  0
LINE
  5
1B2
330
1E
100
AcDbEntity
  8
L-ZISSEN
100
AcDbLine
 10
555.0
 20
164.0000000000001
 30
0.0
 11
560.0
 21
166.8867513459482
 31
0.0
  0
LINE
  5
1B3
330
1E
100
AcDbEntity
  8
L-ZISSEN
100
AcDbLine
 10
465.0
 20
164.0000000000001
 30
0.0
 11
460.0
 21
166.8867513459482
 31
0.0
  0
LINE
  5
1B4
330
1E
100
AcDbEntity
  8
L-ZISSEN
100
AcDbLine
 10
465.0
 20
164.0000000000001
 30
0.0
 11
555.0
 21
164.0000000000001
 31
0.0
  0
LINE
  5
1B5
330
1E
100
AcDbEntity
  8
L-ZISSEN
  6
CONTINUOUS
 62
     7
100
AcDbLine
 10
560.0
 20
174.4999999999909
 30
0.0
 11
560.0
 21
166.8867513459482
 31
0.0
  0
LINE
  5
1B6
330
1E
100
AcDbEntity
  8
L-ZISSEN
  6
CONTINUOUS
 62
     7
100
AcDbLine
 10
460.0
 20
174.4999999999968
 30
0.0
 11
460.0
 21
166.8867513459482
 31
0.0
  0
LINE
  5
1B7
330
1E
100
AcDbEntity
  8
L-ZISSEN
100
AcDbLine
 10
448.0000000000001
 20
174.4999999999975
 30
0.0
 11
572.0
 21
174.4999999999901
 31
0.0
  0
LINE
  5
1B8
330
1E
100
AcDbEntity
  8
L-ZISSEN
100
AcDbLine
 10
571.0
 20
163.0000000000001
 30
0.0
 11
549.0
 21
163.0000000000001
 31
0.0
  0
LINE
  5
1B9
330
1E
100
AcDbEntity
  8
L-ZISSEN
100
AcDbLine
 10
571.9999999999998
 20
193.7000000000001
 30
0.0
 11
572.0000000000001
 21
174.4999999999901
 31
0.0
  0
LINE
  5
1BA
330
1E
100
AcDbEntity
  8
L-ZISSEN
100
AcDbLine
 10
571.0
 20
163.0000000000001
 30
0.0
 11
571.0
 21
174.5000000000001
 31
0.0
  0
LINE
  5
1BB
330
1E
100
AcDbEntity
  8
L-ZISSEN
100
AcDbLine
 10
448.9999999999999
 20
163.0000000000001
 30
0.0
 11
449.0
 21
174.5000000000001
 31
0.0
  0
LINE
  5
1BC
330
1E
100
AcDbEntity
  8
L-ZISSEN
100
AcDbLine
 10
448.9999999999999
 20
163.0000000000001
 30
0.0
 11
471.0
 21
163.0000000000001
 31
0.0
  0
LINE
  5
1BD
330
1E
100
AcDbEntity
  8
L-ZISSEN
100
AcDbLine
 10
448.0
 20
184.5000000000001
 30
0.0
 11
572.0
 21
184.5000000000001
 31
0.0
  0
LINE
  5
1BE
330
1E
100
AcDbEntity
  8
L-ZISSEN
100
AcDbLine
 10
448.0
 20
193.7
 30
0.0
 11
448.0
 21
174.4999999999975
 31
0.0
  0
LINE
  5
1BF
330
1E
100
AcDbEntity
  8
L-ZISSEN
100
AcDbLine
 10
471.0
 20
164.0000000000001
 30
0.0
 11
471.0
 21
162.0000000000001
 31
0.0
  0
LINE
  5
1C0
330
1E
100
AcDbEntity
  8
L-ZISSEN
100
AcDbLine
 10
549.0
 20
164.0000000000001
 30
0.0
 11
549.0
 21
162.0000000000002
 31
0.0
  0
CIRCLE
  5
1C1
330
1E
100
AcDbEntity
  8
L-ZISSEN
100
AcDbCircle
 10
680.0
 20
80.00000000000033
 30
0.0
 40
27.0
  0
LINE
  5
1C2
330
1E
100
AcDbEntity
  8
L-ZISSEN
100
AcDbLine
 10
664.443650813896
 20
95.55634918610463
 30
0.0
 11
688.4852813742386
 21
71.51471862576205
 31
0.0
  0
LINE
  5
1C3
330
1E
100
AcDbEntity
  8
L-ZISSEN
100
AcDbLine
 10
730.0
 20
107.0000000000001
 30
0.0
 11
730.0
 21
53.00000000000057
 31
0.0
  0
LINE
  5
1C4
330
1E
100
AcDbEntity
  8
L-ZISSEN
100
AcDbLine
 10
753.5
 20
107.0
 30
0.0
 11
753.5
 21
53.00000000000057
 31
0.0
  0
LINE
  5
1C5
330
1E
100
AcDbEntity
  8
L-ZISSEN
100
AcDbLine
 10
753.4999999999999
 20
53.00000000000057
 30
0.0
 11
730.0
 21
53.00000000000057
 31
0.0
  0
LINE
  5
1C6
330
1E
100
AcDbEntity
  8
L-ZISSEN
100
AcDbLine
 10
753.4999999999999
 20
107.0000000000001
 30
0.0
 11
730.0
 21
107.0000000000001
 31
0.0
  0
LINE
  5
1C7
330
1E
100
AcDbEntity
  8
L-ZISSEN
100
AcDbLine
 10
753.5
 20
85.99999999999932
 30
0.0
 11
764.4999999999998
 21
85.99999999999932
 31
0.0
  0
LINE
  5
1C8
330
1E
100
AcDbEntity
  8
L-ZISSEN
100
AcDbLine
 10
764.5
 20
73.99999999999931
 30
0.0
 11
753.5
 21
73.99999999999931
 31
0.0
  0
TEXT
  5
1C9
330
1E
100
AcDbEntity
  8
L-ZISSEN
100
AcDbText
 10
640.0
 20
230.0
 30
0.0
 40
4.5
  1
PRESSURE GAUGE
100
AcDbText
  0
SOLID
  5
1CA
330
1E
100
AcDbEntity
  8
L-ZISSEN
100
AcDbTrace
 10
678.4635574408053
 20
78.67695224069376
 30
0.0
 11
678.9757049605368
 21
78.25016264091743
 31
0.0
 12
680.0
 22
80.00000000000033
 32
0.0
 13
680.0
 23
80.00000000000033
 33
0.0
  0
LINE
  5
1CB
330
1E
100
AcDbEntity
  8
L-ZISSEN
100
AcDbLine
 10
678.719631200671
 20
78.46355744080563
 30
0.0
 11
655.0
 21
50.0
 31
0.0
  0
LINE
  5
1CC
330
1E
100
AcDbEntity
  8
L-ZISSEN
100
AcDbLine
 10
655.0
 20
50.0
 30
0.0
 11
653.0
 21
50.0
 31
0.0
  0
TEXT
  5
1CD
330
1E
100
AcDbEntity
  8
L-ZISSEN
100
AcDbText
 10
642.0
 20
47.75
 30
0.0
 40
4.5
  1
P.P
100
AcDbText
  0
LINE
  5
1CE
330
1E
100
AcDbEntity
  8
L-ZISSEN
100
AcDbLine
 10
653.0000000000001
 20
152.4999999999996
 30
0.0
 11
653.0000000000001
 21
128.9999999999996
 31
0.0
  0
LINE
  5
1CF
330
1E
100
AcDbEntity
  8
L-ZISSEN
100
AcDbLine
 10
706.9999999999997
 20
144.5726231784358
 30
0.0
 11
706.9999999999997
 21
128.9999999999996
 31
0.0
  0
LINE
  5
1D0
330
1E
100
AcDbEntity
  8
L-ZISSEN
100
AcDbLine
 10
653.0000000000001
 20
152.4999999999996
 30
0.0
 11
673.5369075765437
 21
152.4999999999996
 31
0.0
  0
LINE
  5
1D1
330
1E
100
AcDbEntity
  8
L-ZISSEN
100
AcDbLine
 10
653.0000000000001
 20
128.9999999999996
 30
0.0
 11
706.9999999999997
 21
128.9999999999996
 31
0.0
  0
TEXT
  5
1D2
330
1E
100
AcDbEntity
  8
L-ZISSEN
100
AcDbText
 10
640.0
 20
220.0
 30
0.0
 40
4.5
  1
MODEL NO. : R58-*03-M0B1
100
AcDbText
  0
LINE
  5
1D3
330
1E
100
AcDbEntity
  8
L-TYUSIN
100
AcDbLine
 10
195.9999999999999
 20
204.7000000000001
 30
0.0
 11
185.9999999999992
 21
204.7000000000001
 31
0.0
  0
LINE
  5
1D4
330
1E
100
AcDbEntity
  8
L-TYUSIN
100
AcDbLine
 10
64.00000000000009
 20
204.7000000000001
 30
0.0
 11
74.00000000000082
 21
204.7000000000001
 31
0.0
  0
LINE
  5
1D5
330
1E
100
AcDbEntity
  8
L-TYUSIN
100
AcDbLine
 10
576.0
 20
204.6999999999999
 30
0.0
 11
565.9999999999992
 21
204.6999999999999
 31
0.0
  0
LINE
  5
1D6
330
1E
100
AcDbEntity
  8
L-TYUSIN
100
AcDbLine
 10
444.0000000000001
 20
204.6999999999999
 30
0.0
 11
454.0000000000008
 21
204.6999999999999
 31
0.0
  0
LINE
  5
1D7
330
1E
100
AcDbEntity
  8
L-TYUSIN
  6
CENTER
 62
     1
100
AcDbLine
 10
96.0
 20
84.00000000000016
 30
0.0
 11
116.0
 21
84.00000000000014
 31
0.0
  0
LINE
  5
1D8
330
1E
100
AcDbEntity
  8
L-TYUSIN
  6
CENTER
 62
     1
100
AcDbLine
 10
106.0
 20
94.00000000000016
 30
0.0
 11
106.0
 21
74.00000000000011
 31
0.0
  0
CIRCLE
  5
1D9
330
1E
100
AcDbEntity
  8
L-ZISSEN
100
AcDbCircle
 10
106.0
 20
84.00000000000016
 30
0.0
 40
4.283
  0
CIRCLE
  5
1DA
330
1E
100
AcDbEntity
  8
L-ZISSEN
100
AcDbCircle
 10
534.0
 20
84.00000000000003
 30
0.0
 40
4.283
  0
LINE
  5
1DB
330
1E
100
AcDbEntity
  8
L-TYUSIN
  6
CENTER
 62
     1
100
AcDbLine
 10
544.0
 20
84.00000000000003
 30
0.0
 11
524.0
 21
84.00000000000002
 31
0.0
  0
LINE
  5
1DC
330
1E
100
AcDbEntity
  8
L-TYUSIN
  6
CENTER
 62
     1
100
AcDbLine
 10
534.0
 20
94.00000000000003
 30
0.0
 11
534.0
 21
73.99999999999998
 31
0.0
  0
LINE
  5
1DD
330
1E
100
AcDbEntity
  8
L-TYUSIN
  6
CENTER
 62
     1
100
AcDbLine
 10
325.0000000000002
 20
204.7000000000001
 30
0.0
 11
305.0000000000002
 21
204.7000000000001
 31
0.0
  0
CIRCLE
  5
1DE
330
1E
100
AcDbEntity
  8
L-ZISSEN
100
AcDbCircle
 10
315.0000000000002
 20
204.7000000000001
 30
0.0
 40
4.283
  0
SOLID
  5
1DF
330
1E
100
AcDbEntity
  8
L-ZISSEN
100
AcDbTrace
 10
104.7419860861683
 20
82.40987041291701
 30
0.0
 11
105.3257045421862
 21
82.08781885097613
 31
0.0
 12
105.9999999999999
 22
84.00000000000016
 32
0.0
 13
105.9999999999999
 23
84.00000000000016
 33
0.0
  0
LINE
  5
1E0
330
1E
100
AcDbEntity
  8
L-ZISSEN
100
AcDbLine
 10
105.0338453141773
 20
82.24884463194655
 30
0.0
 11
89.99999999999998
 21
55.0
 31
0.0
  0
LINE
  5
1E1
330
1E
100
AcDbEntity
  8
L-ZISSEN
100
AcDbLine
 10
90.0
 20
55.0
 30
0.0
 11
88.0
 21
55.0
 31
0.0
  0
TEXT
  5
1E2
330
1E
100
AcDbEntity
  8
L-ZISSEN
100
AcDbText
 10
77.0
 20
52.74999999999999
 30
0.0
 40
4.5
  1
P.P
100
AcDbText
  0
SOLID
  5
1E3
330
1E
100
AcDbEntity
  8
L-ZISSEN
100
AcDbTrace
 10
285.9272908037403
 20
82.2794169327318
 30
0.0
 11
286.5433020253549
 21
82.02451573758095
 31
0.0
 12
287.0000000000002
 22
84.00000000000016
 32
0.0
 13
287.0000000000002
 23
84.00000000000016
 33
0.0
  0
LINE
  5
1E4
330
1E
100
AcDbEntity
  8
L-ZISSEN
100
AcDbLine
 10
286.2352964145475
 20
82.15196633515637
 30
0.0
 11
275.0
 21
54.99999999999999
 31
0.0
  0
LINE
  5
1E5
330
1E
100
AcDbEntity
  8
L-ZISSEN
100
AcDbLine
 10
275.0
 20
54.99999999999999
 30
0.0
 11
273.0
 21
54.99999999999999
 31
0.0
  0
TEXT
  5
1E6
330
1E
100
AcDbEntity
  8
L-ZISSEN
100
AcDbText
 10
262.0
 20
52.74999999999998
 30
0.0
 40
4.5
  1
P.P
100
AcDbText
  0
LINE
  5
1E7
330
1E
100
AcDbEntity
  8
L-TYUSIN
100
AcDbLine
 10
610.0
 20
240.0
 30
0.0
 11
610.0
 21
40.0
 31
0.0
  0
LINE
  5
1E8
330
1E
100
AcDbEntity
  8
L-ZISSEN
100
AcDbLine
 10
764.4999999999998
 20
86.92820323027573
 30
0.0
 11
764.5
 21
73.07179676972487
 31
0.0
  0
LINE
  5
1E9
330
1E
100
AcDbEntity
  8
L-ZISSEN
100
AcDbLine
 10
775.5000000000001
 20
86.92820323027588
 30
0.0
 11
775.5000000000001
 21
73.07179676972483
 31
0.0
  0
LINE
  5
1EA
330
1E
100
AcDbEntity
  8
L-ZISSEN
100
AcDbLine
 10
764.5
 20
73.07179676972483
 30
0.0
 11
775.4999999999999
 21
73.07179676972483
 31
0.0
  0
LINE
  5
1EB
330
1E
100
AcDbEntity
  8
L-ZISSEN
100
AcDbLine
 10
764.5
 20
86.92820323027588
 30
0.0
 11
775.4999999999999
 21
86.92820323027588
 31
0.0
  0
LINE
  5
1EC
330
1E
100
AcDbEntity
  8
L-ZISSEN
100
AcDbLine
 10
779.4999999999999
 20
84.89618748905781
 30
0.0
 11
775.5000000000001
 21
85.02118744655275
 31
0.0
  0
LINE
  5
1ED
330
1E
100
AcDbEntity
  8
L-ZISSEN
100
AcDbLine
 10
779.4999999999999
 20
75.10381251094289
 30
0.0
 11
775.5000000000001
 21
74.97881255344795
 31
0.0
  0
SOLID
  5
1EE
330
1E
100
AcDbEntity
  8
L-ZISSEN
100
AcDbTrace
 10
780.7183908045977
 20
78.37931034482787
 30
0.0
 11
781.1781609195402
 21
78.86206896551752
 31
0.0
 12
779.4999999999999
 22
80.00000000000031
 32
0.0
 13
779.4999999999999
 23
80.00000000000031
 33
0.0
  0
LINE
  5
1EF
330
1E
100
AcDbEntity
  8
L-ZISSEN
100
AcDbLine
 10
780.9482758620689
 20
78.6206896551727
 30
0.0
 11
789.9999999999999
 21
70.0
 31
0.0
  0
LINE
  5
1F0
330
1E
100
AcDbEntity
  8
L-ZISSEN
100
AcDbLine
 10
789.9999999999999
 20
70.0
 30
0.0
 11
791.9999999999999
 21
70.0
 31
0.0
  0
TEXT
  5
1F1
330
1E
100
AcDbEntity
  8
L-ZISSEN
100
AcDbText
 10
793.9999999999998
 20
67.75
 30
0.0
 40
4.5
  1
P.P
100
AcDbText
  0
SOLID
  5
1F2
330
1E
100
AcDbEntity
  8
L-ZISSEN
100
AcDbTrace
 10
705.152991540997
 20
204.832150601073
 30
0.0
 11
705.6315918032977
 21
205.2962478251221
 31
0.0
 12
703.9999999999999
 22
206.4999999999996
 32
0.0
 13
703.9999999999999
 23
206.4999999999996
 33
0.0
  0
LINE
  5
1F3
330
1E
100
AcDbEntity
  8
L-ZISSEN
100
AcDbLine
 10
705.3922916721473
 20
205.0641992130976
 30
0.0
 11
720.0000000000001
 21
190.0
 31
0.0
  0
LINE
  5
1F4
330
1E
100
AcDbEntity
  8
L-ZISSEN
100
AcDbLine
 10
720.0000000000001
 20
190.0
 30
0.0
 11
722.0000000000001
 21
190.0
 31
0.0
  0
TEXT
  5
1F5
330
1E
100
AcDbEntity
  8
L-ZISSEN
100
AcDbText
 10
724.0000000000001
 20
187.75
 30
0.0
 40
4.5
  1
P.P
100
AcDbText
  0
SOLID
  5
1F6
330
1E
100
AcDbEntity
  8
L-ZISSEN
100
AcDbTrace
 10
131.1785113019775
 20
308.3500841772317
 30
0.0
 11
131.6499158227685
 21
308.8214886980227
 31
0.0
 12
130.0
 22
310.0000000000003
 32
0.0
 13
130.0
 23
310.0000000000003
 33
0.0
  0
LINE
  5
1F7
330
1E
100
AcDbEntity
  8
L-ZISSEN
100
AcDbLine
 10
131.414213562373
 20
308.5857864376272
 30
0.0
 11
140.0
 21
300.0
 31
0.0
  0
LINE
  5
1F8
330
1E
100
AcDbEntity
  8
L-ZISSEN
100
AcDbLine
 10
140.0
 20
300.0
 30
0.0
 11
142.0
 21
300.0
 31
0.0
  0
TEXT
  5
1F9
330
1E
100
AcDbEntity
  8
L-ZISSEN
100
AcDbText
 10
144.0
 20
297.75
 30
0.0
 40
4.5
  1
P.P
100
AcDbText
  0
LINE
  5
1FA
330
1E
100
AcDbEntity
  8
L-TYUSIN
  6
CENTER
 62
     1
100
AcDbLine
 10
282.0000000000002
 20
84.00000000000016
 30
0.0
 11
292.0000000000001
 21
84.00000000000014
 31
0.0
  0
LINE
  5
1FB
330
1E
100
AcDbEntity
  8
L-TYUSIN
  6
CENTER
 62
     1
100
AcDbLine
 10
348.0000000000001
 20
84.00000000000016
 30
0.0
 11
338.0000000000003
 21
84.00000000000014
 31
0.0
  0
LINE
  5
1FC
330
1E
100
AcDbEntity
  8
L-ZISSEN
  6
CONTINUOUS
 62
     7
100
AcDbLine
 10
191.0
 20
199.7135000416569
 30
0.0
 11
192.5
 21
199.6666250575962
 31
0.0
  0
LINE
  5
1FD
330
1E
100
AcDbEntity
  8
L-ZISSEN
  6
CONTINUOUS
 62
     7
100
AcDbLine
 10
191.0
 20
209.6864999583471
 30
0.0
 11
192.5
 21
209.7333749424076
 31
0.0
  0
LINE
  5
1FE
330
1E
100
AcDbEntity
  8
L-ZISSEN
  6
CONTINUOUS
 62
     7
100
AcDbLine
 10
192.5
 20
199.6666250575962
 30
0.0
 11
192.5
 21
209.7333749424076
 31
0.0
  0
LINE
  5
1FF
330
1E
100
AcDbEntity
  8
L-ZISSEN
  6
CONTINUOUS
 62
     7
100
AcDbLine
 10
192.5
 20
304.9666250575965
 30
0.0
 11
192.5
 21
315.0333749424078
 31
0.0
  0
LINE
  5
200
330
1E
100
AcDbEntity
  8
L-ZISSEN
  6
CONTINUOUS
 62
     7
100
AcDbLine
 10
191.0
 20
314.9864999583473
 30
0.0
 11
192.5
 21
315.0333749424078
 31
0.0
  0
LINE
  5
201
330
1E
100
AcDbEntity
  8
L-ZISSEN
  6
CONTINUOUS
 62
     7
100
AcDbLine
 10
191.0
 20
305.0135000416572
 30
0.0
 11
192.5
 21
304.9666250575965
 31
0.0
  0
LINE
  5
202
330
1E
100
AcDbEntity
  8
L-ZISSEN
  6
CONTINUOUS
 62
     7
100
AcDbLine
 10
447.5000000000001
 20
199.6666250575961
 30
0.0
 11
447.5000000000001
 21
209.7333749424075
 31
0.0
  0
LINE
  5
203
330
1E
100
AcDbEntity
  8
L-ZISSEN
  6
CONTINUOUS
 62
     7
100
AcDbLine
 10
449.0000000000001
 20
209.686499958347
 30
0.0
 11
447.5000000000001
 21
209.7333749424075
 31
0.0
  0
LINE
  5
204
330
1E
100
AcDbEntity
  8
L-ZISSEN
  6
CONTINUOUS
 62
     7
100
AcDbLine
 10
449.0000000000001
 20
199.7135000416568
 30
0.0
 11
447.5000000000001
 21
199.6666250575961
 31
0.0
  0
ENDSEC
  0
SECTION
  2
OBJECTS
  0
DICTIONARY
  5
C
330
0
100
AcDbDictionary
  3
ACAD_GROUP
350
D
  3
ACAD_LAYOUT
350
19
  3
ACAD_MLINESTYLE
350
16
  3
ACAD_PLOTSETTINGS
350
18
1001
ACAD
1000
TREAT_AS_HARD
1070
     0
  0
DICTIONARY
  5
20A
330
1E
100
AcDbDictionary
  3
ACAD_LAYOUTSELFREF
350
20B
  0
DICTIONARY
  5
208
330
1A
100
AcDbDictionary
  3
ACAD_LAYOUTSELFREF
350
209
  0
DICTIONARY
  5
D
102
{ACAD_REACTORS
330
C
102
}
330
C
100
AcDbDictionary
1001
ACAD
1000
TREAT_AS_HARD
1070
     0
  0
DICTIONARY
  5
19
102
{ACAD_REACTORS
330
C
102
}
330
C
100
AcDbDictionary
1001
ACAD
1000
TREAT_AS_HARD
1070
     0
  0
DICTIONARY
  5
16
102
{ACAD_REACTORS
330
C
102
}
330
C
100
AcDbDictionary
  3
STANDARD
350
17
1001
ACAD
1000
TREAT_AS_HARD
1070
     0
  0
DICTIONARY
  5
18
102
{ACAD_REACTORS
330
C
102
}
330
C
100
AcDbDictionary
1001
ACAD
1000
TREAT_AS_HARD
1070
     0
  0
XRECORD
  5
20B
102
{ACAD_REACTORS
330
20A
102
}
330
20A
100
AcDbXrecord
340
1E
  0
XRECORD
  5
209
102
{ACAD_REACTORS
330
208
102
}
330
208
100
AcDbXrecord
340
1A
  0
MLINESTYLE
  5
17
102
{ACAD_REACTORS
330
16
102
}
330
16
100
AcDbMlineStyle
  2
STANDARD
 70
     0
  3

 62
   256
 51
90.0
 52
90.0
 71
     2
 49
0.5
 62
   256
  6
BYLAYER
 49
-0.5
 62
   256
  6
BYLAYER
  0
ENDSEC
  0
EOF
