  0
SECTION
  2
HEADER
  9
$ACADVER
  1
AC1006
  9
$INSBASE
 10
23.461494
 20
-11.339644
 30
0.0
  9
$EXTMIN
 10
-34.094502
 20
-79.81237
  9
$EXTMAX
 10
464.069094
 20
237.846196
  9
$LIMMIN
 10
0.0
 20
0.0
  9
$LIMMAX
 10
12.0
 20
9.0
  9
$ORTHOMODE
 70
     0
  9
$REGENMODE
 70
     1
  9
$FILLMODE
 70
     1
  9
$QTEXTMODE
 70
     0
  9
$MIRRTEXT
 70
     1
  9
$DRAGMODE
 70
     2
  9
$LTSCALE
 40
1.0
  9
$OSMODE
 70
     0
  9
$ATTMODE
 70
     1
  9
$TEXTSIZE
 40
4.5
  9
$TRACEWID
 40
0.05
  9
$TEXTSTYLE
  7
STANDARD
  9
$CLAYER
  8
L-ZISSEN
  9
$CELTYPE
  6
BYLAYER
  9
$CECOLOR
 62
   256
  9
$DIMSCALE
 40
1.0
  9
$DIMASZ
 40
2.0
  9
$DIMEXO
 40
1.0
  9
$DIMDLI
 40
0.38
  9
$DIMRND
 40
0.0
  9
$DIMDLE
 40
0.0
  9
$DIMEXE
 40
1.0
  9
$DIMTP
 40
0.0
  9
$DIMTM
 40
0.0
  9
$DIMTXT
 40
4.5
  9
$DIMCEN
 40
0.09
  9
$DIMTSZ
 40
0.0
  9
$DIMTOL
 70
     0
  9
$DIMLIM
 70
     0
  9
$DIMTIH
 70
     0
  9
$DIMTOH
 70
     0
  9
$DIMSE1
 70
     0
  9
$DIMSE2
 70
     0
  9
$DIMTAD
 70
     1
  9
$DIMZIN
 70
     0
  9
$DIMBLK
  1

  9
$DIMASO
 70
     1
  9
$DIMSHO
 70
     0
  9
$DIMPOST
  1

  9
$DIMAPOST
  1

  9
$DIMALT
 70
     0
  9
$DIMALTD
 70
     2
  9
$DIMALTF
 40
25.4
  9
$DIMLFAC
 40
1.0
  9
$DIMTOFL
 70
     1
  9
$DIMTVP
 40
0.0
  9
$DIMTIX
 70
     0
  9
$DIMSOXD
 70
     0
  9
$DIMSAH
 70
     0
  9
$DIMBLK1
  1

  9
$DIMBLK2
  1

  9
$LUNITS
 70
     2
  9
$LUPREC
 70
     4
  9
$AXISMODE
 70
     0
  9
$AXISUNIT
 10
0.0
 20
0.0
  9
$SKETCHINC
 40
0.1
  9
$FILLETRAD
 40
0.0
  9
$AUNITS
 70
     0
  9
$AUPREC
 70
     0
  9
$MENU
  1
acad
  9
$ELEVATION
 40
0.0
  9
$THICKNESS
 40
0.0
  9
$LIMCHECK
 70
     0
  9
$BLIPMODE
 70
     1
  9
$CHAMFERA
 40
0.0
  9
$CHAMFERB
 40
0.0
  9
$SKPOLY
 70
     0
  9
$TDCREATE
 40
2449238.4933033567
  9
$TDUPDATE
 40
2449238.4933033567
  9
$TDINDWG
 40
0.0000000000
  9
$TDUSRTIMER
 40
0.0000000000
  9
$USRTIMER
 70
     1
  9
$ANGBASE
 50
0.0
  9
$ANGDIR
 70
     0
  9
$PDMODE
 70
     0
  9
$PDSIZE
 40
0.0
  9
$PLINEWID
 40
0.0
  9
$COORDS
 70
     0
  9
$SPLFRAME
 70
     0
  9
$SPLINETYPE
 70
     6
  9
$SPLINESEGS
 70
     8
  9
$ATTDIA
 70
     0
  9
$ATTREQ
 70
     1
  9
$HANDLING
 70
     0
  9
$HANDSEED
  5
0
  9
$SURFTAB1
 70
     6
  9
$SURFTAB2
 70
     6
  9
$SURFTYPE
 70
     6
  9
$SURFU
 70
     6
  9
$SURFV
 70
     6
  9
$FLATLAND
 70
     0
  9
$UCSNAME
  2

  9
$UCSORG
 10
0.0
 20
0.0
 30
0.0
  9
$UCSXDIR
 10
1.0
 20
0.0
 30
0.0
  9
$UCSYDIR
 10
0.0
 20
1.0
 30
0.0
  9
$USERI1
 70
     0
  9
$USERI2
 70
     0
  9
$USERI3
 70
     0
  9
$USERI4
 70
     0
  9
$USERI5
 70
     0
  9
$USERR1
 40
0.0
  9
$USERR2
 40
0.0
  9
$USERR3
 40
0.0
  9
$USERR4
 40
0.0
  9
$USERR5
 40
0.0
  9
$WORLDVIEW
 70
     1
  0
ENDSEC
  0
SECTION
  2
TABLES
  0
TABLE
  2
VPORT
 70
     1
  0
VPORT
  2
*ACTIVE
 70
     0
 10
0.0
 20
0.0
 11
1.0
 21
1.0
 12
255.249058
 22
132.954938
 13
0.0
 23
0.0
 14
1.0
 24
1.0
 15
0.0
 25
0.0
 16
0.0
 26
0.0
 36
1.0
 17
0.0
 27
0.0
 37
0.0
 40
306.839261
 41
1.5487
 42
50.0
 43
0.0
 44
0.0
 50
0.0
 51
0.0
 71
     0
 72
   100
 73
     1
 74
     0
 75
     0
 76
     0
 77
     0
 78
     0
  0
ENDTAB
  0
TABLE
  2
LTYPE
 70
     2
  0
LTYPE
  2
CONTINUOUS
 70
    64
  3
Solid line
 72
    65
 73
     0
 40
0.0
  0
LTYPE
  2
CENTER
 70
    64
  3
____ _ ____ _ ____
 72
    65
 73
     4
 40
8.0
 49
5.0
 49
-1.0
 49
1.0
 49
-1.0
  0
ENDTAB
  0
TABLE
  2
LAYER
 70
     3
  0
LAYER
  2
0
 70
    64
 62
     7
  6
CONTINUOUS
  0
LAYER
  2
L-ZISSEN
 70
    64
 62
     7
  6
CONTINUOUS
  0
LAYER
  2
L-TYUSIN
 70
    64
 62
     1
  6
CENTER
  0
ENDTAB
  0
TABLE
  2
STYLE
 70
     1
  0
STYLE
  2
STANDARD
 70
    64
 40
0.0
 41
1.0
 50
0.0
 71
     0
 42
4.5
  3
txt
  4

  0
ENDTAB
  0
TABLE
  2
VIEW
 70
     0
  0
ENDTAB
  0
TABLE
  2
UCS
 70
     0
  0
ENDTAB
  0
TABLE
  2
DWGMGR
 70
     0
  0
ENDTAB
  0
ENDSEC
  0
SECTION
  2
BLOCKS
  0
ENDSEC
  0
SECTION
  2
ENTITIES
  0
TEXT
  8
L-ZISSEN
 10
26.592995
 20
88.844714
 30
0.0
 40
4.5
  1
Rc1/4
  0
TEXT
  8
L-ZISSEN
 10
26.592995
 20
95.09613
 30
0.0
 40
4.5
  1
Rc1/8
  0
LINE
  8
L-ZISSEN
 10
50.61491
 20
99.424033
 30
0.0
 11
48.61491
 21
99.424033
 31
0.0
  0
LINE
  8
L-ZISSEN
 10
58.483629
 20
81.825798
 30
0.0
 11
50.61491
 21
99.424033
 31
0.0
  0
SOLID
  8
L-ZISSEN
 10
58.787929
 20
81.96186
 30
0.0
 11
58.179329
 21
81.689736
 31
0.0
 12
59.3
 22
80.0
 32
0.0
 13
59.3
 23
80.0
 33
0.0
  0
LINE
  8
L-ZISSEN
 10
283.406073
 20
197.061221
 30
0.0
 11
283.406073
 21
206.789221
 31
0.0
  0
LINE
  8
L-ZISSEN
 10
192.799471
 20
191.318619
 30
0.0
 11
210.477141
 21
208.996288
 31
0.0
  0
LINE
  8
L-ZISSEN
 10
203.406073
 20
201.925221
 30
0.0
 11
192.799471
 21
191.318619
 31
0.0
  0
TEXT
  8
L-ZISSEN
 10
94.492302
 20
212.843719
 30
0.0
 40
4.5
  1
R31-200-**00
  0
TEXT
  8
L-ZISSEN
 10
94.492302
 20
219.843719
 30
0.0
 40
4.5
  1
R31-100-**00
  0
TEXT
  8
L-ZISSEN
 10
45.905498
 20
219.843719
 30
0.0
 40
4.5
  1
MODEL NO.
  0
TEXT
  8
L-ZISSEN
 10
322.935521
 20
133.452736
 30
0.0
 40
4.5
  1
BRAKET
  0
LINE
  8
L-ZISSEN
 10
333.954889
 20
170.684265
 30
0.0
 11
333.954889
 21
165.084265
 31
0.0
  0
LINE
  8
L-ZISSEN
 10
372.554889
 20
170.684265
 30
0.0
 11
372.554889
 21
165.084265
 31
0.0
  0
LINE
  8
L-ZISSEN
 10
453.254888
 20
46.234537
 30
0.0
 11
450.954888
 21
46.234537
 31
0.0
  0
LINE
  8
L-TYUSIN
 10
171.406073
 20
166.004245
 30
0.0
 11
171.406073
 21
237.846196
 31
0.0
  0
TEXT
  8
L-ZISSEN
 10
111.5
 20
55.25
 30
0.0
 40
4.5
  1
P.P
  0
LINE
  8
L-ZISSEN
 10
107.5
 20
57.5
 30
0.0
 11
109.5
 21
57.5
 31
0.0
  0
LINE
  8
L-ZISSEN
 10
81.547915
 20
78.733524
 30
0.0
 11
107.5
 21
57.5
 31
0.0
  0
SOLID
  8
L-ZISSEN
 10
81.336835
 20
78.475539
 30
0.0
 11
81.758994
 21
78.99151
 31
0.0
 12
80.0
 22
80.0
 32
0.0
 13
80.0
 23
80.0
 33
0.0
  0
LINE
  8
L-ZISSEN
  6
CONTINUOUS
 62
     7
 10
147.5
 20
136.6
 30
0.0
 11
147.5
 21
138.6
 31
0.0
  0
LINE
  8
L-ZISSEN
  6
CONTINUOUS
 62
     7
 10
90.0
 20
118.6
 30
0.0
 11
90.0
 21
120.4
 31
0.0
  0
LINE
  8
L-ZISSEN
  6
CONTINUOUS
 62
     7
 10
70.0
 20
118.6
 30
0.0
 11
70.0
 21
120.4
 31
0.0
  0
LINE
  8
L-ZISSEN
  6
CONTINUOUS
 62
     7
 10
67.5
 20
136.6
 30
0.0
 11
67.5
 21
138.6
 31
0.0
  0
SOLID
  8
L-ZISSEN
 10
81.774354
 20
106.681214
 30
0.0
 11
81.360211
 21
107.203641
 31
0.0
 12
80.0
 22
105.7
 32
0.0
 13
80.0
 23
105.7
 33
0.0
  0
SOLID
  8
L-ZISSEN
 10
279.83977
 20
203.358966
 30
0.0
 11
279.297274
 21
203.746449
 31
0.0
 12
278.406073
 22
201.925221
 32
0.0
 13
278.406073
 23
201.925221
 33
0.0
  0
LINE
  8
L-ZISSEN
 10
369.968876
 20
6.143067
 30
0.0
 11
371.968876
 21
6.143067
 31
0.0
  0
LINE
  8
L-ZISSEN
 10
392.254888
 20
21.234537
 30
0.0
 11
392.254888
 21
23.534537
 31
0.0
  0
LINE
  8
L-ZISSEN
 10
378.500172
 20
41.270515
 30
0.0
 11
380.500172
 21
41.270515
 31
0.0
  0
SOLID
  8
L-ZISSEN
 10
354.515929
 20
19.646806
 30
0.0
 11
354.962704
 21
20.141615
 31
0.0
 12
353.254889
 22
21.234537
 32
0.0
 13
353.254889
 23
21.234537
 33
0.0
  0
SOLID
  8
L-ZISSEN
 10
355.083013
 20
24.411506
 30
0.0
 11
354.699773
 21
24.957007
 31
0.0
 12
353.254889
 22
23.534537
 32
0.0
 13
353.254889
 23
23.534537
 33
0.0
  0
LINE
  8
L-TYUSIN
 10
464.069094
 20
0.18763
 30
0.0
 11
315.35994
 21
0.18763
 31
0.0
  0
LINE
  8
L-ZISSEN
 10
453.254888
 20
46.234537
 30
0.0
 11
453.254888
 21
21.234537
 31
0.0
  0
LINE
  8
L-ZISSEN
 10
450.954888
 20
46.234537
 30
0.0
 11
450.954888
 21
23.534537
 31
0.0
  0
LINE
  8
L-ZISSEN
 10
453.254888
 20
21.234537
 30
0.0
 11
392.254888
 21
21.234537
 31
0.0
  0
LINE
  8
L-ZISSEN
 10
392.254888
 20
23.534537
 30
0.0
 11
450.954888
 21
23.534537
 31
0.0
  0
LINE
  8
L-ZISSEN
  6
CONTINUOUS
 62
     7
 10
372.254888
 20
21.234537
 30
0.0
 11
372.254888
 21
46.234537
 31
0.0
  0
LINE
  8
L-ZISSEN
  6
CONTINUOUS
 62
     7
 10
372.254888
 20
21.234537
 30
0.0
 11
334.254888
 21
21.234537
 31
0.0
  0
LINE
  8
L-ZISSEN
  6
CONTINUOUS
 62
     7
 10
372.254888
 20
23.534537
 30
0.0
 11
334.254888
 21
23.534537
 31
0.0
  0
LINE
  8
L-ZISSEN
  6
CONTINUOUS
 62
     7
 10
334.254888
 20
46.234537
 30
0.0
 11
334.254888
 21
21.234537
 31
0.0
  0
LINE
  8
L-ZISSEN
 10
354.739316
 20
19.894211
 30
0.0
 11
369.968876
 21
6.143067
 31
0.0
  0
TEXT
  8
L-ZISSEN
 10
373.968876
 20
3.893067
 30
0.0
 40
4.5
  1
P.P
  0
TEXT
  8
L-ZISSEN
 10
382.500172
 20
39.020515
 30
0.0
 40
4.5
  1
P.P
  0
LINE
  8
L-ZISSEN
 10
354.891393
 20
24.684256
 30
0.0
 11
378.500172
 21
41.270515
 31
0.0
  0
CIRCLE
  8
L-ZISSEN
  6
CONTINUOUS
 62
     7
 10
361.754888
 20
37.234537
 30
0.0
 40
2.75
  0
CIRCLE
  8
L-ZISSEN
  6
CONTINUOUS
 62
     7
 10
344.754888
 20
30.234537
 30
0.0
 40
2.75
  0
LINE
  8
L-ZISSEN
  6
CONTINUOUS
 62
     7
 10
372.254888
 20
46.234537
 30
0.0
 11
334.254888
 21
46.234537
 31
0.0
  0
LINE
  8
L-TYUSIN
 10
353.254889
 20
48.902946
 30
0.0
 11
353.254889
 21
18.566127
 31
0.0
  0
LINE
  8
L-TYUSIN
 10
353.254889
 20
124.059739
 30
0.0
 11
353.254889
 21
55.042727
 31
0.0
  0
ARC
  8
L-ZISSEN
 10
353.254889
 20
78.910244
 30
0.0
 40
19.0
 50
180.0
 51
0.0
  0
ARC
  8
L-ZISSEN
 10
353.254889
 20
78.910244
 30
0.0
 40
15.5
 50
180.0
 51
0.0
  0
LINE
  8
L-TYUSIN
 10
329.387372
 20
78.910244
 30
0.0
 11
377.122405
 21
78.910244
 31
0.0
  0
LINE
  8
L-ZISSEN
 10
337.754889
 20
92.910244
 30
0.0
 11
337.754889
 21
78.910244
 31
0.0
  0
LINE
  8
L-ZISSEN
 10
368.754889
 20
92.910244
 30
0.0
 11
368.754889
 21
78.910244
 31
0.0
  0
LINE
  8
L-ZISSEN
  6
CONTINUOUS
 62
     7
 10
372.254889
 20
78.910244
 30
0.0
 11
372.254889
 21
120.910244
 31
0.0
  0
LINE
  8
L-ZISSEN
  6
CONTINUOUS
 62
     7
 10
372.254889
 20
120.910244
 30
0.0
 11
334.254889
 21
120.910244
 31
0.0
  0
LINE
  8
L-ZISSEN
  6
CONTINUOUS
 62
     7
 10
372.254889
 20
118.610244
 30
0.0
 11
334.254889
 21
118.610244
 31
0.0
  0
LINE
  8
L-ZISSEN
  6
CONTINUOUS
 62
     7
 10
334.254889
 20
120.910244
 30
0.0
 11
334.254889
 21
78.910244
 31
0.0
  0
ARC
  8
L-ZISSEN
 10
353.254889
 20
92.910244
 30
0.0
 40
15.5
 50
0.0
 51
180.0
  0
LINE
  8
L-TYUSIN
 10
329.387372
 20
92.910244
 30
0.0
 11
377.122405
 21
92.910244
 31
0.0
  0
LINE
  8
L-TYUSIN
 10
171.406073
 20
237.846196
 30
0.0
 11
464.069094
 21
237.846196
 31
0.0
  0
LINE
  8
L-TYUSIN
 10
464.069094
 20
237.846196
 30
0.0
 11
464.069094
 21
0.18763
 31
0.0
  0
LINE
  8
L-TYUSIN
 10
315.35994
 20
0.18763
 30
0.0
 11
315.35994
 21
237.846196
 31
0.0
  0
LINE
  8
L-TYUSIN
 10
171.406073
 20
166.004245
 30
0.0
 11
315.35994
 21
166.004245
 31
0.0
  0
LINE
  8
L-TYUSIN
 10
464.069094
 20
146.927115
 30
0.0
 11
315.35994
 21
146.927115
 31
0.0
  0
LINE
  8
L-TYUSIN
 10
353.254889
 20
175.73905
 30
0.0
 11
353.254889
 21
160.574697
 31
0.0
  0
SOLID
  8
L-ZISSEN
 10
354.624812
 20
163.589468
 30
0.0
 11
355.035562
 21
164.114567
 31
0.0
 12
353.254889
 22
165.084265
 32
0.0
 13
353.254889
 23
165.084265
 33
0.0
  0
TEXT
  8
L-ZISSEN
 10
372.531096
 20
150.884732
 30
0.0
 40
4.5
  1
P.P
  0
LINE
  8
L-ZISSEN
 10
354.830187
 20
163.852017
 30
0.0
 11
368.531096
 21
153.134732
 31
0.0
  0
LINE
  8
L-ZISSEN
 10
372.554889
 20
165.084265
 30
0.0
 11
333.954889
 21
165.084265
 31
0.0
  0
LINE
  8
L-ZISSEN
 10
333.954889
 20
170.684265
 30
0.0
 11
372.554889
 21
170.684265
 31
0.0
  0
LINE
  8
L-TYUSIN
 10
329.528387
 20
201.063538
 30
0.0
 11
376.981391
 21
201.063538
 31
0.0
  0
LINE
  8
L-TYUSIN
 10
353.254889
 20
224.79004
 30
0.0
 11
353.254889
 21
177.337036
 31
0.0
  0
CIRCLE
  8
L-ZISSEN
 10
353.254889
 20
201.063538
 30
0.0
 40
15.25
  0
CIRCLE
  8
L-ZISSEN
 10
353.254889
 20
201.063538
 30
0.0
 40
19.3
  0
TEXT
  8
L-ZISSEN
 10
330.551434
 20
226.774982
 30
0.0
 40
4.5
  1
PANEL RING
  0
LINE
  8
L-ZISSEN
 10
245.406073
 20
223.925221
 30
0.0
 11
267.406073
 21
223.925221
 31
0.0
  0
TEXT
  8
L-ZISSEN
 10
300.447853
 20
224.934616
 30
0.0
 40
4.5
  1
p.p
  0
TEXT
  8
L-ZISSEN
 10
183.302011
 20
230.908418
 30
0.0
 40
4.5
  1
GAUGE
  0
TEXT
  8
L-ZISSEN
 10
206.997321
 20
230.908418
 30
0.0
 40
4.5
  1
-40
  0
LINE
  8
L-ZISSEN
 10
279.568522
 20
203.552707
 30
0.0
 11
296.447853
 21
227.184616
 31
0.0
  0
LINE
  8
L-TYUSIN
 10
278.406073
 20
209.961558
 30
0.0
 11
278.406073
 21
193.888883
 31
0.0
  0
LINE
  8
L-ZISSEN
 10
283.406073
 20
206.789221
 30
0.0
 11
267.406073
 21
206.789221
 31
0.0
  0
LINE
  8
L-ZISSEN
 10
283.406073
 20
197.061221
 30
0.0
 11
267.406073
 21
197.061221
 31
0.0
  0
LINE
  8
L-ZISSEN
 10
245.406073
 20
179.925221
 30
0.0
 11
267.406073
 21
179.925221
 31
0.0
  0
LINE
  8
L-ZISSEN
 10
267.406073
 20
223.925221
 30
0.0
 11
267.406073
 21
179.925221
 31
0.0
  0
LINE
  8
L-ZISSEN
 10
245.406073
 20
179.925221
 30
0.0
 11
245.406073
 21
223.925221
 31
0.0
  0
LINE
  8
L-TYUSIN
 10
288.318988
 20
201.925221
 30
0.0
 11
237.879645
 21
201.925221
 31
0.0
  0
LINE
  8
L-TYUSIN
 10
231.341709
 20
201.925221
 30
0.0
 11
175.470437
 21
201.925221
 31
0.0
  0
LINE
  8
L-TYUSIN
 10
203.406073
 20
173.989585
 30
0.0
 11
203.406073
 21
229.860856
 31
0.0
  0
CIRCLE
  8
L-ZISSEN
 10
203.406073
 20
201.925221
 30
0.0
 40
22.0
  0
LINE
  8
0
 10
70.168253
 20
196.258436
 30
0.0
 11
70.168253
 21
199.215585
 31
0.0
  0
LINE
  8
L-ZISSEN
  6
CONTINUOUS
 62
     7
 10
89.831747
 20
199.215585
 30
0.0
 11
70.168253
 21
199.215585
 31
0.0
  0
LINE
  8
0
 10
89.831747
 20
196.258436
 30
0.0
 11
89.831747
 21
199.215585
 31
0.0
  0
LINE
  8
L-ZISSEN
  6
CONTINUOUS
 62
     7
 10
100.915585
 20
189.0
 30
0.0
 11
96.733201
 21
189.0
 31
0.0
  0
LINE
  8
L-ZISSEN
  6
CONTINUOUS
 62
     7
 10
100.915585
 20
171.0
 30
0.0
 11
96.733201
 21
171.0
 31
0.0
  0
LINE
  8
L-ZISSEN
  6
CONTINUOUS
 62
     7
 10
100.915585
 20
171.0
 30
0.0
 11
100.915585
 21
189.0
 31
0.0
  0
LINE
  8
0
 10
89.831747
 20
163.741564
 30
0.0
 11
89.831747
 21
160.784415
 31
0.0
  0
LINE
  8
0
 10
70.168253
 20
163.741564
 30
0.0
 11
70.168253
 21
160.784415
 31
0.0
  0
LINE
  8
L-ZISSEN
  6
CONTINUOUS
 62
     7
 10
89.831747
 20
160.784415
 30
0.0
 11
70.168253
 21
160.784415
 31
0.0
  0
LINE
  8
L-ZISSEN
  6
CONTINUOUS
 62
     7
 10
59.084415
 20
171.0
 30
0.0
 11
63.266799
 21
171.0
 31
0.0
  0
LINE
  8
L-ZISSEN
  6
CONTINUOUS
 62
     7
 10
59.084415
 20
171.0
 30
0.0
 11
59.084415
 21
189.0
 31
0.0
  0
LINE
  8
L-ZISSEN
  6
CONTINUOUS
 62
     7
 10
59.084415
 20
189.0
 30
0.0
 11
63.266799
 21
189.0
 31
0.0
  0
CIRCLE
  8
L-ZISSEN
  6
CONTINUOUS
 62
     7
 10
80.0
 20
180.0
 30
0.0
 40
19.0
  0
LINE
  8
L-TYUSIN
  6
CENTER
 62
     1
 10
56.035112
 20
180.0
 30
0.0
 11
105.037107
 21
180.0
 31
0.0
  0
LINE
  8
L-TYUSIN
  6
CENTER
 62
     1
 10
80.0
 20
157.86751
 30
0.0
 11
80.0
 21
201.829178
 31
0.0
  0
CIRCLE
  8
L-ZISSEN
  6
CONTINUOUS
 62
     7
 10
80.0
 20
180.0
 30
0.0
 40
11.5
  0
CIRCLE
  8
L-ZISSEN
  6
CONTINUOUS
 62
     7
 10
80.0
 20
180.0
 30
0.0
 40
13.5
  0
CIRCLE
  8
L-ZISSEN
  6
CONTINUOUS
 62
     7
 10
80.0
 20
180.0
 30
0.0
 40
15.0
  0
LINE
  8
L-ZISSEN
  6
CONTINUOUS
 62
     7
 10
150.0
 20
118.6
 30
0.0
 11
150.0
 21
120.4
 31
0.0
  0
LINE
  8
L-ZISSEN
  6
CONTINUOUS
 62
     7
 10
170.0
 20
118.6
 30
0.0
 11
170.0
 21
120.4
 31
0.0
  0
LINE
  8
L-ZISSEN
  6
CONTINUOUS
 62
     7
 10
97.5
 20
93.6
 30
0.0
 11
97.5
 21
89.5
 31
0.0
  0
LINE
  8
L-ZISSEN
  6
CONTINUOUS
 62
     7
 10
92.5
 20
136.6
 30
0.0
 11
92.5
 21
138.6
 31
0.0
  0
LINE
  8
0
 10
66.25
 20
136.6
 30
0.0
 11
66.25
 21
132.6
 31
0.0
  0
LINE
  8
0
 10
93.75
 20
136.6
 30
0.0
 11
93.75
 21
132.6
 31
0.0
  0
LINE
  8
L-ZISSEN
  6
CONTINUOUS
 62
     7
 10
172.5
 20
136.6
 30
0.0
 11
172.5
 21
138.6
 31
0.0
  0
LINE
  8
0
 10
173.75
 20
136.6
 30
0.0
 11
173.75
 21
132.6
 31
0.0
  0
LINE
  8
0
 10
146.25
 20
136.6
 30
0.0
 11
146.25
 21
132.6
 31
0.0
  0
LINE
  8
L-ZISSEN
  6
CONTINUOUS
 62
     7
 10
147.5
 20
138.6
 30
0.0
 11
172.5
 21
138.6
 31
0.0
  0
LINE
  8
L-ZISSEN
  6
CONTINUOUS
 62
     7
 10
173.75
 20
136.6
 30
0.0
 11
146.25
 21
136.6
 31
0.0
  0
LINE
  8
L-ZISSEN
  6
CONTINUOUS
 62
     7
 10
146.25
 20
132.6
 30
0.0
 11
173.75
 21
132.6
 31
0.0
  0
LINE
  8
L-ZISSEN
  6
CONTINUOUS
 62
     7
 10
177.5
 20
93.6
 30
0.0
 11
177.5
 21
89.5
 31
0.0
  0
LINE
  8
L-ZISSEN
  6
CONTINUOUS
 62
     7
 10
179.0
 20
93.6
 30
0.0
 11
179.0
 21
105.7
 31
0.0
  0
LINE
  8
L-ZISSEN
  6
CONTINUOUS
 62
     7
 10
175.0
 20
105.7
 30
0.0
 11
175.0
 21
118.6
 31
0.0
  0
LINE
  8
0
 10
173.25
 20
132.6
 30
0.0
 11
173.25
 21
120.4
 31
0.0
  0
LINE
  8
0
 10
146.75
 20
132.6
 30
0.0
 11
146.75
 21
120.4
 31
0.0
  0
LINE
  8
L-ZISSEN
  6
CONTINUOUS
 62
     7
 10
146.75
 20
120.4
 30
0.0
 11
173.25
 21
120.4
 31
0.0
  0
LINE
  8
L-ZISSEN
  6
CONTINUOUS
 62
     7
 10
145.0
 20
118.6
 30
0.0
 11
175.0
 21
118.6
 31
0.0
  0
LINE
  8
L-ZISSEN
  6
CONTINUOUS
 62
     7
 10
145.0
 20
105.7
 30
0.0
 11
145.0
 21
118.6
 31
0.0
  0
LINE
  8
L-ZISSEN
  6
CONTINUOUS
 62
     7
 10
141.0
 20
105.7
 30
0.0
 11
179.0
 21
105.7
 31
0.0
  0
LINE
  8
L-ZISSEN
  6
CONTINUOUS
 62
     7
 10
141.0
 20
93.6
 30
0.0
 11
141.0
 21
105.7
 31
0.0
  0
LINE
  8
L-ZISSEN
  6
CONTINUOUS
 62
     7
 10
142.5
 20
93.6
 30
0.0
 11
142.5
 21
89.5
 31
0.0
  0
LINE
  8
L-ZISSEN
  6
CONTINUOUS
 62
     7
 10
141.0
 20
93.6
 30
0.0
 11
179.0
 21
93.6
 31
0.0
  0
LINE
  8
L-ZISSEN
  6
CONTINUOUS
 62
     7
 10
179.248766
 20
89.5
 30
0.0
 11
140.751234
 21
89.5
 31
0.0
  0
LINE
  8
0
 10
178.753852
 20
70.6
 30
0.0
 11
179.248766
 21
89.5
 31
0.0
  0
LINE
  8
L-ZISSEN
 10
169.294622
 20
74.118731
 30
0.0
 11
169.831747
 21
89.5
 31
0.0
  0
LINE
  8
L-ZISSEN
  6
CONTINUOUS
 62
     7
 10
163.2
 20
70.6
 30
0.0
 11
169.294622
 21
74.118731
 31
0.0
  0
LINE
  8
L-TYUSIN
  6
CENTER
 62
     1
 10
160.0
 20
67.765631
 30
0.0
 11
160.0
 21
142.246464
 31
0.0
  0
CIRCLE
  8
L-ZISSEN
 10
160.0
 20
80.0
 30
0.0
 40
4.864
  0
LINE
  8
L-TYUSIN
  6
CENTER
 62
     1
 10
182.844872
 20
80.0
 30
0.0
 11
139.827316
 21
80.0
 31
0.0
  0
LINE
  8
L-ZISSEN
 10
150.705378
 20
74.118731
 30
0.0
 11
150.168253
 21
89.5
 31
0.0
  0
LINE
  8
L-ZISSEN
  6
CONTINUOUS
 62
     7
 10
156.8
 20
70.6
 30
0.0
 11
150.705378
 21
74.118731
 31
0.0
  0
LINE
  8
L-ZISSEN
  6
CONTINUOUS
 62
     7
 10
178.753852
 20
70.6
 30
0.0
 11
141.246148
 21
70.6
 31
0.0
  0
LINE
  8
0
 10
141.246148
 20
70.6
 30
0.0
 11
140.751234
 21
89.5
 31
0.0
  0
LINE
  8
0
 10
59.546148
 20
70.6
 30
0.0
 11
59.051234
 21
89.5
 31
0.0
  0
LINE
  8
L-ZISSEN
  6
CONTINUOUS
 62
     7
 10
100.453852
 20
70.6
 30
0.0
 11
59.546148
 21
70.6
 31
0.0
  0
LINE
  8
0
 10
100.453852
 20
70.6
 30
0.0
 11
100.948766
 21
89.5
 31
0.0
  0
CIRCLE
  8
L-ZISSEN
 10
80.0
 20
80.0
 30
0.0
 40
4.864
  0
LINE
  8
L-ZISSEN
  6
CONTINUOUS
 62
     7
 10
87.848147
 20
75.651488
 30
0.0
 11
88.331747
 21
89.5
 31
0.0
  0
LINE
  8
L-TYUSIN
  6
CENTER
 62
     1
 10
102.613179
 20
80.0
 30
0.0
 11
53.476414
 21
80.0
 31
0.0
  0
LINE
  8
L-ZISSEN
  6
CONTINUOUS
 62
     7
 10
82.0432
 20
72.3
 30
0.0
 11
87.848147
 21
75.651488
 31
0.0
  0
LINE
  8
L-ZISSEN
 10
77.9568
 20
72.3
 30
0.0
 11
82.0432
 21
72.3
 31
0.0
  0
LINE
  8
L-ZISSEN
  6
CONTINUOUS
 62
     7
 10
77.9568
 20
72.3
 30
0.0
 11
72.151853
 21
75.651488
 31
0.0
  0
LINE
  8
L-ZISSEN
  6
CONTINUOUS
 62
     7
 10
72.151853
 20
75.651488
 30
0.0
 11
71.668253
 21
89.5
 31
0.0
  0
LINE
  8
L-ZISSEN
  6
CONTINUOUS
 62
     7
 10
100.948766
 20
89.5
 30
0.0
 11
59.051234
 21
89.5
 31
0.0
  0
LINE
  8
L-ZISSEN
  6
CONTINUOUS
 62
     7
 10
62.5
 20
93.6
 30
0.0
 11
62.5
 21
89.5
 31
0.0
  0
LINE
  8
L-ZISSEN
  6
CONTINUOUS
 62
     7
 10
61.0
 20
93.6
 30
0.0
 11
99.0
 21
93.6
 31
0.0
  0
LINE
  8
L-ZISSEN
  6
CONTINUOUS
 62
     7
 10
95.0
 20
105.7
 30
0.0
 11
95.0
 21
118.6
 31
0.0
  0
LINE
  8
L-ZISSEN
  6
CONTINUOUS
 62
     7
 10
99.0
 20
93.6
 30
0.0
 11
99.0
 21
105.7
 31
0.0
  0
LINE
  8
L-ZISSEN
  6
CONTINUOUS
 62
     7
 10
61.0
 20
93.6
 30
0.0
 11
61.0
 21
105.7
 31
0.0
  0
LINE
  8
L-ZISSEN
  6
CONTINUOUS
 62
     7
 10
61.0
 20
105.7
 30
0.0
 11
99.0
 21
105.7
 31
0.0
  0
LINE
  8
L-TYUSIN
  6
CENTER
 62
     1
 10
80.0
 20
67.765631
 30
0.0
 11
80.0
 21
142.607927
 31
0.0
  0
LINE
  8
L-ZISSEN
 10
107.5
 20
127.5
 30
0.0
 11
109.5
 21
127.5
 31
0.0
  0
TEXT
  8
L-ZISSEN
 10
111.5
 20
125.25
 30
0.0
 40
4.5
  1
P.P
  0
LINE
  8
L-ZISSEN
 10
81.567282
 20
106.942427
 30
0.0
 11
107.5
 21
127.5
 31
0.0
  0
LINE
  8
L-ZISSEN
  6
CONTINUOUS
 62
     7
 10
65.0
 20
105.7
 30
0.0
 11
65.0
 21
118.6
 31
0.0
  0
LINE
  8
L-ZISSEN
  6
CONTINUOUS
 62
     7
 10
65.0
 20
118.6
 30
0.0
 11
95.0
 21
118.6
 31
0.0
  0
LINE
  8
L-ZISSEN
  6
CONTINUOUS
 62
     7
 10
66.75
 20
120.4
 30
0.0
 11
93.25
 21
120.4
 31
0.0
  0
LINE
  8
0
 10
66.75
 20
132.6
 30
0.0
 11
66.75
 21
120.4
 31
0.0
  0
LINE
  8
0
 10
93.25
 20
132.6
 30
0.0
 11
93.25
 21
120.4
 31
0.0
  0
LINE
  8
L-ZISSEN
  6
CONTINUOUS
 62
     7
 10
66.25
 20
132.6
 30
0.0
 11
93.75
 21
132.6
 31
0.0
  0
LINE
  8
L-ZISSEN
  6
CONTINUOUS
 62
     7
 10
66.25
 20
136.6
 30
0.0
 11
93.75
 21
136.6
 31
0.0
  0
LINE
  8
L-ZISSEN
  6
CONTINUOUS
 62
     7
 10
67.5
 20
138.6
 30
0.0
 11
92.5
 21
138.6
 31
0.0
  0
ENDSEC
  0
EOF
