  0
SECTION
  2
HEADER
  9
$ACADVER
  1
AC1024
  9
$ACADMAINTVER
 70
     6
  9
$DWGCODEPAGE
  3
ANSI_932
  9
$LASTSAVEDBY
  1
y-iwai
  9
$INSBASE
 10
0.0
 20
0.0
 30
0.0
  9
$EXTMIN
 10
817.37201412511
 20
367.1132945809335
 30
-0.2977526196225759
  9
$EXTMAX
 10
1148.317980142981
 20
721.5247564468664
 30
0.0029091657583656
  9
$LIMMIN
 10
0.0
 20
0.0
  9
$LIMMAX
 10
12.0
 20
9.0
  9
$ORTHOMODE
 70
     0
  9
$REGENMODE
 70
     1
  9
$FILLMODE
 70
     1
  9
$QTEXTMODE
 70
     0
  9
$MIRRTEXT
 70
     1
  9
$LTSCALE
 40
3.0
  9
$ATTMODE
 70
     1
  9
$TEXTSIZE
 40
1.5
  9
$TRACEWID
 40
0.05
  9
$TEXTSTYLE
  7
KANJI
  9
$CLAYER
  8
L-ZISSEN
  9
$CELTYPE
  6
BYLAYER
  9
$CECOLOR
 62
   256
  9
$CELTSCALE
 40
1.0
  9
$DISPSILH
 70
     0
  9
$DIMSCALE
 40
3.0
  9
$DIMASZ
 40
2.0
  9
$DIMEXO
 40
1.0
  9
$DIMDLI
 40
8.0
  9
$DIMRND
 40
0.0
  9
$DIMDLE
 40
0.0
  9
$DIMEXE
 40
1.0
  9
$DIMTP
 40
0.0
  9
$DIMTM
 40
0.0
  9
$DIMTXT
 40
2.8
  9
$DIMCEN
 40
1.5
  9
$DIMTSZ
 40
0.0
  9
$DIMTOL
 70
     0
  9
$DIMLIM
 70
     0
  9
$DIMTIH
 70
     0
  9
$DIMTOH
 70
     0
  9
$DIMSE1
 70
     0
  9
$DIMSE2
 70
     0
  9
$DIMTAD
 70
     1
  9
$DIMZIN
 70
     8
  9
$DIMBLK
  1

  9
$DIMASO
 70
     1
  9
$DIMSHO
 70
     0
  9
$DIMPOST
  1

  9
$DIMAPOST
  1

  9
$DIMALT
 70
     0
  9
$DIMALTD
 70
     2
  9
$DIMALTF
 40
25.4
  9
$DIMLFAC
 40
1.0
  9
$DIMTOFL
 70
     1
  9
$DIMTVP
 40
0.0
  9
$DIMTIX
 70
     1
  9
$DIMSOXD
 70
     0
  9
$DIMSAH
 70
     0
  9
$DIMBLK1
  1

  9
$DIMBLK2
  1

  9
$DIMSTYLE
  2
STANDARD
  9
$DIMCLRD
 70
     0
  9
$DIMCLRE
 70
     0
  9
$DIMCLRT
 70
     0
  9
$DIMTFAC
 40
1.0
  9
$DIMGAP
 40
1.4
  9
$DIMJUST
 70
     0
  9
$DIMSD1
 70
     0
  9
$DIMSD2
 70
     0
  9
$DIMTOLJ
 70
     1
  9
$DIMTZIN
 70
     8
  9
$DIMALTZ
 70
     0
  9
$DIMALTTZ
 70
     0
  9
$DIMUPT
 70
     0
  9
$DIMDEC
 70
     4
  9
$DIMTDEC
 70
     4
  9
$DIMALTU
 70
     2
  9
$DIMALTTD
 70
     2
  9
$DIMTXSTY
  7
KANJI
  9
$DIMAUNIT
 70
     0
  9
$DIMADEC
 70
     0
  9
$DIMALTRND
 40
0.0
  9
$DIMAZIN
 70
     0
  9
$DIMDSEP
 70
    46
  9
$DIMATFIT
 70
     3
  9
$DIMFRAC
 70
     0
  9
$DIMLDRBLK
  1

  9
$DIMLUNIT
 70
     2
  9
$DIMLWD
 70
    -2
  9
$DIMLWE
 70
    -2
  9
$DIMTMOVE
 70
     0
  9
$DIMFXL
 40
1.0
  9
$DIMFXLON
 70
     0
  9
$DIMJOGANG
 40
0.7853981633974483
  9
$DIMTFILL
 70
     0
  9
$DIMTFILLCLR
 70
     0
  9
$DIMARCSYM
 70
     0
  9
$DIMLTYPE
  6

  9
$DIMLTEX1
  6

  9
$DIMLTEX2
  6

  9
$DIMTXTDIRECTION
 70
     0
  9
$LUNITS
 70
     2
  9
$LUPREC
 70
     4
  9
$SKETCHINC
 40
0.1
  9
$FILLETRAD
 40
5.0
  9
$AUNITS
 70
     0
  9
$AUPREC
 70
     0
  9
$MENU
  1
acad
  9
$ELEVATION
 40
0.0
  9
$PELEVATION
 40
0.0
  9
$THICKNESS
 40
0.0
  9
$LIMCHECK
 70
     0
  9
$CHAMFERA
 40
0.0
  9
$CHAMFERB
 40
0.0
  9
$CHAMFERC
 40
0.0
  9
$CHAMFERD
 40
0.0
  9
$SKPOLY
 70
     0
  9
$TDCREATE
 40
2450178.944598264
  9
$TDUCREATE
 40
2450178.569598264
  9
$TDUPDATE
 40
2458829.819577604
  9
$TDUUPDATE
 40
2458829.444577604
  9
$TDINDWG
 40
0.8989954977
  9
$TDUSRTIMER
 40
0.0001766088
  9
$USRTIMER
 70
     1
  9
$ANGBASE
 50
0.0
  9
$ANGDIR
 70
     0
  9
$PDMODE
 70
     0
  9
$PDSIZE
 40
0.0
  9
$PLINEWID
 40
0.0
  9
$SPLFRAME
 70
     0
  9
$SPLINETYPE
 70
     6
  9
$SPLINESEGS
 70
     8
  9
$HANDSEED
  5
3D99
  9
$SURFTAB1
 70
     6
  9
$SURFTAB2
 70
     6
  9
$SURFTYPE
 70
     6
  9
$SURFU
 70
     6
  9
$SURFV
 70
     6
  9
$UCSBASE
  2

  9
$UCSNAME
  2

  9
$UCSORG
 10
0.0
 20
0.0
 30
0.0
  9
$UCSXDIR
 10
1.0
 20
0.0
 30
0.0
  9
$UCSYDIR
 10
0.0
 20
1.0
 30
0.0
  9
$UCSORTHOREF
  2

  9
$UCSORTHOVIEW
 70
     0
  9
$UCSORGTOP
 10
0.0
 20
0.0
 30
0.0
  9
$UCSORGBOTTOM
 10
0.0
 20
0.0
 30
0.0
  9
$UCSORGLEFT
 10
0.0
 20
0.0
 30
0.0
  9
$UCSORGRIGHT
 10
0.0
 20
0.0
 30
0.0
  9
$UCSORGFRONT
 10
0.0
 20
0.0
 30
0.0
  9
$UCSORGBACK
 10
0.0
 20
0.0
 30
0.0
  9
$PUCSBASE
  2

  9
$PUCSNAME
  2

  9
$PUCSORG
 10
0.0
 20
0.0
 30
0.0
  9
$PUCSXDIR
 10
1.0
 20
0.0
 30
0.0
  9
$PUCSYDIR
 10
0.0
 20
1.0
 30
0.0
  9
$PUCSORTHOREF
  2

  9
$PUCSORTHOVIEW
 70
     0
  9
$PUCSORGTOP
 10
0.0
 20
0.0
 30
0.0
  9
$PUCSORGBOTTOM
 10
0.0
 20
0.0
 30
0.0
  9
$PUCSORGLEFT
 10
0.0
 20
0.0
 30
0.0
  9
$PUCSORGRIGHT
 10
0.0
 20
0.0
 30
0.0
  9
$PUCSORGFRONT
 10
0.0
 20
0.0
 30
0.0
  9
$PUCSORGBACK
 10
0.0
 20
0.0
 30
0.0
  9
$USERI1
 70
     0
  9
$USERI2
 70
     0
  9
$USERI3
 70
     0
  9
$USERI4
 70
     0
  9
$USERI5
 70
     0
  9
$USERR1
 40
0.0
  9
$USERR2
 40
0.0
  9
$USERR3
 40
0.0
  9
$USERR4
 40
0.0
  9
$USERR5
 40
0.0
  9
$WORLDVIEW
 70
     1
  9
$SHADEDGE
 70
     3
  9
$SHADEDIF
 70
    70
  9
$TILEMODE
 70
     1
  9
$MAXACTVP
 70
    16
  9
$PINSBASE
 10
0.0
 20
0.0
 30
0.0
  9
$PLIMCHECK
 70
     0
  9
$PEXTMIN
 10
1.000000000000000E+20
 20
1.000000000000000E+20
 30
1.000000000000000E+20
  9
$PEXTMAX
 10
-1.000000000000000E+20
 20
-1.000000000000000E+20
 30
-1.000000000000000E+20
  9
$PLIMMIN
 10
0.0
 20
0.0
  9
$PLIMMAX
 10
0.0
 20
0.0
  9
$UNITMODE
 70
     0
  9
$VISRETAIN
 70
     0
  9
$PLINEGEN
 70
     0
  9
$PSLTSCALE
 70
     0
  9
$TREEDEPTH
 70
  3020
  9
$CMLSTYLE
  2
STANDARD
  9
$CMLJUST
 70
     0
  9
$CMLSCALE
 40
1.0
  9
$PROXYGRAPHICS
 70
     1
  9
$MEASUREMENT
 70
     0
  9
$CELWEIGHT
370
    -1
  9
$ENDCAPS
280
     0
  9
$JOINSTYLE
280
     0
  9
$LWDISPLAY
290
     0
  9
$INSUNITS
 70
     0
  9
$HYPERLINKBASE
  1

  9
$STYLESHEET
  1

  9
$XEDIT
290
     1
  9
$CEPSNTYPE
380
     0
  9
$PSTYLEMODE
290
     1
  9
$FINGERPRINTGUID
  2
{AA8BBF23-CCEE-4FE5-B81D-141338CA9047}
  9
$VERSIONGUID
  2
{FAEB1C32-E019-11D5-929B-00C0DF256EC4}
  9
$EXTNAMES
290
     1
  9
$PSVPSCALE
 40
0.0
  9
$OLESTARTUP
290
     0
  9
$SORTENTS
280
   127
  9
$INDEXCTL
280
     0
  9
$HIDETEXT
280
     1
  9
$XCLIPFRAME
280
     2
  9
$HALOGAP
280
     0
  9
$OBSCOLOR
 70
   257
  9
$OBSLTYPE
280
     0
  9
$INTERSECTIONDISPLAY
280
     0
  9
$INTERSECTIONCOLOR
 70
   257
  9
$DIMASSOC
280
     2
  9
$PROJECTNAME
  1

  9
$CAMERADISPLAY
290
     0
  9
$LENSLENGTH
 40
50.0
  9
$CAMERAHEIGHT
 40
0.0
  9
$STEPSPERSEC
 40
2.0
  9
$STEPSIZE
 40
6.0
  9
$3DDWFPREC
 40
2.0
  9
$PSOLWIDTH
 40
0.25
  9
$PSOLHEIGHT
 40
4.0
  9
$LOFTANG1
 40
1.570796326794897
  9
$LOFTANG2
 40
1.570796326794897
  9
$LOFTMAG1
 40
0.0
  9
$LOFTMAG2
 40
0.0
  9
$LOFTPARAM
 70
     7
  9
$LOFTNORMALS
280
     1
  9
$LATITUDE
 40
37.795
  9
$LONGITUDE
 40
-122.394
  9
$NORTHDIRECTION
 40
0.0
  9
$TIMEZONE
 70
 -8000
  9
$LIGHTGLYPHDISPLAY
280
     1
  9
$TILEMODELIGHTSYNCH
280
     1
  9
$SOLIDHIST
280
     0
  9
$SHOWHIST
280
     1
  9
$DWFFRAME
280
     2
  9
$DGNFRAME
280
     2
  9
$REALWORLDSCALE
290
     1
  9
$INTERFERECOLOR
 62
   256
  9
$CSHADOW
280
     0
  9
$SHADOWPLANELOCATION
 40
0.0
  0
ENDSEC
  0
SECTION
  2
CLASSES
  0
CLASS
  1
LWPOLYLINE
  2
AcDbPolyline
  3
ObjectDBX Classes
 90
        0
 91
        1
280
     0
281
     1
  0
CLASS
  1
HATCH
  2
AcDbHatch
  3
ObjectDBX Classes
 90
        0
 91
        1
280
     0
281
     1
  0
CLASS
  1
ACAD_ZOMBIE_ENTITY
  2
AcDbDxfZombieEntity
  3
AutoCAD
 90
        0
 91
        4
280
     0
281
     1
  0
CLASS
  1
ACAD_ZOMBIE_OBJECT
  2
AcDbDxfZombieObject
  3
AutoCAD
 90
        0
 91
        4
280
     0
281
     0
  0
CLASS
  1
VISUALSTYLE
  2
AcDbVisualStyle
  3
ObjectDBX Classes
 90
     4095
 91
        4
280
     0
281
     0
  0
CLASS
  1
ACDBDICTIONARYWDFLT
  2
AcDbDictionaryWithDefault
  3
ObjectDBX Classes
 90
        0
 91
        4
280
     0
281
     0
  0
CLASS
  1
SCALE
  2
AcDbScale
  3
ObjectDBX Classes
 90
     1153
 91
        4
280
     0
281
     0
  0
CLASS
  1
MATERIAL
  2
AcDbMaterial
  3
ObjectDBX Classes
 90
     1153
 91
        4
280
     0
281
     0
  0
CLASS
  1
TABLESTYLE
  2
AcDbTableStyle
  3
ObjectDBX Classes
 90
     4095
 91
        4
280
     0
281
     0
  0
CLASS
  1
MLEADERSTYLE
  2
AcDbMLeaderStyle
  3
ACDB_MLEADERSTYLE_CLASS
 90
     4095
 91
        4
280
     0
281
     0
  0
CLASS
  1
SUN
  2
AcDbSun
  3
SCENEOE
 90
     1153
 91
        4
280
     0
281
     0
  0
CLASS
  1
RASTERVARIABLES
  2
AcDbRasterVariables
  3
ISM
 90
        0
 91
        4
280
     0
281
     0
  0
CLASS
  1
DICTIONARYVAR
  2
AcDbDictionaryVar
  3
ObjectDBX Classes
 90
        0
 91
        4
280
     0
281
     0
  0
CLASS
  1
DIMASSOC
  2
AcDbDimAssoc
  3
"AcDbDimAssoc|Product Desc:     AcDim ARX App For Dimension|Company:          Autodesk, Inc.|WEB Address:      www.autodesk.com"
 90
        0
 91
        4
280
     0
281
     0
  0
CLASS
  1
SORTENTSTABLE
  2
AcDbSortentsTable
  3
ObjectDBX Classes
 90
        0
 91
        4
280
     0
281
     0
  0
CLASS
  1
CELLSTYLEMAP
  2
AcDbCellStyleMap
  3
ObjectDBX Classes
 90
     1152
 91
        4
280
     0
281
     0
  0
ENDSEC
  0
SECTION
  2
TABLES
  0
TABLE
  2
VPORT
  5
12
330
0
100
AcDbSymbolTable
 70
     2
  0
VPORT
  5
1070
330
12
100
AcDbSymbolTableRecord
100
AcDbViewportTableRecord
  2
*ACTIVE
 70
     0
 10
0.0
 20
0.0
 11
1.0
 21
1.0
 12
982.8449971340458
 22
544.3190255139
 13
0.0
 23
0.0
 14
1.0
 24
1.0
 15
0.0
 25
0.0
 16
0.0
 26
0.0
 36
1.0
 17
0.0
 27
0.0
 37
0.0
 40
361.4996911032516
 41
2.578253706754531
 42
50.0
 43
0.0
 44
0.0
 50
0.0
 51
0.0
 71
    16
 72
   100
 73
     1
 74
     0
 75
     0
 76
     1
 77
     0
 78
     0
281
     0
 65
     1
110
0.0
120
0.0
130
0.0
111
1.0
121
0.0
131
0.0
112
0.0
122
1.0
132
0.0
 79
     0
146
0.0
348
1076
 60
     3
 61
     5
292
     1
282
     1
141
0.0
142
0.0
 63
   256
361
10BB
  0
ENDTAB
  0
TABLE
  2
LTYPE
  5
E
330
0
100
AcDbSymbolTable
 70
     6
  0
LTYPE
  5
F
330
E
100
AcDbSymbolTableRecord
100
AcDbLinetypeTableRecord
  2
BYBLOCK
 70
     0
  3

 72
    65
 73
     0
 40
0.0
  0
LTYPE
  5
6
330
E
100
AcDbSymbolTableRecord
100
AcDbLinetypeTableRecord
  2
BYLAYER
 70
     0
  3

 72
    65
 73
     0
 40
0.0
  0
LTYPE
  5
5
330
E
100
AcDbSymbolTableRecord
100
AcDbLinetypeTableRecord
  2
CONTINUOUS
 70
     0
  3
Solid line
 72
    65
 73
     0
 40
0.0
  0
LTYPE
  5
1DF
330
E
100
AcDbSymbolTableRecord
100
AcDbLinetypeTableRecord
  2
CENTER
 70
     0
  3
----- - ----- - ----- - ----- - -----
 72
    65
 73
     4
 40
35.0
 49
30.0
 74
     0
 49
-1.5
 74
     0
 49
2.0
 74
     0
 49
-1.5
 74
     0
  0
LTYPE
  5
327
330
E
100
AcDbSymbolTableRecord
100
AcDbLinetypeTableRecord
  2
HIDDEN
 70
     0
  3
- - - - - - - - - - - - - - -
 72
    65
 73
     2
 40
2.0
 49
1.0
 74
     0
 49
-1.0
 74
     0
  0
LTYPE
  5
1C
330
E
100
AcDbSymbolTableRecord
100
AcDbLinetypeTableRecord
  2
PHANTOM
 70
     0
  3
_____ _ _ _____ _ _ _____
 72
    65
 73
     6
 40
10.0
 49
5.0
 74
     0
 49
-1.0
 74
     0
 49
1.0
 74
     0
 49
-1.0
 74
     0
 49
1.0
 74
     0
 49
-1.0
 74
     0
  0
LTYPE
  5
1002
330
E
100
AcDbSymbolTableRecord
100
AcDbLinetypeTableRecord
  2
CENTER1
 70
     0
  3
----- - ----- - ----- - ----- - ----- - -----
 72
    65
 73
     4
 40
20.0
 49
15.0
 74
     0
 49
-1.5
 74
     0
 49
2.0
 74
     0
 49
-1.5
 74
     0
  0
LTYPE
  5
1100
330
E
100
AcDbSymbolTableRecord
100
AcDbLinetypeTableRecord
  2
CENTER2
 70
     0
  3
___ _ ___ _ ___ _ ___ _ ___ _ ___ _ ___ _ ___ _
 72
    65
 73
     4
 40
1.125
 49
0.75
 74
     0
 49
-0.125
 74
     0
 49
0.125
 74
     0
 49
-0.125
 74
     0
  0
ENDTAB
  0
TABLE
  2
LAYER
  5
B
102
{ACAD_XDICTIONARY
360
10F1
102
}
330
0
100
AcDbSymbolTable
 70
    12
  0
LAYER
  5
4
330
B
100
AcDbSymbolTableRecord
100
AcDbLayerTableRecord
  2
0
 70
     0
 62
     7
  6
CONTINUOUS
370
    -3
390
108C
347
10B5
  0
LAYER
  5
1E1
330
B
100
AcDbSymbolTableRecord
100
AcDbLayerTableRecord
  2
L-ZISSEN
 70
     0
 62
     7
  6
CONTINUOUS
370
    -3
390
108C
347
10B5
  0
LAYER
  5
1DE
330
B
100
AcDbSymbolTableRecord
100
AcDbLayerTableRecord
  2
L-TYUSIN
 70
     0
 62
     1
  6
CENTER
370
    -3
390
108C
347
10B5
  0
LAYER
  5
326
330
B
100
AcDbSymbolTableRecord
100
AcDbLayerTableRecord
  2
L-HASEN
 70
     0
 62
     5
  6
HIDDEN
370
    -3
390
108C
347
10B5
  0
LAYER
  5
1B
330
B
100
AcDbSymbolTableRecord
100
AcDbLayerTableRecord
  2
L-SOUZOU
 70
     0
 62
     2
  6
PHANTOM
370
    -3
390
108C
347
10B5
  0
LAYER
  5
10FC
330
B
100
AcDbSymbolTableRecord
100
AcDbLayerTableRecord
  2
PV
 70
     0
 62
     7
  6
CONTINUOUS
370
    -3
390
108C
347
10B5
  0
LAYER
  5
147A
330
B
100
AcDbSymbolTableRecord
100
AcDbLayerTableRecord
  2
Defpoints
 70
     0
 62
     7
  6
CONTINUOUS
290
     0
370
    -3
390
108C
347
10B5
  0
LAYER
  5
16F1
330
B
100
AcDbSymbolTableRecord
100
AcDbLayerTableRecord
  2
SUNPOU
 70
     0
 62
     3
  6
CONTINUOUS
370
    -3
390
108C
347
10B5
  0
LAYER
  5
1747
102
{ACAD_XDICTIONARY
360
1748
102
}
330
B
100
AcDbSymbolTableRecord
100
AcDbLayerTableRecord
  2
LAYER007
 70
     0
 62
     7
  6
CONTINUOUS
370
    -3
390
108C
347
10B5
  0
LAYER
  5
1BC9
330
B
100
AcDbSymbolTableRecord
100
AcDbLayerTableRecord
  2
L-SAISEN
 70
     0
 62
     6
  6
CONTINUOUS
370
    -3
390
108C
347
10B5
  0
ENDTAB
  0
TABLE
  2
STYLE
  5
C
330
0
100
AcDbSymbolTable
 70
     2
  0
STYLE
  5
D
330
C
100
AcDbSymbolTableRecord
100
AcDbTextStyleTableRecord
  2
STANDARD
 70
     0
 40
0.0
 41
0.8
 50
0.0
 71
     0
 42
5.0
  3
C:\PROGRAM FILES\AUTOCAD LT\SIMPLEX
  4
BIGFONT.shx
  0
STYLE
  5
1D
330
C
100
AcDbSymbolTableRecord
100
AcDbTextStyleTableRecord
  2
KANJI
 70
     0
 40
0.0
 41
0.8
 50
0.0
 71
     0
 42
1.5
  3
C:\Program Files\AutoCAD LT\ROMANS
  4
BIGFONT
  0
ENDTAB
  0
TABLE
  2
VIEW
  5
10
330
0
100
AcDbSymbolTable
 70
     0
  0
ENDTAB
  0
TABLE
  2
UCS
  5
11
330
0
100
AcDbSymbolTable
 70
     0
  0
ENDTAB
  0
TABLE
  2
APPID
  5
14
330
0
100
AcDbSymbolTable
 70
     2
  0
APPID
  5
15
330
14
100
AcDbSymbolTableRecord
100
AcDbRegAppTableRecord
  2
ACAD
 70
     0
  0
APPID
  5
174E
330
14
100
AcDbSymbolTableRecord
100
AcDbRegAppTableRecord
  2
ACAD_NAV_VCDISPLAY
 70
     0
  0
ENDTAB
  0
TABLE
  2
DIMSTYLE
  5
16
330
0
100
AcDbSymbolTable
 70
     2
100
AcDbDimStyleTable
  0
DIMSTYLE
105
1F
330
16
100
AcDbSymbolTableRecord
100
AcDbDimStyleTableRecord
  2
STANDARD
 70
     0
178
     0
340
D
  0
DIMSTYLE
105
1BCE
330
16
100
AcDbSymbolTableRecord
100
AcDbDimStyleTableRecord
  2
STANDARD$7
 70
     0
 41
2.0
 42
1.0
 44
1.0
 73
     0
 74
     0
 77
     3
140
3.0
147
1.0
176
     3
177
     3
178
     3
340
D
  0
ENDTAB
  0
TABLE
  2
BLOCK_RECORD
  5
1
330
0
100
AcDbSymbolTable
 70
    14
  0
BLOCK_RECORD
  5
2
330
1
100
AcDbSymbolTableRecord
100
AcDbBlockTableRecord
  2
*MODEL_SPACE
340
10B0
 70
     0
280
     1
281
     0
  0
BLOCK_RECORD
  5
8
330
1
100
AcDbSymbolTableRecord
100
AcDbBlockTableRecord
  2
*PAPER_SPACE
340
10B1
 70
     0
280
     1
281
     0
  0
BLOCK_RECORD
  5
F4B
330
1
100
AcDbSymbolTableRecord
100
AcDbBlockTableRecord
  2
ITOH105
340
0
 70
     0
280
     1
281
     0
  0
BLOCK_RECORD
  5
E45
330
1
100
AcDbSymbolTableRecord
100
AcDbBlockTableRecord
  2
_OPEN
340
0
102
{BLKREFS
331
E44
102
}
 70
     0
280
     1
281
     0
  0
BLOCK_RECORD
  5
18B7
330
1
100
AcDbSymbolTableRecord
100
AcDbBlockTableRecord
  2
_OPEN30
340
0
 70
     0
280
     1
281
     0
  0
ENDTAB
  0
ENDSEC
  0
SECTION
  2
BLOCKS
  0
BLOCK
  5
3
330
2
100
AcDbEntity
  8
0
100
AcDbBlockBegin
  2
*MODEL_SPACE
 70
     0
 10
0.0
 20
0.0
 30
0.0
  3
*MODEL_SPACE
  1

  0
ENDBLK
  5
7
330
2
100
AcDbEntity
  8
0
100
AcDbBlockEnd
  0
BLOCK
  5
9
330
8
100
AcDbEntity
 67
     1
  8
0
100
AcDbBlockBegin
  2
*PAPER_SPACE
 70
     0
 10
0.0
 20
0.0
 30
0.0
  3
*PAPER_SPACE
  1

  0
ENDBLK
  5
A
330
8
100
AcDbEntity
 67
     1
  8
0
100
AcDbBlockEnd
  0
BLOCK
  5
F53
330
F4B
100
AcDbEntity
  8
0
100
AcDbBlockBegin
  2
ITOH105
 70
     0
 10
0.0
 20
0.0
 30
0.0
  3
ITOH105
  1

  0
LINE
  5
F4C
330
F4B
100
AcDbEntity
  8
L-ZISSEN
100
AcDbLine
 10
-14.1543724759548
 20
23.2493648042106
 30
0.0
 11
14.8456275240452
 21
23.2493648042106
 31
0.0
  0
LINE
  5
F4D
330
F4B
100
AcDbEntity
  8
L-ZISSEN
100
AcDbLine
 10
14.8456275240452
 20
23.2493648042106
 30
0.0
 11
14.8456275240452
 21
27.04936480421055
 31
0.0
  0
LINE
  5
F4E
330
F4B
100
AcDbEntity
  8
L-ZISSEN
100
AcDbLine
 10
-14.1543724759548
 20
27.04936480421055
 30
0.0
 11
-14.1543724759548
 21
23.2493648042106
 31
0.0
  0
LINE
  5
F4F
330
F4B
100
AcDbEntity
  8
L-ZISSEN
100
AcDbLine
 10
11.3456275240452
 20
13.34936480421062
 30
0.0
 11
-10.6543724759548
 21
13.34936480421062
 31
0.0
  0
LINE
  5
F50
330
F4B
100
AcDbEntity
  8
L-ZISSEN
100
AcDbLine
 10
-10.6543724759548
 20
13.34936480421062
 30
0.0
 11
-10.6543724759548
 21
23.2493648042106
 31
0.0
  0
LINE
  5
F51
330
F4B
100
AcDbEntity
  8
L-ZISSEN
100
AcDbLine
 10
11.3456275240452
 20
13.34936480421062
 30
0.0
 11
11.3456275240452
 21
23.2493648042106
 31
0.0
  0
LINE
  5
F52
330
F4B
100
AcDbEntity
  8
L-TYUSIN
100
AcDbLine
 10
0.3456275240451987
 20
27.04936480421043
 30
0.0
 11
0.3456275240451987
 21
9.538142199001086
 31
0.0
  0
ENDBLK
  5
F54
330
F4B
100
AcDbEntity
  8
0
100
AcDbBlockEnd
  0
BLOCK
  5
E49
330
E45
100
AcDbEntity
  8
0
100
AcDbBlockBegin
  2
_OPEN
 70
     0
 10
0.0
 20
0.0
 30
0.0
  3
_OPEN
  1

  0
LINE
  5
E46
330
E45
100
AcDbEntity
  8
0
  6
ByBlock
 62
     0
100
AcDbLine
 10
-1.0
 20
0.166667
 30
0.0
 11
0.0
 21
0.0
 31
0.0
  0
LINE
  5
E47
330
E45
100
AcDbEntity
  8
0
  6
ByBlock
 62
     0
100
AcDbLine
 10
0.0
 20
0.0
 30
0.0
 11
-1.0
 21
-0.166667
 31
0.0
  0
LINE
  5
E48
330
E45
100
AcDbEntity
  8
0
  6
ByBlock
 62
     0
100
AcDbLine
 10
0.0
 20
0.0
 30
0.0
 11
-1.0
 21
0.0
 31
0.0
  0
ENDBLK
  5
E4A
330
E45
100
AcDbEntity
  8
0
100
AcDbBlockEnd
  0
BLOCK
  5
18B8
330
18B7
100
AcDbEntity
  8
0
100
AcDbBlockBegin
  2
_OPEN30
 70
     0
 10
0.0
 20
0.0
 30
0.0
  3
_OPEN30
  1

  0
LINE
  5
18B9
330
18B7
100
AcDbEntity
  8
0
  6
ByBlock
 62
     0
100
AcDbLine
 10
-1.0
 20
0.267949
 30
0.0
 11
0.0
 21
0.0
 31
0.0
  0
LINE
  5
18BA
330
18B7
100
AcDbEntity
  8
0
  6
ByBlock
 62
     0
100
AcDbLine
 10
0.0
 20
0.0
 30
0.0
 11
-1.0
 21
-0.267949
 31
0.0
  0
LINE
  5
18BB
330
18B7
100
AcDbEntity
  8
0
  6
ByBlock
 62
     0
100
AcDbLine
 10
0.0
 20
0.0
 30
0.0
 11
-1.0
 21
0.0
 31
0.0
  0
ENDBLK
  5
18BC
330
18B7
100
AcDbEntity
  8
0
100
AcDbBlockEnd
  0
ENDSEC
  0
SECTION
  2
ENTITIES
  0
LINE
  5
271
330
2
100
AcDbEntity
  8
L-ZISSEN
100
AcDbLine
 10
819.4021191251101
 20
453.31329152607
 30
0.0
 11
894.4021191251101
 21
453.31329152607
 31
0.0
  0
LINE
  5
272
330
2
100
AcDbEntity
  8
L-ZISSEN
100
AcDbLine
 10
895.9019432160576
 20
447.11329152607
 30
0.0
 11
817.9022950341625
 21
447.11329152607
 31
0.0
  0
LINE
  5
273
330
2
100
AcDbEntity
  8
L-ZISSEN
100
AcDbLine
 10
817.37201412511
 20
429.61328152607
 30
0.0
 11
896.4322241251101
 21
429.61328152607
 31
0.0
  0
LINE
  5
282
330
2
100
AcDbEntity
  8
L-ZISSEN
100
AcDbLine
 10
819.4021191251101
 20
453.31329152607
 30
0.0
 11
819.4021191251101
 21
447.1132915260702
 31
0.0
  0
LINE
  5
284
330
2
100
AcDbEntity
  8
L-ZISSEN
100
AcDbLine
 10
840.5405741251103
 20
429.61328152607
 30
0.0
 11
840.5405741251101
 21
447.1132915260702
 31
0.0
  0
LINE
  5
294
330
2
100
AcDbEntity
  8
L-ZISSEN
100
AcDbLine
 10
873.2634141251102
 20
429.6132815260698
 30
0.0
 11
873.2634141251102
 21
447.1132615260701
 31
0.0
  0
LINE
  5
295
330
2
100
AcDbEntity
  8
L-ZISSEN
100
AcDbLine
 10
896.4322241251101
 20
429.61328152607
 30
0.0
 11
895.9019432160576
 21
447.11329152607
 31
0.0
  0
LINE
  5
297
330
2
100
AcDbEntity
  8
L-ZISSEN
100
AcDbLine
 10
894.4021191251101
 20
453.31329152607
 30
0.0
 11
894.4021191251101
 21
447.11329152607
 31
0.0
  0
LINE
  5
DF6
330
2
100
AcDbEntity
  8
L-ZISSEN
100
AcDbLine
 10
1029.398776130498
 20
453.5644285776296
 30
0.0029091657583656
 11
1104.398776130498
 21
453.5644285776296
 31
0.0029091657583656
  0
LINE
  5
DF9
330
2
100
AcDbEntity
  8
L-ZISSEN
100
AcDbLine
 10
1056.001597476911
 20
382.3644785776297
 30
0.0029091657583656
 11
1045.898851130498
 21
382.3644785776297
 31
0.0029091657583656
  0
LINE
  5
DFA
330
2
100
AcDbEntity
  8
L-ZISSEN
100
AcDbLine
 10
1047.898901130498
 20
372.9165785776295
 30
0.0029091657583656
 11
1051.10469682799
 21
372.364394223084
 31
0.0029091657583656
  0
LINE
  5
DFB
330
2
100
AcDbEntity
  8
L-ZISSEN
100
AcDbLine
 10
1087.855291130498
 20
379.8644685776295
 30
0.0029091657583656
 11
1045.942491130498
 21
379.8644685776295
 31
0.0029091657583656
  0
CIRCLE
  5
DFD
330
2
100
AcDbEntity
  8
L-ZISSEN
 48
5.0
100
AcDbCircle
 10
1066.898886130498
 20
404.8644585776295
 30
0.0029091657583656
 40
25.0
  0
LINE
  5
DFF
330
2
100
AcDbEntity
  8
L-ZISSEN
100
AcDbLine
 10
1025.898916130498
 20
447.3644385776298
 30
0.0029091657583656
 11
1105.898651736554
 21
447.3644385776295
 31
0.0029091657583656
  0
LINE
  5
E34
330
2
100
AcDbEntity
  8
L-ZISSEN
100
AcDbLine
 10
1047.898901130498
 20
379.8644685776295
 30
0.0029091657583656
 11
1047.898901130498
 21
372.9165785776295
 31
0.0029091657583656
  0
LINE
  5
E3C
330
2
100
AcDbEntity
  8
L-ZISSEN
100
AcDbLine
 10
1044.898896130498
 20
392.9900979632681
 30
0.0029091657583656
 11
1044.898896130498
 21
384.8644306116949
 31
0.0029091657583656
  0
LINE
  5
E3D
330
2
100
AcDbEntity
  8
L-ZISSEN
100
AcDbLine
 10
1045.855211130498
 20
384.8645085776296
 30
0.0029091657583656
 11
1045.942491130498
 21
379.8644685776295
 31
0.0029091657583656
  0
TEXT
  5
E40
330
2
100
AcDbEntity
  8
L-ZISSEN
100
AcDbText
 10
961.9484527651812
 20
443.979178760017
 30
0.0029091657583656
 40
4.5
  1
AIR IN
100
AcDbText
  0
TEXT
  5
E41
330
2
100
AcDbEntity
  8
L-ZISSEN
100
AcDbText
 10
962.7722155815391
 20
434.653839293567
 30
0.0029091657583656
 40
4.5
  1
Rc3/8
100
AcDbText
  0
LINE
  5
E42
330
2
100
AcDbEntity
  8
L-ZISSEN
100
AcDbLine
 10
990.5435771304979
 20
442.7197775328486
 30
0.0029091657583656
 11
960.5435771304979
 21
442.7197775328486
 31
0.0029091657583656
  0
LINE
  5
E43
330
2
100
AcDbEntity
  8
L-ZISSEN
100
AcDbLine
 10
1022.716935615159
 20
410.546419048188
 30
0.0029091657583656
 11
990.5435771304979
 21
442.7197775328486
 31
0.0029091657583656
  0
INSERT
  5
E44
330
2
100
AcDbEntity
  8
L-ZISSEN
100
AcDbBlockReference
  2
_OPEN
 10
1025.898916130498
 20
407.3644385328487
 30
0.0029091657583656
 41
4.5
 42
4.5
 43
4.5
 50
315.0
  0
LINE
  5
E54
330
2
100
AcDbEntity
  8
L-ZISSEN
100
AcDbLine
 10
1029.398776130498
 20
453.5644285776296
 30
0.0029091657583656
 11
1029.398776130498
 21
447.3644285776296
 31
0.0029091657583656
  0
CIRCLE
  5
E6C
330
2
100
AcDbEntity
  8
L-ZISSEN
100
AcDbCircle
 10
1106.898916130498
 20
391.3644345776295
 30
0.0029091657583656
 40
3.5
  0
LINE
  5
E6E
330
2
100
AcDbEntity
  8
L-ZISSEN
100
AcDbLine
 10
1093.431924719489
 20
429.3644345776295
 30
0.0029091657583656
 11
1093.431924719489
 21
385.3644345776295
 31
0.0029091657583656
  0
LINE
  5
E6F
330
2
100
AcDbEntity
  8
L-ZISSEN
100
AcDbLine
 10
1074.635945930944
 20
392.4583434893557
 30
0.0029091657583656
 11
1058.979045514281
 21
417.563656554605
 31
0.0029091657583656
  0
LINE
  5
E72
330
2
100
AcDbEntity
  8
L-ZISSEN
100
AcDbLine
 10
1119.398916130498
 20
429.3644345776295
 30
0.0029091657583656
 11
1119.398916130498
 21
385.3644345776295
 31
0.0029091657583656
  0
LINE
  5
E74
330
2
100
AcDbEntity
  8
L-ZISSEN
100
AcDbLine
 10
1106.398835890943
 20
384.8644306116951
 30
0.0029091657583656
 11
1081.898848842513
 21
384.8644306116951
 31
0.0029091657583656
  0
LINE
  5
E75
330
2
100
AcDbEntity
  8
L-ZISSEN
100
AcDbLine
 10
1119.398916130498
 20
385.3644345776295
 30
0.0029091657583656
 11
1093.431924719489
 21
385.3644345776295
 31
0.0029091657583656
  0
LINE
  5
E77
330
2
100
AcDbEntity
  8
L-ZISSEN
100
AcDbLine
 10
1082.693025433006
 20
372.364394223084
 30
0.0029091657583656
 11
1051.111212817215
 21
372.3644685776295
 31
0.0029091657583656
  0
LINE
  5
E7F
330
2
100
AcDbEntity
  8
L-ZISSEN
100
AcDbLine
 10
1085.898821130498
 20
379.8644585776297
 30
0.0029091657583656
 11
1085.898821130498
 21
372.9165785776295
 31
0.0029091657583656
  0
LINE
  5
E81
330
2
100
AcDbEntity
  8
L-ZISSEN
100
AcDbLine
 10
1085.898821130498
 20
372.9165785776295
 30
0.0029091657583656
 11
1082.693025433006
 21
372.364394223084
 31
0.0029091657583656
  0
LINE
  5
E82
330
2
100
AcDbEntity
  8
L-ZISSEN
100
AcDbLine
 10
1087.898921130498
 20
382.3644785776297
 30
0.0029091657583656
 11
1077.796174784085
 21
382.3644785776297
 31
0.0029091657583656
  0
LINE
  5
E83
330
2
100
AcDbEntity
  8
L-ZISSEN
100
AcDbLine
 10
1088.898896130498
 20
392.9901350179524
 30
0.0029091657583656
 11
1088.898896130498
 21
384.8644306116949
 31
0.0029091657583656
  0
LINE
  5
E84
330
2
100
AcDbEntity
  8
L-ZISSEN
100
AcDbLine
 10
1087.942541130498
 20
384.8643885776297
 30
0.0029091657583656
 11
1087.855301130498
 21
379.8644685776295
 31
0.0029091657583656
  0
ARC
  5
E89
330
2
100
AcDbEntity
  8
L-ZISSEN
100
AcDbCircle
 10
1106.398836048023
 20
385.3644305516951
 30
0.0029091657583656
 40
0.49999994
100
AcDbArc
 50
269.9999819999857
 51
359.9999599999977
  0
LINE
  5
E9C
330
2
100
AcDbEntity
  8
L-ZISSEN
100
AcDbLine
 10
1076.798776130499
 20
471.7644285776296
 30
0.0029091657583656
 11
1076.798776130499
 21
453.5644285776294
 31
0.0029091657583656
  0
LINE
  5
E9D
330
2
100
AcDbEntity
  8
L-ZISSEN
100
AcDbLine
 10
1103.798776130498
 20
471.7644285776296
 30
0.0029091657583656
 11
1103.798776130499
 21
453.5644285776294
 31
0.0029091657583656
  0
LINE
  5
E9F
330
2
100
AcDbEntity
  8
L-TYUSIN
 48
0.5
100
AcDbLine
 10
1056.898958902767
 20
448.5645009029372
 30
-0.0135289812142341
 11
1056.898958902767
 21
525.9285009029373
 31
-0.0135289812142341
  0
LINE
  5
EA0
330
2
100
AcDbEntity
  8
L-ZISSEN
100
AcDbLine
 10
1119.398916130498
 20
429.3644345776295
 30
0.0029091657583656
 11
1093.431924719489
 21
429.3644345776295
 31
0.0029091657583656
  0
LINE
  5
EA1
330
2
100
AcDbEntity
  8
L-ZISSEN
100
AcDbLine
 10
1082.898866130498
 20
424.0738479484449
 30
0.0029091657583656
 11
1082.898866130498
 21
429.8644285776296
 31
0.0029091657583656
  0
LINE
  5
EA2
330
2
100
AcDbEntity
  8
L-ZISSEN
100
AcDbLine
 10
1050.898896130498
 20
424.0738396191908
 30
0.0029091657583656
 11
1050.898896130498
 21
429.8644285776296
 31
0.0029091657583656
  0
LINE
  5
EA3
330
2
100
AcDbEntity
  8
L-ZISSEN
100
AcDbLine
 10
1051.037531130498
 20
429.8644285776296
 30
0.0029091657583656
 11
1051.037531130498
 21
447.3644085776296
 31
0.0029091657583656
  0
LINE
  5
EA4
330
2
100
AcDbEntity
  8
L-ZISSEN
100
AcDbLine
 10
1082.760371130498
 20
429.8644285776296
 30
0.0029091657583656
 11
1082.760371130498
 21
447.3644385776298
 31
0.0029091657583656
  0
CIRCLE
  5
EA5
330
2
100
AcDbEntity
  8
L-ZISSEN
100
AcDbCircle
 10
1106.898916130498
 20
423.3644345776295
 30
0.0029091657583656
 40
3.5
  0
LINE
  5
EA6
330
2
100
AcDbEntity
  8
L-ZISSEN
100
AcDbLine
 10
1106.428951434772
 20
429.8644285365166
 30
0.0029091657583656
 11
1105.898651736554
 21
447.3644385776296
 31
0.0029091657583656
  0
LINE
  5
EA9
330
2
100
AcDbEntity
  8
L-ZISSEN
100
AcDbLine
 10
1106.898826130498
 20
429.3644345776295
 30
0.0029091657583656
 11
1106.898826130498
 21
429.8644285776306
 31
0.0029091657583656
  0
LINE
  5
EAC
330
2
100
AcDbEntity
  8
L-ZISSEN
100
AcDbLine
 10
1104.398776130498
 20
453.5644285776296
 30
0.0029091657583656
 11
1104.398776130498
 21
447.3644285776296
 31
0.0029091657583656
  0
LINE
  5
EB1
330
2
100
AcDbEntity
  8
L-ZISSEN
100
AcDbLine
 10
1081.798776130498
 20
500.7644285776296
 30
0.0029091657583656
 11
1101.798776130499
 21
500.7644285776296
 31
0.0029091657583656
  0
LINE
  5
EB2
330
2
100
AcDbEntity
  8
L-ZISSEN
100
AcDbLine
 10
1103.798776130498
 20
471.7644285776296
 30
0.0029091657583656
 11
1076.798776130499
 21
471.7644285776296
 31
0.0029091657583656
  0
LINE
  5
EB3
330
2
100
AcDbEntity
  8
L-ZISSEN
100
AcDbLine
 10
1103.798776130499
 20
468.7644285776296
 30
0.0029091657583656
 11
1076.798776130499
 21
468.7644285776296
 31
0.0029091657583656
  0
LINE
  5
EB4
330
2
100
AcDbEntity
  8
L-ZISSEN
100
AcDbLine
 10
1079.798776130498
 20
498.7644285776296
 30
0.0029091657583656
 11
1103.798776130498
 21
498.7644285776296
 31
0.0029091657583656
  0
LINE
  5
EB5
330
2
100
AcDbEntity
  8
L-ZISSEN
100
AcDbLine
 10
1079.798776130498
 20
496.7644285776296
 30
0.0029091657583656
 11
1079.798776130498
 21
498.7644285776296
 31
0.0029091657583656
  0
LINE
  5
EB9
330
2
100
AcDbEntity
  8
L-ZISSEN
100
AcDbLine
 10
1079.798776130498
 20
471.7644285776296
 30
0.0029091657583656
 11
1079.798776130498
 21
496.7644285776296
 31
0.0029091657583656
  0
LINE
  5
EC7
330
2
100
AcDbEntity
  8
L-ZISSEN
100
AcDbLine
 10
1079.798776130498
 20
498.7644285776296
 30
0.0029091657583656
 11
1081.798776130498
 21
500.7644285776296
 31
0.0029091657583656
  0
LINE
  5
EC8
330
2
100
AcDbEntity
  8
L-ZISSEN
100
AcDbLine
 10
1117.798776130498
 20
507.6097280392501
 30
0.0029091657583656
 11
1117.798776130498
 21
495.9097280392503
 31
0.0029091657583656
  0
LINE
  5
EC9
330
2
100
AcDbEntity
  8
L-TYUSIN
 48
0.5
100
AcDbLine
 10
1125.298776130498
 20
523.1097280392502
 30
0.0029091657583656
 11
1125.298776130499
 21
490.9097280392503
 31
0.0029091657583656
  0
LINE
  5
ECA
330
2
100
AcDbEntity
  8
L-ZISSEN
100
AcDbLine
 10
1132.798776130498
 20
507.6097280392501
 30
0.0029091657583656
 11
1132.798776130498
 21
495.9097280392503
 31
0.0029091657583656
  0
LINE
  5
ECB
330
2
100
AcDbEntity
  8
L-ZISSEN
100
AcDbLine
 10
1103.798776130498
 20
496.7644285776296
 30
0.0029091657583656
 11
1103.798776130498
 21
498.7644285776296
 31
0.0029091657583656
  0
LINE
  5
ECC
330
2
100
AcDbEntity
  8
L-ZISSEN
100
AcDbLine
 10
1106.798776130498
 20
495.9097280392503
 30
0.0029091657583656
 11
1132.798776130498
 21
495.9097280392503
 31
0.0029091657583656
  0
LINE
  5
ECD
330
2
100
AcDbEntity
  8
L-ZISSEN
100
AcDbLine
 10
1132.298776130498
 20
480.1097280392501
 30
0.0029091657583656
 11
1106.798776130498
 21
480.1097280392501
 31
0.0029091657583656
  0
LINE
  5
ECF
330
2
100
AcDbEntity
  8
L-ZISSEN
100
AcDbLine
 10
1103.798776130498
 20
479.2644285776296
 30
0.0029091657583656
 11
1105.798776130498
 21
481.2644285776296
 31
0.0029091657583656
  0
LINE
  5
ED0
330
2
100
AcDbEntity
  8
L-ZISSEN
100
AcDbLine
 10
1103.798776130498
 20
471.7644285776296
 30
0.0029091657583656
 11
1103.798776130498
 21
496.7644285776296
 31
0.0029091657583656
  0
LINE
  5
ED1
330
2
100
AcDbEntity
  8
L-ZISSEN
100
AcDbLine
 10
1106.798776130498
 20
480.5097280392504
 30
0.0029091657583656
 11
1105.798776130498
 21
480.5097280392504
 31
0.0029091657583656
  0
LINE
  5
ED2
330
2
100
AcDbEntity
  8
L-ZISSEN
100
AcDbLine
 10
1103.798776130498
 20
496.7644285776296
 30
0.0029091657583656
 11
1105.798776130498
 21
495.6097280392506
 31
0.0029091657583656
  0
LINE
  5
ED3
330
2
100
AcDbEntity
  8
L-ZISSEN
100
AcDbLine
 10
1106.798776130498
 20
495.5097280392502
 30
0.0029091657583656
 11
1105.798776130498
 21
495.5097280392502
 31
0.0029091657583656
  0
LINE
  5
ED4
330
2
100
AcDbEntity
  8
L-ZISSEN
100
AcDbLine
 10
1106.798776130498
 20
480.1097280392501
 30
0.0029091657583656
 11
1106.798776130498
 21
495.9097280392503
 31
0.0029091657583656
  0
LINE
  5
ED5
330
2
100
AcDbEntity
  8
L-ZISSEN
100
AcDbLine
 10
1105.798776130498
 20
480.5097280392504
 30
0.0029091657583656
 11
1105.798776130498
 21
495.5097280392502
 31
0.0029091657583656
  0
LINE
  5
ED6
330
2
100
AcDbEntity
  8
L-ZISSEN
100
AcDbLine
 10
1106.798776130498
 20
480.5097280392502
 30
0.0029091657583656
 11
1106.798776130498
 21
495.5097280392502
 31
0.0029091657583656
  0
ARC
  5
ED7
330
2
100
AcDbEntity
  8
L-ZISSEN
100
AcDbCircle
 10
1132.298776130498
 20
480.6097280392501
 30
0.0029091657583656
 40
0.5
100
AcDbArc
 50
270.0
 51
0.0
  0
LINE
  5
ED9
330
2
100
AcDbEntity
  8
L-ZISSEN
100
AcDbLine
 10
1132.798776130498
 20
480.6097280392501
 30
0.0029091657583656
 11
1132.798776130498
 21
495.9097280392503
 31
0.0029091657583656
  0
LINE
  5
EDA
330
2
100
AcDbEntity
  8
L-ZISSEN
100
AcDbLine
 10
1132.304329629964
 20
518.1097280392502
 30
0.0029091657583656
 11
1118.293222631033
 21
518.1097280392502
 31
0.0029091657583656
  0
LINE
  5
EDB
330
2
100
AcDbEntity
  8
L-ZISSEN
100
AcDbLine
 10
1117.793222631033
 20
513.6097280392502
 30
0.0029091657583656
 11
1132.804329629964
 21
513.6097280392502
 31
0.0029091657583656
  0
LINE
  5
EDC
330
2
100
AcDbEntity
  8
L-ZISSEN
100
AcDbLine
 10
1132.298776130498
 20
508.1097280392501
 30
0.0029091657583656
 11
1118.298776130498
 21
508.1097280392501
 31
0.0029091657583656
  0
LINE
  5
EDD
330
2
100
AcDbEntity
  8
L-ZISSEN
100
AcDbLine
 10
1117.793222631033
 20
517.6097280392502
 30
0.0029091657583656
 11
1117.793222631033
 21
513.6097280392502
 31
0.0029091657583656
  0
LINE
  5
EDE
330
2
100
AcDbEntity
  8
L-ZISSEN
100
AcDbLine
 10
1121.545999380766
 20
518.1097280392502
 30
0.0029091657583656
 11
1121.545999380766
 21
513.6097280392502
 31
0.0029091657583656
  0
LINE
  5
EDF
330
2
100
AcDbEntity
  8
L-ZISSEN
100
AcDbLine
 10
1103.798776130499
 20
498.7644285776296
 30
0.0029091657583656
 11
1101.798776130499
 21
500.7644285776296
 31
0.0029091657583656
  0
LINE
  5
EE0
330
2
100
AcDbEntity
  8
L-ZISSEN
100
AcDbLine
 10
1118.998774966108
 20
513.6097280392502
 30
0.0029091657583656
 11
1118.998774966108
 21
508.1097280392501
 31
0.0029091657583656
  0
ARC
  5
EE1
330
2
100
AcDbEntity
  8
L-ZISSEN
100
AcDbCircle
 10
1118.298776130498
 20
507.6097280392501
 30
0.0029091657583656
 40
0.5
100
AcDbArc
 50
90.0
 51
180.0
  0
ARC
  5
EE2
330
2
100
AcDbEntity
  8
L-ZISSEN
100
AcDbCircle
 10
1118.293222631033
 20
517.6097280392502
 30
0.0029091657583656
 40
0.5
100
AcDbArc
 50
90.0
 51
180.0
  0
LINE
  5
EE3
330
2
100
AcDbEntity
  8
L-ZISSEN
100
AcDbLine
 10
1129.051552880231
 20
518.1097280392502
 30
0.0029091657583656
 11
1129.051552880231
 21
513.6097280392502
 31
0.0029091657583656
  0
LINE
  5
EE4
330
2
100
AcDbEntity
  8
L-ZISSEN
100
AcDbLine
 10
1132.804329629964
 20
517.6097280392502
 30
0.0029091657583656
 11
1132.804329629964
 21
513.6097280392502
 31
0.0029091657583656
  0
ARC
  5
EE5
330
2
100
AcDbEntity
  8
L-ZISSEN
100
AcDbCircle
 10
1132.298776130498
 20
507.6097280392501
 30
0.0029091657583656
 40
0.5
100
AcDbArc
 50
0.0
 51
90.0
  0
LINE
  5
EE6
330
2
100
AcDbEntity
  8
L-ZISSEN
100
AcDbLine
 10
1131.598774966108
 20
513.6097280392502
 30
0.0029091657583656
 11
1131.598774966108
 21
508.1097280392503
 31
0.0029091657583656
  0
ARC
  5
EE7
330
2
100
AcDbEntity
  8
L-ZISSEN
100
AcDbCircle
 10
1132.304329629964
 20
517.6097280392502
 30
0.0029091657583656
 40
0.5
100
AcDbArc
 50
0.0
 51
90.0
  0
LINE
  5
F76
330
2
100
AcDbEntity
  8
L-TYUSIN
 48
0.5
100
AcDbLine
 10
1119.398861961751
 20
677.0247564468664
 30
0.0029091657583656
 11
1020.898861961751
 21
677.0247459116532
 31
0.0029091657583656
  0
LINE
  5
F80
330
2
100
AcDbEntity
  8
L-ZISSEN
100
AcDbLine
 10
1027.39886196175
 20
692.5577650358573
 30
0.0029091657583656
 11
1051.365853372759
 21
716.5247564468664
 31
0.0029091657583656
  0
LINE
  5
F81
330
2
100
AcDbEntity
  8
L-ZISSEN
 48
5.0
100
AcDbLine
 10
1091.898838074052
 20
629.61329152607
 30
0.0
 11
1041.898838074052
 21
629.61329152607
 31
0.0
  0
LINE
  5
F82
330
2
100
AcDbEntity
  8
L-ZISSEN
 48
0.5
100
AcDbLine
 10
1091.898838074052
 20
602.61329152607
 30
0.0
 11
1041.898838074052
 21
602.61329152607
 31
0.0
  0
LINE
  5
F83
330
2
100
AcDbEntity
  8
L-ZISSEN
100
AcDbLine
 10
1051.365853372759
 20
637.5247564468664
 30
0.0029091657583656
 11
1027.39886196175
 21
661.4917478578752
 31
0.0029091657583656
  0
LINE
  5
F85
330
2
100
AcDbEntity
  8
L-ZISSEN
 48
5.0
100
AcDbLine
 10
1041.898838074052
 20
602.61329152607
 30
0.0
 11
1041.898838074052
 21
629.6132915260698
 31
0.0
  0
LINE
  5
F91
330
2
100
AcDbEntity
  8
L-ZISSEN
100
AcDbLine
 10
1027.39886196175
 20
661.4917478578752
 30
0.0029091657583656
 11
1027.39886196175
 21
692.5577650358573
 31
0.0029091657583656
  0
LINE
  5
FAB
330
2
100
AcDbEntity
  8
L-ZISSEN
 48
5.0
100
AcDbLine
 10
1091.898838074052
 20
602.61329152607
 30
0.0
 11
1091.898838074052
 21
629.6132915260698
 31
0.0
  0
LINE
  5
FAC
330
2
100
AcDbEntity
  8
L-TYUSIN
 48
0.5
100
AcDbLine
 10
1066.898838074052
 20
597.0247564468664
 30
0.0029091657583656
 11
1066.89886196175
 21
721.5247564468664
 31
0.0029091657583656
  0
LINE
  5
FEB
330
2
100
AcDbEntity
  8
L-ZISSEN
100
AcDbLine
 10
1106.89886196175
 20
684.7747508316503
 30
0.0029091657583656
 11
1106.89886196175
 21
695.0247564468664
 31
0.0029091657583656
  0
LWPOLYLINE
  5
FEC
330
2
100
AcDbEntity
  8
L-ZISSEN
100
AcDbPolyline
 90
        3
 70
     0
 43
0.0
 38
0.0029091657583656
 10
1082.431870550741
 20
716.5247564468664
 10
1106.39886196175
 20
692.5577650358573
 10
1106.39886196175
 20
684.7747508316503
  0
LINE
  5
FF9
330
2
100
AcDbEntity
  8
L-ZISSEN
100
AcDbLine
 10
1119.398861961751
 20
652.0247564468664
 30
0.0029091657583656
 11
1096.931870550741
 21
652.0247564468664
 31
0.0029091657583656
  0
LINE
  5
FFA
330
2
100
AcDbEntity
  8
L-ZISSEN
100
AcDbLine
 10
1106.39886196175
 20
661.4917478578752
 30
0.0029091657583656
 11
1082.431870550741
 21
637.5247564468664
 31
0.0029091657583656
  0
LINE
  5
FFB
330
2
100
AcDbEntity
  8
L-ZISSEN
100
AcDbLine
 10
1082.431870550741
 20
637.5247564468664
 30
0.0029091657583656
 11
1051.365853372759
 21
637.5247564468664
 31
0.0029091657583656
  0
LINE
  5
FFC
330
2
100
AcDbEntity
  8
L-ZISSEN
 48
5.0
100
AcDbLine
 10
1060.198838074052
 20
629.6132915260698
 30
0.0
 11
1060.198838074052
 21
637.5247564468664
 31
0.0029091657583656
  0
LINE
  5
FFE
330
2
100
AcDbEntity
  8
L-ZISSEN
 48
5.0
100
AcDbLine
 10
1074.198838074052
 20
629.6132915260698
 30
0.0
 11
1074.198838074052
 21
637.5247564468664
 31
0.0029091657583656
  0
LINE
  5
100D
330
2
100
AcDbEntity
  8
L-ZISSEN
100
AcDbLine
 10
1110.398861961751
 20
659.0247564468664
 30
0.0029091657583656
 11
1117.39886196175
 21
652.0247564468664
 31
0.0029091657583656
  0
LINE
  5
1021
330
2
100
AcDbEntity
  8
L-ZISSEN
100
AcDbLine
 10
1110.398861961751
 20
659.0247564468664
 30
0.0029091657583656
 11
1103.931870550741
 21
659.0247564468664
 31
0.0029091657583656
  0
LINE
  5
1022
330
2
100
AcDbEntity
  8
L-ZISSEN
100
AcDbLine
 10
1106.89886196175
 20
659.0247564468666
 30
0.0029091657583656
 11
1106.89886196175
 21
669.2747508316503
 31
0.0029091657583656
  0
LINE
  5
1023
330
2
100
AcDbEntity
  8
L-ZISSEN
100
AcDbLine
 10
1106.39886196175
 20
669.2747508316503
 30
0.0029091657583656
 11
1106.39886196175
 21
661.4917478578752
 31
0.0029091657583656
  0
LINE
  5
102A
330
2
100
AcDbEntity
  8
L-ZISSEN
100
AcDbLine
 10
1119.398861961751
 20
702.0247564468664
 30
0.0029091657583656
 11
1096.931870550741
 21
702.0247564468664
 31
0.0029091657583656
  0
LINE
  5
102B
330
2
100
AcDbEntity
  8
L-ZISSEN
100
AcDbLine
 10
1051.365853372759
 20
716.5247564468664
 30
0.0029091657583656
 11
1082.431870550741
 21
716.5247564468664
 31
0.0029091657583656
  0
LINE
  5
102E
330
2
100
AcDbEntity
  8
L-ZISSEN
100
AcDbLine
 10
1110.398861961751
 20
695.0247564468664
 30
0.0029091657583656
 11
1103.931870550741
 21
695.0247564468664
 31
0.0029091657583656
  0
LINE
  5
102F
330
2
100
AcDbEntity
  8
L-ZISSEN
100
AcDbLine
 10
1110.398861961751
 20
695.0247564468664
 30
0.0029091657583656
 11
1117.398861961751
 21
702.0247564468664
 31
0.0029091657583656
  0
SOLID
  5
10ED
330
2
100
AcDbEntity
  8
L-ZISSEN
100
AcDbTrace
 10
1120.768839603096
 20
405.8696366680984
 30
0.0029091657583656
 11
1121.179589007668
 21
406.3947360597263
 31
0.0029091657583656
 12
1119.398916130498
 22
407.3644345776291
 32
0.0029091657583656
 13
1119.398916130498
 23
407.3644345776291
 33
0.0029091657583656
  0
TEXT
  5
10EE
330
2
100
AcDbEntity
  8
L-ZISSEN
100
AcDbText
 10
1138.675123000124
 20
393.1649008781722
 30
0.0029091657583656
 40
4.5
  1
P.P
100
AcDbText
  0
LINE
  5
10EF
330
2
100
AcDbEntity
  8
L-ZISSEN
100
AcDbLine
 10
1120.974214305382
 20
406.1321863639123
 30
0.0029091657583656
 11
1134.675123000124
 21
395.4149008781722
 31
0.0029091657583656
  0
LINE
  5
10F5
330
2
100
AcDbEntity
  8
L-ZISSEN
100
AcDbLine
 10
1119.398861961751
 20
702.0247564468664
 30
0.0029091657583656
 11
1119.398861961751
 21
684.7747508316503
 31
0.0029091657583656
  0
LINE
  5
10F6
330
2
100
AcDbEntity
  8
L-ZISSEN
100
AcDbLine
 10
1119.398861961751
 20
652.0247564468664
 30
0.0029091657583656
 11
1119.398861961751
 21
669.2747508316503
 31
0.0029091657583656
  0
TEXT
  5
10F8
330
2
100
AcDbEntity
  8
L-ZISSEN
100
AcDbText
 10
1138.675068831377
 20
662.8252227474095
 30
0.0029091657583656
 40
4.5
  1
P.P
100
AcDbText
  0
LINE
  5
10F9
330
2
100
AcDbEntity
  8
L-ZISSEN
100
AcDbLine
 10
1120.885982923151
 20
675.7925026179335
 30
0.0029091657583656
 11
1134.675068831377
 21
665.0752227474095
 31
0.0029091657583656
  0
LINE
  5
1459
330
2
100
AcDbEntity
  8
L-ZISSEN
100
AcDbLine
 10
893.5093671251101
 20
395.12871952607
 30
0.0
 11
893.5093751251101
 21
424.0978635260701
 31
0.0
  0
LINE
  5
145A
330
2
100
AcDbEntity
  8
L-ZISSEN
100
AcDbLine
 10
894.0093711251101
 20
399.61329152607
 30
0.0
 11
894.0093751251101
 21
419.61328352607
 31
0.0
  0
LINE
  5
145B
330
2
100
AcDbEntity
  8
L-ZISSEN
100
AcDbLine
 10
894.4021171251101
 20
429.61328152607
 30
0.0
 11
894.4021171251101
 21
425.19063852607
 31
0.0
  0
LINE
  5
145C
330
2
100
AcDbEntity
  8
L-ZISSEN
100
AcDbLine
 10
893.50935212511
 20
419.61329152607
 30
0.0
 11
894.00935212511
 21
419.61329152607
 31
0.0
  0
ARC
  5
145D
330
2
100
AcDbEntity
  8
L-ZISSEN
100
AcDbCircle
 10
893.4021171251101
 20
425.19063852607
 30
0.0
 40
1.0
100
AcDbArc
 50
299.9999699999973
 51
0.000019999998756
  0
LINE
  5
145E
330
2
100
AcDbEntity
  8
L-ZISSEN
100
AcDbLine
 10
893.9021131251101
 20
424.32461052607
 30
0.0
 11
893.5093751251101
 21
424.0978635260701
 31
0.0
  0
LINE
  5
1461
330
2
100
AcDbEntity
  8
L-ZISSEN
100
AcDbLine
 10
874.9021191251101
 20
429.61328152607
 30
0.0
 11
874.9021191251101
 21
416.61329152607
 31
0.0
  0
LINE
  5
1462
330
2
100
AcDbEntity
  8
L-ZISSEN
100
AcDbLine
 10
821.10069912511
 20
423.63262252607
 30
0.0
 11
821.10069912511
 21
395.59396552607
 31
0.0
  0
LINE
  5
1464
330
2
100
AcDbEntity
  8
L-ZISSEN
100
AcDbLine
 10
838.9021191251101
 20
429.6132815260698
 30
0.0
 11
838.9021191251101
 21
416.61329152607
 31
0.0
  0
LINE
  5
1465
330
2
100
AcDbEntity
  8
L-ZISSEN
100
AcDbLine
 10
819.4021171251101
 20
429.61328152607
 30
0.0
 11
819.4021171251101
 21
425.1906385260702
 31
0.0
  0
ARC
  5
1466
330
2
100
AcDbEntity
  8
L-ZISSEN
100
AcDbCircle
 10
820.4021171251101
 20
425.1906385260702
 30
0.0
 40
1.0
100
AcDbArc
 50
180.0
 51
239.9999899999992
  0
LINE
  5
1467
330
2
100
AcDbEntity
  8
L-ZISSEN
100
AcDbLine
 10
819.90212912511
 20
424.3246175260702
 30
0.0
 11
821.10069912511
 21
423.6326225260702
 31
0.0
  0
LINE
  5
1468
330
2
100
AcDbEntity
  8
L-ZISSEN
100
AcDbLine
 10
838.9021191251101
 20
384.6133415260699
 30
0.0
 11
838.9021191251101
 21
397.61329152607
 31
0.0
  0
LINE
  5
1469
330
2
100
AcDbEntity
  8
L-ZISSEN
100
AcDbLine
 10
838.9021191251101
 20
397.61329152607
 30
0.0
 11
834.9021191251101
 21
399.11329152607
 31
0.0
  0
LINE
  5
146A
330
2
100
AcDbEntity
  8
L-ZISSEN
100
AcDbLine
 10
834.9021191251101
 20
399.11329152607
 30
0.0
 11
834.9021191251101
 21
415.11329152607
 31
0.0
  0
LINE
  5
146B
330
2
100
AcDbEntity
  8
L-ZISSEN
100
AcDbLine
 10
819.90213212511
 20
394.90197252607
 30
0.0
 11
821.10069912511
 21
395.59396552607
 31
0.0
  0
LINE
  5
146C
330
2
100
AcDbEntity
  8
L-ZISSEN
100
AcDbLine
 10
819.4021171251101
 20
394.03594452607
 30
0.0
 11
819.4021171251101
 21
384.61331052607
 31
0.0
  0
ARC
  5
146D
330
2
100
AcDbEntity
  8
L-ZISSEN
100
AcDbCircle
 10
820.4021171251101
 20
394.03594452607
 30
0.0
 40
1.0
100
AcDbArc
 50
120.0000670000048
 51
180.0
  0
ARC
  5
146E
330
2
100
AcDbEntity
  8
L-ZISSEN
100
AcDbCircle
 10
820.4021171251101
 20
394.03594452607
 30
0.0
 40
1.0
100
AcDbArc
 50
120.0000119999954
 51
180.0
  0
LINE
  5
146F
330
2
100
AcDbEntity
  8
L-ZISSEN
100
AcDbLine
 10
874.9021191251101
 20
384.6133415260699
 30
0.0
 11
874.9021191251101
 21
397.61329152607
 31
0.0
  0
LINE
  5
1470
330
2
100
AcDbEntity
  8
L-ZISSEN
100
AcDbLine
 10
874.9021191251101
 20
397.61329152607
 30
0.0
 11
878.9021191251101
 21
399.11329152607
 31
0.0
  0
LINE
  5
1471
330
2
100
AcDbEntity
  8
L-ZISSEN
100
AcDbLine
 10
878.9021191251101
 20
399.11329152607
 30
0.0
 11
878.9021191251101
 21
415.11329152607
 31
0.0
  0
LINE
  5
1472
330
2
100
AcDbEntity
  8
L-ZISSEN
100
AcDbLine
 10
874.9021191251101
 20
416.61329152607
 30
0.0
 11
878.9021191251101
 21
415.11329152607
 31
0.0
  0
LINE
  5
1473
330
2
100
AcDbEntity
  8
L-ZISSEN
100
AcDbLine
 10
838.9020862159522
 20
416.6133097465244
 30
0.0
 11
834.9020846975844
 21
415.1133137955113
 31
0.0
  0
LINE
  5
1474
330
2
100
AcDbEntity
  8
L-ZISSEN
100
AcDbLine
 10
893.9018021868129
 20
394.9010516392411
 30
0.0000000000000001
 11
893.5093671251101
 21
395.12871952607
 31
0.0
  0
LINE
  5
1475
330
2
100
AcDbEntity
  8
L-ZISSEN
100
AcDbLine
 10
894.4017956321353
 20
394.0350111946639
 30
0.0000000000000001
 11
894.4015611127237
 21
384.6123771975823
 31
0.0000000000000001
  0
ARC
  5
1476
330
2
100
AcDbEntity
  8
L-ZISSEN
100
AcDbCircle
 10
893.4017956324452
 20
394.035036083608
 30
0.0000000000000001
 40
1.0
100
AcDbArc
 50
359.9985739685433
 51
59.99850696854236
  0
ARC
  5
1477
330
2
100
AcDbEntity
  8
L-ZISSEN
100
AcDbCircle
 10
893.4017956324452
 20
394.035036083608
 30
0.0000000000000001
 40
1.0
100
AcDbArc
 50
359.9985739685433
 51
59.99856196854656
  0
CIRCLE
  5
14FA
330
2
100
AcDbEntity
  8
L-ZISSEN
100
AcDbCircle
 10
856.9021191251101
 20
407.1221547066467
 30
-0.2945277853809416
 40
8.65
  0
LINE
  5
14FF
330
2
100
AcDbEntity
  8
L-ZISSEN
100
AcDbLine
 10
870.6521191251101
 20
518.6772915260701
 30
0.0
 11
870.6521191251101
 21
514.6772915260701
 31
0.0
  0
LINE
  5
1500
330
2
100
AcDbEntity
  8
L-ZISSEN
100
AcDbLine
 10
843.1521191251101
 20
518.6772915260701
 30
0.0
 11
843.1521191251101
 21
514.6772915260701
 31
0.0
  0
LINE
  5
1501
330
2
100
AcDbEntity
  8
L-ZISSEN
100
AcDbLine
 10
837.9021191251101
 20
487.77729152607
 30
0.0
 11
875.9021191251101
 21
487.77729152607
 31
0.0
  0
LINE
  5
1502
330
2
100
AcDbEntity
  8
L-ZISSEN
100
AcDbLine
 10
841.9021191251101
 20
500.6772915260701
 30
0.0
 11
871.9021191251101
 21
500.6772915260701
 31
0.0
  0
LINE
  5
1503
330
2
100
AcDbEntity
  8
L-ZISSEN
100
AcDbLine
 10
837.9021191251101
 20
475.67729152607
 30
0.0
 11
875.9021191251101
 21
475.67729152607
 31
0.0
  0
LINE
  5
1504
330
2
100
AcDbEntity
  8
L-ZISSEN
100
AcDbLine
 10
837.9021191251101
 20
475.67729152607
 30
0.0
 11
837.9021191251101
 21
487.77729152607
 31
0.0
  0
LINE
  5
1505
330
2
100
AcDbEntity
  8
L-ZISSEN
100
AcDbLine
 10
839.9021191251101
 20
453.31329152607
 30
0.0
 11
839.9021191251101
 21
473.17729152607
 31
0.0
  0
LINE
  5
1506
330
2
100
AcDbEntity
  8
L-ZISSEN
100
AcDbLine
 10
841.1021191251101
 20
473.17729152607
 30
0.0
 11
841.1021191251101
 21
475.67729152607
 31
0.0
  0
LINE
  5
1507
330
2
100
AcDbEntity
  8
L-ZISSEN
100
AcDbLine
 10
841.9021191251101
 20
487.77729152607
 30
0.0
 11
841.9021191251101
 21
500.6772915260701
 31
0.0
  0
LINE
  5
1508
330
2
100
AcDbEntity
  8
L-ZISSEN
100
AcDbLine
 10
875.9021191251101
 20
475.67729152607
 30
0.0
 11
875.9021191251101
 21
487.77729152607
 31
0.0
  0
LINE
  5
1509
330
2
100
AcDbEntity
  8
L-ZISSEN
100
AcDbLine
 10
873.9021191251101
 20
453.31329152607
 30
0.0
 11
873.9021191251101
 21
473.17729152607
 31
0.0
  0
LINE
  5
150A
330
2
100
AcDbEntity
  8
L-ZISSEN
100
AcDbLine
 10
872.70211912511
 20
473.17729152607
 30
0.0
 11
872.70211912511
 21
475.67729152607
 31
0.0
  0
LINE
  5
150B
330
2
100
AcDbEntity
  8
L-ZISSEN
100
AcDbLine
 10
871.9021191251101
 20
487.77729152607
 30
0.0
 11
871.9021191251101
 21
500.6772915260701
 31
0.0
  0
LINE
  5
150C
330
2
100
AcDbEntity
  8
L-ZISSEN
100
AcDbLine
 10
866.9021191251101
 20
500.6772915260701
 30
0.0
 11
866.9021191251101
 21
502.4772915260701
 31
0.0
  0
LINE
  5
150D
330
2
100
AcDbEntity
  8
L-ZISSEN
100
AcDbLine
 10
870.1521191251101
 20
514.6772915260701
 30
0.0
 11
870.1521191251101
 21
502.4772915260701
 31
0.0
  0
LINE
  5
150E
330
2
100
AcDbEntity
  8
L-ZISSEN
100
AcDbLine
 10
846.9021191251101
 20
500.6772915260701
 30
0.0
 11
846.9021191251101
 21
502.4772915260701
 31
0.0
  0
LINE
  5
150F
330
2
100
AcDbEntity
  8
L-ZISSEN
100
AcDbLine
 10
843.6521191251101
 20
514.6772915260701
 30
0.0
 11
843.6521191251101
 21
502.4772915260701
 31
0.0
  0
LINE
  5
1510
330
2
100
AcDbEntity
  8
L-ZISSEN
100
AcDbLine
 10
843.1521191251101
 20
514.6772915260701
 30
0.0
 11
870.6521191251101
 21
514.6772915260701
 31
0.0
  0
LINE
  5
1511
330
2
100
AcDbEntity
  8
L-ZISSEN
100
AcDbLine
 10
843.6521191251101
 20
502.4772915260701
 30
0.0
 11
870.1521191251101
 21
502.4772915260701
 31
0.0
  0
LINE
  5
1512
330
2
100
AcDbEntity
  8
L-ZISSEN
100
AcDbLine
 10
869.4021191251101
 20
518.6772915260701
 30
0.0
 11
869.4021191251101
 21
520.6772915260701
 31
0.0
  0
LINE
  5
1513
330
2
100
AcDbEntity
  8
L-ZISSEN
100
AcDbLine
 10
844.4021191251101
 20
518.6772915260701
 30
0.0
 11
844.4021191251101
 21
520.6772915260701
 31
0.0
  0
LINE
  5
1514
330
2
100
AcDbEntity
  8
L-ZISSEN
100
AcDbLine
 10
843.1521191251101
 20
518.6772915260701
 30
0.0
 11
870.6521191251101
 21
518.6772915260701
 31
0.0
  0
LINE
  5
1515
330
2
100
AcDbEntity
  8
L-ZISSEN
100
AcDbLine
 10
844.4021191251101
 20
520.6772915260701
 30
0.0
 11
869.4021191251101
 21
520.6772915260701
 31
0.0
  0
LINE
  5
1516
330
2
100
AcDbEntity
  8
L-ZISSEN
100
AcDbLine
 10
873.9021191251101
 20
473.17729152607
 30
0.0
 11
839.9021191251101
 21
473.17729152607
 31
0.0
  0
LINE
  5
1517
330
2
100
AcDbEntity
  8
L-ZISSEN
100
AcDbLine
 10
1070.648958902767
 20
518.9285009029373
 30
-0.0135289812142341
 11
1070.648958902767
 21
514.9285009029373
 31
-0.0135289812142341
  0
LINE
  5
1518
330
2
100
AcDbEntity
  8
L-ZISSEN
100
AcDbLine
 10
1043.148958902767
 20
518.9285009029373
 30
-0.0135289812142341
 11
1043.148958902767
 21
514.9285009029373
 31
-0.0135289812142341
  0
LINE
  5
1519
330
2
100
AcDbEntity
  8
L-ZISSEN
100
AcDbLine
 10
1037.898958902767
 20
488.0285009029372
 30
-0.0135289812142341
 11
1075.898958902767
 21
488.0285009029372
 31
-0.0135289812142341
  0
LINE
  5
151A
330
2
100
AcDbEntity
  8
L-ZISSEN
100
AcDbLine
 10
1041.898958902767
 20
500.9285009029372
 30
-0.0135289812142341
 11
1071.898958902767
 21
500.9285009029372
 31
-0.0135289812142341
  0
LINE
  5
151B
330
2
100
AcDbEntity
  8
L-ZISSEN
100
AcDbLine
 10
1037.898958902767
 20
475.9285009029372
 30
-0.0135289812142341
 11
1075.898958902767
 21
475.9285009029372
 31
-0.0135289812142341
  0
LINE
  5
151C
330
2
100
AcDbEntity
  8
L-ZISSEN
100
AcDbLine
 10
1037.898958902767
 20
475.9285009029372
 30
-0.0135289812142341
 11
1037.898958902767
 21
488.0285009029372
 31
-0.0135289812142341
  0
LINE
  5
151D
330
2
100
AcDbEntity
  8
L-ZISSEN
100
AcDbLine
 10
1039.898958902767
 20
453.5645009029372
 30
-0.0135289812142341
 11
1039.898958902767
 21
473.4285009029372
 31
-0.0135289812142341
  0
LINE
  5
151E
330
2
100
AcDbEntity
  8
L-ZISSEN
100
AcDbLine
 10
1041.098958902767
 20
473.4285009029372
 30
-0.0135289812142341
 11
1041.098958902767
 21
475.9285009029372
 31
-0.0135289812142341
  0
LINE
  5
151F
330
2
100
AcDbEntity
  8
L-ZISSEN
100
AcDbLine
 10
1041.898958902767
 20
488.0285009029372
 30
-0.0135289812142341
 11
1041.898958902767
 21
500.9285009029372
 31
-0.0135289812142341
  0
LINE
  5
1520
330
2
100
AcDbEntity
  8
L-ZISSEN
100
AcDbLine
 10
1075.898958902767
 20
475.9285009029372
 30
-0.0135289812142341
 11
1075.898958902767
 21
488.0285009029372
 31
-0.0135289812142341
  0
LINE
  5
1521
330
2
100
AcDbEntity
  8
L-ZISSEN
100
AcDbLine
 10
1073.898958902767
 20
453.5645009029372
 30
-0.0135289812142341
 11
1073.898958902767
 21
473.4285009029372
 31
-0.0135289812142341
  0
LINE
  5
1522
330
2
100
AcDbEntity
  8
L-ZISSEN
100
AcDbLine
 10
1072.698958902767
 20
473.4285009029372
 30
-0.0135289812142341
 11
1072.698958902767
 21
475.9285009029372
 31
-0.0135289812142341
  0
LINE
  5
1523
330
2
100
AcDbEntity
  8
L-ZISSEN
100
AcDbLine
 10
1071.898958902767
 20
488.0285009029372
 30
-0.0135289812142341
 11
1071.898958902767
 21
500.9285009029372
 31
-0.0135289812142341
  0
LINE
  5
1524
330
2
100
AcDbEntity
  8
L-ZISSEN
100
AcDbLine
 10
1066.898958902767
 20
500.9285009029372
 30
-0.0135289812142341
 11
1066.898958902767
 21
502.7285009029372
 31
-0.0135289812142341
  0
LINE
  5
1525
330
2
100
AcDbEntity
  8
L-ZISSEN
100
AcDbLine
 10
1070.148958902767
 20
514.9285009029373
 30
-0.0135289812142341
 11
1070.148958902767
 21
502.7285009029372
 31
-0.0135289812142341
  0
LINE
  5
1526
330
2
100
AcDbEntity
  8
L-ZISSEN
100
AcDbLine
 10
1046.898958902767
 20
500.9285009029372
 30
-0.0135289812142341
 11
1046.898958902767
 21
502.7285009029372
 31
-0.0135289812142341
  0
LINE
  5
1527
330
2
100
AcDbEntity
  8
L-ZISSEN
100
AcDbLine
 10
1043.648958902767
 20
514.9285009029373
 30
-0.0135289812142341
 11
1043.648958902767
 21
502.7285009029372
 31
-0.0135289812142341
  0
LINE
  5
1528
330
2
100
AcDbEntity
  8
L-ZISSEN
100
AcDbLine
 10
1043.148958902767
 20
514.9285009029373
 30
-0.0135289812142341
 11
1070.648958902767
 21
514.9285009029373
 31
-0.0135289812142341
  0
LINE
  5
1529
330
2
100
AcDbEntity
  8
L-ZISSEN
100
AcDbLine
 10
1043.648958902767
 20
502.7285009029372
 30
-0.0135289812142341
 11
1070.148958902767
 21
502.7285009029372
 31
-0.0135289812142341
  0
LINE
  5
152A
330
2
100
AcDbEntity
  8
L-ZISSEN
100
AcDbLine
 10
1069.398958902767
 20
518.9285009029373
 30
-0.0135289812142341
 11
1069.398958902767
 21
520.9285009029373
 31
-0.0135289812142341
  0
LINE
  5
152B
330
2
100
AcDbEntity
  8
L-ZISSEN
100
AcDbLine
 10
1044.398958902767
 20
518.9285009029373
 30
-0.0135289812142341
 11
1044.398958902767
 21
520.9285009029373
 31
-0.0135289812142341
  0
LINE
  5
152C
330
2
100
AcDbEntity
  8
L-ZISSEN
100
AcDbLine
 10
1043.148958902767
 20
518.9285009029373
 30
-0.0135289812142341
 11
1070.648958902767
 21
518.9285009029373
 31
-0.0135289812142341
  0
LINE
  5
152D
330
2
100
AcDbEntity
  8
L-ZISSEN
100
AcDbLine
 10
1044.398958902767
 20
520.9285009029373
 30
-0.0135289812142341
 11
1069.398958902767
 21
520.9285009029373
 31
-0.0135289812142341
  0
LINE
  5
152E
330
2
100
AcDbEntity
  8
L-ZISSEN
100
AcDbLine
 10
1073.898958902767
 20
473.4285009029372
 30
-0.0135289812142341
 11
1039.898958902767
 21
473.4285009029372
 31
-0.0135289812142341
  0
LINE
  5
152F
330
2
100
AcDbEntity
  8
L-ZISSEN
100
AcDbLine
 10
817.37201412511
 20
429.61328152607
 30
0.0
 11
817.9022950341625
 21
447.11329152607
 31
0.0
  0
LINE
  5
153D
330
2
100
AcDbEntity
  8
L-TYUSIN
 48
0.5
100
AcDbLine
 10
856.9021191251101
 20
526.1861197066469
 30
-0.2945277853809416
 11
856.9021191251102
 21
367.1132945809335
 31
-0.2977526196225759
  0
LINE
  5
153E
330
2
100
AcDbEntity
  8
L-TYUSIN
 48
0.5
100
AcDbLine
 10
870.55211912511
 20
407.1221547066467
 30
-0.2945277853809416
 11
843.2521191251101
 21
407.1221547066467
 31
-0.2945277853809416
  0
LINE
  5
1544
330
2
100
AcDbEntity
  8
L-TYUSIN
 48
0.5
100
AcDbLine
 10
1066.898776130498
 20
458.5644285776296
 30
0.0029091657583656
 11
1066.90211912511
 21
367.1132945809335
 31
-0.2977526196225759
  0
LINE
  5
16ED
330
2
100
AcDbEntity
  8
L-TYUSIN
 48
0.5
100
AcDbLine
 10
1020.898916130498
 20
407.3644387466443
 30
0.0029091657583656
 11
1119.398916130498
 21
407.3644345776291
 31
0.0029091657583656
  0
LINE
  5
16EF
330
2
100
AcDbEntity
  8
L-ZISSEN
100
AcDbLine
 10
1025.898916130498
 20
384.8645085776296
 30
0.0029091657583656
 11
1025.898916130498
 21
447.3644385776298
 31
0.0029091657583656
  0
LINE
  5
1731
330
2
100
AcDbEntity
  8
L-ZISSEN
100
AcDbLine
 10
1051.898819464063
 20
384.8645085776296
 30
0.0029091657583656
 11
1025.898916130498
 21
384.8645085776296
 31
0.0029091657583656
  0
LINE
  5
1733
330
2
100
AcDbEntity
  8
L-ZISSEN
100
AcDbLine
 10
894.401561350076
 20
384.6219136511019
 30
0.0000000000000001
 11
819.4021171251101
 21
384.61331052607
 31
0.0
  0
LINE
  5
1734
330
2
100
AcDbEntity
  8
L-ZISSEN
100
AcDbLine
 10
877.8989211304979
 20
382.1133417582064
 30
-0.2977526196225759
 11
835.8988511304979
 21
382.1133417582064
 31
-0.2977526196225759
  0
LINE
  5
1735
330
2
100
AcDbEntity
  8
L-ZISSEN
100
AcDbLine
 10
837.898901130498
 20
372.6654417582063
 30
-0.2977526196225759
 11
841.1046968279893
 21
372.1132574036608
 31
-0.2977526196225759
  0
LINE
  5
1736
330
2
100
AcDbEntity
  8
L-ZISSEN
100
AcDbLine
 10
837.898901130498
 20
379.6133317582062
 30
-0.2977526196225759
 11
837.898901130498
 21
372.6654417582063
 31
-0.2977526196225759
  0
LINE
  5
1737
330
2
100
AcDbEntity
  8
L-ZISSEN
100
AcDbLine
 10
835.855211130498
 20
384.6133717582063
 30
-0.2977526196225759
 11
835.9424911304977
 21
379.6133317582062
 31
-0.2977526196225759
  0
LINE
  5
1738
330
2
100
AcDbEntity
  8
L-ZISSEN
100
AcDbLine
 10
877.8552911304978
 20
379.6133317582062
 30
-0.2977526196225759
 11
835.9424911304977
 21
379.6133317582062
 31
-0.2977526196225759
  0
LINE
  5
1739
330
2
100
AcDbEntity
  8
L-ZISSEN
100
AcDbLine
 10
872.6930254330059
 20
372.1132574036608
 30
-0.2977526196225759
 11
841.1112128172144
 21
372.1133317582062
 31
-0.2977526196225759
  0
LINE
  5
173A
330
2
100
AcDbEntity
  8
L-ZISSEN
100
AcDbLine
 10
875.8988211304977
 20
379.6133217582064
 30
-0.2977526196225759
 11
875.8988211304977
 21
372.6654417582063
 31
-0.2977526196225759
  0
LINE
  5
173B
330
2
100
AcDbEntity
  8
L-ZISSEN
100
AcDbLine
 10
875.8988211304977
 20
372.6654417582063
 30
-0.2977526196225759
 11
872.6930254330059
 21
372.1132574036608
 31
-0.2977526196225759
  0
LINE
  5
173D
330
2
100
AcDbEntity
  8
L-ZISSEN
100
AcDbLine
 10
877.9425411304978
 20
384.6132517582064
 30
-0.2977526196225759
 11
877.855301130498
 21
379.6133317582062
 31
-0.2977526196225759
  0
LINE
  5
173F
330
2
100
AcDbEntity
  8
L-ZISSEN
100
AcDbLine
 10
1025.898916130498
 20
699.0247464464414
 30
0.0029091657583656
 11
1025.898916130498
 21
655.0247464464414
 31
0.0029091657583656
  0
LINE
  5
1740
330
2
100
AcDbEntity
  8
L-ZISSEN
100
AcDbLine
 10
1027.898916130498
 20
655.0247464464414
 30
0.0029091657583656
 11
1029.354797130498
 21
659.0247464464414
 31
0.0029091657583656
  0
LINE
  5
1741
330
2
100
AcDbEntity
  8
L-ZISSEN
100
AcDbLine
 10
1025.898916130498
 20
655.0247464464414
 30
0.0029091657583656
 11
1027.898916130498
 21
655.0247464464414
 31
0.0029091657583656
  0
LINE
  5
1742
330
2
100
AcDbEntity
  8
L-ZISSEN
100
AcDbLine
 10
1025.898916130498
 20
659.0247464464414
 30
0.0029091657583656
 11
1029.865863373184
 21
659.0247464464414
 31
0.0029091657583656
  0
LINE
  5
1743
330
2
100
AcDbEntity
  8
L-ZISSEN
100
AcDbLine
 10
1027.898916130498
 20
699.0247464464414
 30
0.0029091657583656
 11
1029.354797130498
 21
695.0247464464414
 31
0.0029091657583656
  0
LINE
  5
1744
330
2
100
AcDbEntity
  8
L-ZISSEN
100
AcDbLine
 10
1025.898916130498
 20
695.0247464464414
 30
0.0029091657583656
 11
1029.865843372334
 21
695.0247464464414
 31
0.0029091657583656
  0
LINE
  5
1745
330
2
100
AcDbEntity
  8
L-ZISSEN
100
AcDbLine
 10
1025.898916130498
 20
699.0247464464414
 30
0.0029091657583656
 11
1027.898916130498
 21
699.0247464464414
 31
0.0029091657583656
  0
LINE
  5
3AA2
330
2
100
AcDbEntity
  8
L-TYUSIN
100
AcDbLine
 10
1056.898853423576
 20
701.0247508316503
 30
0.0009269776730034
 11
1056.898853423576
 21
653.0247508316503
 31
0.0009269776730034
  0
CIRCLE
  5
3AA3
330
2
100
AcDbEntity
  8
L-ZISSEN
100
AcDbCircle
 10
1056.898853423576
 20
677.0247508316503
 30
0.0009269776730034
 40
15.0
  0
CIRCLE
  5
3AA4
330
2
100
AcDbEntity
  8
L-ZISSEN
100
AcDbCircle
 10
1056.898853423576
 20
677.0247508316503
 30
0.0009269776730034
 40
13.5
  0
CIRCLE
  5
3AA5
330
2
100
AcDbEntity
  8
L-ZISSEN
100
AcDbCircle
 10
1056.898853423576
 20
677.0247508316503
 30
0.0009269776730034
 40
11.5
  0
CIRCLE
  5
3AA6
330
2
100
AcDbEntity
  8
L-ZISSEN
100
AcDbCircle
 10
1056.898853423576
 20
677.0247508316503
 30
0.0009269776730034
 40
19.0
  0
ARC
  5
3AA7
330
2
100
AcDbEntity
  8
L-ZISSEN
100
AcDbCircle
 10
1081.398853423576
 20
672.5247508316503
 30
0.0029091657583656
 40
3.0
100
AcDbArc
 50
0.0
 51
90.0
  0
LINE
  5
3AA8
330
2
100
AcDbEntity
  8
L-ZISSEN
100
AcDbLine
 10
1102.398853423576
 20
668.0247508316503
 30
0.0029091657583656
 11
1075.398853423576
 21
668.0247508316503
 31
0.0029091657583656
  0
LINE
  5
3AA9
330
2
100
AcDbEntity
  8
L-ZISSEN
100
AcDbLine
 10
1102.398853423576
 20
686.0247508316503
 30
0.0029091657583656
 11
1075.398853423576
 21
686.0247508316503
 31
0.0029091657583656
  0
LINE
  5
3AAA
330
2
100
AcDbEntity
  8
L-ZISSEN
100
AcDbLine
 10
1096.398853423576
 20
682.5247508316503
 30
0.0029091657583656
 11
1080.398853423576
 21
682.5247508316503
 31
0.0029091657583656
  0
LINE
  5
3AAB
330
2
100
AcDbEntity
  8
L-ZISSEN
100
AcDbLine
 10
1104.398853423576
 20
669.5247508316503
 30
0.0029091657583656
 11
1078.398853423576
 21
669.5247508316503
 31
0.0029091657583656
  0
LINE
  5
3AAC
330
2
100
AcDbEntity
  8
L-ZISSEN
100
AcDbLine
 10
1104.398853423576
 20
684.5247508316503
 30
0.0029091657583656
 11
1078.398853423576
 21
684.5247508316503
 31
0.0029091657583656
  0
CIRCLE
  5
3AAD
330
2
100
AcDbEntity
  8
L-ZISSEN
100
AcDbCircle
 10
1081.398853423576
 20
672.5247508316503
 30
0.0029091657583656
 40
2.25
  0
LINE
  5
3AAE
330
2
100
AcDbEntity
  8
L-ZISSEN
100
AcDbLine
 10
1081.398856423576
 20
675.5247508316503
 30
0.0029091657583656
 11
1078.398853423576
 21
675.5247508316503
 31
0.0029091657583656
  0
LINE
  5
3AAF
330
2
100
AcDbEntity
  8
L-ZISSEN
100
AcDbLine
 10
1078.398853423576
 20
669.5247508316503
 30
0.0029091657583656
 11
1078.398853423576
 21
684.5247508316503
 31
0.0029091657583656
  0
LINE
  5
3AB0
330
2
100
AcDbEntity
  8
L-ZISSEN
100
AcDbLine
 10
1080.398853423576
 20
682.5247508316503
 30
0.0029091657583656
 11
1078.398853423576
 21
684.5247508316503
 31
0.0029091657583656
  0
LINE
  5
3AB1
330
2
100
AcDbEntity
  8
L-ZISSEN
100
AcDbLine
 10
1080.398853423576
 20
675.5247508316503
 30
0.0029091657583656
 11
1080.398853423576
 21
682.5247508316503
 31
0.0029091657583656
  0
LINE
  5
3AB2
330
2
100
AcDbEntity
  8
L-ZISSEN
100
AcDbLine
 10
1128.398853423576
 20
669.2747508316503
 30
0.0029091657583656
 11
1104.398853423576
 21
669.2747508316503
 31
0.0029091657583656
  0
LINE
  5
3AB3
330
2
100
AcDbEntity
  8
L-ZISSEN
100
AcDbLine
 10
1128.398853423576
 20
684.7747508316503
 30
0.0029091657583656
 11
1104.398853423576
 21
684.7747508316503
 31
0.0029091657583656
  0
LINE
  5
3AB4
330
2
100
AcDbEntity
  8
L-ZISSEN
100
AcDbLine
 10
1102.398853423576
 20
668.0247508316503
 30
0.0029091657583656
 11
1102.398853423576
 21
686.0247508316503
 31
0.0029091657583656
  0
LINE
  5
3AB5
330
2
100
AcDbEntity
  8
L-ZISSEN
100
AcDbLine
 10
1102.398853423576
 20
669.5247508316503
 30
0.0029091657583656
 11
1102.398853423576
 21
684.5247508316503
 31
0.0029091657583656
  0
LINE
  5
3AB6
330
2
100
AcDbEntity
  8
L-ZISSEN
100
AcDbLine
 10
1096.398853423576
 20
681.5247508316503
 30
0.0029091657583656
 11
1096.398853423576
 21
684.5247508316503
 31
0.0029091657583656
  0
LINE
  5
3AB7
330
2
100
AcDbEntity
  8
L-ZISSEN
100
AcDbLine
 10
1100.398853423576
 20
671.5247508316503
 30
0.0029091657583656
 11
1100.398853423576
 21
678.5247508316503
 31
0.0029091657583656
  0
LINE
  5
3AB8
330
2
100
AcDbEntity
  8
L-ZISSEN
100
AcDbLine
 10
1102.398853423576
 20
678.5247508316503
 30
0.0029091657583656
 11
1099.398853423576
 21
678.5247508316503
 31
0.0029091657583656
  0
ARC
  5
3AB9
330
2
100
AcDbEntity
  8
L-ZISSEN
100
AcDbCircle
 10
1099.398853423576
 20
681.5247508316503
 30
0.0029091657583656
 40
3.0
100
AcDbArc
 50
180.0
 51
270.0
  0
CIRCLE
  5
3ABA
330
2
100
AcDbEntity
  8
L-ZISSEN
100
AcDbCircle
 10
1099.398853423576
 20
681.5247508316503
 30
0.0029091657583656
 40
2.25
  0
LINE
  5
3ABB
330
2
100
AcDbEntity
  8
L-ZISSEN
100
AcDbLine
 10
1084.398853423576
 20
669.5247508316503
 30
0.0029091657583656
 11
1084.398853423576
 21
672.5247528316503
 31
0.0029091657583656
  0
LINE
  5
3ABC
330
2
100
AcDbEntity
  8
L-ZISSEN
100
AcDbLine
 10
1100.398853423576
 20
671.5247508316503
 30
0.0029091657583656
 11
1084.398853423576
 21
671.5247508316503
 31
0.0029091657583656
  0
LINE
  5
3ABD
330
2
100
AcDbEntity
  8
L-ZISSEN
100
AcDbLine
 10
1128.898853423576
 20
684.2747508316503
 30
0.0029091657583656
 11
1128.898853423576
 21
669.7747508316503
 31
0.0029091657583656
  0
ARC
  5
3ABE
330
2
100
AcDbEntity
  8
L-ZISSEN
100
AcDbCircle
 10
1128.398853423576
 20
669.7747508316503
 30
0.0029091657583656
 40
0.5
100
AcDbArc
 50
270.0
 51
0.0
  0
ARC
  5
3ABF
330
2
100
AcDbEntity
  8
L-ZISSEN
100
AcDbCircle
 10
1128.398853423576
 20
684.2747508316503
 30
0.0029091657583656
 40
0.5
100
AcDbArc
 50
0.0
 51
90.0
  0
SOLID
  5
3AC0
330
2
100
AcDbEntity
  8
L-ZISSEN
100
AcDbTrace
 10
1120.680608220864
 20
675.5299529221196
 30
0.0029091657583656
 11
1121.091357625437
 21
676.0550523137473
 31
0.0029091657583656
 12
1119.310684748267
 22
677.0247508316503
 32
0.0029091657583656
 13
1119.310684748267
 23
677.0247508316503
 33
0.0029091657583656
  0
LINE
  5
3AC1
330
2
100
AcDbEntity
  8
L-ZISSEN
100
AcDbLine
 10
1075.398853423576
 20
681.3548778505725
 30
0.0029091657583656
 11
1075.398853423576
 21
686.0247508316503
 31
0.0029091657583656
  0
LINE
  5
3AC2
330
2
100
AcDbEntity
  8
L-ZISSEN
100
AcDbLine
 10
1075.398853423576
 20
668.0247508316503
 30
0.0029091657583656
 11
1075.398853423576
 21
672.6946238127281
 31
0.0029091657583656
  0
LINE
  5
3AC3
330
2
100
AcDbEntity
  8
L-ZISSEN
100
AcDbLine
 10
1104.398853423576
 20
684.7747508316503
 30
0.0029091657583656
 11
1104.398853423576
 21
669.2747508316503
 31
0.0029091657583656
  0
ARC
  5
3AC4
330
2
100
AcDbEntity
  8
L-ZISSEN
100
AcDbCircle
 10
1066.898853423576
 20
677.0247508316503
 30
0.0029091657583656
 40
37.5
100
AcDbArc
 50
11.53695899999978
 51
348.4630409999999
  0
LINE
  5
3C09
330
2
100
AcDbEntity
  8
L-ZISSEN
100
AcDbLine
 10
931.4021191251101
 20
384.1220937577122
 30
-0.2969675385425791
 11
931.4021191251101
 21
435.1220937577122
 31
-0.2969675385425791
  0
LINE
  5
3C0A
330
2
100
AcDbEntity
  8
L-ZISSEN
100
AcDbLine
 10
931.4021191251101
 20
435.1220937577122
 30
-0.2969675385425791
 11
904.4021191251101
 21
435.1220937577122
 31
-0.2969675385425791
  0
LINE
  5
3C0B
330
2
100
AcDbEntity
  8
L-ZISSEN
100
AcDbLine
 10
904.4021191251101
 20
435.1220937577122
 30
-0.2969675385425791
 11
904.4021191251101
 21
384.1220937577122
 31
-0.2969675385425791
  0
LINE
  5
3C0C
330
2
100
AcDbEntity
  8
L-ZISSEN
100
AcDbLine
 10
904.4021191251101
 20
384.1220937577122
 30
-0.2969675385425791
 11
931.4021191251101
 21
384.1220937577122
 31
-0.2969675385425791
  0
LINE
  5
3C0D
330
2
100
AcDbEntity
  8
L-ZISSEN
100
AcDbLine
 10
904.4021191251101
 20
416.6220937577122
 30
-0.2969675385425791
 11
894.0093745250991
 21
416.6220932362609
 31
-0.2945277853809416
  0
LINE
  5
3C0E
330
2
100
AcDbEntity
  8
L-ZISSEN
100
AcDbLine
 10
894.009371725098
 20
402.6220932362615
 30
-0.2945277853809416
 11
904.4021191251101
 21
402.6220937577122
 31
-0.2969675385425791
  0
ENDSEC
  0
SECTION
  2
OBJECTS
  0
DICTIONARY
  5
1A
330
0
100
AcDbDictionary
281
     1
  3
ACAD_COLOR
350
1750
  3
ACAD_DETAILVIEWSTYLE
350
10C2
  3
ACAD_GROUP
350
18
  3
ACAD_IMAGE_VARS
350
10BC
  3
ACAD_LAYOUT
350
10AF
  3
ACAD_MATERIAL
350
10B2
  3
ACAD_MLEADERSTYLE
350
10B8
  3
ACAD_MLINESTYLE
350
19
  3
ACAD_PLOTSETTINGS
350
108A
  3
ACAD_PLOTSTYLENAME
350
108B
  3
ACAD_SCALELIST
350
108D
  3
ACAD_SECTIONVIEWSTYLE
350
10C3
  3
ACAD_TABLESTYLE
350
10B6
  3
ACAD_VISUALSTYLE
350
1071
  3
ACDB_RECOMPOSE_DATA
350
3D98
  3
AcDbVariableDictionary
350
10BD
  3
APPDATA
350
10BA
  0
SUN
  5
10BB
330
1070
100
AcDbSun
 90
        1
290
     0
 63
     7
421
 16777215
 40
1.0
291
     1
 91
  2455826
 92
 54000000
292
     0
 70
     2
 71
   256
280
     1
  0
DICTIONARY
  5
10F1
330
B
100
AcDbDictionary
280
     1
281
     1
  3
ACAD_LAYERSTATES
360
10F2
  0
DICTIONARY
  5
1748
330
1747
100
AcDbDictionary
280
     1
281
     1
  3
ADSK_XREC_LAYER_RECONCILED
360
1749
  0
DICTIONARY
  5
1750
102
{ACAD_REACTORS
330
1A
102
}
330
1A
100
AcDbDictionary
281
     1
  0
DICTIONARY
  5
10C2
102
{ACAD_REACTORS
330
1A
102
}
330
1A
100
AcDbDictionary
281
     1
  0
DICTIONARY
  5
18
102
{ACAD_REACTORS
330
1A
102
}
330
1A
100
AcDbDictionary
281
     1
  0
RASTERVARIABLES
  5
10BC
102
{ACAD_REACTORS
330
1A
102
}
330
1A
100
AcDbRasterVariables
 90
        0
 70
     1
 71
     1
 72
     0
  0
DICTIONARY
  5
10AF
102
{ACAD_REACTORS
330
1A
102
}
330
1A
100
AcDbDictionary
281
     1
  3
Model
350
10B0
  3
シート 1
350
10B1
  0
DICTIONARY
  5
10B2
102
{ACAD_REACTORS
330
1A
102
}
330
1A
100
AcDbDictionary
281
     1
  3
ByBlock
350
10B4
  3
ByLayer
350
10B3
  3
Global
350
10B5
  0
DICTIONARY
  5
10B8
102
{ACAD_REACTORS
330
1A
102
}
330
1A
100
AcDbDictionary
281
     1
  3
Standard
350
10B9
  0
DICTIONARY
  5
19
102
{ACAD_REACTORS
330
1A
102
}
330
1A
100
AcDbDictionary
281
     1
  3
STANDARD
350
1E
  0
DICTIONARY
  5
108A
102
{ACAD_REACTORS
330
1A
102
}
330
1A
100
AcDbDictionary
281
     1
  0
ACDBDICTIONARYWDFLT
  5
108B
102
{ACAD_REACTORS
330
1A
102
}
330
1A
100
AcDbDictionary
281
     1
  3
Normal
350
108C
100
AcDbDictionaryWithDefault
340
108C
  0
DICTIONARY
  5
108D
102
{ACAD_REACTORS
330
1A
102
}
330
1A
100
AcDbDictionary
281
     1
  3
A0
350
108E
  3
A1
350
108F
  3
A2
350
1090
  3
A3
350
1091
  3
A4
350
1092
  3
A5
350
1093
  3
A6
350
1094
  3
A7
350
1095
  3
A8
350
1096
  3
A9
350
1097
  3
B0
350
1098
  3
B1
350
1099
  3
B2
350
109A
  3
B3
350
109B
  3
B4
350
109C
  3
B5
350
109D
  3
B6
350
109E
  3
B7
350
109F
  3
B8
350
10A0
  3
B9
350
10A1
  3
C0
350
10A2
  3
C1
350
10A3
  3
C2
350
10A4
  3
C3
350
10A5
  3
C4
350
10A6
  3
C5
350
10A7
  3
C6
350
10A8
  3
C7
350
10A9
  3
C8
350
10AA
  3
C9
350
10AB
  3
D0
350
10AC
  3
D1
350
10AD
  3
D2
350
10AE
  0
DICTIONARY
  5
10C3
102
{ACAD_REACTORS
330
1A
102
}
330
1A
100
AcDbDictionary
281
     1
  0
DICTIONARY
  5
10B6
102
{ACAD_REACTORS
330
1A
102
}
330
1A
100
AcDbDictionary
281
     1
  3
Standard
350
10B7
  0
DICTIONARY
  5
1071
102
{ACAD_REACTORS
330
1A
102
}
330
1A
100
AcDbDictionary
281
     1
  3
2dWireframe
350
1076
  3
Basic
350
1079
  3
Brighten
350
107D
  3
ColorChange
350
1081
  3
Conceptual
350
107B
  3
Dim
350
107C
  3
EdgeColorOff
350
1084
  3
Facepattern
350
1080
  3
Flat
350
1072
  3
FlatWithEdges
350
1073
  3
Gouraud
350
1074
  3
GouraudWithEdges
350
1075
  3
Hidden
350
1078
  3
JitterOff
350
1082
  3
Linepattern
350
107F
  3
OverhangOff
350
1083
  3
Realistic
350
107A
  3
Shaded
350
1089
  3
Shaded with edges
350
1088
  3
Shades of Gray
350
1085
  3
Sketchy
350
1086
  3
Thicken
350
107E
  3
Wireframe
350
1077
  3
X-Ray
350
1087
  0
XRECORD
  5
3D98
102
{ACAD_REACTORS
330
1A
102
}
330
1A
100
AcDbXrecord
280
     1
 90
        1
330
10B7
  0
DICTIONARY
  5
10BD
102
{ACAD_REACTORS
330
1A
102
}
330
1A
100
AcDbDictionary
281
     1
  3
CANNOSCALE
350
10BE
  3
CMLEADERSTYLE
350
10C0
  3
CTABLESTYLE
350
10BF
  3
MSLTSCALE
350
10C1
  0
DICTIONARY
  5
10BA
102
{ACAD_REACTORS
330
1A
102
}
330
1A
100
AcDbDictionary
281
     1
  0
DICTIONARY
  5
10F2
102
{ACAD_REACTORS
330
10F1
102
}
330
10F1
100
AcDbDictionary
281
     1
  0
XRECORD
  5
1749
102
{ACAD_REACTORS
330
1748
102
}
330
1748
100
AcDbXrecord
280
     1
290
     1
  0
LAYOUT
  5
10B0
102
{ACAD_REACTORS
330
10AF
102
}
330
10AF
100
AcDbPlotSettings
  1

  2
none_device
  4
Letter_(8.50_x_11.00_Inches)
  6

 40
6.35
 41
6.35
 42
6.35
 43
6.35
 44
215.9
 45
279.4
 46
0.0
 47
0.0
 48
0.0
 49
0.0
140
0.0
141
0.0
142
1.0
143
180.8346773069324
 70
  1712
 72
     0
 73
     0
 74
     0
  7

 75
     0
 76
     0
 77
     2
 78
   300
147
0.0055299128181189
148
0.0
149
0.0
100
AcDbLayout
  1
Model
 70
     1
 71
     0
 10
0.0
 20
0.0
 11
12.0
 21
9.0
 12
0.0
 22
0.0
 32
0.0
 14
817.37201412511
 24
367.1132945809335
 34
-0.2977526196225759
 15
1148.317980142981
 25
721.5247564468664
 35
0.0029091657583656
146
0.0
 13
0.0
 23
0.0
 33
0.0
 16
1.0
 26
0.0
 36
0.0
 17
0.0
 27
1.0
 37
0.0
 76
     0
330
2
331
1070
  0
LAYOUT
  5
10B1
102
{ACAD_REACTORS
330
10AF
102
}
330
10AF
100
AcDbPlotSettings
  1

  2
none_device
  4

  6

 40
0.0
 41
0.0
 42
0.0
 43
0.0
 44
0.0
 45
0.0
 46
0.0
 47
0.0
 48
0.0
 49
0.0
140
0.0
141
0.0
142
1.0
143
1.0
 70
   688
 72
     0
 73
     0
 74
     5
  7

 75
    16
 76
     0
 77
     2
 78
   300
147
1.0
148
0.0
149
0.0
100
AcDbLayout
  1
シート 1
 70
     0
 71
     1
 10
0.0
 20
0.0
 11
0.0
 21
0.0
 12
0.0
 22
0.0
 32
0.0
 14
1.000000000000000E+20
 24
1.000000000000000E+20
 34
1.000000000000000E+20
 15
-1.000000000000000E+20
 25
-1.000000000000000E+20
 35
-1.000000000000000E+20
146
0.0
 13
0.0
 23
0.0
 33
0.0
 16
1.0
 26
0.0
 36
0.0
 17
0.0
 27
1.0
 37
0.0
 76
     0
330
8
  0
MATERIAL
  5
10B4
102
{ACAD_REACTORS
330
10B2
102
}
330
10B2
100
AcDbMaterial
  1
ByBlock
 72
     1
 94
      127
  0
MATERIAL
  5
10B3
102
{ACAD_REACTORS
330
10B2
102
}
330
10B2
100
AcDbMaterial
  1
ByLayer
 72
     1
 94
      127
  0
MATERIAL
  5
10B5
102
{ACAD_REACTORS
330
10B2
102
}
330
10B2
100
AcDbMaterial
  1
Global
 72
     1
 94
      127
  0
MLEADERSTYLE
  5
10B9
102
{ACAD_REACTORS
330
10B8
102
}
330
10B8
100
AcDbMLeaderStyle
179
     2
170
     2
171
     1
172
     0
 90
        2
 40
0.0
 41
0.0
173
     1
 91
-1056964608
340
F
 92
       -2
290
     1
 42
0.09
291
     1
 43
0.36
  3
Standard
341
0
 44
0.18
300

342
D
174
     1
178
     1
175
     1
176
     0
 93
-1056964608
 45
0.18
292
     0
297
     0
 46
0.18
343
0
 94
-1056964608
 47
1.0
 49
1.0
140
1.0
293
     1
141
0.0
294
     1
177
     0
142
1.0
295
     0
296
     0
143
0.125
271
     0
272
     9
273
     9
  0
MLINESTYLE
  5
1E
102
{ACAD_REACTORS
330
19
102
}
330
19
100
AcDbMlineStyle
  2
STANDARD
 70
     0
  3

 62
     0
 51
90.0
 52
90.0
 71
     2
 49
0.5
 62
   256
  6
BYLAYER
 49
-0.5
 62
   256
  6
BYLAYER
  0
ACDBPLACEHOLDER
  5
108C
102
{ACAD_REACTORS
330
108B
102
}
330
108B
  0
SCALE
  5
108E
102
{ACAD_REACTORS
330
108D
102
}
330
108D
100
AcDbScale
 70
     0
300
1:1
140
1.0
141
1.0
290
     1
  0
SCALE
  5
108F
102
{ACAD_REACTORS
330
108D
102
}
330
108D
100
AcDbScale
 70
     0
300
1:2
140
1.0
141
2.0
290
     0
  0
SCALE
  5
1090
102
{ACAD_REACTORS
330
108D
102
}
330
108D
100
AcDbScale
 70
     0
300
1:4
140
1.0
141
4.0
290
     0
  0
SCALE
  5
1091
102
{ACAD_REACTORS
330
108D
102
}
330
108D
100
AcDbScale
 70
     0
300
1:5
140
1.0
141
5.0
290
     0
  0
SCALE
  5
1092
102
{ACAD_REACTORS
330
108D
102
}
330
108D
100
AcDbScale
 70
     0
300
1:8
140
1.0
141
8.0
290
     0
  0
SCALE
  5
1093
102
{ACAD_REACTORS
330
108D
102
}
330
108D
100
AcDbScale
 70
     0
300
1:10
140
1.0
141
10.0
290
     0
  0
SCALE
  5
1094
102
{ACAD_REACTORS
330
108D
102
}
330
108D
100
AcDbScale
 70
     0
300
1:16
140
1.0
141
16.0
290
     0
  0
SCALE
  5
1095
102
{ACAD_REACTORS
330
108D
102
}
330
108D
100
AcDbScale
 70
     0
300
1:20
140
1.0
141
20.0
290
     0
  0
SCALE
  5
1096
102
{ACAD_REACTORS
330
108D
102
}
330
108D
100
AcDbScale
 70
     0
300
1:30
140
1.0
141
30.0
290
     0
  0
SCALE
  5
1097
102
{ACAD_REACTORS
330
108D
102
}
330
108D
100
AcDbScale
 70
     0
300
1:40
140
1.0
141
40.0
290
     0
  0
SCALE
  5
1098
102
{ACAD_REACTORS
330
108D
102
}
330
108D
100
AcDbScale
 70
     0
300
1:50
140
1.0
141
50.0
290
     0
  0
SCALE
  5
1099
102
{ACAD_REACTORS
330
108D
102
}
330
108D
100
AcDbScale
 70
     0
300
1:100
140
1.0
141
100.0
290
     0
  0
SCALE
  5
109A
102
{ACAD_REACTORS
330
108D
102
}
330
108D
100
AcDbScale
 70
     0
300
2:1
140
2.0
141
1.0
290
     0
  0
SCALE
  5
109B
102
{ACAD_REACTORS
330
108D
102
}
330
108D
100
AcDbScale
 70
     0
300
4:1
140
4.0
141
1.0
290
     0
  0
SCALE
  5
109C
102
{ACAD_REACTORS
330
108D
102
}
330
108D
100
AcDbScale
 70
     0
300
8:1
140
8.0
141
1.0
290
     0
  0
SCALE
  5
109D
102
{ACAD_REACTORS
330
108D
102
}
330
108D
100
AcDbScale
 70
     0
300
10:1
140
10.0
141
1.0
290
     0
  0
SCALE
  5
109E
102
{ACAD_REACTORS
330
108D
102
}
330
108D
100
AcDbScale
 70
     0
300
100:1
140
100.0
141
1.0
290
     0
  0
SCALE
  5
109F
102
{ACAD_REACTORS
330
108D
102
}
330
108D
100
AcDbScale
 70
     0
300
1/128" = 1'-0"
140
0.0078125
141
12.0
290
     0
  0
SCALE
  5
10A0
102
{ACAD_REACTORS
330
108D
102
}
330
108D
100
AcDbScale
 70
     0
300
1/64" = 1'-0"
140
0.015625
141
12.0
290
     0
  0
SCALE
  5
10A1
102
{ACAD_REACTORS
330
108D
102
}
330
108D
100
AcDbScale
 70
     0
300
1/32" = 1'-0"
140
0.03125
141
12.0
290
     0
  0
SCALE
  5
10A2
102
{ACAD_REACTORS
330
108D
102
}
330
108D
100
AcDbScale
 70
     0
300
1/16" = 1'-0"
140
0.0625
141
12.0
290
     0
  0
SCALE
  5
10A3
102
{ACAD_REACTORS
330
108D
102
}
330
108D
100
AcDbScale
 70
     0
300
3/32" = 1'-0"
140
0.09375
141
12.0
290
     0
  0
SCALE
  5
10A4
102
{ACAD_REACTORS
330
108D
102
}
330
108D
100
AcDbScale
 70
     0
300
1/8" = 1'-0"
140
0.125
141
12.0
290
     0
  0
SCALE
  5
10A5
102
{ACAD_REACTORS
330
108D
102
}
330
108D
100
AcDbScale
 70
     0
300
3/16" = 1'-0"
140
0.1875
141
12.0
290
     0
  0
SCALE
  5
10A6
102
{ACAD_REACTORS
330
108D
102
}
330
108D
100
AcDbScale
 70
     0
300
1/4" = 1'-0"
140
0.25
141
12.0
290
     0
  0
SCALE
  5
10A7
102
{ACAD_REACTORS
330
108D
102
}
330
108D
100
AcDbScale
 70
     0
300
3/8" = 1'-0"
140
0.375
141
12.0
290
     0
  0
SCALE
  5
10A8
102
{ACAD_REACTORS
330
108D
102
}
330
108D
100
AcDbScale
 70
     0
300
1/2" = 1'-0"
140
0.5
141
12.0
290
     0
  0
SCALE
  5
10A9
102
{ACAD_REACTORS
330
108D
102
}
330
108D
100
AcDbScale
 70
     0
300
3/4" = 1'-0"
140
0.75
141
12.0
290
     0
  0
SCALE
  5
10AA
102
{ACAD_REACTORS
330
108D
102
}
330
108D
100
AcDbScale
 70
     0
300
1" = 1'-0"
140
1.0
141
12.0
290
     0
  0
SCALE
  5
10AB
102
{ACAD_REACTORS
330
108D
102
}
330
108D
100
AcDbScale
 70
     0
300
1-1/2" = 1'-0"
140
1.5
141
12.0
290
     0
  0
SCALE
  5
10AC
102
{ACAD_REACTORS
330
108D
102
}
330
108D
100
AcDbScale
 70
     0
300
3" = 1'-0"
140
3.0
141
12.0
290
     0
  0
SCALE
  5
10AD
102
{ACAD_REACTORS
330
108D
102
}
330
108D
100
AcDbScale
 70
     0
300
6" = 1'-0"
140
6.0
141
12.0
290
     0
  0
SCALE
  5
10AE
102
{ACAD_REACTORS
330
108D
102
}
330
108D
100
AcDbScale
 70
     0
300
1'-0" = 1'-0"
140
12.0
141
12.0
290
     0
  0
TABLESTYLE
  5
10B7
102
{ACAD_REACTORS
330
10B6
102
}
102
{ACAD_XDICTIONARY
360
3D96
102
}
330
10B6
100
AcDbTableStyle
  3
Standard
 70
     0
 71
     0
 40
0.06
 41
0.06
280
     0
281
     0
  7
STANDARD
140
0.18
170
     2
 62
     0
 63
   257
283
     0
 90
        4
 91
        0
  1

274
    -2
284
     1
 64
     0
275
    -2
285
     1
 65
     0
276
    -2
286
     1
 66
     0
277
    -2
287
     1
 67
     0
278
    -2
288
     1
 68
     0
279
    -2
289
     1
 69
     0
  7
STANDARD
140
0.25
170
     5
 62
     0
 63
   257
283
     0
 90
        4
 91
        0
  1

274
    -2
284
     1
 64
     0
275
    -2
285
     1
 65
     0
276
    -2
286
     1
 66
     0
277
    -2
287
     1
 67
     0
278
    -2
288
     1
 68
     0
279
    -2
289
     1
 69
     0
  7
STANDARD
140
0.18
170
     5
 62
     0
 63
   257
283
     0
 90
        4
 91
        0
  1

274
    -2
284
     1
 64
     0
275
    -2
285
     1
 65
     0
276
    -2
286
     1
 66
     0
277
    -2
287
     1
 67
     0
278
    -2
288
     1
 68
     0
279
    -2
289
     1
 69
     0
  0
VISUALSTYLE
  5
1076
102
{ACAD_REACTORS
330
1071
102
}
330
1071
100
AcDbVisualStyle
  2
2dWireframe
 70
     4
177
     2
291
     0
 71
     0
176
     1
 72
     2
176
     1
 73
     0
176
     1
 90
        0
176
     1
 40
0.6
176
     1
 41
30.0
176
     1
 62
     5
 63
     7
421
 16777215
176
     1
 74
     1
176
     1
 91
        4
176
     1
 64
     7
176
     1
 65
   257
176
     1
 75
     1
176
     1
175
     1
176
     1
 42
1.0
176
     1
 92
        0
176
     1
 66
   257
176
     1
 43
1.0
176
     1
 76
     1
176
     1
 77
     6
176
     1
 78
     2
176
     1
 67
     7
176
     1
 79
     5
176
     1
170
     0
176
     1
171
     0
176
     1
290
     0
176
     1
 93
        1
176
     1
 44
0.0
176
     1
173
     0
176
     1
  0
VISUALSTYLE
  5
1079
102
{ACAD_REACTORS
330
1071
102
}
330
1071
100
AcDbVisualStyle
  2
Basic
 70
     7
177
     2
291
     1
 71
     1
176
     1
 72
     0
176
     1
 73
     1
176
     1
 90
        0
176
     1
 40
0.6
176
     1
 41
30.0
176
     1
 62
     5
 63
     7
421
 16777215
176
     1
 74
     0
176
     1
 91
        4
176
     1
 64
     7
176
     1
 65
   257
176
     1
 75
     1
176
     1
175
     1
176
     1
 42
1.0
176
     1
 92
        8
176
     1
 66
     7
176
     1
 43
1.0
176
     1
 76
     1
176
     1
 77
     6
176
     1
 78
     2
176
     1
 67
     7
176
     1
 79
     5
176
     1
170
     0
176
     1
171
     0
176
     1
290
     0
176
     1
 93
        1
176
     1
 44
0.0
176
     1
173
     0
176
     1
  0
VISUALSTYLE
  5
107D
102
{ACAD_REACTORS
330
1071
102
}
330
1071
100
AcDbVisualStyle
  2
Brighten
 70
    12
177
     2
291
     1
 71
     2
176
     1
 72
     2
176
     1
 73
     0
176
     1
 90
        0
176
     1
 40
0.6
176
     1
 41
30.0
176
     1
 62
     5
 63
     7
421
 16777215
176
     1
 74
     1
176
     1
 91
        4
176
     1
 64
     7
176
     1
 65
   257
176
     1
 75
     1
176
     1
175
     1
176
     1
 42
1.0
176
     1
 92
        8
176
     1
 66
     7
176
     1
 43
1.0
176
     1
 76
     1
176
     1
 77
     6
176
     1
 78
     2
176
     1
 67
     7
176
     1
 79
     5
176
     1
170
     0
176
     1
171
     0
176
     1
290
     0
176
     1
 93
        1
176
     1
 44
50.0
176
     1
173
     0
176
     1
  0
VISUALSTYLE
  5
1081
102
{ACAD_REACTORS
330
1071
102
}
330
1071
100
AcDbVisualStyle
  2
ColorChange
 70
    16
177
     2
291
     1
 71
     2
176
     1
 72
     2
176
     1
 73
     3
176
     1
 90
        0
176
     1
 40
0.6
176
     1
 41
30.0
176
     1
 62
     5
 63
     8
421
  8421504
176
     1
 74
     1
176
     1
 91
        4
176
     1
 64
     7
176
     1
 65
   257
176
     1
 75
     1
176
     1
175
     1
176
     1
 42
1.0
176
     1
 92
        8
176
     1
 66
     8
424
  8421504
176
     1
 43
1.0
176
     1
 76
     1
176
     1
 77
     6
176
     1
 78
     2
176
     1
 67
     7
176
     1
 79
     5
176
     1
170
     0
176
     1
171
     0
176
     1
290
     0
176
     1
 93
        1
176
     1
 44
0.0
176
     1
173
     0
176
     1
  0
VISUALSTYLE
  5
107B
102
{ACAD_REACTORS
330
1071
102
}
330
1071
100
AcDbVisualStyle
  2
Conceptual
 70
     9
177
     2
291
     0
 71
     3
176
     1
 72
     2
176
     1
 73
     0
176
     1
 90
        0
176
     1
 40
0.6
176
     1
 41
30.0
176
     1
 62
     5
 63
     7
421
 16777215
176
     1
 74
     2
176
     1
 91
        2
176
     1
 64
     7
176
     1
 65
   257
176
     1
 75
     1
176
     1
175
     1
176
     1
 42
179.0
176
     1
 92
        8
176
     1
 66
     7
176
     1
 43
1.0
176
     1
 76
     1
176
     1
 77
     6
176
     1
 78
     2
176
     1
 67
     7
176
     1
 79
     3
176
     1
170
     0
176
     1
171
     0
176
     1
290
     0
176
     1
 93
        1
176
     1
 44
0.0
176
     1
173
     0
176
     1
  0
VISUALSTYLE
  5
107C
102
{ACAD_REACTORS
330
1071
102
}
330
1071
100
AcDbVisualStyle
  2
Dim
 70
    11
177
     2
291
     1
 71
     2
176
     1
 72
     2
176
     1
 73
     0
176
     1
 90
        0
176
     1
 40
0.6
176
     1
 41
30.0
176
     1
 62
     5
 63
     7
421
 16777215
176
     1
 74
     1
176
     1
 91
        4
176
     1
 64
     7
176
     1
 65
   257
176
     1
 75
     1
176
     1
175
     1
176
     1
 42
1.0
176
     1
 92
        8
176
     1
 66
     7
176
     1
 43
1.0
176
     1
 76
     1
176
     1
 77
     6
176
     1
 78
     2
176
     1
 67
     7
176
     1
 79
     5
176
     1
170
     0
176
     1
171
     0
176
     1
290
     0
176
     1
 93
        1
176
     1
 44
-50.0
176
     1
173
     0
176
     1
  0
VISUALSTYLE
  5
1084
102
{ACAD_REACTORS
330
1071
102
}
330
1071
100
AcDbVisualStyle
  2
EdgeColorOff
 70
    22
177
     2
291
     1
 71
     2
176
     0
 72
     2
176
     0
 73
     0
176
     0
 90
        0
176
     0
 40
0.6
176
     0
 41
30.0
176
     0
 62
     5
 63
     7
421
 16777215
176
     0
 74
     1
176
     0
 91
        4
176
     0
 64
     7
176
     0
 65
   257
176
     0
 75
     1
176
     0
175
     1
176
     0
 42
1.0
176
     0
 92
        8
176
     2
 66
     7
176
     0
 43
1.0
176
     0
 76
     1
176
     0
 77
     6
176
     0
 78
     2
176
     0
 67
     7
176
     0
 79
     5
176
     0
170
     0
176
     0
171
     0
176
     0
290
     0
176
     0
 93
        1
176
     0
 44
0.0
176
     0
173
     0
176
     0
  0
VISUALSTYLE
  5
1080
102
{ACAD_REACTORS
330
1071
102
}
330
1071
100
AcDbVisualStyle
  2
Facepattern
 70
    15
177
     2
291
     1
 71
     2
176
     1
 72
     2
176
     1
 73
     0
176
     1
 90
        0
176
     1
 40
0.6
176
     1
 41
30.0
176
     1
 62
     5
 63
     7
421
 16777215
176
     1
 74
     1
176
     1
 91
        4
176
     1
 64
     7
176
     1
 65
   257
176
     1
 75
     1
176
     1
175
     1
176
     1
 42
1.0
176
     1
 92
        8
176
     1
 66
     7
176
     1
 43
1.0
176
     1
 76
     1
176
     1
 77
     6
176
     1
 78
     2
176
     1
 67
     7
176
     1
 79
     5
176
     1
170
     0
176
     1
171
     0
176
     1
290
     0
176
     1
 93
        1
176
     1
 44
0.0
176
     1
173
     0
176
     1
  0
VISUALSTYLE
  5
1072
102
{ACAD_REACTORS
330
1071
102
}
330
1071
100
AcDbVisualStyle
  2
Flat
 70
     0
177
     2
291
     1
 71
     2
176
     1
 72
     1
176
     1
 73
     1
176
     1
 90
        2
176
     1
 40
0.6
176
     1
 41
30.0
176
     1
 62
     5
 63
     7
421
 16777215
176
     1
 74
     0
176
     1
 91
        0
176
     1
 64
     7
176
     1
 65
   257
176
     1
 75
     1
176
     1
175
     1
176
     1
 42
1.0
176
     1
 92
        8
176
     1
 66
     7
176
     1
 43
1.0
176
     1
 76
     1
176
     1
 77
     6
176
     1
 78
     2
176
     1
 67
     7
176
     1
 79
     5
176
     1
170
     0
176
     1
171
     0
176
     1
290
     0
176
     1
 93
       13
176
     1
 44
0.0
176
     1
173
     0
176
     1
  0
VISUALSTYLE
  5
1073
102
{ACAD_REACTORS
330
1071
102
}
330
1071
100
AcDbVisualStyle
  2
FlatWithEdges
 70
     1
177
     2
291
     1
 71
     2
176
     1
 72
     1
176
     1
 73
     1
176
     1
 90
        2
176
     1
 40
0.6
176
     1
 41
30.0
176
     1
 62
     5
 63
     7
421
 16777215
176
     1
 74
     1
176
     1
 91
        0
176
     1
 64
     7
176
     1
 65
   257
176
     1
 75
     1
176
     1
175
     1
176
     1
 42
1.0
176
     1
 92
        0
176
     1
 66
   257
176
     1
 43
1.0
176
     1
 76
     1
176
     1
 77
     6
176
     1
 78
     2
176
     1
 67
     7
176
     1
 79
     5
176
     1
170
     0
176
     1
171
     0
176
     1
290
     0
176
     1
 93
       13
176
     1
 44
0.0
176
     1
173
     0
176
     1
  0
VISUALSTYLE
  5
1074
102
{ACAD_REACTORS
330
1071
102
}
330
1071
100
AcDbVisualStyle
  2
Gouraud
 70
     2
177
     2
291
     1
 71
     2
176
     1
 72
     2
176
     1
 73
     1
176
     1
 90
        2
176
     1
 40
0.6
176
     1
 41
30.0
176
     1
 62
     5
 63
     7
421
 16777215
176
     1
 74
     0
176
     1
 91
        0
176
     1
 64
     7
176
     1
 65
   257
176
     1
 75
     1
176
     1
175
     1
176
     1
 42
1.0
176
     1
 92
        0
176
     1
 66
     7
176
     1
 43
1.0
176
     1
 76
     1
176
     1
 77
     6
176
     1
 78
     2
176
     1
 67
     7
176
     1
 79
     5
176
     1
170
     0
176
     1
171
     0
176
     1
290
     0
176
     1
 93
       13
176
     1
 44
0.0
176
     1
173
     0
176
     1
  0
VISUALSTYLE
  5
1075
102
{ACAD_REACTORS
330
1071
102
}
330
1071
100
AcDbVisualStyle
  2
GouraudWithEdges
 70
     3
177
     2
291
     1
 71
     2
176
     1
 72
     2
176
     1
 73
     1
176
     1
 90
        2
176
     1
 40
0.6
176
     1
 41
30.0
176
     1
 62
     5
 63
     7
421
 16777215
176
     1
 74
     1
176
     1
 91
        0
176
     1
 64
     7
176
     1
 65
   257
176
     1
 75
     1
176
     1
175
     1
176
     1
 42
1.0
176
     1
 92
        0
176
     1
 66
   257
176
     1
 43
1.0
176
     1
 76
     1
176
     1
 77
     6
176
     1
 78
     2
176
     1
 67
     7
176
     1
 79
     5
176
     1
170
     0
176
     1
171
     0
176
     1
290
     0
176
     1
 93
       13
176
     1
 44
0.0
176
     1
173
     0
176
     1
  0
VISUALSTYLE
  5
1078
102
{ACAD_REACTORS
330
1071
102
}
330
1071
100
AcDbVisualStyle
  2
Hidden
 70
     6
177
     2
291
     0
 71
     1
176
     1
 72
     2
176
     1
 73
     2
176
     1
 90
        0
176
     1
 40
0.6
176
     1
 41
30.0
176
     1
 62
     5
 63
     7
421
 16777215
176
     1
 74
     2
176
     1
 91
        2
176
     1
 64
     7
176
     1
 65
   257
176
     1
 75
     2
176
     1
175
     1
176
     1
 42
40.0
176
     1
 92
        0
176
     1
 66
   257
176
     1
 43
1.0
176
     1
 76
     1
176
     1
 77
     6
176
     1
 78
     2
176
     1
 67
     7
176
     1
 79
     3
176
     1
170
     0
176
     1
171
     0
176
     1
290
     0
176
     1
 93
        1
176
     1
 44
0.0
176
     1
173
     0
176
     1
  0
VISUALSTYLE
  5
1082
102
{ACAD_REACTORS
330
1071
102
}
330
1071
100
AcDbVisualStyle
  2
JitterOff
 70
    20
177
     2
291
     1
 71
     2
176
     0
 72
     2
176
     0
 73
     0
176
     0
 90
        0
176
     0
 40
0.6
176
     0
 41
30.0
176
     0
 62
     5
 63
     7
421
 16777215
176
     0
 74
     1
176
     0
 91
        4
176
     0
 64
     7
176
     0
 65
   257
176
     0
 75
     1
176
     0
175
     1
176
     0
 42
1.0
176
     0
 92
       10
176
     2
 66
     7
176
     0
 43
1.0
176
     0
 76
     1
176
     0
 77
     6
176
     0
 78
     2
176
     0
 67
     7
176
     0
 79
     5
176
     0
170
     0
176
     0
171
     0
176
     0
290
     0
176
     0
 93
        1
176
     0
 44
0.0
176
     0
173
     0
176
     0
  0
VISUALSTYLE
  5
107F
102
{ACAD_REACTORS
330
1071
102
}
330
1071
100
AcDbVisualStyle
  2
Linepattern
 70
    14
177
     2
291
     1
 71
     2
176
     1
 72
     2
176
     1
 73
     0
176
     1
 90
        0
176
     1
 40
0.6
176
     1
 41
30.0
176
     1
 62
     5
 63
     7
421
 16777215
176
     1
 74
     1
176
     1
 91
        4
176
     1
 64
     7
176
     1
 65
   257
176
     1
 75
     7
176
     1
175
     7
176
     1
 42
1.0
176
     1
 92
        8
176
     1
 66
     7
176
     1
 43
1.0
176
     1
 76
     1
176
     1
 77
     6
176
     1
 78
     2
176
     1
 67
     7
176
     1
 79
     5
176
     1
170
     0
176
     1
171
     0
176
     1
290
     0
176
     1
 93
        1
176
     1
 44
0.0
176
     1
173
     0
176
     1
  0
VISUALSTYLE
  5
1083
102
{ACAD_REACTORS
330
1071
102
}
330
1071
100
AcDbVisualStyle
  2
OverhangOff
 70
    21
177
     2
291
     1
 71
     2
176
     0
 72
     2
176
     0
 73
     0
176
     0
 90
        0
176
     0
 40
0.6
176
     0
 41
30.0
176
     0
 62
     5
 63
     7
421
 16777215
176
     0
 74
     1
176
     0
 91
        4
176
     0
 64
     7
176
     0
 65
   257
176
     0
 75
     1
176
     0
175
     1
176
     0
 42
1.0
176
     0
 92
        9
176
     2
 66
     7
176
     0
 43
1.0
176
     0
 76
     1
176
     0
 77
     6
176
     0
 78
     2
176
     0
 67
     7
176
     0
 79
     5
176
     0
170
     0
176
     0
171
     0
176
     0
290
     0
176
     0
 93
        1
176
     0
 44
0.0
176
     0
173
     0
176
     0
  0
VISUALSTYLE
  5
107A
102
{ACAD_REACTORS
330
1071
102
}
330
1071
100
AcDbVisualStyle
  2
Realistic
 70
     8
177
     2
291
     0
 71
     2
176
     1
 72
     3
176
     1
 73
     0
176
     1
 90
        2
176
     1
 40
0.6
176
     1
 41
30.0
176
     1
 62
     5
 63
     7
421
 16777215
176
     1
 74
     0
176
     1
 91
        0
176
     1
 64
     7
176
     1
 65
   257
176
     1
 75
     1
176
     1
175
     1
176
     1
 42
1.0
176
     1
 92
        8
176
     1
 66
   257
176
     1
 43
1.0
176
     1
 76
     1
176
     1
 77
     6
176
     1
 78
     2
176
     1
 67
     7
176
     1
 79
     3
176
     1
170
     0
176
     1
171
     0
176
     1
290
     0
176
     1
 93
       13
176
     1
 44
0.0
176
     1
173
     0
176
     1
  0
VISUALSTYLE
  5
1089
102
{ACAD_REACTORS
330
1071
102
}
330
1071
100
AcDbVisualStyle
  2
Shaded
 70
    27
177
     2
291
     0
 71
     2
176
     1
 72
     2
176
     1
 73
     1
176
     1
 90
        2
176
     1
 40
0.6
176
     1
 41
30.0
176
     1
 62
     5
 63
     7
421
 16777215
176
     1
 74
     0
176
     1
 91
        4
176
     1
 64
     7
176
     1
 65
   257
176
     1
 75
     1
176
     1
175
     1
176
     1
 42
1.0
176
     1
 92
        8
176
     1
 66
   257
176
     1
 43
1.0
176
     1
 76
     1
176
     1
 77
     6
176
     1
 78
     2
176
     1
 67
     8
425
  7895160
176
     1
 79
     3
176
     1
170
     0
176
     1
171
     0
176
     1
290
     0
176
     1
 93
        5
176
     1
 44
0.0
176
     1
173
     0
176
     1
  0
VISUALSTYLE
  5
1088
102
{ACAD_REACTORS
330
1071
102
}
330
1071
100
AcDbVisualStyle
  2
Shaded with edges
 70
    26
177
     2
291
     0
 71
     2
176
     1
 72
     2
176
     1
 73
     1
176
     1
 90
        2
176
     1
 40
0.6
176
     1
 41
30.0
176
     1
 62
     5
 63
     7
421
 16777215
176
     1
 74
     1
176
     1
 91
       10
176
     1
 64
     7
176
     1
 65
   257
176
     1
 75
     2
176
     1
175
     1
176
     1
 42
1.0
176
     1
 92
        8
176
     1
 66
   257
176
     1
 43
1.0
176
     1
 76
     1
176
     1
 77
     6
176
     1
 78
     2
176
     1
 67
     7
176
     1
 79
     3
176
     1
170
     0
176
     1
171
     0
176
     1
290
     0
176
     1
 93
        5
176
     1
 44
0.0
176
     1
173
     0
176
     1
  0
VISUALSTYLE
  5
1085
102
{ACAD_REACTORS
330
1071
102
}
330
1071
100
AcDbVisualStyle
  2
Shades of Gray
 70
    23
177
     2
291
     0
 71
     2
176
     1
 72
     2
176
     1
 73
     3
176
     1
 90
        0
176
     1
 40
0.6
176
     1
 41
30.0
176
     1
 62
     5
 63
     7
421
 16777215
176
     1
 74
     2
176
     1
 91
        2
176
     1
 64
     7
176
     1
 65
     7
176
     1
 75
     1
176
     1
175
     1
176
     1
 42
40.0
176
     1
 92
        8
176
     1
 66
     7
176
     1
 43
1.0
176
     1
 76
     1
176
     1
 77
     6
176
     1
 78
     2
176
     1
 67
     7
176
     1
 79
     3
176
     1
170
     0
176
     1
171
     0
176
     1
290
     0
176
     1
 93
        1
176
     1
 44
0.0
176
     1
173
     0
176
     1
  0
VISUALSTYLE
  5
1086
102
{ACAD_REACTORS
330
1071
102
}
330
1071
100
AcDbVisualStyle
  2
Sketchy
 70
    24
177
     2
291
     0
 71
     1
176
     1
 72
     2
176
     1
 73
     2
176
     1
 90
        0
176
     1
 40
0.6
176
     1
 41
30.0
176
     1
 62
     5
 63
     7
421
 16777215
176
     1
 74
     2
176
     1
 91
        2
176
     1
 64
     7
176
     1
 65
     7
176
     1
 75
     1
176
     1
175
     1
176
     1
 42
40.0
176
     1
 92
       11
176
     1
 66
     7
176
     1
 43
1.0
176
     1
 76
     1
176
     1
 77
     6
176
     1
 78
     2
176
     1
 67
     7
176
     1
 79
     6
176
     1
170
     0
176
     1
171
     0
176
     1
290
     0
176
     1
 93
        1
176
     1
 44
0.0
176
     1
173
     0
176
     1
  0
VISUALSTYLE
  5
107E
102
{ACAD_REACTORS
330
1071
102
}
330
1071
100
AcDbVisualStyle
  2
Thicken
 70
    13
177
     2
291
     1
 71
     2
176
     1
 72
     2
176
     1
 73
     0
176
     1
 90
        0
176
     1
 40
0.6
176
     1
 41
30.0
176
     1
 62
     5
 63
     7
421
 16777215
176
     1
 74
     1
176
     1
 91
        4
176
     1
 64
     7
176
     1
 65
   257
176
     1
 75
     1
176
     1
175
     1
176
     1
 42
1.0
176
     1
 92
       12
176
     1
 66
     7
176
     1
 43
1.0
176
     1
 76
     1
176
     1
 77
     6
176
     1
 78
     2
176
     1
 67
     7
176
     1
 79
     5
176
     1
170
     0
176
     1
171
     0
176
     1
290
     0
176
     1
 93
        1
176
     1
 44
0.0
176
     1
173
     0
176
     1
  0
VISUALSTYLE
  5
1077
102
{ACAD_REACTORS
330
1071
102
}
330
1071
100
AcDbVisualStyle
  2
Wireframe
 70
     5
177
     2
291
     0
 71
     0
176
     1
 72
     2
176
     1
 73
     0
176
     1
 90
        0
176
     1
 40
0.6
176
     1
 41
30.0
176
     1
 62
     5
 63
     7
421
 16777215
176
     1
 74
     1
176
     1
 91
        4
176
     1
 64
     7
176
     1
 65
   257
176
     1
 75
     1
176
     1
175
     1
176
     1
 42
1.0
176
     1
 92
        0
176
     1
 66
   257
176
     1
 43
1.0
176
     1
 76
     1
176
     1
 77
     6
176
     1
 78
     2
176
     1
 67
     7
176
     1
 79
     3
176
     1
170
     0
176
     1
171
     0
176
     1
290
     0
176
     1
 93
        1
176
     1
 44
0.0
176
     1
173
     0
176
     1
  0
VISUALSTYLE
  5
1087
102
{ACAD_REACTORS
330
1071
102
}
330
1071
100
AcDbVisualStyle
  2
X-Ray
 70
    25
177
     2
291
     0
 71
     2
176
     1
 72
     2
176
     1
 73
     1
176
     1
 90
        1
176
     1
 40
0.5
176
     1
 41
30.0
176
     1
 62
     5
 63
     7
421
 16777215
176
     1
 74
     1
176
     1
 91
        0
176
     1
 64
     7
176
     1
 65
   257
176
     1
 75
     1
176
     1
175
     1
176
     1
 42
1.0
176
     1
 92
        8
176
     1
 66
     7
176
     1
 43
1.0
176
     1
 76
     1
176
     1
 77
     6
176
     1
 78
     2
176
     1
 67
     7
176
     1
 79
     3
176
     1
170
     0
176
     1
171
     0
176
     1
290
     0
176
     1
 93
       13
176
     1
 44
0.0
176
     1
173
     0
176
     1
  0
DICTIONARYVAR
  5
10BE
102
{ACAD_REACTORS
330
10BD
102
}
330
10BD
100
DictionaryVariables
280
     0
  1
1:1
  0
DICTIONARYVAR
  5
10C0
102
{ACAD_REACTORS
330
10BD
102
}
330
10BD
100
DictionaryVariables
280
     0
  1
Standard
  0
DICTIONARYVAR
  5
10BF
102
{ACAD_REACTORS
330
10BD
102
}
330
10BD
100
DictionaryVariables
280
     0
  1
Standard
  0
DICTIONARYVAR
  5
10C1
102
{ACAD_REACTORS
330
10BD
102
}
330
10BD
100
DictionaryVariables
280
     0
  1
0
  0
DICTIONARY
  5
3D96
330
10B7
100
AcDbDictionary
280
     1
281
     1
  3
ACAD_ROUNDTRIP_2008_TABLESTYLE_CELLSTYLEMAP
360
3D97
  0
CELLSTYLEMAP
  5
3D97
102
{ACAD_REACTORS
330
3D96
102
}
330
3D96
100
AcDbCellStyleMap
 90
        3
300
CELLSTYLE
  1
TABLEFORMAT_BEGIN
 90
        5
170
     1
 91
        0
 92
    32768
 62
   257
 93
        1
300
CONTENTFORMAT
  1
CONTENTFORMAT_BEGIN
 90
        0
 91
        0
 92
        4
 93
        0
300

 40
0.0
140
1.0
 94
        5
 62
     0
340
D
144
0.25
309
CONTENTFORMAT_END
171
     1
301
MARGIN
  1
CELLMARGIN_BEGIN
 40
0.06
 40
0.06
 40
0.06
 40
0.06
 40
0.06
 40
0.06
309
CELLMARGIN_END
 94
        6
 95
        1
302
GRIDFORMAT
  1
GRIDFORMAT_BEGIN
 90
        0
 91
        1
 62
     0
 92
       -2
340
F
 93
        0
 40
0.045
309
GRIDFORMAT_END
 95
        2
302
GRIDFORMAT
  1
GRIDFORMAT_BEGIN
 90
        0
 91
        1
 62
     0
 92
       -2
340
F
 93
        0
 40
0.045
309
GRIDFORMAT_END
 95
        4
302
GRIDFORMAT
  1
GRIDFORMAT_BEGIN
 90
        0
 91
        1
 62
     0
 92
       -2
340
F
 93
        0
 40
0.045
309
GRIDFORMAT_END
 95
        8
302
GRIDFORMAT
  1
GRIDFORMAT_BEGIN
 90
        0
 91
        1
 62
     0
 92
       -2
340
F
 93
        0
 40
0.045
309
GRIDFORMAT_END
 95
       16
302
GRIDFORMAT
  1
GRIDFORMAT_BEGIN
 90
        0
 91
        1
 62
     0
 92
       -2
340
F
 93
        0
 40
0.045
309
GRIDFORMAT_END
 95
       32
302
GRIDFORMAT
  1
GRIDFORMAT_BEGIN
 90
        0
 91
        1
 62
     0
 92
       -2
340
F
 93
        0
 40
0.045
309
GRIDFORMAT_END
309
TABLEFORMAT_END
  1
CELLSTYLE_BEGIN
 90
        1
 91
        1
300
_TITLE
309
CELLSTYLE_END
300
CELLSTYLE
  1
TABLEFORMAT_BEGIN
 90
        5
170
     1
 91
        0
 92
        0
 62
   257
 93
        1
300
CONTENTFORMAT
  1
CONTENTFORMAT_BEGIN
 90
        0
 91
        0
 92
        4
 93
        0
300

 40
0.0
140
1.0
 94
        5
 62
     0
340
D
144
0.18
309
CONTENTFORMAT_END
171
     1
301
MARGIN
  1
CELLMARGIN_BEGIN
 40
0.06
 40
0.06
 40
0.06
 40
0.06
 40
0.06
 40
0.06
309
CELLMARGIN_END
 94
        6
 95
        1
302
GRIDFORMAT
  1
GRIDFORMAT_BEGIN
 90
        0
 91
        1
 62
     0
 92
       -2
340
F
 93
        0
 40
0.045
309
GRIDFORMAT_END
 95
        2
302
GRIDFORMAT
  1
GRIDFORMAT_BEGIN
 90
        0
 91
        1
 62
     0
 92
       -2
340
F
 93
        0
 40
0.045
309
GRIDFORMAT_END
 95
        4
302
GRIDFORMAT
  1
GRIDFORMAT_BEGIN
 90
        0
 91
        1
 62
     0
 92
       -2
340
F
 93
        0
 40
0.045
309
GRIDFORMAT_END
 95
        8
302
GRIDFORMAT
  1
GRIDFORMAT_BEGIN
 90
        0
 91
        1
 62
     0
 92
       -2
340
F
 93
        0
 40
0.045
309
GRIDFORMAT_END
 95
       16
302
GRIDFORMAT
  1
GRIDFORMAT_BEGIN
 90
        0
 91
        1
 62
     0
 92
       -2
340
F
 93
        0
 40
0.045
309
GRIDFORMAT_END
 95
       32
302
GRIDFORMAT
  1
GRIDFORMAT_BEGIN
 90
        0
 91
        1
 62
     0
 92
       -2
340
F
 93
        0
 40
0.045
309
GRIDFORMAT_END
309
TABLEFORMAT_END
  1
CELLSTYLE_BEGIN
 90
        2
 91
        1
300
_HEADER
309
CELLSTYLE_END
300
CELLSTYLE
  1
TABLEFORMAT_BEGIN
 90
        5
170
     1
 91
        0
 92
        0
 62
   257
 93
        1
300
CONTENTFORMAT
  1
CONTENTFORMAT_BEGIN
 90
        0
 91
        0
 92
        4
 93
        0
300

 40
0.0
140
1.0
 94
        2
 62
     0
340
D
144
0.18
309
CONTENTFORMAT_END
171
     1
301
MARGIN
  1
CELLMARGIN_BEGIN
 40
0.06
 40
0.06
 40
0.06
 40
0.06
 40
0.06
 40
0.06
309
CELLMARGIN_END
 94
        6
 95
        1
302
GRIDFORMAT
  1
GRIDFORMAT_BEGIN
 90
        0
 91
        1
 62
     0
 92
       -2
340
F
 93
        0
 40
0.045
309
GRIDFORMAT_END
 95
        2
302
GRIDFORMAT
  1
GRIDFORMAT_BEGIN
 90
        0
 91
        1
 62
     0
 92
       -2
340
F
 93
        0
 40
0.045
309
GRIDFORMAT_END
 95
        4
302
GRIDFORMAT
  1
GRIDFORMAT_BEGIN
 90
        0
 91
        1
 62
     0
 92
       -2
340
F
 93
        0
 40
0.045
309
GRIDFORMAT_END
 95
        8
302
GRIDFORMAT
  1
GRIDFORMAT_BEGIN
 90
        0
 91
        1
 62
     0
 92
       -2
340
F
 93
        0
 40
0.045
309
GRIDFORMAT_END
 95
       16
302
GRIDFORMAT
  1
GRIDFORMAT_BEGIN
 90
        0
 91
        1
 62
     0
 92
       -2
340
F
 93
        0
 40
0.045
309
GRIDFORMAT_END
 95
       32
302
GRIDFORMAT
  1
GRIDFORMAT_BEGIN
 90
        0
 91
        1
 62
     0
 92
       -2
340
F
 93
        0
 40
0.045
309
GRIDFORMAT_END
309
TABLEFORMAT_END
  1
CELLSTYLE_BEGIN
 90
        3
 91
        2
300
_DATA
309
CELLSTYLE_END
  0
ENDSEC
  0
EOF
