  0
SECTION
  2
HEADER
  9
$ACADVER
  1
AC1024
  9
$ACADMAINTVER
 70
     6
  9
$DWGCODEPAGE
  3
ANSI_932
  9
$LASTSAVEDBY
  1
y-iwai
  9
$INSBASE
 10
0.0
 20
0.0
 30
0.0
  9
$EXTMIN
 10
357.5357143443948
 20
822.5901138024722
 30
-0.0024397531616375
  9
$EXTMAX
 10
689.9849430042683
 20
1327.090113802472
 30
0.0
  9
$LIMMIN
 10
0.0
 20
0.0
  9
$LIMMAX
 10
12.0
 20
9.0
  9
$ORTHOMODE
 70
     0
  9
$REGENMODE
 70
     1
  9
$FILLMODE
 70
     1
  9
$QTEXTMODE
 70
     0
  9
$MIRRTEXT
 70
     1
  9
$LTSCALE
 40
3.0
  9
$ATTMODE
 70
     1
  9
$TEXTSIZE
 40
1.5
  9
$TRACEWID
 40
0.05
  9
$TEXTSTYLE
  7
KANJI
  9
$CLAYER
  8
L-ZISSEN
  9
$CELTYPE
  6
BYLAYER
  9
$CECOLOR
 62
   256
  9
$CELTSCALE
 40
1.0
  9
$DISPSILH
 70
     0
  9
$DIMSCALE
 40
3.0
  9
$DIMASZ
 40
2.0
  9
$DIMEXO
 40
1.0
  9
$DIMDLI
 40
8.0
  9
$DIMRND
 40
0.0
  9
$DIMDLE
 40
0.0
  9
$DIMEXE
 40
1.0
  9
$DIMTP
 40
0.0
  9
$DIMTM
 40
0.0
  9
$DIMTXT
 40
2.8
  9
$DIMCEN
 40
1.5
  9
$DIMTSZ
 40
0.0
  9
$DIMTOL
 70
     0
  9
$DIMLIM
 70
     0
  9
$DIMTIH
 70
     0
  9
$DIMTOH
 70
     0
  9
$DIMSE1
 70
     0
  9
$DIMSE2
 70
     0
  9
$DIMTAD
 70
     1
  9
$DIMZIN
 70
     8
  9
$DIMBLK
  1

  9
$DIMASO
 70
     1
  9
$DIMSHO
 70
     0
  9
$DIMPOST
  1

  9
$DIMAPOST
  1

  9
$DIMALT
 70
     0
  9
$DIMALTD
 70
     2
  9
$DIMALTF
 40
25.4
  9
$DIMLFAC
 40
1.0
  9
$DIMTOFL
 70
     1
  9
$DIMTVP
 40
0.0
  9
$DIMTIX
 70
     1
  9
$DIMSOXD
 70
     0
  9
$DIMSAH
 70
     0
  9
$DIMBLK1
  1

  9
$DIMBLK2
  1

  9
$DIMSTYLE
  2
STANDARD
  9
$DIMCLRD
 70
     0
  9
$DIMCLRE
 70
     0
  9
$DIMCLRT
 70
     0
  9
$DIMTFAC
 40
1.0
  9
$DIMGAP
 40
1.4
  9
$DIMJUST
 70
     0
  9
$DIMSD1
 70
     0
  9
$DIMSD2
 70
     0
  9
$DIMTOLJ
 70
     1
  9
$DIMTZIN
 70
     8
  9
$DIMALTZ
 70
     0
  9
$DIMALTTZ
 70
     0
  9
$DIMUPT
 70
     0
  9
$DIMDEC
 70
     4
  9
$DIMTDEC
 70
     4
  9
$DIMALTU
 70
     2
  9
$DIMALTTD
 70
     2
  9
$DIMTXSTY
  7
KANJI
  9
$DIMAUNIT
 70
     0
  9
$DIMADEC
 70
     0
  9
$DIMALTRND
 40
0.0
  9
$DIMAZIN
 70
     0
  9
$DIMDSEP
 70
    46
  9
$DIMATFIT
 70
     3
  9
$DIMFRAC
 70
     0
  9
$DIMLDRBLK
  1

  9
$DIMLUNIT
 70
     2
  9
$DIMLWD
 70
    -2
  9
$DIMLWE
 70
    -2
  9
$DIMTMOVE
 70
     0
  9
$DIMFXL
 40
1.0
  9
$DIMFXLON
 70
     0
  9
$DIMJOGANG
 40
0.7853981633974483
  9
$DIMTFILL
 70
     0
  9
$DIMTFILLCLR
 70
     0
  9
$DIMARCSYM
 70
     0
  9
$DIMLTYPE
  6

  9
$DIMLTEX1
  6

  9
$DIMLTEX2
  6

  9
$DIMTXTDIRECTION
 70
     0
  9
$LUNITS
 70
     2
  9
$LUPREC
 70
     4
  9
$SKETCHINC
 40
0.1
  9
$FILLETRAD
 40
5.0
  9
$AUNITS
 70
     0
  9
$AUPREC
 70
     0
  9
$MENU
  1
acad
  9
$ELEVATION
 40
0.0
  9
$PELEVATION
 40
0.0
  9
$THICKNESS
 40
0.0
  9
$LIMCHECK
 70
     0
  9
$CHAMFERA
 40
0.0
  9
$CHAMFERB
 40
0.0
  9
$CHAMFERC
 40
0.0
  9
$CHAMFERD
 40
0.0
  9
$SKPOLY
 70
     0
  9
$TDCREATE
 40
2450178.944598264
  9
$TDUCREATE
 40
2450178.569598264
  9
$TDUPDATE
 40
2458829.818898958
  9
$TDUUPDATE
 40
2458829.443898958
  9
$TDINDWG
 40
0.8992183565
  9
$TDUSRTIMER
 40
0.000349213
  9
$USRTIMER
 70
     1
  9
$ANGBASE
 50
0.0
  9
$ANGDIR
 70
     0
  9
$PDMODE
 70
     0
  9
$PDSIZE
 40
0.0
  9
$PLINEWID
 40
0.0
  9
$SPLFRAME
 70
     0
  9
$SPLINETYPE
 70
     6
  9
$SPLINESEGS
 70
     8
  9
$HANDSEED
  5
3D99
  9
$SURFTAB1
 70
     6
  9
$SURFTAB2
 70
     6
  9
$SURFTYPE
 70
     6
  9
$SURFU
 70
     6
  9
$SURFV
 70
     6
  9
$UCSBASE
  2

  9
$UCSNAME
  2

  9
$UCSORG
 10
0.0
 20
0.0
 30
0.0
  9
$UCSXDIR
 10
1.0
 20
0.0
 30
0.0
  9
$UCSYDIR
 10
0.0
 20
1.0
 30
0.0
  9
$UCSORTHOREF
  2

  9
$UCSORTHOVIEW
 70
     0
  9
$UCSORGTOP
 10
0.0
 20
0.0
 30
0.0
  9
$UCSORGBOTTOM
 10
0.0
 20
0.0
 30
0.0
  9
$UCSORGLEFT
 10
0.0
 20
0.0
 30
0.0
  9
$UCSORGRIGHT
 10
0.0
 20
0.0
 30
0.0
  9
$UCSORGFRONT
 10
0.0
 20
0.0
 30
0.0
  9
$UCSORGBACK
 10
0.0
 20
0.0
 30
0.0
  9
$PUCSBASE
  2

  9
$PUCSNAME
  2

  9
$PUCSORG
 10
0.0
 20
0.0
 30
0.0
  9
$PUCSXDIR
 10
1.0
 20
0.0
 30
0.0
  9
$PUCSYDIR
 10
0.0
 20
1.0
 30
0.0
  9
$PUCSORTHOREF
  2

  9
$PUCSORTHOVIEW
 70
     0
  9
$PUCSORGTOP
 10
0.0
 20
0.0
 30
0.0
  9
$PUCSORGBOTTOM
 10
0.0
 20
0.0
 30
0.0
  9
$PUCSORGLEFT
 10
0.0
 20
0.0
 30
0.0
  9
$PUCSORGRIGHT
 10
0.0
 20
0.0
 30
0.0
  9
$PUCSORGFRONT
 10
0.0
 20
0.0
 30
0.0
  9
$PUCSORGBACK
 10
0.0
 20
0.0
 30
0.0
  9
$USERI1
 70
     0
  9
$USERI2
 70
     0
  9
$USERI3
 70
     0
  9
$USERI4
 70
     0
  9
$USERI5
 70
     0
  9
$USERR1
 40
0.0
  9
$USERR2
 40
0.0
  9
$USERR3
 40
0.0
  9
$USERR4
 40
0.0
  9
$USERR5
 40
0.0
  9
$WORLDVIEW
 70
     1
  9
$SHADEDGE
 70
     3
  9
$SHADEDIF
 70
    70
  9
$TILEMODE
 70
     1
  9
$MAXACTVP
 70
    16
  9
$PINSBASE
 10
0.0
 20
0.0
 30
0.0
  9
$PLIMCHECK
 70
     0
  9
$PEXTMIN
 10
1.000000000000000E+20
 20
1.000000000000000E+20
 30
1.000000000000000E+20
  9
$PEXTMAX
 10
-1.000000000000000E+20
 20
-1.000000000000000E+20
 30
-1.000000000000000E+20
  9
$PLIMMIN
 10
0.0
 20
0.0
  9
$PLIMMAX
 10
0.0
 20
0.0
  9
$UNITMODE
 70
     0
  9
$VISRETAIN
 70
     0
  9
$PLINEGEN
 70
     0
  9
$PSLTSCALE
 70
     0
  9
$TREEDEPTH
 70
  3020
  9
$CMLSTYLE
  2
STANDARD
  9
$CMLJUST
 70
     0
  9
$CMLSCALE
 40
1.0
  9
$PROXYGRAPHICS
 70
     1
  9
$MEASUREMENT
 70
     0
  9
$CELWEIGHT
370
    -1
  9
$ENDCAPS
280
     0
  9
$JOINSTYLE
280
     0
  9
$LWDISPLAY
290
     0
  9
$INSUNITS
 70
     0
  9
$HYPERLINKBASE
  1

  9
$STYLESHEET
  1

  9
$XEDIT
290
     1
  9
$CEPSNTYPE
380
     0
  9
$PSTYLEMODE
290
     1
  9
$FINGERPRINTGUID
  2
{AA8BBF23-CCEE-4FE5-B81D-141338CA9047}
  9
$VERSIONGUID
  2
{FAEB1C32-E019-11D5-929B-00C0DF256EC4}
  9
$EXTNAMES
290
     1
  9
$PSVPSCALE
 40
0.0
  9
$OLESTARTUP
290
     0
  9
$SORTENTS
280
   127
  9
$INDEXCTL
280
     0
  9
$HIDETEXT
280
     1
  9
$XCLIPFRAME
280
     2
  9
$HALOGAP
280
     0
  9
$OBSCOLOR
 70
   257
  9
$OBSLTYPE
280
     0
  9
$INTERSECTIONDISPLAY
280
     0
  9
$INTERSECTIONCOLOR
 70
   257
  9
$DIMASSOC
280
     2
  9
$PROJECTNAME
  1

  9
$CAMERADISPLAY
290
     0
  9
$LENSLENGTH
 40
50.0
  9
$CAMERAHEIGHT
 40
0.0
  9
$STEPSPERSEC
 40
2.0
  9
$STEPSIZE
 40
6.0
  9
$3DDWFPREC
 40
2.0
  9
$PSOLWIDTH
 40
0.25
  9
$PSOLHEIGHT
 40
4.0
  9
$LOFTANG1
 40
1.570796326794897
  9
$LOFTANG2
 40
1.570796326794897
  9
$LOFTMAG1
 40
0.0
  9
$LOFTMAG2
 40
0.0
  9
$LOFTPARAM
 70
     7
  9
$LOFTNORMALS
280
     1
  9
$LATITUDE
 40
37.795
  9
$LONGITUDE
 40
-122.394
  9
$NORTHDIRECTION
 40
0.0
  9
$TIMEZONE
 70
 -8000
  9
$LIGHTGLYPHDISPLAY
280
     1
  9
$TILEMODELIGHTSYNCH
280
     1
  9
$SOLIDHIST
280
     0
  9
$SHOWHIST
280
     1
  9
$DWFFRAME
280
     2
  9
$DGNFRAME
280
     2
  9
$REALWORLDSCALE
290
     1
  9
$INTERFERECOLOR
 62
   256
  9
$CSHADOW
280
     0
  9
$SHADOWPLANELOCATION
 40
0.0
  0
ENDSEC
  0
SECTION
  2
CLASSES
  0
CLASS
  1
LWPOLYLINE
  2
AcDbPolyline
  3
ObjectDBX Classes
 90
        0
 91
        1
280
     0
281
     1
  0
CLASS
  1
HATCH
  2
AcDbHatch
  3
ObjectDBX Classes
 90
        0
 91
        1
280
     0
281
     1
  0
CLASS
  1
ACAD_ZOMBIE_ENTITY
  2
AcDbDxfZombieEntity
  3
AutoCAD
 90
        0
 91
        4
280
     0
281
     1
  0
CLASS
  1
ACAD_ZOMBIE_OBJECT
  2
AcDbDxfZombieObject
  3
AutoCAD
 90
        0
 91
        4
280
     0
281
     0
  0
CLASS
  1
VISUALSTYLE
  2
AcDbVisualStyle
  3
ObjectDBX Classes
 90
     4095
 91
        4
280
     0
281
     0
  0
CLASS
  1
ACDBDICTIONARYWDFLT
  2
AcDbDictionaryWithDefault
  3
ObjectDBX Classes
 90
        0
 91
        4
280
     0
281
     0
  0
CLASS
  1
SCALE
  2
AcDbScale
  3
ObjectDBX Classes
 90
     1153
 91
        4
280
     0
281
     0
  0
CLASS
  1
MATERIAL
  2
AcDbMaterial
  3
ObjectDBX Classes
 90
     1153
 91
        4
280
     0
281
     0
  0
CLASS
  1
TABLESTYLE
  2
AcDbTableStyle
  3
ObjectDBX Classes
 90
     4095
 91
        4
280
     0
281
     0
  0
CLASS
  1
MLEADERSTYLE
  2
AcDbMLeaderStyle
  3
ACDB_MLEADERSTYLE_CLASS
 90
     4095
 91
        4
280
     0
281
     0
  0
CLASS
  1
SUN
  2
AcDbSun
  3
SCENEOE
 90
     1153
 91
        4
280
     0
281
     0
  0
CLASS
  1
RASTERVARIABLES
  2
AcDbRasterVariables
  3
ISM
 90
        0
 91
        4
280
     0
281
     0
  0
CLASS
  1
DICTIONARYVAR
  2
AcDbDictionaryVar
  3
ObjectDBX Classes
 90
        0
 91
        4
280
     0
281
     0
  0
CLASS
  1
DIMASSOC
  2
AcDbDimAssoc
  3
"AcDbDimAssoc|Product Desc:     AcDim ARX App For Dimension|Company:          Autodesk, Inc.|WEB Address:      www.autodesk.com"
 90
        0
 91
        4
280
     0
281
     0
  0
CLASS
  1
SORTENTSTABLE
  2
AcDbSortentsTable
  3
ObjectDBX Classes
 90
        0
 91
        4
280
     0
281
     0
  0
CLASS
  1
CELLSTYLEMAP
  2
AcDbCellStyleMap
  3
ObjectDBX Classes
 90
     1152
 91
        4
280
     0
281
     0
  0
ENDSEC
  0
SECTION
  2
TABLES
  0
TABLE
  2
VPORT
  5
12
330
0
100
AcDbSymbolTable
 70
     2
  0
VPORT
  5
1070
330
12
100
AcDbSymbolTableRecord
100
AcDbViewportTableRecord
  2
*ACTIVE
 70
     0
 10
0.0
 20
0.0
 11
1.0
 21
1.0
 12
559.677292110554
 22
1051.61393667065
 13
0.0
 23
0.0
 14
1.0
 24
1.0
 15
0.0
 25
0.0
 16
0.0
 26
0.0
 36
1.0
 17
0.0
 27
0.0
 37
0.0
 40
707.4151761983815
 41
2.309290953545232
 42
50.0
 43
0.0
 44
0.0
 50
0.0
 51
0.0
 71
    16
 72
   100
 73
     1
 74
     0
 75
     0
 76
     1
 77
     0
 78
     0
281
     0
 65
     1
110
0.0
120
0.0
130
0.0
111
1.0
121
0.0
131
0.0
112
0.0
122
1.0
132
0.0
 79
     0
146
0.0
348
1076
 60
     3
 61
     5
292
     1
282
     1
141
0.0
142
0.0
 63
   256
361
10BB
  0
ENDTAB
  0
TABLE
  2
LTYPE
  5
E
330
0
100
AcDbSymbolTable
 70
     6
  0
LTYPE
  5
F
330
E
100
AcDbSymbolTableRecord
100
AcDbLinetypeTableRecord
  2
BYBLOCK
 70
     0
  3

 72
    65
 73
     0
 40
0.0
  0
LTYPE
  5
6
330
E
100
AcDbSymbolTableRecord
100
AcDbLinetypeTableRecord
  2
BYLAYER
 70
     0
  3

 72
    65
 73
     0
 40
0.0
  0
LTYPE
  5
5
330
E
100
AcDbSymbolTableRecord
100
AcDbLinetypeTableRecord
  2
CONTINUOUS
 70
     0
  3
Solid line
 72
    65
 73
     0
 40
0.0
  0
LTYPE
  5
1DF
330
E
100
AcDbSymbolTableRecord
100
AcDbLinetypeTableRecord
  2
CENTER
 70
     0
  3
----- - ----- - ----- - ----- - -----
 72
    65
 73
     4
 40
35.0
 49
30.0
 74
     0
 49
-1.5
 74
     0
 49
2.0
 74
     0
 49
-1.5
 74
     0
  0
LTYPE
  5
327
330
E
100
AcDbSymbolTableRecord
100
AcDbLinetypeTableRecord
  2
HIDDEN
 70
     0
  3
- - - - - - - - - - - - - - -
 72
    65
 73
     2
 40
2.0
 49
1.0
 74
     0
 49
-1.0
 74
     0
  0
LTYPE
  5
1C
330
E
100
AcDbSymbolTableRecord
100
AcDbLinetypeTableRecord
  2
PHANTOM
 70
     0
  3
_____ _ _ _____ _ _ _____
 72
    65
 73
     6
 40
10.0
 49
5.0
 74
     0
 49
-1.0
 74
     0
 49
1.0
 74
     0
 49
-1.0
 74
     0
 49
1.0
 74
     0
 49
-1.0
 74
     0
  0
LTYPE
  5
1002
330
E
100
AcDbSymbolTableRecord
100
AcDbLinetypeTableRecord
  2
CENTER1
 70
     0
  3
----- - ----- - ----- - ----- - ----- - -----
 72
    65
 73
     4
 40
20.0
 49
15.0
 74
     0
 49
-1.5
 74
     0
 49
2.0
 74
     0
 49
-1.5
 74
     0
  0
LTYPE
  5
1100
330
E
100
AcDbSymbolTableRecord
100
AcDbLinetypeTableRecord
  2
CENTER2
 70
     0
  3
___ _ ___ _ ___ _ ___ _ ___ _ ___ _ ___ _ ___ _
 72
    65
 73
     4
 40
1.125
 49
0.75
 74
     0
 49
-0.125
 74
     0
 49
0.125
 74
     0
 49
-0.125
 74
     0
  0
ENDTAB
  0
TABLE
  2
LAYER
  5
B
102
{ACAD_XDICTIONARY
360
10F1
102
}
330
0
100
AcDbSymbolTable
 70
    12
  0
LAYER
  5
4
330
B
100
AcDbSymbolTableRecord
100
AcDbLayerTableRecord
  2
0
 70
     0
 62
     7
  6
CONTINUOUS
370
    -3
390
108C
347
10B5
  0
LAYER
  5
1E1
330
B
100
AcDbSymbolTableRecord
100
AcDbLayerTableRecord
  2
L-ZISSEN
 70
     0
 62
     7
  6
CONTINUOUS
370
    -3
390
108C
347
10B5
  0
LAYER
  5
1DE
330
B
100
AcDbSymbolTableRecord
100
AcDbLayerTableRecord
  2
L-TYUSIN
 70
     0
 62
     1
  6
CENTER
370
    -3
390
108C
347
10B5
  0
LAYER
  5
326
330
B
100
AcDbSymbolTableRecord
100
AcDbLayerTableRecord
  2
L-HASEN
 70
     0
 62
     5
  6
HIDDEN
370
    -3
390
108C
347
10B5
  0
LAYER
  5
1B
330
B
100
AcDbSymbolTableRecord
100
AcDbLayerTableRecord
  2
L-SOUZOU
 70
     0
 62
     2
  6
PHANTOM
370
    -3
390
108C
347
10B5
  0
LAYER
  5
10FC
330
B
100
AcDbSymbolTableRecord
100
AcDbLayerTableRecord
  2
PV
 70
     0
 62
     7
  6
CONTINUOUS
370
    -3
390
108C
347
10B5
  0
LAYER
  5
147A
330
B
100
AcDbSymbolTableRecord
100
AcDbLayerTableRecord
  2
Defpoints
 70
     0
 62
     7
  6
CONTINUOUS
290
     0
370
    -3
390
108C
347
10B5
  0
LAYER
  5
16F1
330
B
100
AcDbSymbolTableRecord
100
AcDbLayerTableRecord
  2
SUNPOU
 70
     0
 62
     3
  6
CONTINUOUS
370
    -3
390
108C
347
10B5
  0
LAYER
  5
1747
102
{ACAD_XDICTIONARY
360
1748
102
}
330
B
100
AcDbSymbolTableRecord
100
AcDbLayerTableRecord
  2
LAYER007
 70
     0
 62
     7
  6
CONTINUOUS
370
    -3
390
108C
347
10B5
  0
LAYER
  5
1BC9
330
B
100
AcDbSymbolTableRecord
100
AcDbLayerTableRecord
  2
L-SAISEN
 70
     0
 62
     6
  6
CONTINUOUS
370
    -3
390
108C
347
10B5
  0
ENDTAB
  0
TABLE
  2
STYLE
  5
C
330
0
100
AcDbSymbolTable
 70
     2
  0
STYLE
  5
D
330
C
100
AcDbSymbolTableRecord
100
AcDbTextStyleTableRecord
  2
STANDARD
 70
     0
 40
0.0
 41
0.8
 50
0.0
 71
     0
 42
5.0
  3
C:\PROGRAM FILES\AUTOCAD LT\SIMPLEX
  4
BIGFONT.shx
  0
STYLE
  5
1D
330
C
100
AcDbSymbolTableRecord
100
AcDbTextStyleTableRecord
  2
KANJI
 70
     0
 40
0.0
 41
0.8
 50
0.0
 71
     0
 42
1.5
  3
C:\Program Files\AutoCAD LT\ROMANS
  4
BIGFONT
  0
ENDTAB
  0
TABLE
  2
VIEW
  5
10
330
0
100
AcDbSymbolTable
 70
     0
  0
ENDTAB
  0
TABLE
  2
UCS
  5
11
330
0
100
AcDbSymbolTable
 70
     0
  0
ENDTAB
  0
TABLE
  2
APPID
  5
14
330
0
100
AcDbSymbolTable
 70
     2
  0
APPID
  5
15
330
14
100
AcDbSymbolTableRecord
100
AcDbRegAppTableRecord
  2
ACAD
 70
     0
  0
APPID
  5
174E
330
14
100
AcDbSymbolTableRecord
100
AcDbRegAppTableRecord
  2
ACAD_NAV_VCDISPLAY
 70
     0
  0
ENDTAB
  0
TABLE
  2
DIMSTYLE
  5
16
330
0
100
AcDbSymbolTable
 70
     2
100
AcDbDimStyleTable
  0
DIMSTYLE
105
1F
330
16
100
AcDbSymbolTableRecord
100
AcDbDimStyleTableRecord
  2
STANDARD
 70
     0
178
     0
340
D
  0
DIMSTYLE
105
1BCE
330
16
100
AcDbSymbolTableRecord
100
AcDbDimStyleTableRecord
  2
STANDARD$7
 70
     0
 41
2.0
 42
1.0
 44
1.0
 73
     0
 74
     0
 77
     3
140
3.0
147
1.0
176
     3
177
     3
178
     3
340
D
  0
ENDTAB
  0
TABLE
  2
BLOCK_RECORD
  5
1
330
0
100
AcDbSymbolTable
 70
    14
  0
BLOCK_RECORD
  5
2
330
1
100
AcDbSymbolTableRecord
100
AcDbBlockTableRecord
  2
*MODEL_SPACE
340
10B0
 70
     0
280
     1
281
     0
  0
BLOCK_RECORD
  5
8
330
1
100
AcDbSymbolTableRecord
100
AcDbBlockTableRecord
  2
*PAPER_SPACE
340
10B1
 70
     0
280
     1
281
     0
  0
BLOCK_RECORD
  5
F4B
330
1
100
AcDbSymbolTableRecord
100
AcDbBlockTableRecord
  2
ITOH105
340
0
 70
     0
280
     1
281
     0
  0
BLOCK_RECORD
  5
E45
330
1
100
AcDbSymbolTableRecord
100
AcDbBlockTableRecord
  2
_OPEN
340
0
102
{BLKREFS
331
3D92
102
}
 70
     0
280
     1
281
     0
  0
BLOCK_RECORD
  5
18B7
330
1
100
AcDbSymbolTableRecord
100
AcDbBlockTableRecord
  2
_OPEN30
340
0
 70
     0
280
     1
281
     0
  0
ENDTAB
  0
ENDSEC
  0
SECTION
  2
BLOCKS
  0
BLOCK
  5
3
330
2
100
AcDbEntity
  8
0
100
AcDbBlockBegin
  2
*MODEL_SPACE
 70
     0
 10
0.0
 20
0.0
 30
0.0
  3
*MODEL_SPACE
  1

  0
ENDBLK
  5
7
330
2
100
AcDbEntity
  8
0
100
AcDbBlockEnd
  0
BLOCK
  5
9
330
8
100
AcDbEntity
 67
     1
  8
0
100
AcDbBlockBegin
  2
*PAPER_SPACE
 70
     0
 10
0.0
 20
0.0
 30
0.0
  3
*PAPER_SPACE
  1

  0
ENDBLK
  5
A
330
8
100
AcDbEntity
 67
     1
  8
0
100
AcDbBlockEnd
  0
BLOCK
  5
F53
330
F4B
100
AcDbEntity
  8
0
100
AcDbBlockBegin
  2
ITOH105
 70
     0
 10
0.0
 20
0.0
 30
0.0
  3
ITOH105
  1

  0
LINE
  5
F4C
330
F4B
100
AcDbEntity
  8
L-ZISSEN
100
AcDbLine
 10
-14.1543724759548
 20
23.2493648042106
 30
0.0
 11
14.8456275240452
 21
23.2493648042106
 31
0.0
  0
LINE
  5
F4D
330
F4B
100
AcDbEntity
  8
L-ZISSEN
100
AcDbLine
 10
14.8456275240452
 20
23.2493648042106
 30
0.0
 11
14.8456275240452
 21
27.04936480421055
 31
0.0
  0
LINE
  5
F4E
330
F4B
100
AcDbEntity
  8
L-ZISSEN
100
AcDbLine
 10
-14.1543724759548
 20
27.04936480421055
 30
0.0
 11
-14.1543724759548
 21
23.2493648042106
 31
0.0
  0
LINE
  5
F4F
330
F4B
100
AcDbEntity
  8
L-ZISSEN
100
AcDbLine
 10
11.3456275240452
 20
13.34936480421062
 30
0.0
 11
-10.6543724759548
 21
13.34936480421062
 31
0.0
  0
LINE
  5
F50
330
F4B
100
AcDbEntity
  8
L-ZISSEN
100
AcDbLine
 10
-10.6543724759548
 20
13.34936480421062
 30
0.0
 11
-10.6543724759548
 21
23.2493648042106
 31
0.0
  0
LINE
  5
F51
330
F4B
100
AcDbEntity
  8
L-ZISSEN
100
AcDbLine
 10
11.3456275240452
 20
13.34936480421062
 30
0.0
 11
11.3456275240452
 21
23.2493648042106
 31
0.0
  0
LINE
  5
F52
330
F4B
100
AcDbEntity
  8
L-TYUSIN
100
AcDbLine
 10
0.3456275240451987
 20
27.04936480421043
 30
0.0
 11
0.3456275240451987
 21
9.538142199001086
 31
0.0
  0
ENDBLK
  5
F54
330
F4B
100
AcDbEntity
  8
0
100
AcDbBlockEnd
  0
BLOCK
  5
E49
330
E45
100
AcDbEntity
  8
0
100
AcDbBlockBegin
  2
_OPEN
 70
     0
 10
0.0
 20
0.0
 30
0.0
  3
_OPEN
  1

  0
LINE
  5
E46
330
E45
100
AcDbEntity
  8
0
  6
ByBlock
 62
     0
100
AcDbLine
 10
-1.0
 20
0.166667
 30
0.0
 11
0.0
 21
0.0
 31
0.0
  0
LINE
  5
E47
330
E45
100
AcDbEntity
  8
0
  6
ByBlock
 62
     0
100
AcDbLine
 10
0.0
 20
0.0
 30
0.0
 11
-1.0
 21
-0.166667
 31
0.0
  0
LINE
  5
E48
330
E45
100
AcDbEntity
  8
0
  6
ByBlock
 62
     0
100
AcDbLine
 10
0.0
 20
0.0
 30
0.0
 11
-1.0
 21
0.0
 31
0.0
  0
ENDBLK
  5
E4A
330
E45
100
AcDbEntity
  8
0
100
AcDbBlockEnd
  0
BLOCK
  5
18B8
330
18B7
100
AcDbEntity
  8
0
100
AcDbBlockBegin
  2
_OPEN30
 70
     0
 10
0.0
 20
0.0
 30
0.0
  3
_OPEN30
  1

  0
LINE
  5
18B9
330
18B7
100
AcDbEntity
  8
0
  6
ByBlock
 62
     0
100
AcDbLine
 10
-1.0
 20
0.267949
 30
0.0
 11
0.0
 21
0.0
 31
0.0
  0
LINE
  5
18BA
330
18B7
100
AcDbEntity
  8
0
  6
ByBlock
 62
     0
100
AcDbLine
 10
0.0
 20
0.0
 30
0.0
 11
-1.0
 21
-0.267949
 31
0.0
  0
LINE
  5
18BB
330
18B7
100
AcDbEntity
  8
0
  6
ByBlock
 62
     0
100
AcDbLine
 10
0.0
 20
0.0
 30
0.0
 11
-1.0
 21
0.0
 31
0.0
  0
ENDBLK
  5
18BC
330
18B7
100
AcDbEntity
  8
0
100
AcDbBlockEnd
  0
ENDSEC
  0
SECTION
  2
ENTITIES
  0
LINE
  5
3915
330
2
100
AcDbEntity
  8
L-ZISSEN
100
AcDbLine
 10
635.098887580776
 20
1036.590113802472
 30
0.0
 11
635.098887580776
 21
992.5901138024723
 31
0.0
  0
LINE
  5
3918
330
2
100
AcDbEntity
  8
L-ZISSEN
100
AcDbLine
 10
572.0658789917851
 20
1037.090078802472
 30
0.0
 11
572.0658789917851
 21
992.2591588539316
 31
0.0
  0
CIRCLE
  5
3919
330
2
100
AcDbEntity
  8
L-ZISSEN
100
AcDbCircle
 10
607.0658789917851
 20
1017.090052802472
 30
0.0
 40
27.0
  0
LINE
  5
391A
330
2
100
AcDbEntity
  8
L-ZISSEN
100
AcDbLine
 10
567.1657289917852
 20
1036.590098802472
 30
0.0
 11
567.1657289917852
 21
1033.690073802472
 31
0.0
  0
LINE
  5
391B
330
2
100
AcDbEntity
  8
L-ZISSEN
100
AcDbLine
 10
624.4494495382004
 20
1028.344995640928
 30
0.0
 11
589.5505761634203
 21
1006.371877796484
 31
0.0
  0
LINE
  5
391C
330
2
100
AcDbEntity
  8
L-TYUSIN
100
AcDbLine
 10
661.0658789917851
 20
1014.590113802472
 30
0.0
 11
557.0658789917851
 21
1014.590113802472
 31
0.0
  0
LINE
  5
391D
330
2
100
AcDbEntity
  8
L-ZISSEN
 48
3.0
100
AcDbLine
 10
624.583362336239
 20
1017.090052802472
 30
0.0
 11
590.5240151344459
 21
1017.090052802472
 31
0.0
  0
LINE
  5
391E
330
2
100
AcDbEntity
  8
L-ZISSEN
100
AcDbLine
 10
569.5658789917851
 20
1000.190111802472
 30
0.0
 11
569.5658789917851
 21
996.9901118024721
 31
0.0
  0
LINE
  5
391F
330
2
100
AcDbEntity
  8
L-ZISSEN
100
AcDbLine
 10
567.0658816921774
 20
992.2591572110003
 30
0.0
 11
596.4627329625949
 21
992.2591588539316
 31
0.0
  0
ARC
  5
3920
330
2
100
AcDbEntity
  8
L-ZISSEN
100
AcDbCircle
 10
568.5658789917851
 20
996.9901118024721
 30
0.0
 40
0.99999994
100
AcDbArc
 50
270.0000200000032
 51
0.0
  0
LINE
  5
3921
330
2
100
AcDbEntity
  8
L-ZISSEN
100
AcDbLine
 10
567.5658789917851
 20
995.9901118024721
 30
0.0
 11
568.5658789917851
 21
995.9901118024721
 31
0.0
  0
ARC
  5
3922
330
2
100
AcDbEntity
  8
L-ZISSEN
100
AcDbCircle
 10
567.5658789917851
 20
995.4901268024718
 30
0.0
 40
0.49999994
100
AcDbArc
 50
89.99998199998561
 51
179.9999599999912
  0
LINE
  5
3923
330
2
100
AcDbEntity
  8
L-ZISSEN
100
AcDbLine
 10
567.0658789917851
 20
1027.490114802472
 30
0.0
 11
567.0658789917851
 21
1001.690096802472
 31
0.0
  0
LINE
  5
3924
330
2
100
AcDbEntity
  8
L-ZISSEN
100
AcDbLine
 10
567.5658789917851
 20
1001.190111802472
 30
0.0
 11
568.5658789917851
 21
1001.190111802472
 31
0.0
  0
ARC
  5
3925
330
2
100
AcDbEntity
  8
L-ZISSEN
100
AcDbCircle
 10
567.5658789917851
 20
1001.690096802472
 30
0.0
 40
0.49999994
100
AcDbArc
 50
179.9999600000433
 51
270.0
  0
ARC
  5
3926
330
2
100
AcDbEntity
  8
L-ZISSEN
100
AcDbCircle
 10
568.5658789917851
 20
1000.190111802472
 30
0.0
 40
0.99999994
100
AcDbArc
 50
0.0
 51
89.99998200001274
  0
LINE
  5
3927
330
2
100
AcDbEntity
  8
L-ZISSEN
100
AcDbLine
 10
589.5505761634203
 20
1006.371877796484
 30
0.0
 11
595.84835201251
 21
1007.567647037732
 31
0.0
  0
LINE
  5
3928
330
2
100
AcDbEntity
  8
L-ZISSEN
100
AcDbLine
 10
589.5505761634203
 20
1006.371877796484
 30
0.0
 11
593.3951052499468
 21
1011.501345685704
 31
0.0
  0
ARC
  5
3929
330
2
100
AcDbEntity
  8
L-ZISSEN
100
AcDbCircle
 10
570.0658789917851
 20
1032.690088802472
 30
0.0
 40
0.49999994
100
AcDbArc
 50
89.99998199998561
 51
179.9999600000433
  0
LINE
  5
392A
330
2
100
AcDbEntity
  8
L-ZISSEN
100
AcDbLine
 10
568.5658789917851
 20
1027.990099802472
 30
0.0
 11
567.5658789917851
 21
1027.990099802472
 31
0.0
  0
ARC
  5
392B
330
2
100
AcDbEntity
  8
L-ZISSEN
100
AcDbCircle
 10
567.5658789917851
 20
1027.490114802472
 30
0.0
 40
0.49999994
100
AcDbArc
 50
89.99998199998561
 51
179.9999600000433
  0
ARC
  5
392C
330
2
100
AcDbEntity
  8
L-ZISSEN
100
AcDbCircle
 10
568.5658789917851
 20
1028.990099802472
 30
0.0
 40
0.99999994
100
AcDbArc
 50
270.0000200000032
 51
0.0
  0
LINE
  5
392D
330
2
100
AcDbEntity
  8
L-ZISSEN
100
AcDbLine
 10
569.5658789917851
 20
1032.690088802472
 30
0.0
 11
569.5658789917851
 21
1028.990099802472
 31
0.0
  0
LINE
  5
392E
330
2
100
AcDbEntity
  8
L-ZISSEN
100
AcDbLine
 10
572.0658789917851
 20
1033.19008796823
 30
0.0
 11
567.6657289917852
 21
1033.190088802472
 31
0.0
  0
LINE
  5
392F
330
2
100
AcDbEntity
  8
L-ZISSEN
100
AcDbLine
 10
570.0658789917851
 20
1033.190088802472
 30
0.0
 11
567.6657289917852
 21
1033.190088802472
 31
0.0
  0
ARC
  5
3930
330
2
100
AcDbEntity
  8
L-ZISSEN
100
AcDbCircle
 10
567.6657289917852
 20
1033.690073802472
 30
0.0
 40
0.49999994
100
AcDbArc
 50
179.9999599999912
 51
270.0
  0
CIRCLE
  5
3931
330
2
100
AcDbEntity
  8
L-ZISSEN
100
AcDbCircle
 10
648.5658789917851
 20
998.5901138024723
 30
0.0
 40
3.5
  0
LINE
  5
3932
330
2
100
AcDbEntity
  8
L-ZISSEN
100
AcDbLine
 10
617.6690250209757
 20
992.2591588539316
 30
0.0
 11
647.0658589917856
 21
992.2591588539316
 31
0.0
  0
LINE
  5
3933
330
2
100
AcDbEntity
  8
L-ZISSEN
100
AcDbLine
 10
661.0658789917851
 20
992.5901138024723
 30
0.0
 11
635.098887580776
 21
992.5901138024723
 31
0.0
  0
CIRCLE
  5
3934
330
2
100
AcDbEntity
  8
L-ZISSEN
100
AcDbCircle
 10
648.5658789917851
 20
1030.590113802472
 30
0.0
 40
3.5
  0
LINE
  5
393B
330
2
100
AcDbEntity
  8
L-ZISSEN
100
AcDbLine
 10
570.5658789917851
 20
1061.290078742472
 30
0.0
 11
643.5658789917851
 21
1061.290078742472
 31
0.0
  0
LINE
  5
393C
330
2
100
AcDbEntity
  8
L-ZISSEN
100
AcDbLine
 10
644.5658789917851
 20
1043.590078742472
 30
0.0
 11
612.2377862975412
 21
1043.590078742472
 31
0.0
  0
LINE
  5
393D
330
2
100
AcDbEntity
  8
L-ZISSEN
100
AcDbLine
 10
569.5658789917851
 20
1044.290078742472
 30
0.0
 11
644.5658789917851
 21
1044.290078742472
 31
0.0
  0
ARC
  5
3946
330
2
100
AcDbEntity
  8
L-ZISSEN
100
AcDbCircle
 10
567.6657289917852
 20
1036.590098802472
 30
0.0
 40
0.49999994
100
AcDbArc
 50
89.99998199998561
 51
179.9999599999912
  0
LINE
  5
3947
330
2
100
AcDbEntity
  8
L-ZISSEN
100
AcDbLine
 10
572.0658789917851
 20
1037.090078802472
 30
0.0
 11
567.6657289917852
 21
1037.090078802472
 31
0.0
  0
LINE
  5
3948
330
2
100
AcDbEntity
  8
L-ZISSEN
100
AcDbLine
 10
569.5658789917851
 20
1060.290078742472
 30
0.0
 11
569.5658789917851
 21
1037.090078802472
 31
0.0
  0
ARC
  5
3949
330
2
100
AcDbEntity
  8
L-ZISSEN
100
AcDbCircle
 10
570.5658789917851
 20
1060.290078742472
 30
0.0
 40
1.0
100
AcDbArc
 50
90.0
 51
180.0
  0
LINE
  5
3952
330
2
100
AcDbEntity
  8
L-ZISSEN
100
AcDbLine
 10
661.0658789917851
 20
1036.590113802472
 30
0.0
 11
635.098887580776
 21
1036.590113802472
 31
0.0
  0
LINE
  5
3954
330
2
100
AcDbEntity
  8
L-ZISSEN
100
AcDbLine
 10
644.5658789917851
 20
1060.290078742472
 30
0.0
 11
644.5658789917851
 21
1036.590113802472
 31
0.0
  0
ARC
  5
3957
330
2
100
AcDbEntity
  8
L-ZISSEN
100
AcDbCircle
 10
643.5658789917851
 20
1060.290078742472
 30
0.0
 40
1.0
100
AcDbArc
 50
0.0
 51
90.0
  0
LINE
  5
39C2
330
2
100
AcDbEntity
  8
L-TYUSIN
100
AcDbLine
 10
607.0658789917851
 20
1066.290078742472
 30
0.0
 11
607.0658789917869
 21
822.5901138024722
 31
0.0
  0
LINE
  5
39C3
330
2
100
AcDbEntity
  8
L-ZISSEN
100
AcDbLine
 10
568.1874785350873
 20
971.0901987310908
 30
0.0
 11
600.5658789917851
 21
971.0901387310907
 31
0.0
  0
LINE
  5
39C4
330
2
100
AcDbEntity
  8
L-ZISSEN
100
AcDbLine
 10
600.5658789917851
 20
965.5901187310894
 30
0.0
 11
568.5658789917851
 21
965.5901187310894
 31
0.0
  0
LINE
  5
39C6
330
2
100
AcDbEntity
  8
L-ZISSEN
100
AcDbLine
 10
568.5658789917851
 20
971.0901387310907
 30
0.0
 11
568.5658789917851
 21
965.5901187310894
 31
0.0
  0
LINE
  5
39C7
330
2
100
AcDbEntity
  8
L-ZISSEN
100
AcDbLine
 10
637.5658789917851
 20
965.5901187310894
 30
0.0
 11
634.8158789917851
 21
884.5901187310894
 31
0.0
  0
LINE
  5
39C8
330
2
100
AcDbEntity
  8
L-ZISSEN
100
AcDbLine
 10
576.5658789917851
 20
965.5901187310894
 30
0.0
 11
579.3158789917851
 21
884.5901187310894
 31
0.0
  0
LINE
  5
39C9
330
2
100
AcDbEntity
  8
L-ZISSEN
100
AcDbLine
 10
629.0658789917851
 20
930.5901187310894
 30
0.0
 11
629.0658789917851
 21
888.0901187310894
 31
0.0
  0
LINE
  5
39CA
330
2
100
AcDbEntity
  8
L-ZISSEN
100
AcDbLine
 10
585.0658789917851
 20
930.5901187310894
 30
0.0
 11
585.0658789917851
 21
888.0901187310894
 31
0.0
  0
LINE
  5
39CB
330
2
100
AcDbEntity
  8
L-ZISSEN
100
AcDbLine
 10
582.0658789917851
 20
874.5901187310894
 30
0.0
 11
632.0658789917851
 21
874.5901187310894
 31
0.0
  0
LINE
  5
39CC
330
2
100
AcDbEntity
  8
L-ZISSEN
100
AcDbLine
 10
634.8158789917851
 20
884.5901187310894
 30
0.0
 11
632.0658789917851
 21
874.5901187310894
 31
0.0
  0
LINE
  5
39CD
330
2
100
AcDbEntity
  8
L-ZISSEN
100
AcDbLine
 10
597.0658789917851
 20
869.5901187310894
 30
0.0
 11
617.0658789917851
 21
869.5901187310894
 31
0.0
  0
LINE
  5
39CE
330
2
100
AcDbEntity
  8
L-ZISSEN
100
AcDbLine
 10
618.0658789917851
 20
874.5901187310894
 30
0.0
 11
617.0658789917851
 21
869.5901187310894
 31
0.0
  0
LINE
  5
39CF
330
2
100
AcDbEntity
  8
L-ZISSEN
100
AcDbLine
 10
596.0658789917851
 20
874.5901187310894
 30
0.0
 11
597.0658789917851
 21
869.5901187310894
 31
0.0
  0
LINE
  5
39D0
330
2
100
AcDbEntity
  8
L-ZISSEN
100
AcDbLine
 10
579.3158789917851
 20
884.5901187310894
 30
0.0
 11
582.0658789917851
 21
874.5901187310894
 31
0.0
  0
LINE
  5
39D1
330
2
100
AcDbEntity
  8
L-ZISSEN
100
AcDbLine
 10
585.0658789917851
 20
888.0901187310894
 30
0.0
 11
629.0658789917851
 21
888.0901187310894
 31
0.0
  0
LINE
  5
39D2
330
2
100
AcDbEntity
  8
L-ZISSEN
100
AcDbLine
 10
615.565878991816
 20
827.5901138024722
 30
0.0
 11
598.5658789917578
 21
827.5901138024722
 31
0.0
  0
LINE
  5
39D3
330
2
100
AcDbEntity
  8
L-ZISSEN
100
AcDbLine
 10
598.5658789917578
 20
827.5901138024722
 30
0.0
 11
598.5658789917578
 21
869.5901187310894
 31
0.0
  0
LINE
  5
39D4
330
2
100
AcDbEntity
  8
L-ZISSEN
100
AcDbLine
 10
615.565878991816
 20
827.5901138024722
 30
0.0
 11
615.565878991816
 21
869.5901187310894
 31
0.0
  0
LINE
  5
39D5
330
2
100
AcDbEntity
  8
L-ZISSEN
100
AcDbLine
 10
645.5658789917851
 20
971.0901387310907
 30
0.0
 11
645.5658789917851
 21
965.5901187310894
 31
0.0
  0
LINE
  5
39D6
330
2
100
AcDbEntity
  8
L-ZISSEN
100
AcDbLine
 10
613.5658789917851
 20
947.5901187310894
 30
0.0
 11
613.5658789917851
 21
972.5901187310894
 31
0.0
  0
LINE
  5
39D7
330
2
100
AcDbEntity
  8
L-ZISSEN
100
AcDbLine
 10
600.5658789917851
 20
972.5901187310894
 30
0.0
 11
613.5658789917851
 21
972.5901187310894
 31
0.0
  0
LINE
  5
39D8
330
2
100
AcDbEntity
  8
L-ZISSEN
100
AcDbLine
 10
600.5658789917851
 20
947.5901187310894
 30
0.0
 11
613.5658789917851
 21
947.5901187310894
 31
0.0
  0
LINE
  5
39D9
330
2
100
AcDbEntity
  8
L-ZISSEN
100
AcDbLine
 10
600.5658789917851
 20
947.5901187310894
 30
0.0
 11
600.5658789917851
 21
972.5901187310894
 31
0.0
  0
LINE
  5
39DA
330
2
100
AcDbEntity
  8
L-ZISSEN
100
AcDbLine
 10
629.0658789917851
 20
930.5901187310894
 30
0.0
 11
585.0658789917851
 21
930.5901187310894
 31
0.0
  0
CIRCLE
  5
39DB
330
2
100
AcDbEntity
  8
L-ZISSEN
100
AcDbCircle
 10
607.0658789917851
 20
910.5901187310894
 30
0.0
 40
11.0
  0
LINE
  5
39DC
330
2
100
AcDbEntity
  8
L-ZISSEN
100
AcDbLine
 10
645.9442794484834
 20
971.0902288738557
 30
0.0
 11
613.5658789917851
 21
971.0901387310907
 31
0.0
  0
LINE
  5
39DD
330
2
100
AcDbEntity
  8
L-ZISSEN
100
AcDbLine
 10
645.5658789917851
 20
965.5901187310894
 30
0.0
 11
613.5658789917851
 21
965.5901187310894
 31
0.0
  0
LINE
  5
3AC6
330
2
100
AcDbEntity
  8
L-ZISSEN
100
AcDbLine
 10
601.893971686029
 20
1043.590078742472
 30
0.0
 11
569.5658789917851
 21
1043.590078742472
 31
0.0
  0
LINE
  5
3AC7
330
2
100
AcDbEntity
  8
L-ZISSEN
100
AcDbLine
 10
661.0658789917851
 20
1036.590113802472
 30
0.0
 11
661.0658789917851
 21
992.5901138024718
 31
0.0
  0
LINE
  5
3ACB
330
2
100
AcDbEntity
  8
L-ZISSEN
100
AcDbLine
 10
412.5988879917869
 20
991.5901138024724
 30
0.0
 11
412.5988879917869
 21
974.5901178024724
 31
0.0
  0
LINE
  5
3ACD
330
2
100
AcDbEntity
  8
L-ZISSEN
100
AcDbLine
 10
381.5328699917869
 20
991.5901138024724
 30
0.0
 11
381.5328699917869
 21
974.5901178024724
 31
0.0
  0
CIRCLE
  5
3ACE
330
2
100
AcDbEntity
  8
L-ZISSEN
100
AcDbCircle
 10
397.0658789917869
 20
1014.590113802472
 30
0.0
 40
8.65
  0
LINE
  5
3ACF
330
2
100
AcDbEntity
  8
L-ZISSEN
100
AcDbLine
 10
358.0660129917869
 20
974.5901438024723
 30
0.0
 11
436.0659369917869
 21
974.5901328024723
 31
0.0
  0
LINE
  5
3AD0
330
2
100
AcDbEntity
  8
L-ZISSEN
100
AcDbLine
 10
410.8158789917869
 20
1126.654078802472
 30
0.0
 11
410.8158789917869
 21
1122.654078802472
 31
0.0
  0
LINE
  5
3AD1
330
2
100
AcDbEntity
  8
L-ZISSEN
100
AcDbLine
 10
383.3158789917869
 20
1126.654078802472
 30
0.0
 11
383.3158789917869
 21
1122.654078802472
 31
0.0
  0
LINE
  5
3AD2
330
2
100
AcDbEntity
  8
L-ZISSEN
100
AcDbLine
 10
378.0658789917869
 20
1095.754078802472
 30
0.0
 11
416.0658789917869
 21
1095.754078802472
 31
0.0
  0
LINE
  5
3AD3
330
2
100
AcDbEntity
  8
L-ZISSEN
100
AcDbLine
 10
382.0658789917869
 20
1108.654078802472
 30
0.0
 11
412.0658789917869
 21
1108.654078802472
 31
0.0
  0
LINE
  5
3AD4
330
2
100
AcDbEntity
  8
L-ZISSEN
100
AcDbLine
 10
379.0658789917869
 20
1036.590113802472
 30
0.0
 11
415.0658789917869
 21
1036.590113802472
 31
0.0
  0
LINE
  5
3AD5
330
2
100
AcDbEntity
  8
L-ZISSEN
100
AcDbLine
 10
359.5658769917869
 20
1043.590078802472
 30
0.0
 11
434.5658789917869
 21
1043.590078802472
 31
0.0
  0
LINE
  5
3AD6
330
2
100
AcDbEntity
  8
L-ZISSEN
100
AcDbLine
 10
378.0658789917869
 20
1083.654078802472
 30
0.0
 11
416.0658789917869
 21
1083.654078802472
 31
0.0
  0
LINE
  5
3AD7
330
2
100
AcDbEntity
  8
L-ZISSEN
100
AcDbLine
 10
361.2644589917869
 20
1031.109444802472
 30
0.0
 11
361.2644589917869
 21
1003.070787802472
 31
0.0
  0
LINE
  5
3AD8
330
2
100
AcDbEntity
  8
L-ZISSEN
100
AcDbLine
 10
379.0658789917869
 20
991.5901138024724
 30
0.0
 11
379.0658789917869
 21
1005.090113802472
 31
0.0
  0
LINE
  5
3AD9
330
2
100
AcDbEntity
  8
L-ZISSEN
100
AcDbLine
 10
379.0658789917869
 20
1005.090113802472
 30
0.0
 11
375.0658789917869
 21
1006.590113802472
 31
0.0
  0
LINE
  5
3ADA
330
2
100
AcDbEntity
  8
L-ZISSEN
100
AcDbLine
 10
360.0658919917869
 20
1002.378794802472
 30
0.0
 11
361.2644589917869
 21
1003.070787802472
 31
0.0
  0
LINE
  5
3ADB
330
2
100
AcDbEntity
  8
L-ZISSEN
100
AcDbLine
 10
359.5658769917869
 20
1001.512766802472
 30
0.0
 11
359.5658769917869
 21
992.0901328024723
 31
0.0
  0
ARC
  5
3ADC
330
2
100
AcDbEntity
  8
L-ZISSEN
100
AcDbCircle
 10
360.5658769917869
 20
1001.512766802472
 30
0.0
 40
1.0
100
AcDbArc
 50
120.0000670000036
 51
180.0
  0
ARC
  5
3ADD
330
2
100
AcDbEntity
  8
L-ZISSEN
100
AcDbCircle
 10
360.5658769917869
 20
1001.512766802472
 30
0.0
 40
1.0
100
AcDbArc
 50
120.0000119999966
 51
180.0
  0
LINE
  5
3ADE
330
2
100
AcDbEntity
  8
L-ZISSEN
100
AcDbLine
 10
375.0658789917869
 20
1006.590113802472
 30
0.0
 11
375.0658789917869
 21
1022.590113802472
 31
0.0
  0
LINE
  5
3ADF
330
2
100
AcDbEntity
  8
L-ZISSEN
100
AcDbLine
 10
379.0658789917869
 20
1024.090113802472
 30
0.0
 11
375.0658789917869
 21
1022.590113802472
 31
0.0
  0
LINE
  5
3AE0
330
2
100
AcDbEntity
  8
L-ZISSEN
100
AcDbLine
 10
381.5328699917869
 20
1043.590078802472
 30
0.0
 11
381.5328699917869
 21
1036.590113802472
 31
0.0
  0
LINE
  5
3AE1
330
2
100
AcDbEntity
  8
L-ZISSEN
100
AcDbLine
 10
379.0658789917869
 20
1036.590113802472
 30
0.0
 11
379.0658789917869
 21
1024.090113802472
 31
0.0
  0
ARC
  5
3AE2
330
2
100
AcDbEntity
  8
L-ZISSEN
100
AcDbCircle
 10
360.5658769917869
 20
1032.667460802472
 30
0.0
 40
1.0
100
AcDbArc
 50
180.0
 51
239.9999899999959
  0
LINE
  5
3AE3
330
2
100
AcDbEntity
  8
L-ZISSEN
100
AcDbLine
 10
360.0658889917869
 20
1031.801439802472
 30
0.0
 11
361.2644589917869
 21
1031.109444802472
 31
0.0
  0
LINE
  5
3AE4
330
2
100
AcDbEntity
  8
L-ZISSEN
100
AcDbLine
 10
378.0658789917869
 20
1083.654078802472
 30
0.0
 11
378.0658789917869
 21
1095.754078802472
 31
0.0
  0
LINE
  5
3AE5
330
2
100
AcDbEntity
  8
L-ZISSEN
100
AcDbLine
 10
380.0658789917869
 20
1061.290078802472
 30
0.0
 11
380.0658789917869
 21
1081.154078802472
 31
0.0
  0
LINE
  5
3AE6
330
2
100
AcDbEntity
  8
L-ZISSEN
100
AcDbLine
 10
381.265878991787
 20
1081.154078802472
 30
0.0
 11
381.265878991787
 21
1083.654078802472
 31
0.0
  0
LINE
  5
3AE7
330
2
100
AcDbEntity
  8
L-ZISSEN
100
AcDbLine
 10
382.0658789917869
 20
1095.754078802472
 30
0.0
 11
382.0658789917869
 21
1108.654078802472
 31
0.0
  0
LINE
  5
3AE8
330
2
100
AcDbEntity
  8
L-ZISSEN
100
AcDbLine
 10
433.6731269917869
 20
1002.605541802472
 30
0.0
 11
433.6731349917869
 21
1031.574685802472
 31
0.0
  0
LINE
  5
3AE9
330
2
100
AcDbEntity
  8
L-ZISSEN
100
AcDbLine
 10
434.1731309917869
 20
1007.090113802472
 30
0.0
 11
434.1731349917869
 21
1027.090105802472
 31
0.0
  0
LINE
  5
3AEA
330
2
100
AcDbEntity
  8
L-ZISSEN
100
AcDbLine
 10
415.0658789917869
 20
991.5901138024724
 30
0.0
 11
379.0658789917869
 21
991.5901138024724
 31
0.0
  0
LINE
  5
3AEB
330
2
100
AcDbEntity
  8
L-ZISSEN
100
AcDbLine
 10
434.5658769917869
 20
1001.512766802472
 30
0.0
 11
434.5658769917869
 21
992.0901178024724
 31
0.0
  0
LINE
  5
3AEC
330
2
100
AcDbEntity
  8
L-ZISSEN
100
AcDbLine
 10
434.0658769917869
 20
1002.378786802472
 30
0.0
 11
433.6731269917869
 21
1002.605541802472
 31
0.0
  0
ARC
  5
3AED
330
2
100
AcDbEntity
  8
L-ZISSEN
100
AcDbCircle
 10
433.5658769917869
 20
1001.512766802472
 30
0.0
 40
1.0
100
AcDbArc
 50
0.0000399999975119
 51
60.00002000000002
  0
LINE
  5
3AEE
330
2
100
AcDbEntity
  8
L-ZISSEN
100
AcDbLine
 10
433.6731159917869
 20
1007.090121802472
 30
0.0
 11
434.1731159917869
 21
1007.090121802472
 31
0.0
  0
LINE
  5
3AEF
330
2
100
AcDbEntity
  8
L-ZISSEN
100
AcDbLine
 10
415.0658789917869
 20
991.5901138024724
 30
0.0
 11
415.0658789917869
 21
1005.090113802472
 31
0.0
  0
LINE
  5
3AF0
330
2
100
AcDbEntity
  8
L-ZISSEN
100
AcDbLine
 10
415.0658789917869
 20
1005.090113802472
 30
0.0
 11
419.0658789917869
 21
1006.590113802472
 31
0.0
  0
LINE
  5
3AF1
330
2
100
AcDbEntity
  8
L-ZISSEN
100
AcDbLine
 10
415.0658789917869
 20
992.0901328024723
 30
0.0
 11
436.5963274373786
 21
992.0901328024723
 31
0.0
  0
LINE
  5
3AF2
330
2
100
AcDbEntity
  8
L-ZISSEN
100
AcDbLine
 10
419.0658789917869
 20
1006.590113802472
 30
0.0
 11
419.0658789917869
 21
1022.590113802472
 31
0.0
  0
LINE
  5
3AF3
330
2
100
AcDbEntity
  8
L-ZISSEN
100
AcDbLine
 10
412.5988879917869
 20
1043.590078802472
 30
0.0
 11
412.5988879917869
 21
1036.590113802472
 31
0.0
  0
LINE
  5
3AF4
330
2
100
AcDbEntity
  8
L-ZISSEN
100
AcDbLine
 10
434.5658789917869
 20
1061.290078802472
 30
0.0
 11
434.5658769917869
 21
1032.667460802472
 31
0.0
  0
LINE
  5
3AF5
330
2
100
AcDbEntity
  8
L-ZISSEN
100
AcDbLine
 10
433.6731119917869
 20
1027.090113802472
 30
0.0
 11
434.1731119917869
 21
1027.090113802472
 31
0.0
  0
ARC
  5
3AF6
330
2
100
AcDbEntity
  8
L-ZISSEN
100
AcDbCircle
 10
433.5658769917869
 20
1032.667460802472
 30
0.0
 40
1.0
100
AcDbArc
 50
299.9999700000001
 51
0.0000200000020129
  0
LINE
  5
3AF7
330
2
100
AcDbEntity
  8
L-ZISSEN
100
AcDbLine
 10
434.0658729917869
 20
1031.801432802472
 30
0.0
 11
433.6731349917869
 21
1031.574685802472
 31
0.0
  0
LINE
  5
3AF8
330
2
100
AcDbEntity
  8
L-ZISSEN
100
AcDbLine
 10
415.0658789917869
 20
1036.590113802472
 30
0.0
 11
415.0658789917869
 21
1024.090113802472
 31
0.0
  0
LINE
  5
3AF9
330
2
100
AcDbEntity
  8
L-ZISSEN
100
AcDbLine
 10
415.0658789917869
 20
1024.090113802472
 30
0.0
 11
419.0658789917869
 21
1022.590113802472
 31
0.0
  0
LINE
  5
3AFA
330
2
100
AcDbEntity
  8
L-ZISSEN
100
AcDbLine
 10
416.0658789917869
 20
1083.654078802472
 30
0.0
 11
416.0658789917869
 21
1095.754078802472
 31
0.0
  0
LINE
  5
3AFB
330
2
100
AcDbEntity
  8
L-ZISSEN
100
AcDbLine
 10
414.0658789917869
 20
1061.290078802472
 30
0.0
 11
414.0658789917869
 21
1081.154078802472
 31
0.0
  0
LINE
  5
3AFC
330
2
100
AcDbEntity
  8
L-ZISSEN
100
AcDbLine
 10
412.8658789917869
 20
1081.154078802472
 30
0.0
 11
412.8658789917869
 21
1083.654078802472
 31
0.0
  0
LINE
  5
3AFD
330
2
100
AcDbEntity
  8
L-ZISSEN
100
AcDbLine
 10
434.5658789917869
 20
1061.290078802472
 30
0.0
 11
359.5658789917869
 21
1061.290078802472
 31
0.0
  0
LINE
  5
3AFE
330
2
100
AcDbEntity
  8
L-ZISSEN
100
AcDbLine
 10
412.0658789917869
 20
1095.754078802472
 30
0.0
 11
412.0658789917869
 21
1108.654078802472
 31
0.0
  0
LINE
  5
3AFF
330
2
100
AcDbEntity
  8
L-ZISSEN
100
AcDbLine
 10
407.0658789917869
 20
1108.654078802472
 30
0.0
 11
407.0658789917869
 21
1110.454078802472
 31
0.0
  0
LINE
  5
3B00
330
2
100
AcDbEntity
  8
L-ZISSEN
100
AcDbLine
 10
410.3158789917869
 20
1122.654078802472
 30
0.0
 11
410.3158789917869
 21
1110.454078802472
 31
0.0
  0
LINE
  5
3B01
330
2
100
AcDbEntity
  8
L-ZISSEN
100
AcDbLine
 10
387.0658789917869
 20
1108.654078802472
 30
0.0
 11
387.0658789917869
 21
1110.454078802472
 31
0.0
  0
LINE
  5
3B02
330
2
100
AcDbEntity
  8
L-ZISSEN
100
AcDbLine
 10
383.8158789917869
 20
1122.654078802472
 30
0.0
 11
383.8158789917869
 21
1110.454078802472
 31
0.0
  0
LINE
  5
3B03
330
2
100
AcDbEntity
  8
L-ZISSEN
100
AcDbLine
 10
383.3158789917869
 20
1122.654078802472
 30
0.0
 11
410.8158789917869
 21
1122.654078802472
 31
0.0
  0
LINE
  5
3B04
330
2
100
AcDbEntity
  8
L-ZISSEN
100
AcDbLine
 10
383.8158789917869
 20
1110.454078802472
 30
0.0
 11
410.3158789917869
 21
1110.454078802472
 31
0.0
  0
LINE
  5
3B05
330
2
100
AcDbEntity
  8
L-ZISSEN
100
AcDbLine
 10
409.5658789917869
 20
1126.654078802472
 30
0.0
 11
409.5658789917869
 21
1128.654078802472
 31
0.0
  0
LINE
  5
3B06
330
2
100
AcDbEntity
  8
L-ZISSEN
100
AcDbLine
 10
384.5658789917869
 20
1126.654078802472
 30
0.0
 11
384.5658789917869
 21
1128.654078802472
 31
0.0
  0
LINE
  5
3B07
330
2
100
AcDbEntity
  8
L-ZISSEN
100
AcDbLine
 10
383.3158789917869
 20
1126.654078802472
 30
0.0
 11
410.8158789917869
 21
1126.654078802472
 31
0.0
  0
LINE
  5
3B08
330
2
100
AcDbEntity
  8
L-ZISSEN
100
AcDbLine
 10
384.5658789917869
 20
1128.654078802472
 30
0.0
 11
409.5658789917869
 21
1128.654078802472
 31
0.0
  0
LINE
  5
3B09
330
2
100
AcDbEntity
  8
L-ZISSEN
100
AcDbLine
 10
414.0658789917869
 20
1081.154078802472
 30
0.0
 11
380.0658789917869
 21
1081.154078802472
 31
0.0
  0
LINE
  5
3B10
330
2
100
AcDbEntity
  8
L-ZISSEN
100
AcDbLine
 10
359.5658789917869
 20
1061.290078802472
 30
0.0
 11
359.5658769917869
 21
1032.667460802472
 31
0.0
  0
LINE
  5
3B11
330
2
100
AcDbEntity
  8
L-ZISSEN
100
AcDbLine
 10
379.0658789917869
 20
992.0901328024723
 30
0.0
 11
357.5357143443948
 21
992.0901328024723
 31
0.0
  0
LINE
  5
3B13
330
2
100
AcDbEntity
  8
L-TYUSIN
 48
0.5
100
AcDbLine
 10
410.7158789917869
 20
1014.590113802472
 30
0.0
 11
383.4158789917869
 21
1014.590113802472
 31
0.0
  0
LINE
  5
3B15
330
2
100
AcDbEntity
  8
L-TYUSIN
 48
0.5
100
AcDbLine
 10
397.0658789917869
 20
1133.654078802472
 30
0.0
 11
397.0658789917869
 21
822.5901138024722
 31
0.0
  0
LINE
  5
3B16
330
2
100
AcDbEntity
  8
L-ZISSEN
100
AcDbLine
 10
366.5658785350884
 20
965.5901138024722
 30
0.0
 11
369.3158785350884
 21
884.5901138024722
 31
0.0
  0
LINE
  5
3B17
330
2
100
AcDbEntity
  8
L-ZISSEN
100
AcDbLine
 10
427.9825367433664
 20
884.5901138024722
 30
0.0
 11
430.2395784116256
 21
955.3590595590188
 31
0.0
  0
LINE
  5
3B18
330
2
100
AcDbEntity
  8
L-ZISSEN
100
AcDbLine
 10
433.0941626232566
 20
888.0901138024722
 30
0.0
 11
434.4496197361973
 21
930.5901138024722
 31
0.0
  0
LINE
  5
3B19
330
2
100
AcDbEntity
  8
L-ZISSEN
100
AcDbLine
 10
433.0941626232566
 20
888.0901138024722
 30
0.0
 11
427.8158785350884
 21
884.5901138024722
 31
0.0
  0
LINE
  5
3B1A
330
2
100
AcDbEntity
  8
L-ZISSEN
100
AcDbLine
 10
424.8158785350884
 20
884.5901138024722
 30
0.0
 11
422.0658785350884
 21
874.5901138024722
 31
0.0
  0
LINE
  5
3B1B
330
2
100
AcDbEntity
  8
L-ZISSEN
100
AcDbLine
 10
408.0658785350884
 20
874.5901138024722
 30
0.0
 11
407.0658785350884
 21
869.5901138024722
 31
0.0
  0
LINE
  5
3B1C
330
2
100
AcDbEntity
  8
L-ZISSEN
100
AcDbLine
 10
386.0658785350884
 20
874.5901138024722
 30
0.0
 11
387.0658785350884
 21
869.5901138024722
 31
0.0
  0
LINE
  5
3B1D
330
2
100
AcDbEntity
  8
L-ZISSEN
100
AcDbLine
 10
407.0658785350884
 20
869.5901138024722
 30
0.0
 11
387.0658785350884
 21
869.5901138024722
 31
0.0
  0
LINE
  5
3B1E
330
2
100
AcDbEntity
  8
L-ZISSEN
100
AcDbLine
 10
369.3158785350884
 20
884.5901138024722
 30
0.0
 11
372.0658785350884
 21
874.5901138024722
 31
0.0
  0
LINE
  5
3B1F
330
2
100
AcDbEntity
  8
L-ZISSEN
100
AcDbLine
 10
424.8158785350884
 20
884.5901138024722
 30
0.0
 11
427.8158785350884
 21
884.5901138024722
 31
0.0
  0
LINE
  5
3B20
330
2
100
AcDbEntity
  8
L-ZISSEN
100
AcDbLine
 10
422.0658785350884
 20
874.5901138024722
 30
0.0
 11
372.0658785350884
 21
874.5901138024722
 31
0.0
  0
LINE
  5
3B21
330
2
100
AcDbEntity
  8
L-ZISSEN
100
AcDbLine
 10
424.8158785350884
 20
884.5901138024722
 30
0.0
 11
427.8158785350884
 21
884.5901138024722
 31
0.0
  0
LINE
  5
3B22
330
2
100
AcDbEntity
  8
L-ZISSEN
100
AcDbLine
 10
406.8808331113109
 20
827.5901138024722
 30
0.0
 11
387.250923958864
 21
827.5901138024722
 31
0.0
  0
LINE
  5
3B23
330
2
100
AcDbEntity
  8
L-ZISSEN
100
AcDbLine
 10
387.2509239588658
 20
827.5901138024722
 30
0.0
 11
387.2509239588658
 21
869.5901138024722
 31
0.0
  0
LINE
  5
3B24
330
2
100
AcDbEntity
  8
L-ZISSEN
100
AcDbLine
 10
406.8808331113109
 20
827.5901138024722
 30
0.0
 11
406.8808331113109
 21
869.5901138024722
 31
0.0
  0
LINE
  5
3B25
330
2
100
AcDbEntity
  8
L-ZISSEN
100
AcDbLine
 10
358.1874785350888
 20
971.090198731091
 30
0.0
 11
435.9442794484848
 21
971.090228873856
 31
0.0
  0
LINE
  5
3B26
330
2
100
AcDbEntity
  8
L-ZISSEN
100
AcDbLine
 10
358.5658785350884
 20
965.5901138024722
 30
0.0
 11
435.5658785350884
 21
965.5901138024722
 31
0.0
  0
LINE
  5
3B27
330
2
100
AcDbEntity
  8
L-ZISSEN
100
AcDbLine
 10
435.5658785350884
 20
965.5902138024733
 30
0.0
 11
419.5559334420527
 21
965.5902138024733
 31
0.0
  0
LINE
  5
3B28
330
2
100
AcDbEntity
  8
L-ZISSEN
100
AcDbLine
 10
435.3928405760348
 20
960.1645542701528
 30
0.0
 11
430.2395784116256
 21
955.3590595590188
 31
0.0
  0
LINE
  5
3B29
330
2
100
AcDbEntity
  8
L-ZISSEN
100
AcDbLine
 10
434.4496197361973
 20
930.5901138024722
 30
0.0
 11
429.5940289152682
 21
935.1180254951007
 31
0.0
  0
LINE
  5
3B2A
330
2
100
AcDbEntity
  8
L-ZISSEN
100
AcDbLine
 10
358.5658785350884
 20
971.0901988777794
 30
0.0
 11
358.5658785350884
 21
965.5902138024733
 31
0.0
  0
LINE
  5
3B2B
330
2
100
AcDbEntity
  8
L-ZISSEN
100
AcDbLine
 10
435.5658785350884
 20
971.0902287271672
 30
0.0
 11
435.5658785350884
 21
965.5902138024733
 31
0.0
  0
LINE
  5
3B2C
330
2
100
AcDbEntity
  8
L-ZISSEN
100
AcDbLine
 10
435.3928405760348
 20
960.164654270154
 30
0.0
 11
435.5658785350884
 21
965.5902138024733
 31
0.0
  0
LINE
  5
3B2D
330
2
100
AcDbEntity
  8
L-ZISSEN
100
AcDbLine
 10
437.4646936833019
 20
972.3059787632094
 30
0.0
 11
436.1573575420866
 21
957.3630582918333
 31
0.0
  0
LINE
  5
3B2E
330
2
100
AcDbEntity
  8
L-ZISSEN
100
AcDbLine
 10
438.2743842088862
 20
947.1396440826732
 30
0.0
 11
435.285800114611
 21
947.4011113109166
 31
0.0
  0
LINE
  5
3B2F
330
2
100
AcDbEntity
  8
L-ZISSEN
100
AcDbLine
 10
438.8844744081184
 20
954.1130069693147
 30
0.0
 11
438.2743842088862
 21
947.1396440826732
 31
0.0
  0
LINE
  5
3B30
330
2
100
AcDbEntity
  8
L-ZISSEN
100
AcDbLine
 10
438.8844744081184
 20
954.1130069693147
 30
0.0
 11
436.1573575420866
 21
957.3630582918333
 31
0.0
  0
LINE
  5
3B31
330
2
100
AcDbEntity
  8
L-ZISSEN
100
AcDbLine
 10
437.4646936833019
 20
972.3059787632094
 30
0.0
 11
435.9731500447074
 21
972.0429793768228
 31
0.0
  0
LINE
  5
3B32
330
2
100
AcDbEntity
  8
L-ZISSEN
100
AcDbLine
 10
435.285800114611
 20
947.4011113109166
 30
0.0
 11
431.1702539512175
 21
956.2269285399882
 31
0.0
  0
LINE
  5
3B36
330
2
100
AcDbEntity
  8
L-ZISSEN
100
AcDbLine
 10
358.0660129917869
 20
974.5901438024723
 30
0.0
 11
357.5357143443948
 21
992.0901328024723
 31
0.0
  0
LINE
  5
3B37
330
2
100
AcDbEntity
  8
L-ZISSEN
100
AcDbLine
 10
436.0660200897721
 20
974.5901494220693
 30
0.0
 11
436.5963274373786
 21
992.0901328024723
 31
0.0
  0
LINE
  5
3B38
330
2
100
AcDbEntity
  8
L-ZISSEN
100
AcDbLine
 10
435.9442794484848
 20
971.090228873856
 30
0.0
 11
435.9442799420615
 21
974.5901328196292
 31
0.0
  0
LINE
  5
3B39
330
2
100
AcDbEntity
  8
L-ZISSEN
100
AcDbLine
 10
358.1874785350888
 20
971.090198731091
 30
0.0
 11
358.1874790286712
 21
974.5901437853424
 31
0.0
  0
LINE
  5
3B3A
330
2
100
AcDbEntity
  8
L-ZISSEN
100
AcDbLine
 10
568.0660129917854
 20
974.5901438024721
 30
0.0
 11
567.5357143443933
 21
992.0901328024721
 31
0.0
  0
LINE
  5
3B3B
330
2
100
AcDbEntity
  8
L-ZISSEN
100
AcDbLine
 10
568.1874785350873
 20
971.0901987310908
 30
0.0
 11
568.1874790286697
 21
974.5901437853422
 31
0.0
  0
LINE
  5
3B3C
330
2
100
AcDbEntity
  8
L-ZISSEN
100
AcDbLine
 10
646.0660200897706
 20
974.5901494220691
 30
0.0
 11
646.5963274373771
 21
992.0901328024721
 31
0.0
  0
LINE
  5
3B3D
330
2
100
AcDbEntity
  8
L-ZISSEN
100
AcDbLine
 10
645.9442794484834
 20
971.0902288738557
 30
0.0
 11
645.9442799420601
 21
974.5901328196289
 31
0.0
  0
LINE
  5
3B3E
330
2
100
AcDbEntity
  8
L-ZISSEN
100
AcDbLine
 10
567.0658790517853
 20
995.4901271515376
 30
0.0
 11
567.0658816921774
 21
992.2591572110003
 31
0.0
  0
LINE
  5
3B3F
330
2
100
AcDbEntity
  8
L-ZISSEN
100
AcDbLine
 10
568.0660129917854
 20
974.5901438024721
 30
0.0
 11
646.0660200897706
 21
974.5901494220691
 31
0.0
  0
LINE
  5
3B42
330
2
100
AcDbEntity
  8
L-ZISSEN
100
AcDbLine
 10
659.0658789917856
 20
1259.590113802472
 30
0.0
 11
652.0658789917856
 21
1266.590113802472
 31
0.0
  0
LINE
  5
3B43
330
2
100
AcDbEntity
  8
L-ZISSEN
100
AcDbLine
 10
649.0658789917856
 20
1262.590113802472
 30
0.0
 11
650.5217599917854
 21
1266.590113802472
 31
0.0
  0
LINE
  5
3B44
330
2
100
AcDbEntity
  8
L-ZISSEN
100
AcDbLine
 10
647.0658789917856
 20
1262.590113802472
 30
0.0
 11
649.0658789917856
 21
1262.590113802472
 31
0.0
  0
LINE
  5
3B45
330
2
100
AcDbEntity
  8
L-ZISSEN
100
AcDbLine
 10
649.0658789917856
 20
1306.590113802472
 30
0.0
 11
650.5217599917854
 21
1302.590113802472
 31
0.0
  0
LINE
  5
3B46
330
2
100
AcDbEntity
  8
L-ZISSEN
100
AcDbLine
 10
659.0658789917856
 20
1309.590113802472
 30
0.0
 11
652.0658789917856
 21
1302.590113802472
 31
0.0
  0
LINE
  5
3B47
330
2
100
AcDbEntity
  8
L-ZISSEN
100
AcDbLine
 10
661.0658789917856
 20
1276.840113802472
 30
0.0
 11
661.0658789917856
 21
1259.590113802472
 31
0.0
  0
LINE
  5
3B48
330
2
100
AcDbEntity
  8
L-TYUSIN
100
AcDbLine
 10
597.0658789917854
 20
1308.590113802472
 30
-0.0019821880853622
 11
597.0658789917854
 21
1260.590113802472
 31
-0.0019821880853622
  0
LINE
  5
3B49
330
2
100
AcDbEntity
  8
L-ZISSEN
100
AcDbLine
 10
567.0658789917854
 20
1306.590113802472
 30
0.0
 11
567.0658789917854
 21
1262.590113802472
 31
0.0
  0
CIRCLE
  5
3B4A
330
2
100
AcDbEntity
  8
L-ZISSEN
100
AcDbCircle
 10
597.0658789917854
 20
1284.590113802472
 30
-0.0019821880853622
 40
15.0
  0
CIRCLE
  5
3B4B
330
2
100
AcDbEntity
  8
L-ZISSEN
100
AcDbCircle
 10
597.0658789917854
 20
1284.590113802472
 30
-0.0019821880853622
 40
13.5
  0
CIRCLE
  5
3B4C
330
2
100
AcDbEntity
  8
L-ZISSEN
100
AcDbCircle
 10
597.0658789917854
 20
1284.590113802472
 30
-0.0019821880853622
 40
11.5
  0
CIRCLE
  5
3B4D
330
2
100
AcDbEntity
  8
L-ZISSEN
100
AcDbCircle
 10
597.0658789917854
 20
1284.590113802472
 30
-0.0019821880853622
 40
19.0
  0
ARC
  5
3B4E
330
2
100
AcDbEntity
  8
L-ZISSEN
100
AcDbCircle
 10
607.0658789917854
 20
1284.590113802472
 30
0.0
 40
37.5
100
AcDbArc
 50
11.53695899999978
 51
348.4630409999999
  0
LINE
  5
3B4F
330
2
100
AcDbEntity
  8
L-TYUSIN
100
AcDbLine
 10
607.0658789917854
 20
1327.090113802472
 30
0.0
 11
607.0658789917857
 21
1202.090113802472
 31
0.0
  0
LINE
  5
3B50
330
2
100
AcDbEntity
  8
L-ZISSEN
100
AcDbLine
 10
569.0658789917854
 20
1262.590113802472
 30
0.0
 11
570.5217599917855
 21
1266.590113802472
 31
0.0
  0
LINE
  5
3B51
330
2
100
AcDbEntity
  8
L-ZISSEN
100
AcDbLine
 10
567.0658789917854
 20
1262.590113802472
 30
0.0
 11
569.0658789917854
 21
1262.590113802472
 31
0.0
  0
LINE
  5
3B52
330
2
100
AcDbEntity
  8
L-ZISSEN
100
AcDbLine
 10
567.0658789917854
 20
1266.590113802472
 30
0.0
 11
572.0328699917854
 21
1266.590113802472
 31
0.0
  0
ARC
  5
3B53
330
2
100
AcDbEntity
  8
L-ZISSEN
100
AcDbCircle
 10
621.5658789917854
 20
1280.090113802472
 30
0.0
 40
3.0
100
AcDbArc
 50
0.0
 51
90.0
  0
LINE
  5
3B54
330
2
100
AcDbEntity
  8
L-ZISSEN
100
AcDbLine
 10
642.5658789917856
 20
1275.590113802472
 30
0.0
 11
615.5658789917854
 21
1275.590113802472
 31
0.0
  0
LINE
  5
3B55
330
2
100
AcDbEntity
  8
L-ZISSEN
100
AcDbLine
 10
642.5658789917856
 20
1293.590113802472
 30
0.0
 11
615.5658789917854
 21
1293.590113802472
 31
0.0
  0
LINE
  5
3B56
330
2
100
AcDbEntity
  8
L-ZISSEN
100
AcDbLine
 10
636.5658789917856
 20
1290.090113802472
 30
0.0
 11
620.5658789917854
 21
1290.090113802472
 31
0.0
  0
LINE
  5
3B57
330
2
100
AcDbEntity
  8
L-ZISSEN
100
AcDbLine
 10
644.5658789917856
 20
1277.090113802472
 30
0.0
 11
618.5658789917854
 21
1277.090113802472
 31
0.0
  0
LINE
  5
3B58
330
2
100
AcDbEntity
  8
L-ZISSEN
100
AcDbLine
 10
644.5658789917856
 20
1292.090113802472
 30
0.0
 11
618.5658789917854
 21
1292.090113802472
 31
0.0
  0
LINE
  5
3B59
330
2
100
AcDbEntity
  8
L-ZISSEN
100
AcDbLine
 10
569.0658789917854
 20
1306.590113802472
 30
0.0
 11
570.5217599917855
 21
1302.590113802472
 31
0.0
  0
LINE
  5
3B5A
330
2
100
AcDbEntity
  8
L-ZISSEN
100
AcDbLine
 10
567.0658789917854
 20
1302.590113802472
 30
0.0
 11
572.0328699917854
 21
1302.590113802472
 31
0.0
  0
LINE
  5
3B5B
330
2
100
AcDbEntity
  8
L-ZISSEN
100
AcDbLine
 10
567.0658789917854
 20
1306.590113802472
 30
0.0
 11
569.0658789917854
 21
1306.590113802472
 31
0.0
  0
CIRCLE
  5
3B5C
330
2
100
AcDbEntity
  8
L-ZISSEN
100
AcDbCircle
 10
621.5658789917854
 20
1280.090113802472
 30
0.0
 40
2.25
  0
LINE
  5
3B5D
330
2
100
AcDbEntity
  8
L-ZISSEN
100
AcDbLine
 10
621.5658819917855
 20
1283.090113802472
 30
0.0
 11
618.5658789917854
 21
1283.090113802472
 31
0.0
  0
LINE
  5
3B5E
330
2
100
AcDbEntity
  8
L-ZISSEN
100
AcDbLine
 10
618.5658789917854
 20
1277.090113802472
 30
0.0
 11
618.5658789917854
 21
1292.090113802472
 31
0.0
  0
LINE
  5
3B5F
330
2
100
AcDbEntity
  8
L-ZISSEN
100
AcDbLine
 10
620.5658789917854
 20
1290.090113802472
 30
0.0
 11
618.5658789917854
 21
1292.090113802472
 31
0.0
  0
LINE
  5
3B60
330
2
100
AcDbEntity
  8
L-ZISSEN
100
AcDbLine
 10
620.5658789917854
 20
1283.090113802472
 30
0.0
 11
620.5658789917854
 21
1290.090113802472
 31
0.0
  0
LINE
  5
3B61
330
2
100
AcDbEntity
  8
L-ZISSEN
100
AcDbLine
 10
668.5658789917856
 20
1276.840113802472
 30
0.0
 11
644.5658789917856
 21
1276.840113802472
 31
0.0
  0
LINE
  5
3B62
330
2
100
AcDbEntity
  8
L-ZISSEN
100
AcDbLine
 10
668.5658789917856
 20
1292.340113802472
 30
0.0
 11
644.5658789917856
 21
1292.340113802472
 31
0.0
  0
LINE
  5
3B63
330
2
100
AcDbEntity
  8
L-ZISSEN
100
AcDbLine
 10
642.5658789917856
 20
1275.590113802472
 30
0.0
 11
642.5658789917856
 21
1293.590113802472
 31
0.0
  0
LINE
  5
3B64
330
2
100
AcDbEntity
  8
L-ZISSEN
100
AcDbLine
 10
642.5658789917856
 20
1277.090113802472
 30
0.0
 11
642.5658789917856
 21
1292.090113802472
 31
0.0
  0
LINE
  5
3B65
330
2
100
AcDbEntity
  8
L-ZISSEN
100
AcDbLine
 10
636.5658789917856
 20
1289.090113802472
 30
0.0
 11
636.5658789917856
 21
1292.090113802472
 31
0.0
  0
LINE
  5
3B66
330
2
100
AcDbEntity
  8
L-ZISSEN
100
AcDbLine
 10
640.5658789917856
 20
1279.090113802472
 30
0.0
 11
640.5658789917856
 21
1286.090113802472
 31
0.0
  0
LINE
  5
3B67
330
2
100
AcDbEntity
  8
L-ZISSEN
100
AcDbLine
 10
642.5658789917856
 20
1286.090113802472
 30
0.0
 11
639.5658789917856
 21
1286.090113802472
 31
0.0
  0
ARC
  5
3B68
330
2
100
AcDbEntity
  8
L-ZISSEN
100
AcDbCircle
 10
639.5658789917856
 20
1289.090113802472
 30
0.0
 40
3.0
100
AcDbArc
 50
180.0
 51
270.0
  0
CIRCLE
  5
3B69
330
2
100
AcDbEntity
  8
L-ZISSEN
100
AcDbCircle
 10
639.5658789917856
 20
1289.090113802472
 30
0.0
 40
2.25
  0
LINE
  5
3B6A
330
2
100
AcDbEntity
  8
L-ZISSEN
100
AcDbLine
 10
624.5658789917854
 20
1277.090113802472
 30
0.0
 11
624.5658789917854
 21
1280.090115802472
 31
0.0
  0
LINE
  5
3B6B
330
2
100
AcDbEntity
  8
L-ZISSEN
100
AcDbLine
 10
640.5658789917856
 20
1279.090113802472
 30
0.0
 11
624.5658789917854
 21
1279.090113802472
 31
0.0
  0
LINE
  5
3B6C
330
2
100
AcDbEntity
  8
L-ZISSEN
100
AcDbLine
 10
669.0658789917856
 20
1291.840113802472
 30
0.0
 11
669.0658789917856
 21
1277.340113802472
 31
0.0
  0
ARC
  5
3B6D
330
2
100
AcDbEntity
  8
L-ZISSEN
100
AcDbCircle
 10
668.5658789917856
 20
1277.340113802472
 30
0.0
 40
0.5
100
AcDbArc
 50
270.0
 51
0.0
  0
ARC
  5
3B6E
330
2
100
AcDbEntity
  8
L-ZISSEN
100
AcDbCircle
 10
668.5658789917856
 20
1291.840113802472
 30
0.0
 40
0.5
100
AcDbArc
 50
0.0
 51
90.0
  0
LINE
  5
3B6F
330
2
100
AcDbEntity
  8
L-ZISSEN
100
AcDbLine
 10
649.0658789917856
 20
1306.590113802472
 30
0.0
 11
645.0658789917856
 21
1306.590113802472
 31
0.0
  0
LINE
  5
3B70
330
2
100
AcDbEntity
  8
L-ZISSEN
100
AcDbLine
 10
645.0658789917856
 20
1306.590113802472
 30
0.0
 11
643.6099979917855
 21
1302.590113802472
 31
0.0
  0
LINE
  5
3B71
330
2
100
AcDbEntity
  8
L-ZISSEN
100
AcDbLine
 10
647.0658789917856
 20
1262.590113802472
 30
0.0
 11
645.0658789917856
 21
1262.590113802472
 31
0.0
  0
LINE
  5
3B72
330
2
100
AcDbEntity
  8
L-ZISSEN
100
AcDbLine
 10
645.0658789917856
 20
1262.590113802472
 30
0.0
 11
643.6099979917855
 21
1266.590113802472
 31
0.0
  0
LINE
  5
3B73
330
2
100
AcDbEntity
  8
L-ZISSEN
100
AcDbLine
 10
622.5988879917854
 20
1322.090113802472
 30
0.0
 11
644.5658789917856
 21
1300.123122802472
 31
0.0
  0
LINE
  5
3B74
330
2
100
AcDbEntity
  8
L-ZISSEN
100
AcDbLine
 10
644.5658789917856
 20
1300.123122802472
 30
0.0
 11
644.5658789917856
 21
1269.057104802472
 31
0.0
  0
LINE
  5
3B75
330
2
100
AcDbEntity
  8
L-ZISSEN
100
AcDbLine
 10
644.5658789917856
 20
1269.057104802472
 30
0.0
 11
622.5988879917854
 21
1247.090113802472
 31
0.0
  0
LINE
  5
3B76
330
2
100
AcDbEntity
  8
L-ZISSEN
100
AcDbLine
 10
622.5988879917854
 20
1247.090113802472
 30
0.0
 11
591.5328699917854
 21
1247.090113802472
 31
0.0
  0
LINE
  5
3B77
330
2
100
AcDbEntity
  8
L-ZISSEN
100
AcDbLine
 10
591.5328699917854
 20
1247.090113802472
 30
0.0
 11
569.5658789917854
 21
1269.057104802472
 31
0.0
  0
LINE
  5
3B78
330
2
100
AcDbEntity
  8
L-ZISSEN
100
AcDbLine
 10
569.5658789917854
 20
1269.057104802472
 30
0.0
 11
569.5658789917854
 21
1300.123122802472
 31
0.0
  0
LINE
  5
3B79
330
2
100
AcDbEntity
  8
L-ZISSEN
100
AcDbLine
 10
569.5658789917854
 20
1300.123122802472
 30
0.0
 11
591.5328699917854
 21
1322.090113802472
 31
0.0
  0
LINE
  5
3B7A
330
2
100
AcDbEntity
  8
L-ZISSEN
100
AcDbLine
 10
591.5328699917854
 20
1322.090113802472
 30
0.0
 11
622.5988879917854
 21
1322.090113802472
 31
0.0
  0
LINE
  5
3B7B
330
2
100
AcDbEntity
  8
L-ZISSEN
100
AcDbLine
 10
661.0658789917856
 20
1276.840113802472
 30
0.0
 11
661.0658789917856
 21
1259.590113802472
 31
0.0
  0
LINE
  5
3B7C
330
2
100
AcDbEntity
  8
L-ZISSEN
100
AcDbLine
 10
635.0988879917855
 20
1259.590113802472
 30
0.0
 11
661.0658789917856
 21
1259.590113802472
 31
0.0
  0
LINE
  5
3B7D
330
2
100
AcDbEntity
  8
L-ZISSEN
100
AcDbLine
 10
635.0988879917854
 20
1309.590113802472
 30
0.0
 11
661.0658789917856
 21
1309.590113802472
 31
0.0
  0
LINE
  5
3B7E
330
2
100
AcDbEntity
  8
L-ZISSEN
100
AcDbLine
 10
647.0658789917856
 20
1306.590113802472
 30
0.0
 11
647.0658789917856
 21
1292.340113802472
 31
0.0
  0
LINE
  5
3B7F
330
2
100
AcDbEntity
  8
L-ZISSEN
100
AcDbLine
 10
642.0989489917855
 20
1266.590013802472
 30
0.0
 11
635.0989189917856
 21
1259.590013802472
 31
0.0
  0
LINE
  5
3B80
330
2
100
AcDbEntity
  8
L-ZISSEN
100
AcDbLine
 10
642.0989189917856
 20
1266.590113802472
 30
0.0
 11
652.0328489917855
 21
1266.590113802472
 31
0.0
  0
LINE
  5
3B81
330
2
100
AcDbEntity
  8
L-ZISSEN
100
AcDbLine
 10
642.0988489917855
 20
1302.590113802472
 30
0.0
 11
652.0329089917856
 21
1302.590113802472
 31
0.0
  0
LINE
  5
3B82
330
2
100
AcDbEntity
  8
L-ZISSEN
100
AcDbLine
 10
642.0988489917855
 20
1302.590113802472
 30
0.0
 11
635.0988589917855
 21
1309.590113802472
 31
0.0
  0
LINE
  5
3B83
330
2
100
AcDbEntity
  8
L-ZISSEN
100
AcDbLine
 10
647.0658789917856
 20
1276.840113802472
 30
0.0
 11
647.0658789917856
 21
1262.590113802472
 31
0.0
  0
LINE
  5
3B8A
330
2
100
AcDbEntity
  8
L-TYUSIN
100
AcDbLine
 10
661.0658789917856
 20
1284.590113802472
 30
0.0
 11
562.0658789917854
 21
1284.590113802472
 31
0.0
  0
LINE
  5
3B8B
330
2
100
AcDbEntity
  8
L-ZISSEN
100
AcDbLine
 10
661.0658789917856
 20
1309.590113802472
 30
0.0
 11
661.0658789917856
 21
1292.340113802472
 31
0.0
  0
LINE
  5
3B8C
330
2
100
AcDbEntity
  8
L-ZISSEN
100
AcDbLine
 10
661.0658789917856
 20
1309.590113802472
 30
0.0
 11
661.0658789917856
 21
1292.340113802472
 31
0.0
  0
TEXT
  5
3B8D
330
2
100
AcDbEntity
  8
L-ZISSEN
100
AcDbText
 10
678.766787686528
 20
1271.622828316732
 30
0.0
 40
4.5
  1
P.P
100
AcDbText
  0
LINE
  5
3B8E
330
2
100
AcDbEntity
  8
L-ZISSEN
100
AcDbLine
 10
661.0658789917856
 20
1284.590113802472
 30
0.0
 11
674.766787686528
 21
1273.872828316732
 31
0.0
  0
SOLID
  5
3B8F
330
2
100
AcDbEntity
  8
L-ZISSEN
100
AcDbTrace
 10
662.4358024643831
 20
1283.095315892941
 30
0.0
 11
662.8465518689553
 21
1283.620415284569
 31
0.0
 12
661.0658789917856
 22
1284.590113802472
 32
0.0
 13
661.0658789917856
 23
1284.590113802472
 33
0.0
  0
LINE
  5
3B90
330
2
100
AcDbEntity
  8
L-ZISSEN
100
AcDbLine
 10
615.5658789917854
 20
1288.920240821394
 30
0.0
 11
615.5658789917854
 21
1293.590113802472
 31
0.0
  0
LINE
  5
3B91
330
2
100
AcDbEntity
  8
L-ZISSEN
100
AcDbLine
 10
615.5658789917854
 20
1275.590113802472
 30
0.0
 11
615.5658789917854
 21
1280.25998678355
 31
0.0
  0
LINE
  5
3B92
330
2
100
AcDbEntity
  8
L-ZISSEN
100
AcDbLine
 10
642.5658789917851
 20
1086.490078742472
 30
0.0
 11
644.5658789917851
 21
1088.490078742472
 31
0.0
  0
LINE
  5
3B93
330
2
100
AcDbEntity
  8
L-TYUSIN
100
AcDbLine
 10
663.5658789917851
 20
1092.990078742472
 30
0.0
 11
663.5658789917851
 21
1063.490078742472
 31
0.0
  0
LINE
  5
3B94
330
2
100
AcDbEntity
  8
L-ZISSEN
100
AcDbLine
 10
656.5658789917851
 20
1087.990078742472
 30
0.0
 11
656.5658789917851
 21
1079.490078742472
 31
0.0
  0
LINE
  5
3B95
330
2
100
AcDbEntity
  8
L-ZISSEN
100
AcDbLine
 10
670.565878991785
 20
1087.990078742472
 30
0.0
 11
670.565878991785
 21
1079.490078742472
 31
0.0
  0
LINE
  5
3B96
330
2
100
AcDbEntity
  8
L-ZISSEN
100
AcDbLine
 10
618.565878991785
 20
1106.490078742472
 30
0.0
 11
618.565878991785
 21
1079.490078742472
 31
0.0
  0
LINE
  5
3B97
330
2
100
AcDbEntity
  8
L-ZISSEN
100
AcDbLine
 10
615.565878991785
 20
1079.490078742472
 30
0.0
 11
642.5658789917851
 21
1079.490078742472
 31
0.0
  0
LINE
  5
3B98
330
2
100
AcDbEntity
  8
L-ZISSEN
100
AcDbLine
 10
580.065878991785
 20
1081.290078742472
 30
0.0
 11
614.065878991785
 21
1081.290078742472
 31
0.0
  0
LINE
  5
3B99
330
2
100
AcDbEntity
  8
L-ZISSEN
100
AcDbLine
 10
580.065878991785
 20
1061.290078742472
 30
0.0
 11
580.065878991785
 21
1081.290078742472
 31
0.0
  0
LINE
  5
3B9A
330
2
100
AcDbEntity
  8
L-ZISSEN
100
AcDbLine
 10
615.565878991785
 20
1079.490078742472
 30
0.0
 11
615.565878991785
 21
1061.290078742472
 31
0.0
  0
LINE
  5
3B9B
330
2
100
AcDbEntity
  8
L-ZISSEN
100
AcDbLine
 10
614.065878991785
 20
1061.290078742472
 30
0.0
 11
614.065878991785
 21
1081.290078742472
 31
0.0
  0
LINE
  5
3B9C
330
2
100
AcDbEntity
  8
L-ZISSEN
100
AcDbLine
 10
612.865878991785
 20
1081.290078899635
 30
-0.0019821880853622
 11
612.865878991785
 21
1083.790078899635
 31
-0.0019821880853622
  0
LINE
  5
3B9D
330
2
100
AcDbEntity
  8
L-ZISSEN
100
AcDbLine
 10
642.5658789917851
 20
1086.490078742472
 30
0.0
 11
642.5658789917851
 21
1061.290078742472
 31
0.0
  0
LINE
  5
3B9E
330
2
100
AcDbEntity
  8
L-ZISSEN
100
AcDbLine
 10
671.0714319917851
 20
1068.790078742472
 30
0.0
 11
671.0714319917851
 21
1072.990078742472
 31
0.0
  0
LINE
  5
3B9F
330
2
100
AcDbEntity
  8
L-ZISSEN
100
AcDbLine
 10
670.0658789917851
 20
1078.990078742472
 30
0.0
 11
657.0658789917851
 21
1078.990078742472
 31
0.0
  0
LINE
  5
3BA0
330
2
100
AcDbEntity
  8
L-ZISSEN
100
AcDbLine
 10
670.7714319917851
 20
1068.490078742472
 30
0.0
 11
656.3603259917851
 21
1068.490078742472
 31
0.0
  0
ARC
  5
3BA1
330
2
100
AcDbEntity
  8
L-ZISSEN
100
AcDbCircle
 10
657.0658789917851
 20
1079.490078742472
 30
0.0
 40
0.5
100
AcDbArc
 50
180.0
 51
270.0
  0
LINE
  5
3BA2
330
2
100
AcDbEntity
  8
L-ZISSEN
100
AcDbLine
 10
657.265878991785
 20
1078.990078742472
 30
0.0
 11
657.265878991785
 21
1072.990078742472
 31
0.0
  0
ARC
  5
3BA3
330
2
100
AcDbEntity
  8
L-ZISSEN
100
AcDbCircle
 10
656.3603259917851
 20
1068.790078742472
 30
0.0
 40
0.3
100
AcDbArc
 50
180.0
 51
270.0
  0
LINE
  5
3BA4
330
2
100
AcDbEntity
  8
L-ZISSEN
100
AcDbLine
 10
656.060325991785
 20
1068.790078742472
 30
0.0
 11
656.060325991785
 21
1072.990078742472
 31
0.0
  0
LINE
  5
3BA5
330
2
100
AcDbEntity
  8
L-ZISSEN
100
AcDbLine
 10
669.865878991785
 20
1078.990078742472
 30
0.0
 11
669.865878991785
 21
1072.990078742472
 31
0.0
  0
ARC
  5
3BA6
330
2
100
AcDbEntity
  8
L-ZISSEN
100
AcDbCircle
 10
670.0658789917851
 20
1079.490078742472
 30
0.0
 40
0.5
100
AcDbArc
 50
270.0
 51
0.0
  0
LINE
  5
3BA7
330
2
100
AcDbEntity
  8
L-ZISSEN
100
AcDbLine
 10
671.0714319917851
 20
1072.990078742472
 30
0.0
 11
656.060325991785
 21
1072.990078742472
 31
0.0
  0
ARC
  5
3BA8
330
2
100
AcDbEntity
  8
L-ZISSEN
100
AcDbCircle
 10
670.7714319917851
 20
1068.790078742472
 30
0.0
 40
0.3
100
AcDbArc
 50
270.0
 51
0.0
  0
LINE
  5
3BA9
330
2
100
AcDbEntity
  8
L-ZISSEN
100
AcDbLine
 10
620.565878991785
 20
1108.490078742472
 30
0.0
 11
640.5658789917851
 21
1108.490078742472
 31
0.0
  0
LINE
  5
3BAA
330
2
100
AcDbEntity
  8
L-ZISSEN
100
AcDbLine
 10
642.5658789917851
 20
1104.490078742472
 30
0.0
 11
618.4919589917849
 21
1104.490078742472
 31
0.0
  0
LINE
  5
3BAB
330
2
100
AcDbEntity
  8
L-ZISSEN
100
AcDbLine
 10
618.565878991785
 20
1106.490078742472
 30
0.0
 11
620.565878991785
 21
1108.490078742472
 31
0.0
  0
LINE
  5
3BAC
330
2
100
AcDbEntity
  8
L-ZISSEN
100
AcDbLine
 10
668.5658789917851
 20
1103.490078742472
 30
0.0
 11
644.5658789917851
 21
1103.490078742472
 31
0.0
  0
LINE
  5
3BAD
330
2
100
AcDbEntity
  8
L-ZISSEN
100
AcDbLine
 10
670.565878991785
 20
1087.990078742472
 30
0.0
 11
644.5658789917851
 21
1087.990078742472
 31
0.0
  0
LINE
  5
3BAE
330
2
100
AcDbEntity
  8
L-ZISSEN
100
AcDbLine
 10
645.5658789917851
 20
1087.990078742472
 30
0.0
 11
645.5658789917851
 21
1103.490078742472
 31
0.0
  0
LINE
  5
3BAF
330
2
100
AcDbEntity
  8
L-ZISSEN
100
AcDbLine
 10
642.5658789917851
 20
1104.490078742472
 30
0.0
 11
642.5658789917851
 21
1106.490078742472
 31
0.0
  0
LINE
  5
3BB0
330
2
100
AcDbEntity
  8
L-ZISSEN
100
AcDbLine
 10
642.5658789917851
 20
1104.490078742472
 30
0.0
 11
644.5658789917851
 21
1103.335377742472
 31
0.0
  0
LINE
  5
3BB1
330
2
100
AcDbEntity
  8
L-ZISSEN
100
AcDbLine
 10
642.5658789917851
 20
1106.490078742472
 30
0.0
 11
640.5658789917851
 21
1108.490078742472
 31
0.0
  0
LINE
  5
3BB2
330
2
100
AcDbEntity
  8
L-ZISSEN
100
AcDbLine
 10
644.5658789917851
 20
1087.990078742472
 30
0.0
 11
644.5658789917851
 21
1103.490078742472
 31
0.0
  0
ARC
  5
3BB3
330
2
100
AcDbEntity
  8
L-ZISSEN
100
AcDbCircle
 10
668.5658789917851
 20
1102.990078742472
 30
0.0
 40
0.5
100
AcDbArc
 50
0.0
 51
90.0
  0
LINE
  5
3BB4
330
2
100
AcDbEntity
  8
L-ZISSEN
100
AcDbLine
 10
670.565878991785
 20
1087.990078742472
 30
0.0
 11
669.0658789917851
 21
1090.588154742472
 31
0.0
  0
LINE
  5
3BB5
330
2
100
AcDbEntity
  8
L-ZISSEN
100
AcDbLine
 10
669.0658789917851
 20
1102.990078742472
 30
0.0
 11
669.0658789917851
 21
1087.990078742472
 31
0.0
  0
LINE
  5
3BB6
330
2
100
AcDbEntity
  8
L-ZISSEN
100
AcDbLine
 10
583.815878991785
 20
1122.790078899635
 30
-0.0019821880853622
 11
583.815878991785
 21
1110.590078899635
 31
-0.0019821880853622
  0
LINE
  5
3BB7
330
2
100
AcDbEntity
  8
L-ZISSEN
100
AcDbLine
 10
610.315878991785
 20
1122.790078899635
 30
-0.0019821880853622
 11
610.315878991785
 21
1110.590078899635
 31
-0.0019821880853622
  0
LINE
  5
3BB8
330
2
100
AcDbEntity
  8
L-ZISSEN
100
AcDbLine
 10
582.065878991785
 20
1108.790078899635
 30
-0.0019821880853622
 11
612.065878991785
 21
1108.790078899635
 31
-0.0019821880853622
  0
LINE
  5
3BB9
330
2
100
AcDbEntity
  8
L-ZISSEN
100
AcDbLine
 10
583.815878991785
 20
1110.590078899635
 30
-0.0019821880853622
 11
610.315878991785
 21
1110.590078899635
 31
-0.0019821880853622
  0
LINE
  5
3BBA
330
2
100
AcDbEntity
  8
L-ZISSEN
100
AcDbLine
 10
578.065878991785
 20
1083.790078899635
 30
-0.0019821880853622
 11
616.065878991785
 21
1083.790078899635
 31
-0.0019821880853622
  0
LINE
  5
3BBB
330
2
100
AcDbEntity
  8
L-ZISSEN
100
AcDbLine
 10
578.065878991785
 20
1095.890078899635
 30
-0.0019821880853622
 11
616.065878991785
 21
1095.890078899635
 31
-0.0019821880853622
  0
LINE
  5
3BBC
330
2
100
AcDbEntity
  8
L-ZISSEN
100
AcDbLine
 10
578.065878991785
 20
1083.790078899635
 30
-0.0019821880853622
 11
578.065878991785
 21
1095.890078899635
 31
-0.0019821880853622
  0
LINE
  5
3BBD
330
2
100
AcDbEntity
  8
L-ZISSEN
100
AcDbLine
 10
582.065878991785
 20
1095.890078899635
 30
-0.0019821880853622
 11
582.065878991785
 21
1108.790078899635
 31
-0.0019821880853622
  0
LINE
  5
3BBE
330
2
100
AcDbEntity
  8
L-ZISSEN
100
AcDbLine
 10
616.065878991785
 20
1083.790078899635
 30
-0.0019821880853622
 11
616.065878991785
 21
1095.890078899635
 31
-0.0019821880853622
  0
LINE
  5
3BBF
330
2
100
AcDbEntity
  8
L-ZISSEN
100
AcDbLine
 10
607.065878991785
 20
1108.790078899635
 30
-0.0019821880853622
 11
607.065878991785
 21
1110.590078899635
 31
-0.0019821880853622
  0
LINE
  5
3BC0
330
2
100
AcDbEntity
  8
L-ZISSEN
100
AcDbLine
 10
612.065878991785
 20
1095.890078899635
 30
-0.0019821880853622
 11
612.065878991785
 21
1108.790078899635
 31
-0.0019821880853622
  0
LINE
  5
3BC1
330
2
100
AcDbEntity
  8
L-ZISSEN
100
AcDbLine
 10
583.315878991785
 20
1122.790078899635
 30
-0.0019821880853622
 11
610.815878991785
 21
1122.790078899635
 31
-0.0019821880853622
  0
LINE
  5
3BC2
330
2
100
AcDbEntity
  8
L-ZISSEN
100
AcDbLine
 10
583.315878991785
 20
1126.790078899635
 30
-0.0019821880853622
 11
610.815878991785
 21
1126.790078899635
 31
-0.0019821880853622
  0
LINE
  5
3BC3
330
2
100
AcDbEntity
  8
L-ZISSEN
100
AcDbLine
 10
584.565878991785
 20
1128.790078899635
 30
-0.0019821880853622
 11
609.565878991785
 21
1128.790078899635
 31
-0.0019821880853622
  0
LINE
  5
3BC4
330
2
100
AcDbEntity
  8
L-ZISSEN
100
AcDbLine
 10
583.315878991785
 20
1126.790078899635
 30
-0.0019821880853622
 11
583.315878991785
 21
1122.790078899635
 31
-0.0019821880853622
  0
LINE
  5
3BC5
330
2
100
AcDbEntity
  8
L-ZISSEN
100
AcDbLine
 10
584.565878991785
 20
1126.790078899635
 30
-0.0019821880853622
 11
584.565878991785
 21
1128.790078899635
 31
-0.0019821880853622
  0
LINE
  5
3BC6
330
2
100
AcDbEntity
  8
L-ZISSEN
100
AcDbLine
 10
610.815878991785
 20
1126.790078899635
 30
-0.0019821880853622
 11
610.815878991785
 21
1122.790078899635
 31
-0.0019821880853622
  0
LINE
  5
3BC7
330
2
100
AcDbEntity
  8
L-ZISSEN
100
AcDbLine
 10
609.565878991785
 20
1126.790078899635
 30
-0.0019821880853622
 11
609.565878991785
 21
1128.790078899635
 31
-0.0019821880853622
  0
LINE
  5
3BC8
330
2
100
AcDbEntity
  8
L-ZISSEN
100
AcDbLine
 10
587.065878991785
 20
1108.790078899635
 30
-0.0019821880853622
 11
587.065878991785
 21
1110.590078899635
 31
-0.0019821880853622
  0
LINE
  5
3BC9
330
2
100
AcDbEntity
  8
L-ZISSEN
100
AcDbLine
 10
581.2658789917849
 20
1081.290078899635
 30
-0.0019821880853622
 11
581.2658789917849
 21
1083.790078899635
 31
-0.0019821880853622
  0
LINE
  5
3BCA
330
2
100
AcDbEntity
  8
L-TYUSIN
 48
0.5
100
AcDbLine
 10
597.065878991785
 20
1056.426078899635
 30
-0.0019821880853622
 11
597.065878991785
 21
1133.790078899635
 31
-0.0019821880853622
  0
LINE
  5
3C17
330
2
100
AcDbEntity
  8
L-ZISSEN
100
AcDbLine
 10
471.5658789917869
 20
991.5900528535378
 30
-0.0024397531616375
 11
471.5658789917869
 21
1042.590052853538
 31
-0.0024397531616375
  0
LINE
  5
3C18
330
2
100
AcDbEntity
  8
L-ZISSEN
100
AcDbLine
 10
471.5658789917869
 20
1042.590052853538
 30
-0.0024397531616375
 11
444.5658789917869
 21
1042.590052853538
 31
-0.0024397531616375
  0
LINE
  5
3C19
330
2
100
AcDbEntity
  8
L-ZISSEN
100
AcDbLine
 10
444.5658789917869
 20
1042.590052853538
 30
-0.0024397531616375
 11
444.5658789917869
 21
991.5900528535378
 31
-0.0024397531616375
  0
LINE
  5
3C1A
330
2
100
AcDbEntity
  8
L-ZISSEN
100
AcDbLine
 10
444.5658789917869
 20
991.5900528535378
 30
-0.0024397531616375
 11
471.5658789917869
 21
991.5900528535378
 31
-0.0024397531616375
  0
LINE
  5
3C1B
330
2
100
AcDbEntity
  8
L-ZISSEN
100
AcDbLine
 10
444.5658789917869
 20
1024.090052853538
 30
-0.0024397531616375
 11
434.173134391776
 21
1024.090052332087
 31
0.0
  0
LINE
  5
3C1C
330
2
100
AcDbEntity
  8
L-ZISSEN
100
AcDbLine
 10
434.1731315917749
 20
1010.090052332087
 30
0.0
 11
444.5658789917869
 21
1010.090052853538
 31
-0.0024397531616375
  0
LINE
  5
3C1E
330
2
100
AcDbEntity
  8
L-ZISSEN
100
AcDbLine
 10
581.5658789917858
 20
1210.090113802472
 30
0.0
 11
632.5658789917857
 21
1210.090113802472
 31
0.0
  0
LINE
  5
3C1F
330
2
100
AcDbEntity
  8
L-ZISSEN
100
AcDbLine
 10
632.5658789917857
 20
1210.090113802472
 30
0.0
 11
632.5658789917857
 21
1237.090113802472
 31
0.0
  0
LINE
  5
3C20
330
2
100
AcDbEntity
  8
L-ZISSEN
100
AcDbLine
 10
632.5658789917857
 20
1237.090113802472
 30
0.0
 11
581.5658789917858
 21
1237.090113802472
 31
0.0
  0
LINE
  5
3C21
330
2
100
AcDbEntity
  8
L-ZISSEN
100
AcDbLine
 10
614.0658789917858
 20
1237.090113802472
 30
0.0
 11
614.0658789917858
 21
1247.090113802472
 31
0.0
  0
LINE
  5
3C22
330
2
100
AcDbEntity
  8
L-ZISSEN
100
AcDbLine
 10
581.5658789917858
 20
1237.090113802472
 30
0.0
 11
581.5658789917858
 21
1210.090113802472
 31
0.0
  0
LINE
  5
3C23
330
2
100
AcDbEntity
  8
L-ZISSEN
100
AcDbLine
 10
600.0658789917858
 20
1237.090113802472
 30
0.0
 11
600.0658789917858
 21
1247.090113802472
 31
0.0
  0
TEXT
  5
3D8E
330
2
100
AcDbEntity
  8
L-ZISSEN
100
AcDbText
 10
503.1154156264677
 20
1051.204846029641
 30
0.0
 40
4.5
  1
AIR IN
100
AcDbText
  0
TEXT
  5
3D8F
330
2
100
AcDbEntity
  8
L-ZISSEN
100
AcDbText
 10
503.9391784428256
 20
1041.879506563191
 30
0.0
 40
4.5
  1
Rc3/8
100
AcDbText
  0
LINE
  5
3D90
330
2
100
AcDbEntity
  8
L-ZISSEN
100
AcDbLine
 10
531.7105399917848
 20
1049.945444802472
 30
0.0
 11
501.7105399917848
 21
1049.945444802472
 31
0.0
  0
LINE
  5
3D91
330
2
100
AcDbEntity
  8
L-ZISSEN
100
AcDbLine
 10
563.8838984764456
 20
1017.772086317812
 30
0.0
 11
531.7105399917848
 21
1049.945444802472
 31
0.0
  0
INSERT
  5
3D92
330
2
100
AcDbEntity
  8
L-ZISSEN
100
AcDbBlockReference
  2
_OPEN
 10
567.0658789917851
 20
1014.590105802472
 30
0.0
 41
4.5
 42
4.5
 43
4.5
 50
315.0
  0
TEXT
  5
3D93
330
2
100
AcDbEntity
  8
L-ZISSEN
100
AcDbText
 10
680.3420858614112
 20
1000.390580103015
 30
0.0
 40
4.5
  1
P.P
100
AcDbText
  0
LINE
  5
3D94
330
2
100
AcDbEntity
  8
L-ZISSEN
100
AcDbLine
 10
662.6411771666689
 20
1013.357865588755
 30
0.0
 11
676.3420858614112
 21
1002.640580103015
 31
0.0
  0
SOLID
  5
3D95
330
2
100
AcDbEntity
  8
L-ZISSEN
100
AcDbTrace
 10
662.4358024643824
 20
1013.095315892941
 30
0.0
 11
662.8465518689549
 21
1013.620415284569
 31
0.0
 12
661.0658789917851
 22
1014.590113802472
 32
0.0
 13
661.0658789917851
 23
1014.590113802472
 33
0.0
  0
ENDSEC
  0
SECTION
  2
OBJECTS
  0
DICTIONARY
  5
1A
330
0
100
AcDbDictionary
281
     1
  3
ACAD_COLOR
350
1750
  3
ACAD_DETAILVIEWSTYLE
350
10C2
  3
ACAD_GROUP
350
18
  3
ACAD_IMAGE_VARS
350
10BC
  3
ACAD_LAYOUT
350
10AF
  3
ACAD_MATERIAL
350
10B2
  3
ACAD_MLEADERSTYLE
350
10B8
  3
ACAD_MLINESTYLE
350
19
  3
ACAD_PLOTSETTINGS
350
108A
  3
ACAD_PLOTSTYLENAME
350
108B
  3
ACAD_SCALELIST
350
108D
  3
ACAD_SECTIONVIEWSTYLE
350
10C3
  3
ACAD_TABLESTYLE
350
10B6
  3
ACAD_VISUALSTYLE
350
1071
  3
ACDB_RECOMPOSE_DATA
350
3D98
  3
AcDbVariableDictionary
350
10BD
  3
APPDATA
350
10BA
  0
SUN
  5
10BB
330
1070
100
AcDbSun
 90
        1
290
     0
 63
     7
421
 16777215
 40
1.0
291
     1
 91
  2455826
 92
 54000000
292
     0
 70
     2
 71
   256
280
     1
  0
DICTIONARY
  5
10F1
330
B
100
AcDbDictionary
280
     1
281
     1
  3
ACAD_LAYERSTATES
360
10F2
  0
DICTIONARY
  5
1748
330
1747
100
AcDbDictionary
280
     1
281
     1
  3
ADSK_XREC_LAYER_RECONCILED
360
1749
  0
DICTIONARY
  5
1750
102
{ACAD_REACTORS
330
1A
102
}
330
1A
100
AcDbDictionary
281
     1
  0
DICTIONARY
  5
10C2
102
{ACAD_REACTORS
330
1A
102
}
330
1A
100
AcDbDictionary
281
     1
  0
DICTIONARY
  5
18
102
{ACAD_REACTORS
330
1A
102
}
330
1A
100
AcDbDictionary
281
     1
  0
RASTERVARIABLES
  5
10BC
102
{ACAD_REACTORS
330
1A
102
}
330
1A
100
AcDbRasterVariables
 90
        0
 70
     1
 71
     1
 72
     0
  0
DICTIONARY
  5
10AF
102
{ACAD_REACTORS
330
1A
102
}
330
1A
100
AcDbDictionary
281
     1
  3
Model
350
10B0
  3
シート 1
350
10B1
  0
DICTIONARY
  5
10B2
102
{ACAD_REACTORS
330
1A
102
}
330
1A
100
AcDbDictionary
281
     1
  3
ByBlock
350
10B4
  3
ByLayer
350
10B3
  3
Global
350
10B5
  0
DICTIONARY
  5
10B8
102
{ACAD_REACTORS
330
1A
102
}
330
1A
100
AcDbDictionary
281
     1
  3
Standard
350
10B9
  0
DICTIONARY
  5
19
102
{ACAD_REACTORS
330
1A
102
}
330
1A
100
AcDbDictionary
281
     1
  3
STANDARD
350
1E
  0
DICTIONARY
  5
108A
102
{ACAD_REACTORS
330
1A
102
}
330
1A
100
AcDbDictionary
281
     1
  0
ACDBDICTIONARYWDFLT
  5
108B
102
{ACAD_REACTORS
330
1A
102
}
330
1A
100
AcDbDictionary
281
     1
  3
Normal
350
108C
100
AcDbDictionaryWithDefault
340
108C
  0
DICTIONARY
  5
108D
102
{ACAD_REACTORS
330
1A
102
}
330
1A
100
AcDbDictionary
281
     1
  3
A0
350
108E
  3
A1
350
108F
  3
A2
350
1090
  3
A3
350
1091
  3
A4
350
1092
  3
A5
350
1093
  3
A6
350
1094
  3
A7
350
1095
  3
A8
350
1096
  3
A9
350
1097
  3
B0
350
1098
  3
B1
350
1099
  3
B2
350
109A
  3
B3
350
109B
  3
B4
350
109C
  3
B5
350
109D
  3
B6
350
109E
  3
B7
350
109F
  3
B8
350
10A0
  3
B9
350
10A1
  3
C0
350
10A2
  3
C1
350
10A3
  3
C2
350
10A4
  3
C3
350
10A5
  3
C4
350
10A6
  3
C5
350
10A7
  3
C6
350
10A8
  3
C7
350
10A9
  3
C8
350
10AA
  3
C9
350
10AB
  3
D0
350
10AC
  3
D1
350
10AD
  3
D2
350
10AE
  0
DICTIONARY
  5
10C3
102
{ACAD_REACTORS
330
1A
102
}
330
1A
100
AcDbDictionary
281
     1
  0
DICTIONARY
  5
10B6
102
{ACAD_REACTORS
330
1A
102
}
330
1A
100
AcDbDictionary
281
     1
  3
Standard
350
10B7
  0
DICTIONARY
  5
1071
102
{ACAD_REACTORS
330
1A
102
}
330
1A
100
AcDbDictionary
281
     1
  3
2dWireframe
350
1076
  3
Basic
350
1079
  3
Brighten
350
107D
  3
ColorChange
350
1081
  3
Conceptual
350
107B
  3
Dim
350
107C
  3
EdgeColorOff
350
1084
  3
Facepattern
350
1080
  3
Flat
350
1072
  3
FlatWithEdges
350
1073
  3
Gouraud
350
1074
  3
GouraudWithEdges
350
1075
  3
Hidden
350
1078
  3
JitterOff
350
1082
  3
Linepattern
350
107F
  3
OverhangOff
350
1083
  3
Realistic
350
107A
  3
Shaded
350
1089
  3
Shaded with edges
350
1088
  3
Shades of Gray
350
1085
  3
Sketchy
350
1086
  3
Thicken
350
107E
  3
Wireframe
350
1077
  3
X-Ray
350
1087
  0
XRECORD
  5
3D98
102
{ACAD_REACTORS
330
1A
102
}
330
1A
100
AcDbXrecord
280
     1
 90
        1
330
10B7
  0
DICTIONARY
  5
10BD
102
{ACAD_REACTORS
330
1A
102
}
330
1A
100
AcDbDictionary
281
     1
  3
CANNOSCALE
350
10BE
  3
CMLEADERSTYLE
350
10C0
  3
CTABLESTYLE
350
10BF
  3
MSLTSCALE
350
10C1
  0
DICTIONARY
  5
10BA
102
{ACAD_REACTORS
330
1A
102
}
330
1A
100
AcDbDictionary
281
     1
  0
DICTIONARY
  5
10F2
102
{ACAD_REACTORS
330
10F1
102
}
330
10F1
100
AcDbDictionary
281
     1
  0
XRECORD
  5
1749
102
{ACAD_REACTORS
330
1748
102
}
330
1748
100
AcDbXrecord
280
     1
290
     1
  0
LAYOUT
  5
10B0
102
{ACAD_REACTORS
330
10AF
102
}
330
10AF
100
AcDbPlotSettings
  1

  2
none_device
  4
Letter_(8.50_x_11.00_Inches)
  6

 40
6.35
 41
6.35
 42
6.35
 43
6.35
 44
215.9
 45
279.4
 46
0.0
 47
0.0
 48
0.0
 49
0.0
140
0.0
141
0.0
142
1.0
143
180.8346773069324
 70
  1712
 72
     0
 73
     0
 74
     0
  7

 75
     0
 76
     0
 77
     2
 78
   300
147
0.0055299128181189
148
0.0
149
0.0
100
AcDbLayout
  1
Model
 70
     1
 71
     0
 10
0.0
 20
0.0
 11
12.0
 21
9.0
 12
0.0
 22
0.0
 32
0.0
 14
357.5357143443948
 24
822.5901138024722
 34
-0.0024397531616375
 15
689.9849430042683
 25
1327.090113802472
 35
0.0
146
0.0
 13
0.0
 23
0.0
 33
0.0
 16
1.0
 26
0.0
 36
0.0
 17
0.0
 27
1.0
 37
0.0
 76
     0
330
2
331
1070
  0
LAYOUT
  5
10B1
102
{ACAD_REACTORS
330
10AF
102
}
330
10AF
100
AcDbPlotSettings
  1

  2
none_device
  4

  6

 40
0.0
 41
0.0
 42
0.0
 43
0.0
 44
0.0
 45
0.0
 46
0.0
 47
0.0
 48
0.0
 49
0.0
140
0.0
141
0.0
142
1.0
143
1.0
 70
   688
 72
     0
 73
     0
 74
     5
  7

 75
    16
 76
     0
 77
     2
 78
   300
147
1.0
148
0.0
149
0.0
100
AcDbLayout
  1
シート 1
 70
     0
 71
     1
 10
0.0
 20
0.0
 11
0.0
 21
0.0
 12
0.0
 22
0.0
 32
0.0
 14
1.000000000000000E+20
 24
1.000000000000000E+20
 34
1.000000000000000E+20
 15
-1.000000000000000E+20
 25
-1.000000000000000E+20
 35
-1.000000000000000E+20
146
0.0
 13
0.0
 23
0.0
 33
0.0
 16
1.0
 26
0.0
 36
0.0
 17
0.0
 27
1.0
 37
0.0
 76
     0
330
8
  0
MATERIAL
  5
10B4
102
{ACAD_REACTORS
330
10B2
102
}
330
10B2
100
AcDbMaterial
  1
ByBlock
 72
     1
 94
      127
  0
MATERIAL
  5
10B3
102
{ACAD_REACTORS
330
10B2
102
}
330
10B2
100
AcDbMaterial
  1
ByLayer
 72
     1
 94
      127
  0
MATERIAL
  5
10B5
102
{ACAD_REACTORS
330
10B2
102
}
330
10B2
100
AcDbMaterial
  1
Global
 72
     1
 94
      127
  0
MLEADERSTYLE
  5
10B9
102
{ACAD_REACTORS
330
10B8
102
}
330
10B8
100
AcDbMLeaderStyle
179
     2
170
     2
171
     1
172
     0
 90
        2
 40
0.0
 41
0.0
173
     1
 91
-1056964608
340
F
 92
       -2
290
     1
 42
0.09
291
     1
 43
0.36
  3
Standard
341
0
 44
0.18
300

342
D
174
     1
178
     1
175
     1
176
     0
 93
-1056964608
 45
0.18
292
     0
297
     0
 46
0.18
343
0
 94
-1056964608
 47
1.0
 49
1.0
140
1.0
293
     1
141
0.0
294
     1
177
     0
142
1.0
295
     0
296
     0
143
0.125
271
     0
272
     9
273
     9
  0
MLINESTYLE
  5
1E
102
{ACAD_REACTORS
330
19
102
}
330
19
100
AcDbMlineStyle
  2
STANDARD
 70
     0
  3

 62
     0
 51
90.0
 52
90.0
 71
     2
 49
0.5
 62
   256
  6
BYLAYER
 49
-0.5
 62
   256
  6
BYLAYER
  0
ACDBPLACEHOLDER
  5
108C
102
{ACAD_REACTORS
330
108B
102
}
330
108B
  0
SCALE
  5
108E
102
{ACAD_REACTORS
330
108D
102
}
330
108D
100
AcDbScale
 70
     0
300
1:1
140
1.0
141
1.0
290
     1
  0
SCALE
  5
108F
102
{ACAD_REACTORS
330
108D
102
}
330
108D
100
AcDbScale
 70
     0
300
1:2
140
1.0
141
2.0
290
     0
  0
SCALE
  5
1090
102
{ACAD_REACTORS
330
108D
102
}
330
108D
100
AcDbScale
 70
     0
300
1:4
140
1.0
141
4.0
290
     0
  0
SCALE
  5
1091
102
{ACAD_REACTORS
330
108D
102
}
330
108D
100
AcDbScale
 70
     0
300
1:5
140
1.0
141
5.0
290
     0
  0
SCALE
  5
1092
102
{ACAD_REACTORS
330
108D
102
}
330
108D
100
AcDbScale
 70
     0
300
1:8
140
1.0
141
8.0
290
     0
  0
SCALE
  5
1093
102
{ACAD_REACTORS
330
108D
102
}
330
108D
100
AcDbScale
 70
     0
300
1:10
140
1.0
141
10.0
290
     0
  0
SCALE
  5
1094
102
{ACAD_REACTORS
330
108D
102
}
330
108D
100
AcDbScale
 70
     0
300
1:16
140
1.0
141
16.0
290
     0
  0
SCALE
  5
1095
102
{ACAD_REACTORS
330
108D
102
}
330
108D
100
AcDbScale
 70
     0
300
1:20
140
1.0
141
20.0
290
     0
  0
SCALE
  5
1096
102
{ACAD_REACTORS
330
108D
102
}
330
108D
100
AcDbScale
 70
     0
300
1:30
140
1.0
141
30.0
290
     0
  0
SCALE
  5
1097
102
{ACAD_REACTORS
330
108D
102
}
330
108D
100
AcDbScale
 70
     0
300
1:40
140
1.0
141
40.0
290
     0
  0
SCALE
  5
1098
102
{ACAD_REACTORS
330
108D
102
}
330
108D
100
AcDbScale
 70
     0
300
1:50
140
1.0
141
50.0
290
     0
  0
SCALE
  5
1099
102
{ACAD_REACTORS
330
108D
102
}
330
108D
100
AcDbScale
 70
     0
300
1:100
140
1.0
141
100.0
290
     0
  0
SCALE
  5
109A
102
{ACAD_REACTORS
330
108D
102
}
330
108D
100
AcDbScale
 70
     0
300
2:1
140
2.0
141
1.0
290
     0
  0
SCALE
  5
109B
102
{ACAD_REACTORS
330
108D
102
}
330
108D
100
AcDbScale
 70
     0
300
4:1
140
4.0
141
1.0
290
     0
  0
SCALE
  5
109C
102
{ACAD_REACTORS
330
108D
102
}
330
108D
100
AcDbScale
 70
     0
300
8:1
140
8.0
141
1.0
290
     0
  0
SCALE
  5
109D
102
{ACAD_REACTORS
330
108D
102
}
330
108D
100
AcDbScale
 70
     0
300
10:1
140
10.0
141
1.0
290
     0
  0
SCALE
  5
109E
102
{ACAD_REACTORS
330
108D
102
}
330
108D
100
AcDbScale
 70
     0
300
100:1
140
100.0
141
1.0
290
     0
  0
SCALE
  5
109F
102
{ACAD_REACTORS
330
108D
102
}
330
108D
100
AcDbScale
 70
     0
300
1/128" = 1'-0"
140
0.0078125
141
12.0
290
     0
  0
SCALE
  5
10A0
102
{ACAD_REACTORS
330
108D
102
}
330
108D
100
AcDbScale
 70
     0
300
1/64" = 1'-0"
140
0.015625
141
12.0
290
     0
  0
SCALE
  5
10A1
102
{ACAD_REACTORS
330
108D
102
}
330
108D
100
AcDbScale
 70
     0
300
1/32" = 1'-0"
140
0.03125
141
12.0
290
     0
  0
SCALE
  5
10A2
102
{ACAD_REACTORS
330
108D
102
}
330
108D
100
AcDbScale
 70
     0
300
1/16" = 1'-0"
140
0.0625
141
12.0
290
     0
  0
SCALE
  5
10A3
102
{ACAD_REACTORS
330
108D
102
}
330
108D
100
AcDbScale
 70
     0
300
3/32" = 1'-0"
140
0.09375
141
12.0
290
     0
  0
SCALE
  5
10A4
102
{ACAD_REACTORS
330
108D
102
}
330
108D
100
AcDbScale
 70
     0
300
1/8" = 1'-0"
140
0.125
141
12.0
290
     0
  0
SCALE
  5
10A5
102
{ACAD_REACTORS
330
108D
102
}
330
108D
100
AcDbScale
 70
     0
300
3/16" = 1'-0"
140
0.1875
141
12.0
290
     0
  0
SCALE
  5
10A6
102
{ACAD_REACTORS
330
108D
102
}
330
108D
100
AcDbScale
 70
     0
300
1/4" = 1'-0"
140
0.25
141
12.0
290
     0
  0
SCALE
  5
10A7
102
{ACAD_REACTORS
330
108D
102
}
330
108D
100
AcDbScale
 70
     0
300
3/8" = 1'-0"
140
0.375
141
12.0
290
     0
  0
SCALE
  5
10A8
102
{ACAD_REACTORS
330
108D
102
}
330
108D
100
AcDbScale
 70
     0
300
1/2" = 1'-0"
140
0.5
141
12.0
290
     0
  0
SCALE
  5
10A9
102
{ACAD_REACTORS
330
108D
102
}
330
108D
100
AcDbScale
 70
     0
300
3/4" = 1'-0"
140
0.75
141
12.0
290
     0
  0
SCALE
  5
10AA
102
{ACAD_REACTORS
330
108D
102
}
330
108D
100
AcDbScale
 70
     0
300
1" = 1'-0"
140
1.0
141
12.0
290
     0
  0
SCALE
  5
10AB
102
{ACAD_REACTORS
330
108D
102
}
330
108D
100
AcDbScale
 70
     0
300
1-1/2" = 1'-0"
140
1.5
141
12.0
290
     0
  0
SCALE
  5
10AC
102
{ACAD_REACTORS
330
108D
102
}
330
108D
100
AcDbScale
 70
     0
300
3" = 1'-0"
140
3.0
141
12.0
290
     0
  0
SCALE
  5
10AD
102
{ACAD_REACTORS
330
108D
102
}
330
108D
100
AcDbScale
 70
     0
300
6" = 1'-0"
140
6.0
141
12.0
290
     0
  0
SCALE
  5
10AE
102
{ACAD_REACTORS
330
108D
102
}
330
108D
100
AcDbScale
 70
     0
300
1'-0" = 1'-0"
140
12.0
141
12.0
290
     0
  0
TABLESTYLE
  5
10B7
102
{ACAD_REACTORS
330
10B6
102
}
102
{ACAD_XDICTIONARY
360
3D96
102
}
330
10B6
100
AcDbTableStyle
  3
Standard
 70
     0
 71
     0
 40
0.06
 41
0.06
280
     0
281
     0
  7
STANDARD
140
0.18
170
     2
 62
     0
 63
   257
283
     0
 90
        4
 91
        0
  1

274
    -2
284
     1
 64
     0
275
    -2
285
     1
 65
     0
276
    -2
286
     1
 66
     0
277
    -2
287
     1
 67
     0
278
    -2
288
     1
 68
     0
279
    -2
289
     1
 69
     0
  7
STANDARD
140
0.25
170
     5
 62
     0
 63
   257
283
     0
 90
        4
 91
        0
  1

274
    -2
284
     1
 64
     0
275
    -2
285
     1
 65
     0
276
    -2
286
     1
 66
     0
277
    -2
287
     1
 67
     0
278
    -2
288
     1
 68
     0
279
    -2
289
     1
 69
     0
  7
STANDARD
140
0.18
170
     5
 62
     0
 63
   257
283
     0
 90
        4
 91
        0
  1

274
    -2
284
     1
 64
     0
275
    -2
285
     1
 65
     0
276
    -2
286
     1
 66
     0
277
    -2
287
     1
 67
     0
278
    -2
288
     1
 68
     0
279
    -2
289
     1
 69
     0
  0
VISUALSTYLE
  5
1076
102
{ACAD_REACTORS
330
1071
102
}
330
1071
100
AcDbVisualStyle
  2
2dWireframe
 70
     4
177
     2
291
     0
 71
     0
176
     1
 72
     2
176
     1
 73
     0
176
     1
 90
        0
176
     1
 40
0.6
176
     1
 41
30.0
176
     1
 62
     5
 63
     7
421
 16777215
176
     1
 74
     1
176
     1
 91
        4
176
     1
 64
     7
176
     1
 65
   257
176
     1
 75
     1
176
     1
175
     1
176
     1
 42
1.0
176
     1
 92
        0
176
     1
 66
   257
176
     1
 43
1.0
176
     1
 76
     1
176
     1
 77
     6
176
     1
 78
     2
176
     1
 67
     7
176
     1
 79
     5
176
     1
170
     0
176
     1
171
     0
176
     1
290
     0
176
     1
 93
        1
176
     1
 44
0.0
176
     1
173
     0
176
     1
  0
VISUALSTYLE
  5
1079
102
{ACAD_REACTORS
330
1071
102
}
330
1071
100
AcDbVisualStyle
  2
Basic
 70
     7
177
     2
291
     1
 71
     1
176
     1
 72
     0
176
     1
 73
     1
176
     1
 90
        0
176
     1
 40
0.6
176
     1
 41
30.0
176
     1
 62
     5
 63
     7
421
 16777215
176
     1
 74
     0
176
     1
 91
        4
176
     1
 64
     7
176
     1
 65
   257
176
     1
 75
     1
176
     1
175
     1
176
     1
 42
1.0
176
     1
 92
        8
176
     1
 66
     7
176
     1
 43
1.0
176
     1
 76
     1
176
     1
 77
     6
176
     1
 78
     2
176
     1
 67
     7
176
     1
 79
     5
176
     1
170
     0
176
     1
171
     0
176
     1
290
     0
176
     1
 93
        1
176
     1
 44
0.0
176
     1
173
     0
176
     1
  0
VISUALSTYLE
  5
107D
102
{ACAD_REACTORS
330
1071
102
}
330
1071
100
AcDbVisualStyle
  2
Brighten
 70
    12
177
     2
291
     1
 71
     2
176
     1
 72
     2
176
     1
 73
     0
176
     1
 90
        0
176
     1
 40
0.6
176
     1
 41
30.0
176
     1
 62
     5
 63
     7
421
 16777215
176
     1
 74
     1
176
     1
 91
        4
176
     1
 64
     7
176
     1
 65
   257
176
     1
 75
     1
176
     1
175
     1
176
     1
 42
1.0
176
     1
 92
        8
176
     1
 66
     7
176
     1
 43
1.0
176
     1
 76
     1
176
     1
 77
     6
176
     1
 78
     2
176
     1
 67
     7
176
     1
 79
     5
176
     1
170
     0
176
     1
171
     0
176
     1
290
     0
176
     1
 93
        1
176
     1
 44
50.0
176
     1
173
     0
176
     1
  0
VISUALSTYLE
  5
1081
102
{ACAD_REACTORS
330
1071
102
}
330
1071
100
AcDbVisualStyle
  2
ColorChange
 70
    16
177
     2
291
     1
 71
     2
176
     1
 72
     2
176
     1
 73
     3
176
     1
 90
        0
176
     1
 40
0.6
176
     1
 41
30.0
176
     1
 62
     5
 63
     8
421
  8421504
176
     1
 74
     1
176
     1
 91
        4
176
     1
 64
     7
176
     1
 65
   257
176
     1
 75
     1
176
     1
175
     1
176
     1
 42
1.0
176
     1
 92
        8
176
     1
 66
     8
424
  8421504
176
     1
 43
1.0
176
     1
 76
     1
176
     1
 77
     6
176
     1
 78
     2
176
     1
 67
     7
176
     1
 79
     5
176
     1
170
     0
176
     1
171
     0
176
     1
290
     0
176
     1
 93
        1
176
     1
 44
0.0
176
     1
173
     0
176
     1
  0
VISUALSTYLE
  5
107B
102
{ACAD_REACTORS
330
1071
102
}
330
1071
100
AcDbVisualStyle
  2
Conceptual
 70
     9
177
     2
291
     0
 71
     3
176
     1
 72
     2
176
     1
 73
     0
176
     1
 90
        0
176
     1
 40
0.6
176
     1
 41
30.0
176
     1
 62
     5
 63
     7
421
 16777215
176
     1
 74
     2
176
     1
 91
        2
176
     1
 64
     7
176
     1
 65
   257
176
     1
 75
     1
176
     1
175
     1
176
     1
 42
179.0
176
     1
 92
        8
176
     1
 66
     7
176
     1
 43
1.0
176
     1
 76
     1
176
     1
 77
     6
176
     1
 78
     2
176
     1
 67
     7
176
     1
 79
     3
176
     1
170
     0
176
     1
171
     0
176
     1
290
     0
176
     1
 93
        1
176
     1
 44
0.0
176
     1
173
     0
176
     1
  0
VISUALSTYLE
  5
107C
102
{ACAD_REACTORS
330
1071
102
}
330
1071
100
AcDbVisualStyle
  2
Dim
 70
    11
177
     2
291
     1
 71
     2
176
     1
 72
     2
176
     1
 73
     0
176
     1
 90
        0
176
     1
 40
0.6
176
     1
 41
30.0
176
     1
 62
     5
 63
     7
421
 16777215
176
     1
 74
     1
176
     1
 91
        4
176
     1
 64
     7
176
     1
 65
   257
176
     1
 75
     1
176
     1
175
     1
176
     1
 42
1.0
176
     1
 92
        8
176
     1
 66
     7
176
     1
 43
1.0
176
     1
 76
     1
176
     1
 77
     6
176
     1
 78
     2
176
     1
 67
     7
176
     1
 79
     5
176
     1
170
     0
176
     1
171
     0
176
     1
290
     0
176
     1
 93
        1
176
     1
 44
-50.0
176
     1
173
     0
176
     1
  0
VISUALSTYLE
  5
1084
102
{ACAD_REACTORS
330
1071
102
}
330
1071
100
AcDbVisualStyle
  2
EdgeColorOff
 70
    22
177
     2
291
     1
 71
     2
176
     0
 72
     2
176
     0
 73
     0
176
     0
 90
        0
176
     0
 40
0.6
176
     0
 41
30.0
176
     0
 62
     5
 63
     7
421
 16777215
176
     0
 74
     1
176
     0
 91
        4
176
     0
 64
     7
176
     0
 65
   257
176
     0
 75
     1
176
     0
175
     1
176
     0
 42
1.0
176
     0
 92
        8
176
     2
 66
     7
176
     0
 43
1.0
176
     0
 76
     1
176
     0
 77
     6
176
     0
 78
     2
176
     0
 67
     7
176
     0
 79
     5
176
     0
170
     0
176
     0
171
     0
176
     0
290
     0
176
     0
 93
        1
176
     0
 44
0.0
176
     0
173
     0
176
     0
  0
VISUALSTYLE
  5
1080
102
{ACAD_REACTORS
330
1071
102
}
330
1071
100
AcDbVisualStyle
  2
Facepattern
 70
    15
177
     2
291
     1
 71
     2
176
     1
 72
     2
176
     1
 73
     0
176
     1
 90
        0
176
     1
 40
0.6
176
     1
 41
30.0
176
     1
 62
     5
 63
     7
421
 16777215
176
     1
 74
     1
176
     1
 91
        4
176
     1
 64
     7
176
     1
 65
   257
176
     1
 75
     1
176
     1
175
     1
176
     1
 42
1.0
176
     1
 92
        8
176
     1
 66
     7
176
     1
 43
1.0
176
     1
 76
     1
176
     1
 77
     6
176
     1
 78
     2
176
     1
 67
     7
176
     1
 79
     5
176
     1
170
     0
176
     1
171
     0
176
     1
290
     0
176
     1
 93
        1
176
     1
 44
0.0
176
     1
173
     0
176
     1
  0
VISUALSTYLE
  5
1072
102
{ACAD_REACTORS
330
1071
102
}
330
1071
100
AcDbVisualStyle
  2
Flat
 70
     0
177
     2
291
     1
 71
     2
176
     1
 72
     1
176
     1
 73
     1
176
     1
 90
        2
176
     1
 40
0.6
176
     1
 41
30.0
176
     1
 62
     5
 63
     7
421
 16777215
176
     1
 74
     0
176
     1
 91
        0
176
     1
 64
     7
176
     1
 65
   257
176
     1
 75
     1
176
     1
175
     1
176
     1
 42
1.0
176
     1
 92
        8
176
     1
 66
     7
176
     1
 43
1.0
176
     1
 76
     1
176
     1
 77
     6
176
     1
 78
     2
176
     1
 67
     7
176
     1
 79
     5
176
     1
170
     0
176
     1
171
     0
176
     1
290
     0
176
     1
 93
       13
176
     1
 44
0.0
176
     1
173
     0
176
     1
  0
VISUALSTYLE
  5
1073
102
{ACAD_REACTORS
330
1071
102
}
330
1071
100
AcDbVisualStyle
  2
FlatWithEdges
 70
     1
177
     2
291
     1
 71
     2
176
     1
 72
     1
176
     1
 73
     1
176
     1
 90
        2
176
     1
 40
0.6
176
     1
 41
30.0
176
     1
 62
     5
 63
     7
421
 16777215
176
     1
 74
     1
176
     1
 91
        0
176
     1
 64
     7
176
     1
 65
   257
176
     1
 75
     1
176
     1
175
     1
176
     1
 42
1.0
176
     1
 92
        0
176
     1
 66
   257
176
     1
 43
1.0
176
     1
 76
     1
176
     1
 77
     6
176
     1
 78
     2
176
     1
 67
     7
176
     1
 79
     5
176
     1
170
     0
176
     1
171
     0
176
     1
290
     0
176
     1
 93
       13
176
     1
 44
0.0
176
     1
173
     0
176
     1
  0
VISUALSTYLE
  5
1074
102
{ACAD_REACTORS
330
1071
102
}
330
1071
100
AcDbVisualStyle
  2
Gouraud
 70
     2
177
     2
291
     1
 71
     2
176
     1
 72
     2
176
     1
 73
     1
176
     1
 90
        2
176
     1
 40
0.6
176
     1
 41
30.0
176
     1
 62
     5
 63
     7
421
 16777215
176
     1
 74
     0
176
     1
 91
        0
176
     1
 64
     7
176
     1
 65
   257
176
     1
 75
     1
176
     1
175
     1
176
     1
 42
1.0
176
     1
 92
        0
176
     1
 66
     7
176
     1
 43
1.0
176
     1
 76
     1
176
     1
 77
     6
176
     1
 78
     2
176
     1
 67
     7
176
     1
 79
     5
176
     1
170
     0
176
     1
171
     0
176
     1
290
     0
176
     1
 93
       13
176
     1
 44
0.0
176
     1
173
     0
176
     1
  0
VISUALSTYLE
  5
1075
102
{ACAD_REACTORS
330
1071
102
}
330
1071
100
AcDbVisualStyle
  2
GouraudWithEdges
 70
     3
177
     2
291
     1
 71
     2
176
     1
 72
     2
176
     1
 73
     1
176
     1
 90
        2
176
     1
 40
0.6
176
     1
 41
30.0
176
     1
 62
     5
 63
     7
421
 16777215
176
     1
 74
     1
176
     1
 91
        0
176
     1
 64
     7
176
     1
 65
   257
176
     1
 75
     1
176
     1
175
     1
176
     1
 42
1.0
176
     1
 92
        0
176
     1
 66
   257
176
     1
 43
1.0
176
     1
 76
     1
176
     1
 77
     6
176
     1
 78
     2
176
     1
 67
     7
176
     1
 79
     5
176
     1
170
     0
176
     1
171
     0
176
     1
290
     0
176
     1
 93
       13
176
     1
 44
0.0
176
     1
173
     0
176
     1
  0
VISUALSTYLE
  5
1078
102
{ACAD_REACTORS
330
1071
102
}
330
1071
100
AcDbVisualStyle
  2
Hidden
 70
     6
177
     2
291
     0
 71
     1
176
     1
 72
     2
176
     1
 73
     2
176
     1
 90
        0
176
     1
 40
0.6
176
     1
 41
30.0
176
     1
 62
     5
 63
     7
421
 16777215
176
     1
 74
     2
176
     1
 91
        2
176
     1
 64
     7
176
     1
 65
   257
176
     1
 75
     2
176
     1
175
     1
176
     1
 42
40.0
176
     1
 92
        0
176
     1
 66
   257
176
     1
 43
1.0
176
     1
 76
     1
176
     1
 77
     6
176
     1
 78
     2
176
     1
 67
     7
176
     1
 79
     3
176
     1
170
     0
176
     1
171
     0
176
     1
290
     0
176
     1
 93
        1
176
     1
 44
0.0
176
     1
173
     0
176
     1
  0
VISUALSTYLE
  5
1082
102
{ACAD_REACTORS
330
1071
102
}
330
1071
100
AcDbVisualStyle
  2
JitterOff
 70
    20
177
     2
291
     1
 71
     2
176
     0
 72
     2
176
     0
 73
     0
176
     0
 90
        0
176
     0
 40
0.6
176
     0
 41
30.0
176
     0
 62
     5
 63
     7
421
 16777215
176
     0
 74
     1
176
     0
 91
        4
176
     0
 64
     7
176
     0
 65
   257
176
     0
 75
     1
176
     0
175
     1
176
     0
 42
1.0
176
     0
 92
       10
176
     2
 66
     7
176
     0
 43
1.0
176
     0
 76
     1
176
     0
 77
     6
176
     0
 78
     2
176
     0
 67
     7
176
     0
 79
     5
176
     0
170
     0
176
     0
171
     0
176
     0
290
     0
176
     0
 93
        1
176
     0
 44
0.0
176
     0
173
     0
176
     0
  0
VISUALSTYLE
  5
107F
102
{ACAD_REACTORS
330
1071
102
}
330
1071
100
AcDbVisualStyle
  2
Linepattern
 70
    14
177
     2
291
     1
 71
     2
176
     1
 72
     2
176
     1
 73
     0
176
     1
 90
        0
176
     1
 40
0.6
176
     1
 41
30.0
176
     1
 62
     5
 63
     7
421
 16777215
176
     1
 74
     1
176
     1
 91
        4
176
     1
 64
     7
176
     1
 65
   257
176
     1
 75
     7
176
     1
175
     7
176
     1
 42
1.0
176
     1
 92
        8
176
     1
 66
     7
176
     1
 43
1.0
176
     1
 76
     1
176
     1
 77
     6
176
     1
 78
     2
176
     1
 67
     7
176
     1
 79
     5
176
     1
170
     0
176
     1
171
     0
176
     1
290
     0
176
     1
 93
        1
176
     1
 44
0.0
176
     1
173
     0
176
     1
  0
VISUALSTYLE
  5
1083
102
{ACAD_REACTORS
330
1071
102
}
330
1071
100
AcDbVisualStyle
  2
OverhangOff
 70
    21
177
     2
291
     1
 71
     2
176
     0
 72
     2
176
     0
 73
     0
176
     0
 90
        0
176
     0
 40
0.6
176
     0
 41
30.0
176
     0
 62
     5
 63
     7
421
 16777215
176
     0
 74
     1
176
     0
 91
        4
176
     0
 64
     7
176
     0
 65
   257
176
     0
 75
     1
176
     0
175
     1
176
     0
 42
1.0
176
     0
 92
        9
176
     2
 66
     7
176
     0
 43
1.0
176
     0
 76
     1
176
     0
 77
     6
176
     0
 78
     2
176
     0
 67
     7
176
     0
 79
     5
176
     0
170
     0
176
     0
171
     0
176
     0
290
     0
176
     0
 93
        1
176
     0
 44
0.0
176
     0
173
     0
176
     0
  0
VISUALSTYLE
  5
107A
102
{ACAD_REACTORS
330
1071
102
}
330
1071
100
AcDbVisualStyle
  2
Realistic
 70
     8
177
     2
291
     0
 71
     2
176
     1
 72
     3
176
     1
 73
     0
176
     1
 90
        2
176
     1
 40
0.6
176
     1
 41
30.0
176
     1
 62
     5
 63
     7
421
 16777215
176
     1
 74
     0
176
     1
 91
        0
176
     1
 64
     7
176
     1
 65
   257
176
     1
 75
     1
176
     1
175
     1
176
     1
 42
1.0
176
     1
 92
        8
176
     1
 66
   257
176
     1
 43
1.0
176
     1
 76
     1
176
     1
 77
     6
176
     1
 78
     2
176
     1
 67
     7
176
     1
 79
     3
176
     1
170
     0
176
     1
171
     0
176
     1
290
     0
176
     1
 93
       13
176
     1
 44
0.0
176
     1
173
     0
176
     1
  0
VISUALSTYLE
  5
1089
102
{ACAD_REACTORS
330
1071
102
}
330
1071
100
AcDbVisualStyle
  2
Shaded
 70
    27
177
     2
291
     0
 71
     2
176
     1
 72
     2
176
     1
 73
     1
176
     1
 90
        2
176
     1
 40
0.6
176
     1
 41
30.0
176
     1
 62
     5
 63
     7
421
 16777215
176
     1
 74
     0
176
     1
 91
        4
176
     1
 64
     7
176
     1
 65
   257
176
     1
 75
     1
176
     1
175
     1
176
     1
 42
1.0
176
     1
 92
        8
176
     1
 66
   257
176
     1
 43
1.0
176
     1
 76
     1
176
     1
 77
     6
176
     1
 78
     2
176
     1
 67
     8
425
  7895160
176
     1
 79
     3
176
     1
170
     0
176
     1
171
     0
176
     1
290
     0
176
     1
 93
        5
176
     1
 44
0.0
176
     1
173
     0
176
     1
  0
VISUALSTYLE
  5
1088
102
{ACAD_REACTORS
330
1071
102
}
330
1071
100
AcDbVisualStyle
  2
Shaded with edges
 70
    26
177
     2
291
     0
 71
     2
176
     1
 72
     2
176
     1
 73
     1
176
     1
 90
        2
176
     1
 40
0.6
176
     1
 41
30.0
176
     1
 62
     5
 63
     7
421
 16777215
176
     1
 74
     1
176
     1
 91
       10
176
     1
 64
     7
176
     1
 65
   257
176
     1
 75
     2
176
     1
175
     1
176
     1
 42
1.0
176
     1
 92
        8
176
     1
 66
   257
176
     1
 43
1.0
176
     1
 76
     1
176
     1
 77
     6
176
     1
 78
     2
176
     1
 67
     7
176
     1
 79
     3
176
     1
170
     0
176
     1
171
     0
176
     1
290
     0
176
     1
 93
        5
176
     1
 44
0.0
176
     1
173
     0
176
     1
  0
VISUALSTYLE
  5
1085
102
{ACAD_REACTORS
330
1071
102
}
330
1071
100
AcDbVisualStyle
  2
Shades of Gray
 70
    23
177
     2
291
     0
 71
     2
176
     1
 72
     2
176
     1
 73
     3
176
     1
 90
        0
176
     1
 40
0.6
176
     1
 41
30.0
176
     1
 62
     5
 63
     7
421
 16777215
176
     1
 74
     2
176
     1
 91
        2
176
     1
 64
     7
176
     1
 65
     7
176
     1
 75
     1
176
     1
175
     1
176
     1
 42
40.0
176
     1
 92
        8
176
     1
 66
     7
176
     1
 43
1.0
176
     1
 76
     1
176
     1
 77
     6
176
     1
 78
     2
176
     1
 67
     7
176
     1
 79
     3
176
     1
170
     0
176
     1
171
     0
176
     1
290
     0
176
     1
 93
        1
176
     1
 44
0.0
176
     1
173
     0
176
     1
  0
VISUALSTYLE
  5
1086
102
{ACAD_REACTORS
330
1071
102
}
330
1071
100
AcDbVisualStyle
  2
Sketchy
 70
    24
177
     2
291
     0
 71
     1
176
     1
 72
     2
176
     1
 73
     2
176
     1
 90
        0
176
     1
 40
0.6
176
     1
 41
30.0
176
     1
 62
     5
 63
     7
421
 16777215
176
     1
 74
     2
176
     1
 91
        2
176
     1
 64
     7
176
     1
 65
     7
176
     1
 75
     1
176
     1
175
     1
176
     1
 42
40.0
176
     1
 92
       11
176
     1
 66
     7
176
     1
 43
1.0
176
     1
 76
     1
176
     1
 77
     6
176
     1
 78
     2
176
     1
 67
     7
176
     1
 79
     6
176
     1
170
     0
176
     1
171
     0
176
     1
290
     0
176
     1
 93
        1
176
     1
 44
0.0
176
     1
173
     0
176
     1
  0
VISUALSTYLE
  5
107E
102
{ACAD_REACTORS
330
1071
102
}
330
1071
100
AcDbVisualStyle
  2
Thicken
 70
    13
177
     2
291
     1
 71
     2
176
     1
 72
     2
176
     1
 73
     0
176
     1
 90
        0
176
     1
 40
0.6
176
     1
 41
30.0
176
     1
 62
     5
 63
     7
421
 16777215
176
     1
 74
     1
176
     1
 91
        4
176
     1
 64
     7
176
     1
 65
   257
176
     1
 75
     1
176
     1
175
     1
176
     1
 42
1.0
176
     1
 92
       12
176
     1
 66
     7
176
     1
 43
1.0
176
     1
 76
     1
176
     1
 77
     6
176
     1
 78
     2
176
     1
 67
     7
176
     1
 79
     5
176
     1
170
     0
176
     1
171
     0
176
     1
290
     0
176
     1
 93
        1
176
     1
 44
0.0
176
     1
173
     0
176
     1
  0
VISUALSTYLE
  5
1077
102
{ACAD_REACTORS
330
1071
102
}
330
1071
100
AcDbVisualStyle
  2
Wireframe
 70
     5
177
     2
291
     0
 71
     0
176
     1
 72
     2
176
     1
 73
     0
176
     1
 90
        0
176
     1
 40
0.6
176
     1
 41
30.0
176
     1
 62
     5
 63
     7
421
 16777215
176
     1
 74
     1
176
     1
 91
        4
176
     1
 64
     7
176
     1
 65
   257
176
     1
 75
     1
176
     1
175
     1
176
     1
 42
1.0
176
     1
 92
        0
176
     1
 66
   257
176
     1
 43
1.0
176
     1
 76
     1
176
     1
 77
     6
176
     1
 78
     2
176
     1
 67
     7
176
     1
 79
     3
176
     1
170
     0
176
     1
171
     0
176
     1
290
     0
176
     1
 93
        1
176
     1
 44
0.0
176
     1
173
     0
176
     1
  0
VISUALSTYLE
  5
1087
102
{ACAD_REACTORS
330
1071
102
}
330
1071
100
AcDbVisualStyle
  2
X-Ray
 70
    25
177
     2
291
     0
 71
     2
176
     1
 72
     2
176
     1
 73
     1
176
     1
 90
        1
176
     1
 40
0.5
176
     1
 41
30.0
176
     1
 62
     5
 63
     7
421
 16777215
176
     1
 74
     1
176
     1
 91
        0
176
     1
 64
     7
176
     1
 65
   257
176
     1
 75
     1
176
     1
175
     1
176
     1
 42
1.0
176
     1
 92
        8
176
     1
 66
     7
176
     1
 43
1.0
176
     1
 76
     1
176
     1
 77
     6
176
     1
 78
     2
176
     1
 67
     7
176
     1
 79
     3
176
     1
170
     0
176
     1
171
     0
176
     1
290
     0
176
     1
 93
       13
176
     1
 44
0.0
176
     1
173
     0
176
     1
  0
DICTIONARYVAR
  5
10BE
102
{ACAD_REACTORS
330
10BD
102
}
330
10BD
100
DictionaryVariables
280
     0
  1
1:1
  0
DICTIONARYVAR
  5
10C0
102
{ACAD_REACTORS
330
10BD
102
}
330
10BD
100
DictionaryVariables
280
     0
  1
Standard
  0
DICTIONARYVAR
  5
10BF
102
{ACAD_REACTORS
330
10BD
102
}
330
10BD
100
DictionaryVariables
280
     0
  1
Standard
  0
DICTIONARYVAR
  5
10C1
102
{ACAD_REACTORS
330
10BD
102
}
330
10BD
100
DictionaryVariables
280
     0
  1
0
  0
DICTIONARY
  5
3D96
330
10B7
100
AcDbDictionary
280
     1
281
     1
  3
ACAD_ROUNDTRIP_2008_TABLESTYLE_CELLSTYLEMAP
360
3D97
  0
CELLSTYLEMAP
  5
3D97
102
{ACAD_REACTORS
330
3D96
102
}
330
3D96
100
AcDbCellStyleMap
 90
        3
300
CELLSTYLE
  1
TABLEFORMAT_BEGIN
 90
        5
170
     1
 91
        0
 92
    32768
 62
   257
 93
        1
300
CONTENTFORMAT
  1
CONTENTFORMAT_BEGIN
 90
        0
 91
        0
 92
        4
 93
        0
300

 40
0.0
140
1.0
 94
        5
 62
     0
340
D
144
0.25
309
CONTENTFORMAT_END
171
     1
301
MARGIN
  1
CELLMARGIN_BEGIN
 40
0.06
 40
0.06
 40
0.06
 40
0.06
 40
0.06
 40
0.06
309
CELLMARGIN_END
 94
        6
 95
        1
302
GRIDFORMAT
  1
GRIDFORMAT_BEGIN
 90
        0
 91
        1
 62
     0
 92
       -2
340
F
 93
        0
 40
0.045
309
GRIDFORMAT_END
 95
        2
302
GRIDFORMAT
  1
GRIDFORMAT_BEGIN
 90
        0
 91
        1
 62
     0
 92
       -2
340
F
 93
        0
 40
0.045
309
GRIDFORMAT_END
 95
        4
302
GRIDFORMAT
  1
GRIDFORMAT_BEGIN
 90
        0
 91
        1
 62
     0
 92
       -2
340
F
 93
        0
 40
0.045
309
GRIDFORMAT_END
 95
        8
302
GRIDFORMAT
  1
GRIDFORMAT_BEGIN
 90
        0
 91
        1
 62
     0
 92
       -2
340
F
 93
        0
 40
0.045
309
GRIDFORMAT_END
 95
       16
302
GRIDFORMAT
  1
GRIDFORMAT_BEGIN
 90
        0
 91
        1
 62
     0
 92
       -2
340
F
 93
        0
 40
0.045
309
GRIDFORMAT_END
 95
       32
302
GRIDFORMAT
  1
GRIDFORMAT_BEGIN
 90
        0
 91
        1
 62
     0
 92
       -2
340
F
 93
        0
 40
0.045
309
GRIDFORMAT_END
309
TABLEFORMAT_END
  1
CELLSTYLE_BEGIN
 90
        1
 91
        1
300
_TITLE
309
CELLSTYLE_END
300
CELLSTYLE
  1
TABLEFORMAT_BEGIN
 90
        5
170
     1
 91
        0
 92
        0
 62
   257
 93
        1
300
CONTENTFORMAT
  1
CONTENTFORMAT_BEGIN
 90
        0
 91
        0
 92
        4
 93
        0
300

 40
0.0
140
1.0
 94
        5
 62
     0
340
D
144
0.18
309
CONTENTFORMAT_END
171
     1
301
MARGIN
  1
CELLMARGIN_BEGIN
 40
0.06
 40
0.06
 40
0.06
 40
0.06
 40
0.06
 40
0.06
309
CELLMARGIN_END
 94
        6
 95
        1
302
GRIDFORMAT
  1
GRIDFORMAT_BEGIN
 90
        0
 91
        1
 62
     0
 92
       -2
340
F
 93
        0
 40
0.045
309
GRIDFORMAT_END
 95
        2
302
GRIDFORMAT
  1
GRIDFORMAT_BEGIN
 90
        0
 91
        1
 62
     0
 92
       -2
340
F
 93
        0
 40
0.045
309
GRIDFORMAT_END
 95
        4
302
GRIDFORMAT
  1
GRIDFORMAT_BEGIN
 90
        0
 91
        1
 62
     0
 92
       -2
340
F
 93
        0
 40
0.045
309
GRIDFORMAT_END
 95
        8
302
GRIDFORMAT
  1
GRIDFORMAT_BEGIN
 90
        0
 91
        1
 62
     0
 92
       -2
340
F
 93
        0
 40
0.045
309
GRIDFORMAT_END
 95
       16
302
GRIDFORMAT
  1
GRIDFORMAT_BEGIN
 90
        0
 91
        1
 62
     0
 92
       -2
340
F
 93
        0
 40
0.045
309
GRIDFORMAT_END
 95
       32
302
GRIDFORMAT
  1
GRIDFORMAT_BEGIN
 90
        0
 91
        1
 62
     0
 92
       -2
340
F
 93
        0
 40
0.045
309
GRIDFORMAT_END
309
TABLEFORMAT_END
  1
CELLSTYLE_BEGIN
 90
        2
 91
        1
300
_HEADER
309
CELLSTYLE_END
300
CELLSTYLE
  1
TABLEFORMAT_BEGIN
 90
        5
170
     1
 91
        0
 92
        0
 62
   257
 93
        1
300
CONTENTFORMAT
  1
CONTENTFORMAT_BEGIN
 90
        0
 91
        0
 92
        4
 93
        0
300

 40
0.0
140
1.0
 94
        2
 62
     0
340
D
144
0.18
309
CONTENTFORMAT_END
171
     1
301
MARGIN
  1
CELLMARGIN_BEGIN
 40
0.06
 40
0.06
 40
0.06
 40
0.06
 40
0.06
 40
0.06
309
CELLMARGIN_END
 94
        6
 95
        1
302
GRIDFORMAT
  1
GRIDFORMAT_BEGIN
 90
        0
 91
        1
 62
     0
 92
       -2
340
F
 93
        0
 40
0.045
309
GRIDFORMAT_END
 95
        2
302
GRIDFORMAT
  1
GRIDFORMAT_BEGIN
 90
        0
 91
        1
 62
     0
 92
       -2
340
F
 93
        0
 40
0.045
309
GRIDFORMAT_END
 95
        4
302
GRIDFORMAT
  1
GRIDFORMAT_BEGIN
 90
        0
 91
        1
 62
     0
 92
       -2
340
F
 93
        0
 40
0.045
309
GRIDFORMAT_END
 95
        8
302
GRIDFORMAT
  1
GRIDFORMAT_BEGIN
 90
        0
 91
        1
 62
     0
 92
       -2
340
F
 93
        0
 40
0.045
309
GRIDFORMAT_END
 95
       16
302
GRIDFORMAT
  1
GRIDFORMAT_BEGIN
 90
        0
 91
        1
 62
     0
 92
       -2
340
F
 93
        0
 40
0.045
309
GRIDFORMAT_END
 95
       32
302
GRIDFORMAT
  1
GRIDFORMAT_BEGIN
 90
        0
 91
        1
 62
     0
 92
       -2
340
F
 93
        0
 40
0.045
309
GRIDFORMAT_END
309
TABLEFORMAT_END
  1
CELLSTYLE_BEGIN
 90
        3
 91
        2
300
_DATA
309
CELLSTYLE_END
  0
ENDSEC
  0
EOF
