  0
SECTION
  2
HEADER
  9
$ACADVER
  1
AC1024
  9
$ACADMAINTVER
 70
     6
  9
$DWGCODEPAGE
  3
ANSI_932
  9
$LASTSAVEDBY
  1
y-iwai
  9
$INSBASE
 10
0.0
 20
0.0
 30
0.0
  9
$EXTMIN
 10
357.5357143443948
 20
233.11329152607
 30
-0.0019821880853622
  9
$EXTMAX
 10
688.4096448293866
 20
719.61329152607
 30
0.006134
  9
$LIMMIN
 10
0.0
 20
0.0
  9
$LIMMAX
 10
12.0
 20
9.0
  9
$ORTHOMODE
 70
     0
  9
$REGENMODE
 70
     1
  9
$FILLMODE
 70
     1
  9
$QTEXTMODE
 70
     0
  9
$MIRRTEXT
 70
     1
  9
$LTSCALE
 40
3.0
  9
$ATTMODE
 70
     1
  9
$TEXTSIZE
 40
1.5
  9
$TRACEWID
 40
0.05
  9
$TEXTSTYLE
  7
KANJI
  9
$CLAYER
  8
L-ZISSEN
  9
$CELTYPE
  6
BYLAYER
  9
$CECOLOR
 62
   256
  9
$CELTSCALE
 40
1.0
  9
$DISPSILH
 70
     0
  9
$DIMSCALE
 40
3.0
  9
$DIMASZ
 40
2.0
  9
$DIMEXO
 40
1.0
  9
$DIMDLI
 40
8.0
  9
$DIMRND
 40
0.0
  9
$DIMDLE
 40
0.0
  9
$DIMEXE
 40
1.0
  9
$DIMTP
 40
0.0
  9
$DIMTM
 40
0.0
  9
$DIMTXT
 40
2.8
  9
$DIMCEN
 40
1.5
  9
$DIMTSZ
 40
0.0
  9
$DIMTOL
 70
     0
  9
$DIMLIM
 70
     0
  9
$DIMTIH
 70
     0
  9
$DIMTOH
 70
     0
  9
$DIMSE1
 70
     0
  9
$DIMSE2
 70
     0
  9
$DIMTAD
 70
     1
  9
$DIMZIN
 70
     8
  9
$DIMBLK
  1

  9
$DIMASO
 70
     1
  9
$DIMSHO
 70
     0
  9
$DIMPOST
  1

  9
$DIMAPOST
  1

  9
$DIMALT
 70
     0
  9
$DIMALTD
 70
     2
  9
$DIMALTF
 40
25.4
  9
$DIMLFAC
 40
1.0
  9
$DIMTOFL
 70
     1
  9
$DIMTVP
 40
0.0
  9
$DIMTIX
 70
     1
  9
$DIMSOXD
 70
     0
  9
$DIMSAH
 70
     0
  9
$DIMBLK1
  1

  9
$DIMBLK2
  1

  9
$DIMSTYLE
  2
STANDARD
  9
$DIMCLRD
 70
     0
  9
$DIMCLRE
 70
     0
  9
$DIMCLRT
 70
     0
  9
$DIMTFAC
 40
1.0
  9
$DIMGAP
 40
1.4
  9
$DIMJUST
 70
     0
  9
$DIMSD1
 70
     0
  9
$DIMSD2
 70
     0
  9
$DIMTOLJ
 70
     1
  9
$DIMTZIN
 70
     8
  9
$DIMALTZ
 70
     0
  9
$DIMALTTZ
 70
     0
  9
$DIMUPT
 70
     0
  9
$DIMDEC
 70
     4
  9
$DIMTDEC
 70
     4
  9
$DIMALTU
 70
     2
  9
$DIMALTTD
 70
     2
  9
$DIMTXSTY
  7
KANJI
  9
$DIMAUNIT
 70
     0
  9
$DIMADEC
 70
     0
  9
$DIMALTRND
 40
0.0
  9
$DIMAZIN
 70
     0
  9
$DIMDSEP
 70
    46
  9
$DIMATFIT
 70
     3
  9
$DIMFRAC
 70
     0
  9
$DIMLDRBLK
  1

  9
$DIMLUNIT
 70
     2
  9
$DIMLWD
 70
    -2
  9
$DIMLWE
 70
    -2
  9
$DIMTMOVE
 70
     0
  9
$DIMFXL
 40
1.0
  9
$DIMFXLON
 70
     0
  9
$DIMJOGANG
 40
0.7853981633974483
  9
$DIMTFILL
 70
     0
  9
$DIMTFILLCLR
 70
     0
  9
$DIMARCSYM
 70
     0
  9
$DIMLTYPE
  6

  9
$DIMLTEX1
  6

  9
$DIMLTEX2
  6

  9
$DIMTXTDIRECTION
 70
     0
  9
$LUNITS
 70
     2
  9
$LUPREC
 70
     4
  9
$SKETCHINC
 40
0.1
  9
$FILLETRAD
 40
5.0
  9
$AUNITS
 70
     0
  9
$AUPREC
 70
     0
  9
$MENU
  1
acad
  9
$ELEVATION
 40
0.0
  9
$PELEVATION
 40
0.0
  9
$THICKNESS
 40
0.0
  9
$LIMCHECK
 70
     0
  9
$CHAMFERA
 40
0.0
  9
$CHAMFERB
 40
0.0
  9
$CHAMFERC
 40
0.0
  9
$CHAMFERD
 40
0.0
  9
$SKPOLY
 70
     0
  9
$TDCREATE
 40
2450178.944598264
  9
$TDUCREATE
 40
2450178.569598264
  9
$TDUPDATE
 40
2458829.819291805
  9
$TDUUPDATE
 40
2458829.444291805
  9
$TDINDWG
 40
0.8990085185
  9
$TDUSRTIMER
 40
0.0001491204
  9
$USRTIMER
 70
     1
  9
$ANGBASE
 50
0.0
  9
$ANGDIR
 70
     0
  9
$PDMODE
 70
     0
  9
$PDSIZE
 40
0.0
  9
$PLINEWID
 40
0.0
  9
$SPLFRAME
 70
     0
  9
$SPLINETYPE
 70
     6
  9
$SPLINESEGS
 70
     8
  9
$HANDSEED
  5
3D99
  9
$SURFTAB1
 70
     6
  9
$SURFTAB2
 70
     6
  9
$SURFTYPE
 70
     6
  9
$SURFU
 70
     6
  9
$SURFV
 70
     6
  9
$UCSBASE
  2

  9
$UCSNAME
  2

  9
$UCSORG
 10
0.0
 20
0.0
 30
0.0
  9
$UCSXDIR
 10
1.0
 20
0.0
 30
0.0
  9
$UCSYDIR
 10
0.0
 20
1.0
 30
0.0
  9
$UCSORTHOREF
  2

  9
$UCSORTHOVIEW
 70
     0
  9
$UCSORGTOP
 10
0.0
 20
0.0
 30
0.0
  9
$UCSORGBOTTOM
 10
0.0
 20
0.0
 30
0.0
  9
$UCSORGLEFT
 10
0.0
 20
0.0
 30
0.0
  9
$UCSORGRIGHT
 10
0.0
 20
0.0
 30
0.0
  9
$UCSORGFRONT
 10
0.0
 20
0.0
 30
0.0
  9
$UCSORGBACK
 10
0.0
 20
0.0
 30
0.0
  9
$PUCSBASE
  2

  9
$PUCSNAME
  2

  9
$PUCSORG
 10
0.0
 20
0.0
 30
0.0
  9
$PUCSXDIR
 10
1.0
 20
0.0
 30
0.0
  9
$PUCSYDIR
 10
0.0
 20
1.0
 30
0.0
  9
$PUCSORTHOREF
  2

  9
$PUCSORTHOVIEW
 70
     0
  9
$PUCSORGTOP
 10
0.0
 20
0.0
 30
0.0
  9
$PUCSORGBOTTOM
 10
0.0
 20
0.0
 30
0.0
  9
$PUCSORGLEFT
 10
0.0
 20
0.0
 30
0.0
  9
$PUCSORGRIGHT
 10
0.0
 20
0.0
 30
0.0
  9
$PUCSORGFRONT
 10
0.0
 20
0.0
 30
0.0
  9
$PUCSORGBACK
 10
0.0
 20
0.0
 30
0.0
  9
$USERI1
 70
     0
  9
$USERI2
 70
     0
  9
$USERI3
 70
     0
  9
$USERI4
 70
     0
  9
$USERI5
 70
     0
  9
$USERR1
 40
0.0
  9
$USERR2
 40
0.0
  9
$USERR3
 40
0.0
  9
$USERR4
 40
0.0
  9
$USERR5
 40
0.0
  9
$WORLDVIEW
 70
     1
  9
$SHADEDGE
 70
     3
  9
$SHADEDIF
 70
    70
  9
$TILEMODE
 70
     1
  9
$MAXACTVP
 70
    16
  9
$PINSBASE
 10
0.0
 20
0.0
 30
0.0
  9
$PLIMCHECK
 70
     0
  9
$PEXTMIN
 10
1.000000000000000E+20
 20
1.000000000000000E+20
 30
1.000000000000000E+20
  9
$PEXTMAX
 10
-1.000000000000000E+20
 20
-1.000000000000000E+20
 30
-1.000000000000000E+20
  9
$PLIMMIN
 10
0.0
 20
0.0
  9
$PLIMMAX
 10
0.0
 20
0.0
  9
$UNITMODE
 70
     0
  9
$VISRETAIN
 70
     0
  9
$PLINEGEN
 70
     0
  9
$PSLTSCALE
 70
     0
  9
$TREEDEPTH
 70
  3020
  9
$CMLSTYLE
  2
STANDARD
  9
$CMLJUST
 70
     0
  9
$CMLSCALE
 40
1.0
  9
$PROXYGRAPHICS
 70
     1
  9
$MEASUREMENT
 70
     0
  9
$CELWEIGHT
370
    -1
  9
$ENDCAPS
280
     0
  9
$JOINSTYLE
280
     0
  9
$LWDISPLAY
290
     0
  9
$INSUNITS
 70
     0
  9
$HYPERLINKBASE
  1

  9
$STYLESHEET
  1

  9
$XEDIT
290
     1
  9
$CEPSNTYPE
380
     0
  9
$PSTYLEMODE
290
     1
  9
$FINGERPRINTGUID
  2
{AA8BBF23-CCEE-4FE5-B81D-141338CA9047}
  9
$VERSIONGUID
  2
{FAEB1C32-E019-11D5-929B-00C0DF256EC4}
  9
$EXTNAMES
290
     1
  9
$PSVPSCALE
 40
0.0
  9
$OLESTARTUP
290
     0
  9
$SORTENTS
280
   127
  9
$INDEXCTL
280
     0
  9
$HIDETEXT
280
     1
  9
$XCLIPFRAME
280
     2
  9
$HALOGAP
280
     0
  9
$OBSCOLOR
 70
   257
  9
$OBSLTYPE
280
     0
  9
$INTERSECTIONDISPLAY
280
     0
  9
$INTERSECTIONCOLOR
 70
   257
  9
$DIMASSOC
280
     2
  9
$PROJECTNAME
  1

  9
$CAMERADISPLAY
290
     0
  9
$LENSLENGTH
 40
50.0
  9
$CAMERAHEIGHT
 40
0.0
  9
$STEPSPERSEC
 40
2.0
  9
$STEPSIZE
 40
6.0
  9
$3DDWFPREC
 40
2.0
  9
$PSOLWIDTH
 40
0.25
  9
$PSOLHEIGHT
 40
4.0
  9
$LOFTANG1
 40
1.570796326794897
  9
$LOFTANG2
 40
1.570796326794897
  9
$LOFTMAG1
 40
0.0
  9
$LOFTMAG2
 40
0.0
  9
$LOFTPARAM
 70
     7
  9
$LOFTNORMALS
280
     1
  9
$LATITUDE
 40
37.795
  9
$LONGITUDE
 40
-122.394
  9
$NORTHDIRECTION
 40
0.0
  9
$TIMEZONE
 70
 -8000
  9
$LIGHTGLYPHDISPLAY
280
     1
  9
$TILEMODELIGHTSYNCH
280
     1
  9
$SOLIDHIST
280
     0
  9
$SHOWHIST
280
     1
  9
$DWFFRAME
280
     2
  9
$DGNFRAME
280
     2
  9
$REALWORLDSCALE
290
     1
  9
$INTERFERECOLOR
 62
   256
  9
$CSHADOW
280
     0
  9
$SHADOWPLANELOCATION
 40
0.0
  0
ENDSEC
  0
SECTION
  2
CLASSES
  0
CLASS
  1
LWPOLYLINE
  2
AcDbPolyline
  3
ObjectDBX Classes
 90
        0
 91
        1
280
     0
281
     1
  0
CLASS
  1
HATCH
  2
AcDbHatch
  3
ObjectDBX Classes
 90
        0
 91
        1
280
     0
281
     1
  0
CLASS
  1
ACAD_ZOMBIE_ENTITY
  2
AcDbDxfZombieEntity
  3
AutoCAD
 90
        0
 91
        4
280
     0
281
     1
  0
CLASS
  1
ACAD_ZOMBIE_OBJECT
  2
AcDbDxfZombieObject
  3
AutoCAD
 90
        0
 91
        4
280
     0
281
     0
  0
CLASS
  1
VISUALSTYLE
  2
AcDbVisualStyle
  3
ObjectDBX Classes
 90
     4095
 91
        4
280
     0
281
     0
  0
CLASS
  1
ACDBDICTIONARYWDFLT
  2
AcDbDictionaryWithDefault
  3
ObjectDBX Classes
 90
        0
 91
        4
280
     0
281
     0
  0
CLASS
  1
SCALE
  2
AcDbScale
  3
ObjectDBX Classes
 90
     1153
 91
        4
280
     0
281
     0
  0
CLASS
  1
MATERIAL
  2
AcDbMaterial
  3
ObjectDBX Classes
 90
     1153
 91
        4
280
     0
281
     0
  0
CLASS
  1
TABLESTYLE
  2
AcDbTableStyle
  3
ObjectDBX Classes
 90
     4095
 91
        4
280
     0
281
     0
  0
CLASS
  1
MLEADERSTYLE
  2
AcDbMLeaderStyle
  3
ACDB_MLEADERSTYLE_CLASS
 90
     4095
 91
        4
280
     0
281
     0
  0
CLASS
  1
SUN
  2
AcDbSun
  3
SCENEOE
 90
     1153
 91
        4
280
     0
281
     0
  0
CLASS
  1
RASTERVARIABLES
  2
AcDbRasterVariables
  3
ISM
 90
        0
 91
        4
280
     0
281
     0
  0
CLASS
  1
DICTIONARYVAR
  2
AcDbDictionaryVar
  3
ObjectDBX Classes
 90
        0
 91
        4
280
     0
281
     0
  0
CLASS
  1
DIMASSOC
  2
AcDbDimAssoc
  3
"AcDbDimAssoc|Product Desc:     AcDim ARX App For Dimension|Company:          Autodesk, Inc.|WEB Address:      www.autodesk.com"
 90
        0
 91
        4
280
     0
281
     0
  0
CLASS
  1
SORTENTSTABLE
  2
AcDbSortentsTable
  3
ObjectDBX Classes
 90
        0
 91
        4
280
     0
281
     0
  0
CLASS
  1
CELLSTYLEMAP
  2
AcDbCellStyleMap
  3
ObjectDBX Classes
 90
     1152
 91
        4
280
     0
281
     0
  0
ENDSEC
  0
SECTION
  2
TABLES
  0
TABLE
  2
VPORT
  5
12
330
0
100
AcDbSymbolTable
 70
     2
  0
VPORT
  5
1070
330
12
100
AcDbSymbolTableRecord
100
AcDbViewportTableRecord
  2
*ACTIVE
 70
     0
 10
0.0
 20
0.0
 11
1.0
 21
1.0
 12
522.9726795868908
 22
476.36329152607
 13
0.0
 23
0.0
 14
1.0
 24
1.0
 15
0.0
 25
0.0
 16
0.0
 26
0.0
 36
1.0
 17
0.0
 27
0.0
 37
0.0
 40
496.23
 41
2.578253706754531
 42
50.0
 43
0.0
 44
0.0
 50
0.0
 51
0.0
 71
    16
 72
   100
 73
     1
 74
     0
 75
     0
 76
     1
 77
     0
 78
     0
281
     0
 65
     1
110
0.0
120
0.0
130
0.0
111
1.0
121
0.0
131
0.0
112
0.0
122
1.0
132
0.0
 79
     0
146
0.0
348
1076
 60
     3
 61
     5
292
     1
282
     1
141
0.0
142
0.0
 63
   256
361
10BB
  0
ENDTAB
  0
TABLE
  2
LTYPE
  5
E
330
0
100
AcDbSymbolTable
 70
     6
  0
LTYPE
  5
F
330
E
100
AcDbSymbolTableRecord
100
AcDbLinetypeTableRecord
  2
BYBLOCK
 70
     0
  3

 72
    65
 73
     0
 40
0.0
  0
LTYPE
  5
6
330
E
100
AcDbSymbolTableRecord
100
AcDbLinetypeTableRecord
  2
BYLAYER
 70
     0
  3

 72
    65
 73
     0
 40
0.0
  0
LTYPE
  5
5
330
E
100
AcDbSymbolTableRecord
100
AcDbLinetypeTableRecord
  2
CONTINUOUS
 70
     0
  3
Solid line
 72
    65
 73
     0
 40
0.0
  0
LTYPE
  5
1DF
330
E
100
AcDbSymbolTableRecord
100
AcDbLinetypeTableRecord
  2
CENTER
 70
     0
  3
----- - ----- - ----- - ----- - -----
 72
    65
 73
     4
 40
35.0
 49
30.0
 74
     0
 49
-1.5
 74
     0
 49
2.0
 74
     0
 49
-1.5
 74
     0
  0
LTYPE
  5
327
330
E
100
AcDbSymbolTableRecord
100
AcDbLinetypeTableRecord
  2
HIDDEN
 70
     0
  3
- - - - - - - - - - - - - - -
 72
    65
 73
     2
 40
2.0
 49
1.0
 74
     0
 49
-1.0
 74
     0
  0
LTYPE
  5
1C
330
E
100
AcDbSymbolTableRecord
100
AcDbLinetypeTableRecord
  2
PHANTOM
 70
     0
  3
_____ _ _ _____ _ _ _____
 72
    65
 73
     6
 40
10.0
 49
5.0
 74
     0
 49
-1.0
 74
     0
 49
1.0
 74
     0
 49
-1.0
 74
     0
 49
1.0
 74
     0
 49
-1.0
 74
     0
  0
LTYPE
  5
1002
330
E
100
AcDbSymbolTableRecord
100
AcDbLinetypeTableRecord
  2
CENTER1
 70
     0
  3
----- - ----- - ----- - ----- - ----- - -----
 72
    65
 73
     4
 40
20.0
 49
15.0
 74
     0
 49
-1.5
 74
     0
 49
2.0
 74
     0
 49
-1.5
 74
     0
  0
LTYPE
  5
1100
330
E
100
AcDbSymbolTableRecord
100
AcDbLinetypeTableRecord
  2
CENTER2
 70
     0
  3
___ _ ___ _ ___ _ ___ _ ___ _ ___ _ ___ _ ___ _
 72
    65
 73
     4
 40
1.125
 49
0.75
 74
     0
 49
-0.125
 74
     0
 49
0.125
 74
     0
 49
-0.125
 74
     0
  0
ENDTAB
  0
TABLE
  2
LAYER
  5
B
102
{ACAD_XDICTIONARY
360
10F1
102
}
330
0
100
AcDbSymbolTable
 70
    12
  0
LAYER
  5
4
330
B
100
AcDbSymbolTableRecord
100
AcDbLayerTableRecord
  2
0
 70
     0
 62
     7
  6
CONTINUOUS
370
    -3
390
108C
347
10B5
  0
LAYER
  5
1E1
330
B
100
AcDbSymbolTableRecord
100
AcDbLayerTableRecord
  2
L-ZISSEN
 70
     0
 62
     7
  6
CONTINUOUS
370
    -3
390
108C
347
10B5
  0
LAYER
  5
1DE
330
B
100
AcDbSymbolTableRecord
100
AcDbLayerTableRecord
  2
L-TYUSIN
 70
     0
 62
     1
  6
CENTER
370
    -3
390
108C
347
10B5
  0
LAYER
  5
326
330
B
100
AcDbSymbolTableRecord
100
AcDbLayerTableRecord
  2
L-HASEN
 70
     0
 62
     5
  6
HIDDEN
370
    -3
390
108C
347
10B5
  0
LAYER
  5
1B
330
B
100
AcDbSymbolTableRecord
100
AcDbLayerTableRecord
  2
L-SOUZOU
 70
     0
 62
     2
  6
PHANTOM
370
    -3
390
108C
347
10B5
  0
LAYER
  5
10FC
330
B
100
AcDbSymbolTableRecord
100
AcDbLayerTableRecord
  2
PV
 70
     0
 62
     7
  6
CONTINUOUS
370
    -3
390
108C
347
10B5
  0
LAYER
  5
147A
330
B
100
AcDbSymbolTableRecord
100
AcDbLayerTableRecord
  2
Defpoints
 70
     0
 62
     7
  6
CONTINUOUS
290
     0
370
    -3
390
108C
347
10B5
  0
LAYER
  5
16F1
330
B
100
AcDbSymbolTableRecord
100
AcDbLayerTableRecord
  2
SUNPOU
 70
     0
 62
     3
  6
CONTINUOUS
370
    -3
390
108C
347
10B5
  0
LAYER
  5
1747
102
{ACAD_XDICTIONARY
360
1748
102
}
330
B
100
AcDbSymbolTableRecord
100
AcDbLayerTableRecord
  2
LAYER007
 70
     0
 62
     7
  6
CONTINUOUS
370
    -3
390
108C
347
10B5
  0
LAYER
  5
1BC9
330
B
100
AcDbSymbolTableRecord
100
AcDbLayerTableRecord
  2
L-SAISEN
 70
     0
 62
     6
  6
CONTINUOUS
370
    -3
390
108C
347
10B5
  0
ENDTAB
  0
TABLE
  2
STYLE
  5
C
330
0
100
AcDbSymbolTable
 70
     2
  0
STYLE
  5
D
330
C
100
AcDbSymbolTableRecord
100
AcDbTextStyleTableRecord
  2
STANDARD
 70
     0
 40
0.0
 41
0.8
 50
0.0
 71
     0
 42
5.0
  3
C:\PROGRAM FILES\AUTOCAD LT\SIMPLEX
  4
BIGFONT.shx
  0
STYLE
  5
1D
330
C
100
AcDbSymbolTableRecord
100
AcDbTextStyleTableRecord
  2
KANJI
 70
     0
 40
0.0
 41
0.8
 50
0.0
 71
     0
 42
1.5
  3
C:\Program Files\AutoCAD LT\ROMANS
  4
BIGFONT
  0
ENDTAB
  0
TABLE
  2
VIEW
  5
10
330
0
100
AcDbSymbolTable
 70
     0
  0
ENDTAB
  0
TABLE
  2
UCS
  5
11
330
0
100
AcDbSymbolTable
 70
     0
  0
ENDTAB
  0
TABLE
  2
APPID
  5
14
330
0
100
AcDbSymbolTable
 70
     2
  0
APPID
  5
15
330
14
100
AcDbSymbolTableRecord
100
AcDbRegAppTableRecord
  2
ACAD
 70
     0
  0
APPID
  5
174E
330
14
100
AcDbSymbolTableRecord
100
AcDbRegAppTableRecord
  2
ACAD_NAV_VCDISPLAY
 70
     0
  0
ENDTAB
  0
TABLE
  2
DIMSTYLE
  5
16
330
0
100
AcDbSymbolTable
 70
     2
100
AcDbDimStyleTable
  0
DIMSTYLE
105
1F
330
16
100
AcDbSymbolTableRecord
100
AcDbDimStyleTableRecord
  2
STANDARD
 70
     0
178
     0
340
D
  0
DIMSTYLE
105
1BCE
330
16
100
AcDbSymbolTableRecord
100
AcDbDimStyleTableRecord
  2
STANDARD$7
 70
     0
 41
2.0
 42
1.0
 44
1.0
 73
     0
 74
     0
 77
     3
140
3.0
147
1.0
176
     3
177
     3
178
     3
340
D
  0
ENDTAB
  0
TABLE
  2
BLOCK_RECORD
  5
1
330
0
100
AcDbSymbolTable
 70
    14
  0
BLOCK_RECORD
  5
2
330
1
100
AcDbSymbolTableRecord
100
AcDbBlockTableRecord
  2
*MODEL_SPACE
340
10B0
 70
     0
280
     1
281
     0
  0
BLOCK_RECORD
  5
8
330
1
100
AcDbSymbolTableRecord
100
AcDbBlockTableRecord
  2
*PAPER_SPACE
340
10B1
 70
     0
280
     1
281
     0
  0
BLOCK_RECORD
  5
F4B
330
1
100
AcDbSymbolTableRecord
100
AcDbBlockTableRecord
  2
ITOH105
340
0
 70
     0
280
     1
281
     0
  0
BLOCK_RECORD
  5
E45
330
1
100
AcDbSymbolTableRecord
100
AcDbBlockTableRecord
  2
_OPEN
340
0
102
{BLKREFS
331
1447
102
}
 70
     0
280
     1
281
     0
  0
BLOCK_RECORD
  5
18B7
330
1
100
AcDbSymbolTableRecord
100
AcDbBlockTableRecord
  2
_OPEN30
340
0
 70
     0
280
     1
281
     0
  0
ENDTAB
  0
ENDSEC
  0
SECTION
  2
BLOCKS
  0
BLOCK
  5
3
330
2
100
AcDbEntity
  8
0
100
AcDbBlockBegin
  2
*MODEL_SPACE
 70
     0
 10
0.0
 20
0.0
 30
0.0
  3
*MODEL_SPACE
  1

  0
ENDBLK
  5
7
330
2
100
AcDbEntity
  8
0
100
AcDbBlockEnd
  0
BLOCK
  5
9
330
8
100
AcDbEntity
 67
     1
  8
0
100
AcDbBlockBegin
  2
*PAPER_SPACE
 70
     0
 10
0.0
 20
0.0
 30
0.0
  3
*PAPER_SPACE
  1

  0
ENDBLK
  5
A
330
8
100
AcDbEntity
 67
     1
  8
0
100
AcDbBlockEnd
  0
BLOCK
  5
F53
330
F4B
100
AcDbEntity
  8
0
100
AcDbBlockBegin
  2
ITOH105
 70
     0
 10
0.0
 20
0.0
 30
0.0
  3
ITOH105
  1

  0
LINE
  5
F4C
330
F4B
100
AcDbEntity
  8
L-ZISSEN
100
AcDbLine
 10
-14.1543724759548
 20
23.2493648042106
 30
0.0
 11
14.8456275240452
 21
23.2493648042106
 31
0.0
  0
LINE
  5
F4D
330
F4B
100
AcDbEntity
  8
L-ZISSEN
100
AcDbLine
 10
14.8456275240452
 20
23.2493648042106
 30
0.0
 11
14.8456275240452
 21
27.04936480421055
 31
0.0
  0
LINE
  5
F4E
330
F4B
100
AcDbEntity
  8
L-ZISSEN
100
AcDbLine
 10
-14.1543724759548
 20
27.04936480421055
 30
0.0
 11
-14.1543724759548
 21
23.2493648042106
 31
0.0
  0
LINE
  5
F4F
330
F4B
100
AcDbEntity
  8
L-ZISSEN
100
AcDbLine
 10
11.3456275240452
 20
13.34936480421062
 30
0.0
 11
-10.6543724759548
 21
13.34936480421062
 31
0.0
  0
LINE
  5
F50
330
F4B
100
AcDbEntity
  8
L-ZISSEN
100
AcDbLine
 10
-10.6543724759548
 20
13.34936480421062
 30
0.0
 11
-10.6543724759548
 21
23.2493648042106
 31
0.0
  0
LINE
  5
F51
330
F4B
100
AcDbEntity
  8
L-ZISSEN
100
AcDbLine
 10
11.3456275240452
 20
13.34936480421062
 30
0.0
 11
11.3456275240452
 21
23.2493648042106
 31
0.0
  0
LINE
  5
F52
330
F4B
100
AcDbEntity
  8
L-TYUSIN
100
AcDbLine
 10
0.3456275240451987
 20
27.04936480421043
 30
0.0
 11
0.3456275240451987
 21
9.538142199001086
 31
0.0
  0
ENDBLK
  5
F54
330
F4B
100
AcDbEntity
  8
0
100
AcDbBlockEnd
  0
BLOCK
  5
E49
330
E45
100
AcDbEntity
  8
0
100
AcDbBlockBegin
  2
_OPEN
 70
     0
 10
0.0
 20
0.0
 30
0.0
  3
_OPEN
  1

  0
LINE
  5
E46
330
E45
100
AcDbEntity
  8
0
  6
ByBlock
 62
     0
100
AcDbLine
 10
-1.0
 20
0.166667
 30
0.0
 11
0.0
 21
0.0
 31
0.0
  0
LINE
  5
E47
330
E45
100
AcDbEntity
  8
0
  6
ByBlock
 62
     0
100
AcDbLine
 10
0.0
 20
0.0
 30
0.0
 11
-1.0
 21
-0.166667
 31
0.0
  0
LINE
  5
E48
330
E45
100
AcDbEntity
  8
0
  6
ByBlock
 62
     0
100
AcDbLine
 10
0.0
 20
0.0
 30
0.0
 11
-1.0
 21
0.0
 31
0.0
  0
ENDBLK
  5
E4A
330
E45
100
AcDbEntity
  8
0
100
AcDbBlockEnd
  0
BLOCK
  5
18B8
330
18B7
100
AcDbEntity
  8
0
100
AcDbBlockBegin
  2
_OPEN30
 70
     0
 10
0.0
 20
0.0
 30
0.0
  3
_OPEN30
  1

  0
LINE
  5
18B9
330
18B7
100
AcDbEntity
  8
0
  6
ByBlock
 62
     0
100
AcDbLine
 10
-1.0
 20
0.267949
 30
0.0
 11
0.0
 21
0.0
 31
0.0
  0
LINE
  5
18BA
330
18B7
100
AcDbEntity
  8
0
  6
ByBlock
 62
     0
100
AcDbLine
 10
0.0
 20
0.0
 30
0.0
 11
-1.0
 21
-0.267949
 31
0.0
  0
LINE
  5
18BB
330
18B7
100
AcDbEntity
  8
0
  6
ByBlock
 62
     0
100
AcDbLine
 10
0.0
 20
0.0
 30
0.0
 11
-1.0
 21
0.0
 31
0.0
  0
ENDBLK
  5
18BC
330
18B7
100
AcDbEntity
  8
0
100
AcDbBlockEnd
  0
ENDSEC
  0
SECTION
  2
ENTITIES
  0
LINE
  5
12BF
330
2
100
AcDbEntity
  8
L-ZISSEN
100
AcDbLine
 10
661.065878991787
 20
429.61329152607
 30
0.0
 11
661.065878991787
 21
384.61329152607
 31
0.0
  0
LINE
  5
12C0
330
2
100
AcDbEntity
  8
L-ZISSEN
100
AcDbLine
 10
659.065878991787
 20
652.11329152607
 30
0.0
 11
652.065878991787
 21
659.11329152607
 31
0.0
  0
LINE
  5
12C1
330
2
100
AcDbEntity
  8
L-ZISSEN
100
AcDbLine
 10
649.065878991787
 20
655.11329152607
 30
0.0
 11
650.5217599917869
 21
659.11329152607
 31
0.0
  0
LINE
  5
12C2
330
2
100
AcDbEntity
  8
L-ZISSEN
100
AcDbLine
 10
647.065878991787
 20
655.11329152607
 30
0.0
 11
649.065878991787
 21
655.11329152607
 31
0.0
  0
LINE
  5
12C3
330
2
100
AcDbEntity
  8
L-ZISSEN
100
AcDbLine
 10
649.065878991787
 20
699.11329152607
 30
0.0
 11
650.5217599917869
 21
695.11329152607
 31
0.0
  0
LINE
  5
12C4
330
2
100
AcDbEntity
  8
L-ZISSEN
100
AcDbLine
 10
659.065878991787
 20
702.11329152607
 30
0.0
 11
652.065878991787
 21
695.11329152607
 31
0.0
  0
LINE
  5
12C5
330
2
100
AcDbEntity
  8
L-ZISSEN
100
AcDbLine
 10
661.065878991787
 20
669.36329152607
 30
0.0
 11
661.065878991787
 21
652.11329152607
 31
0.0
  0
LINE
  5
12C6
330
2
100
AcDbEntity
  8
L-ZISSEN
100
AcDbLine
 10
636.0158789917871
 20
429.61329152607
 30
0.0
 11
661.065878991787
 21
429.61329152607
 31
0.0
  0
LINE
  5
12C7
330
2
100
AcDbEntity
  8
L-ZISSEN
100
AcDbLine
 10
636.0158789917871
 20
384.61329152607
 30
0.0
 11
661.065878991787
 21
384.61329152607
 31
0.0
  0
LINE
  5
12C8
330
2
100
AcDbEntity
  8
L-ZISSEN
100
AcDbLine
 10
412.5988879917869
 20
384.11329152607
 30
0.006134
 11
412.5988879917869
 21
367.11329552607
 31
0.006134
  0
LINE
  5
12C9
330
2
100
AcDbEntity
  8
L-ZISSEN
100
AcDbLine
 10
436.0660200897721
 20
367.113327145667
 30
0.006134
 11
436.5963274373786
 21
384.61331052607
 31
0.006134
  0
LINE
  5
12CA
330
2
100
AcDbEntity
  8
L-ZISSEN
100
AcDbLine
 10
358.0660129917869
 20
367.11332152607
 30
0.006134
 11
357.5357143443948
 21
384.61331052607
 31
0.006134
  0
LINE
  5
12CB
330
2
100
AcDbEntity
  8
L-ZISSEN
100
AcDbLine
 10
381.5328699917869
 20
384.11329152607
 30
0.006134
 11
381.5328699917869
 21
367.11329552607
 31
0.006134
  0
CIRCLE
  5
12CC
330
2
100
AcDbEntity
  8
L-ZISSEN
100
AcDbCircle
 10
397.0658789917869
 20
407.11329152607
 30
0.006134
 40
8.65
  0
LINE
  5
12CD
330
2
100
AcDbEntity
  8
L-ZISSEN
100
AcDbLine
 10
358.5660169917869
 20
367.11331052607
 30
0.006134
 11
358.5660169917869
 21
363.11331052607
 31
0.006134
  0
LINE
  5
12D2
330
2
100
AcDbEntity
  8
L-ZISSEN
100
AcDbLine
 10
435.5658789917869
 20
363.11331052607
 30
0.006134
 11
358.5660169917869
 21
363.11331052607
 31
0.006134
  0
LINE
  5
12D3
330
2
100
AcDbEntity
  8
L-ZISSEN
100
AcDbLine
 10
358.0660129917869
 20
367.11332152607
 30
0.006134
 11
436.0659369917869
 21
367.11331052607
 31
0.006134
  0
LINE
  5
12D4
330
2
100
AcDbEntity
  8
L-ZISSEN
100
AcDbLine
 10
435.9927419917868
 20
367.11331052607
 30
0.006134
 11
439.0872809917869
 21
347.57515552607
 31
0.006134
  0
LINE
  5
12D5
330
2
100
AcDbEntity
  8
L-ZISSEN
100
AcDbLine
 10
437.6663619917869
 20
345.35695552607
 30
0.006134
 11
436.3034449917869
 21
344.75035752607
 31
0.006134
  0
LINE
  5
12D6
330
2
100
AcDbEntity
  8
L-ZISSEN
100
AcDbLine
 10
441.7800419917869
 20
345.61877652607
 30
0.006134
 11
439.087296991787
 21
347.57516952607
 31
0.006134
  0
ARC
  5
12D7
330
2
100
AcDbEntity
  8
L-ZISSEN
100
AcDbCircle
 10
441.7666219917869
 20
343.44338852607
 30
0.006134
 40
0.5
100
AcDbArc
 50
279.0001099999965
 51
9.00004000000392
  0
ARC
  5
12D8
330
2
100
AcDbEntity
  8
L-ZISSEN
100
AcDbCircle
 10
441.4861649917869
 20
345.21421652607
 30
0.006134
 40
0.5
100
AcDbArc
 50
9.000039999997487
 51
53.99999999999722
  0
LINE
  5
12D9
330
2
100
AcDbEntity
  8
L-ZISSEN
100
AcDbLine
 10
441.9799849917869
 20
345.29246152607
 30
0.006134
 11
442.2604569917869
 21
343.52164352607
 31
0.006134
  0
LINE
  5
12DA
330
2
100
AcDbEntity
  8
L-ZISSEN
100
AcDbLine
 10
437.6663619917869
 20
345.35695552607
 30
0.006134
 11
438.610882991787
 21
344.19056952607
 31
0.006134
  0
LINE
  5
12DB
330
2
100
AcDbEntity
  8
L-ZISSEN
100
AcDbLine
 10
441.8448309917869
 20
342.94958152607
 30
0.006134
 11
438.8817649917869
 21
342.48027852607
 31
0.006134
  0
LINE
  5
12DC
330
2
100
AcDbEntity
  8
L-ZISSEN
100
AcDbLine
 10
438.8817649917869
 20
342.48027852607
 30
0.006134
 11
438.610882991787
 21
344.19057352607
 31
0.006134
  0
ARC
  5
12DD
330
2
100
AcDbEntity
  8
L-ZISSEN
100
AcDbCircle
 10
436.0594989917869
 20
345.29846052607
 30
0.006134
 40
0.6
100
AcDbArc
 50
228.9918899999983
 51
293.9930700000008
  0
LINE
  5
12DE
330
2
100
AcDbEntity
  8
L-ZISSEN
100
AcDbLine
 10
431.5051239501948
 20
348.4634987388372
 30
0.006134
 11
435.6657989917869
 21
344.84573252607
 31
0.006134
  0
LINE
  5
12DF
330
2
100
AcDbEntity
  8
L-ZISSEN
100
AcDbLine
 10
435.5658789917869
 20
367.11331052607
 30
0.006134
 11
435.5658789917869
 21
363.11331052607
 31
0.006134
  0
LINE
  5
12E1
330
2
100
AcDbEntity
  8
L-ZISSEN
100
AcDbLine
 10
410.8158789917869
 20
519.1772565260701
 30
0.006134
 11
410.8158789917869
 21
515.1772565260701
 31
0.006134
  0
LINE
  5
12E2
330
2
100
AcDbEntity
  8
L-ZISSEN
100
AcDbLine
 10
383.3158789917869
 20
519.1772565260701
 30
0.006134
 11
383.3158789917869
 21
515.1772565260701
 31
0.006134
  0
LINE
  5
12E3
330
2
100
AcDbEntity
  8
L-ZISSEN
100
AcDbLine
 10
378.0658789917869
 20
488.27725652607
 30
0.006134
 11
416.0658789917869
 21
488.27725652607
 31
0.006134
  0
LINE
  5
12E4
330
2
100
AcDbEntity
  8
L-ZISSEN
100
AcDbLine
 10
382.0658789917869
 20
501.17725652607
 30
0.006134
 11
412.0658789917869
 21
501.17725652607
 31
0.006134
  0
LINE
  5
12E5
330
2
100
AcDbEntity
  8
L-ZISSEN
100
AcDbLine
 10
379.0658789917869
 20
429.11329152607
 30
0.006134
 11
415.0658789917869
 21
429.11329152607
 31
0.006134
  0
LINE
  5
12E6
330
2
100
AcDbEntity
  8
L-ZISSEN
100
AcDbLine
 10
359.5658769917869
 20
436.11325652607
 30
0.006134
 11
434.5658789917869
 21
436.11325652607
 31
0.006134
  0
LINE
  5
12E7
330
2
100
AcDbEntity
  8
L-ZISSEN
100
AcDbLine
 10
378.0658789917869
 20
476.17725652607
 30
0.006134
 11
416.0658789917869
 21
476.17725652607
 31
0.006134
  0
LINE
  5
12E9
330
2
100
AcDbEntity
  8
L-ZISSEN
100
AcDbLine
 10
361.2644589917869
 20
423.63262252607
 30
0.006134
 11
361.2644589917869
 21
395.59396552607
 31
0.006134
  0
LINE
  5
12EA
330
2
100
AcDbEntity
  8
L-ZISSEN
100
AcDbLine
 10
379.0658789917869
 20
384.11329152607
 30
0.006134
 11
379.0658789917869
 21
397.61329152607
 31
0.006134
  0
LINE
  5
12EB
330
2
100
AcDbEntity
  8
L-ZISSEN
100
AcDbLine
 10
379.0658789917869
 20
397.61329152607
 30
0.006134
 11
375.0658789917869
 21
399.11329152607
 31
0.006134
  0
LINE
  5
12EC
330
2
100
AcDbEntity
  8
L-ZISSEN
100
AcDbLine
 10
360.0658919917869
 20
394.90197252607
 30
0.006134
 11
361.2644589917869
 21
395.59396552607
 31
0.006134
  0
LINE
  5
12ED
330
2
100
AcDbEntity
  8
L-ZISSEN
100
AcDbLine
 10
359.5658769917869
 20
394.03594452607
 30
0.006134
 11
359.5658769917869
 21
384.61331052607
 31
0.006134
  0
ARC
  5
12EE
330
2
100
AcDbEntity
  8
L-ZISSEN
100
AcDbCircle
 10
360.5658769917869
 20
394.03594452607
 30
0.006134
 40
1.0
100
AcDbArc
 50
120.000067000002
 51
180.0
  0
ARC
  5
12EF
330
2
100
AcDbEntity
  8
L-ZISSEN
100
AcDbCircle
 10
360.5658769917869
 20
394.03594452607
 30
0.006134
 40
1.0
100
AcDbArc
 50
120.0000119999982
 51
180.0
  0
LINE
  5
12F0
330
2
100
AcDbEntity
  8
L-ZISSEN
100
AcDbLine
 10
375.0658789917869
 20
399.11329152607
 30
0.006134
 11
375.0658789917869
 21
415.11329152607
 31
0.006134
  0
LINE
  5
12F1
330
2
100
AcDbEntity
  8
L-ZISSEN
100
AcDbLine
 10
379.0658789917869
 20
416.61329152607
 30
0.006134
 11
375.0658789917869
 21
415.11329152607
 31
0.006134
  0
LINE
  5
12F2
330
2
100
AcDbEntity
  8
L-ZISSEN
100
AcDbLine
 10
381.5328699917869
 20
436.11325652607
 30
0.006134
 11
381.5328699917869
 21
429.11329152607
 31
0.006134
  0
LINE
  5
12F3
330
2
100
AcDbEntity
  8
L-ZISSEN
100
AcDbLine
 10
379.0658789917869
 20
429.11329152607
 30
0.006134
 11
379.0658789917869
 21
416.61329152607
 31
0.006134
  0
ARC
  5
12F5
330
2
100
AcDbEntity
  8
L-ZISSEN
100
AcDbCircle
 10
360.5658769917869
 20
425.19063852607
 30
0.006134
 40
1.0
100
AcDbArc
 50
180.0
 51
239.9999899999992
  0
LINE
  5
12F6
330
2
100
AcDbEntity
  8
L-ZISSEN
100
AcDbLine
 10
360.0658889917869
 20
424.32461752607
 30
0.006134
 11
361.2644589917869
 21
423.63262252607
 31
0.006134
  0
LINE
  5
12F7
330
2
100
AcDbEntity
  8
L-ZISSEN
100
AcDbLine
 10
378.0658789917869
 20
476.17725652607
 30
0.006134
 11
378.0658789917869
 21
488.27725652607
 31
0.006134
  0
LINE
  5
12F8
330
2
100
AcDbEntity
  8
L-ZISSEN
100
AcDbLine
 10
380.0658789917869
 20
453.81325652607
 30
0.006134
 11
380.0658789917869
 21
473.67725652607
 31
0.006134
  0
LINE
  5
12F9
330
2
100
AcDbEntity
  8
L-ZISSEN
100
AcDbLine
 10
381.265878991787
 20
473.67725652607
 30
0.006134
 11
381.265878991787
 21
476.17725652607
 31
0.006134
  0
LINE
  5
12FB
330
2
100
AcDbEntity
  8
L-ZISSEN
100
AcDbLine
 10
382.0658789917869
 20
488.27725652607
 30
0.006134
 11
382.0658789917869
 21
501.17725652607
 31
0.006134
  0
LINE
  5
12FD
330
2
100
AcDbEntity
  8
L-ZISSEN
100
AcDbLine
 10
433.6731269917869
 20
395.12871952607
 30
0.006134
 11
433.6731349917869
 21
424.0978635260701
 31
0.006134
  0
LINE
  5
12FE
330
2
100
AcDbEntity
  8
L-ZISSEN
100
AcDbLine
 10
434.1731309917869
 20
399.61329152607
 30
0.006134
 11
434.1731349917869
 21
419.61328352607
 31
0.006134
  0
LINE
  5
12FF
330
2
100
AcDbEntity
  8
L-ZISSEN
100
AcDbLine
 10
415.0658789917869
 20
384.11329152607
 30
0.006134
 11
379.0658789917869
 21
384.11329152607
 31
0.006134
  0
LINE
  5
1300
330
2
100
AcDbEntity
  8
L-ZISSEN
100
AcDbLine
 10
434.5658769917869
 20
394.03594452607
 30
0.006134
 11
434.5658769917869
 21
384.61329552607
 31
0.006134
  0
LINE
  5
1302
330
2
100
AcDbEntity
  8
L-ZISSEN
100
AcDbLine
 10
434.0658769917869
 20
394.90196452607
 30
0.006134
 11
433.6731269917869
 21
395.12871952607
 31
0.006134
  0
ARC
  5
1303
330
2
100
AcDbEntity
  8
L-ZISSEN
100
AcDbCircle
 10
433.5658769917869
 20
394.03594452607
 30
0.006134
 40
1.0
100
AcDbArc
 50
0.0000400000007688
 51
60.00001999999839
  0
LINE
  5
1304
330
2
100
AcDbEntity
  8
L-ZISSEN
100
AcDbLine
 10
433.6731159917869
 20
399.61329952607
 30
0.006134
 11
434.1731159917869
 21
399.61329952607
 31
0.006134
  0
LINE
  5
1305
330
2
100
AcDbEntity
  8
L-ZISSEN
100
AcDbLine
 10
415.0658789917869
 20
384.11329152607
 30
0.006134
 11
415.0658789917869
 21
397.61329152607
 31
0.006134
  0
LINE
  5
1306
330
2
100
AcDbEntity
  8
L-ZISSEN
100
AcDbLine
 10
415.0658789917869
 20
397.61329152607
 30
0.006134
 11
419.0658789917869
 21
399.11329152607
 31
0.006134
  0
LINE
  5
1307
330
2
100
AcDbEntity
  8
L-ZISSEN
100
AcDbLine
 10
415.0658789917869
 20
384.61331052607
 30
0.006134
 11
436.5963274373786
 21
384.61331052607
 31
0.006134
  0
LINE
  5
1308
330
2
100
AcDbEntity
  8
L-ZISSEN
100
AcDbLine
 10
419.0658789917869
 20
399.11329152607
 30
0.006134
 11
419.0658789917869
 21
415.11329152607
 31
0.006134
  0
LINE
  5
1309
330
2
100
AcDbEntity
  8
L-ZISSEN
100
AcDbLine
 10
412.5988879917869
 20
436.11325652607
 30
0.006134
 11
412.5988879917869
 21
429.11329152607
 31
0.006134
  0
LINE
  5
130A
330
2
100
AcDbEntity
  8
L-ZISSEN
100
AcDbLine
 10
434.5658789917869
 20
453.81325652607
 30
0.006134
 11
434.5658769917869
 21
425.19063852607
 31
0.006134
  0
LINE
  5
130B
330
2
100
AcDbEntity
  8
L-ZISSEN
100
AcDbLine
 10
433.6731119917869
 20
419.61329152607
 30
0.006134
 11
434.1731119917869
 21
419.61329152607
 31
0.006134
  0
ARC
  5
130C
330
2
100
AcDbEntity
  8
L-ZISSEN
100
AcDbCircle
 10
433.5658769917869
 20
425.19063852607
 30
0.006134
 40
1.0
100
AcDbArc
 50
299.9999700000001
 51
0.000019999998756
  0
LINE
  5
130D
330
2
100
AcDbEntity
  8
L-ZISSEN
100
AcDbLine
 10
434.0658729917869
 20
424.32461052607
 30
0.006134
 11
433.6731349917869
 21
424.0978635260701
 31
0.006134
  0
LINE
  5
130E
330
2
100
AcDbEntity
  8
L-ZISSEN
100
AcDbLine
 10
415.0658789917869
 20
429.11329152607
 30
0.006134
 11
415.0658789917869
 21
416.61329152607
 31
0.006134
  0
LINE
  5
130F
330
2
100
AcDbEntity
  8
L-ZISSEN
100
AcDbLine
 10
415.0658789917869
 20
416.61329152607
 30
0.006134
 11
419.0658789917869
 21
415.11329152607
 31
0.006134
  0
LINE
  5
1310
330
2
100
AcDbEntity
  8
L-ZISSEN
100
AcDbLine
 10
416.0658789917869
 20
476.17725652607
 30
0.006134
 11
416.0658789917869
 21
488.27725652607
 31
0.006134
  0
LINE
  5
1311
330
2
100
AcDbEntity
  8
L-ZISSEN
100
AcDbLine
 10
414.0658789917869
 20
453.81325652607
 30
0.006134
 11
414.0658789917869
 21
473.67725652607
 31
0.006134
  0
LINE
  5
1312
330
2
100
AcDbEntity
  8
L-ZISSEN
100
AcDbLine
 10
412.8658789917869
 20
473.67725652607
 30
0.006134
 11
412.8658789917869
 21
476.17725652607
 31
0.006134
  0
LINE
  5
1313
330
2
100
AcDbEntity
  8
L-ZISSEN
100
AcDbLine
 10
434.5658789917869
 20
453.81325652607
 30
0.006134
 11
359.5658789917869
 21
453.81325652607
 31
0.006134
  0
LINE
  5
1314
330
2
100
AcDbEntity
  8
L-ZISSEN
100
AcDbLine
 10
412.0658789917869
 20
488.27725652607
 30
0.006134
 11
412.0658789917869
 21
501.17725652607
 31
0.006134
  0
LINE
  5
1315
330
2
100
AcDbEntity
  8
L-ZISSEN
100
AcDbLine
 10
407.0658789917869
 20
501.17725652607
 30
0.006134
 11
407.0658789917869
 21
502.9772565260701
 31
0.006134
  0
LINE
  5
1316
330
2
100
AcDbEntity
  8
L-ZISSEN
100
AcDbLine
 10
410.3158789917869
 20
515.1772565260701
 30
0.006134
 11
410.3158789917869
 21
502.9772565260701
 31
0.006134
  0
LINE
  5
1317
330
2
100
AcDbEntity
  8
L-ZISSEN
100
AcDbLine
 10
387.0658789917869
 20
501.17725652607
 30
0.006134
 11
387.0658789917869
 21
502.9772565260701
 31
0.006134
  0
LINE
  5
1318
330
2
100
AcDbEntity
  8
L-ZISSEN
100
AcDbLine
 10
383.8158789917869
 20
515.1772565260701
 30
0.006134
 11
383.8158789917869
 21
502.9772565260701
 31
0.006134
  0
LINE
  5
1319
330
2
100
AcDbEntity
  8
L-ZISSEN
100
AcDbLine
 10
383.3158789917869
 20
515.1772565260701
 30
0.006134
 11
410.8158789917869
 21
515.1772565260701
 31
0.006134
  0
LINE
  5
131A
330
2
100
AcDbEntity
  8
L-ZISSEN
100
AcDbLine
 10
383.8158789917869
 20
502.9772565260701
 30
0.006134
 11
410.3158789917869
 21
502.9772565260701
 31
0.006134
  0
LINE
  5
131B
330
2
100
AcDbEntity
  8
L-ZISSEN
100
AcDbLine
 10
409.5658789917869
 20
519.1772565260701
 30
0.006134
 11
409.5658789917869
 21
521.1772565260701
 31
0.006134
  0
LINE
  5
131C
330
2
100
AcDbEntity
  8
L-ZISSEN
100
AcDbLine
 10
384.5658789917869
 20
519.1772565260701
 30
0.006134
 11
384.5658789917869
 21
521.1772565260701
 31
0.006134
  0
LINE
  5
131D
330
2
100
AcDbEntity
  8
L-ZISSEN
100
AcDbLine
 10
383.3158789917869
 20
519.1772565260701
 30
0.006134
 11
410.8158789917869
 21
519.1772565260701
 31
0.006134
  0
LINE
  5
131E
330
2
100
AcDbEntity
  8
L-ZISSEN
100
AcDbLine
 10
384.5658789917869
 20
521.1772565260701
 30
0.006134
 11
409.5658789917869
 21
521.1772565260701
 31
0.006134
  0
LINE
  5
131F
330
2
100
AcDbEntity
  8
L-ZISSEN
100
AcDbLine
 10
572.0658789917869
 20
429.61325652607
 30
0.0
 11
572.0658789917869
 21
384.78233652607
 31
0.0
  0
LINE
  5
1320
330
2
100
AcDbEntity
  8
L-ZISSEN
100
AcDbLine
 10
567.0658789917869
 20
429.61325652607
 30
0.0
 11
567.0826877655413
 21
384.78233652607
 31
0.0
  0
LINE
  5
1321
330
2
100
AcDbEntity
  8
L-TYUSIN
100
AcDbLine
 10
607.0658789917869
 20
458.81325652607
 30
0.0
 11
607.0658789917869
 21
233.11329152607
 31
0.0
  0
ARC
  5
1322
330
2
100
AcDbEntity
  8
L-ZISSEN
100
AcDbCircle
 10
635.8225789917869
 20
270.29295252607
 30
0.0
 40
4.999998000000001
100
AcDbArc
 50
344.9999800000004
 51
359.4999100000001
  0
ARC
  5
1323
330
2
100
AcDbEntity
  8
L-ZISSEN
100
AcDbCircle
 10
578.3090389917869
 20
270.29301352607
 30
0.0
 40
4.999998000000001
100
AcDbArc
 50
180.4998999999996
 51
195.0000100000004
  0
LINE
  5
1324
330
2
100
AcDbEntity
  8
L-ZISSEN
100
AcDbLine
 10
579.8307689917871
 20
259.61332152607
 30
0.0
 11
634.300740991787
 21
259.61332152607
 31
0.0
  0
LINE
  5
1325
330
2
100
AcDbEntity
  8
L-ZISSEN
100
AcDbLine
 10
573.479388991787
 20
268.99898052607
 30
0.0
 11
575.0012589917869
 21
263.31928552607
 31
0.0
  0
ARC
  5
1326
330
2
100
AcDbEntity
  8
L-ZISSEN
100
AcDbCircle
 10
579.8307689917871
 20
264.61332552607
 30
0.0
 40
4.999998000000001
100
AcDbArc
 50
195.0000599999999
 51
270.0000199999996
  0
LINE
  5
1327
330
2
100
AcDbEntity
  8
L-ZISSEN
100
AcDbLine
 10
616.5658889917869
 20
257.90009552607
 30
0.0
 11
616.0658889917869
 21
258.40009552607
 31
0.0
  0
LINE
  5
1328
330
2
100
AcDbEntity
  8
L-ZISSEN
100
AcDbLine
 10
614.2824639917869
 20
259.61332152607
 30
0.0
 11
614.2824639917869
 21
258.40008052607
 31
0.0
  0
LINE
  5
132A
330
2
100
AcDbEntity
  8
L-ZISSEN
100
AcDbLine
 10
599.849293991787
 20
259.61332152607
 30
0.0
 11
599.849293991787
 21
258.40008052607
 31
0.0
  0
LINE
  5
132B
330
2
100
AcDbEntity
  8
L-ZISSEN
100
AcDbLine
 10
615.065848991787
 20
241.90014152607
 30
0.0
 11
616.2368889917869
 21
242.32636552607
 31
0.0
  0
ARC
  5
132C
330
2
100
AcDbEntity
  8
L-ZISSEN
100
AcDbCircle
 10
616.0658889917869
 20
242.79616752607
 30
0.0
 40
0.5
100
AcDbArc
 50
290.0001200000092
 51
0.0003549999999047
  0
LINE
  5
132D
330
2
100
AcDbEntity
  8
L-ZISSEN
100
AcDbLine
 10
610.015878991787
 20
238.11329152607
 30
0.0
 11
610.015878991787
 21
239.81341052607
 31
0.0
  0
LINE
  5
132E
330
2
100
AcDbEntity
  8
L-ZISSEN
100
AcDbLine
 10
610.4159289917869
 20
240.50625852607
 30
0.0
 11
610.0159189917871
 21
239.81343352607
 31
0.0
  0
LINE
  5
132F
330
2
100
AcDbEntity
  8
L-ZISSEN
100
AcDbLine
 10
610.4158889917869
 20
240.50623552607
 30
0.0
 11
610.4158889917869
 21
241.90009552607
 31
0.0
  0
LINE
  5
1330
330
2
100
AcDbEntity
  8
L-ZISSEN
100
AcDbLine
 10
604.115878991787
 20
238.11329152607
 30
0.0
 11
604.115878991787
 21
239.81341052607
 31
0.0
  0
LINE
  5
1331
330
2
100
AcDbEntity
  8
L-ZISSEN
100
AcDbLine
 10
603.7158289917869
 20
240.50625852607
 30
0.0
 11
604.115838991787
 21
239.81343352607
 31
0.0
  0
LINE
  5
1332
330
2
100
AcDbEntity
  8
L-ZISSEN
100
AcDbLine
 10
603.715868991787
 20
240.50623552607
 30
0.0
 11
603.715868991787
 21
241.90009552607
 31
0.0
  0
LINE
  5
1333
330
2
100
AcDbEntity
  8
L-ZISSEN
100
AcDbLine
 10
610.015878991787
 20
239.81341052607
 30
0.0
 11
604.115878991787
 21
239.81341052607
 31
0.0
  0
LINE
  5
1334
330
2
100
AcDbEntity
  8
L-ZISSEN
100
AcDbLine
 10
610.4158889917869
 20
240.50623552607
 30
0.0
 11
603.715841991787
 21
240.50623552607
 31
0.0
  0
LINE
  5
1335
330
2
100
AcDbEntity
  8
L-ZISSEN
100
AcDbLine
 10
615.065848991787
 20
241.90009552607
 30
0.0
 11
599.065938991787
 21
241.90009552607
 31
0.0
  0
LINE
  5
1336
330
2
100
AcDbEntity
  8
L-ZISSEN
100
AcDbLine
 10
610.015878991787
 20
238.11329152607
 30
0.0
 11
604.115878991787
 21
238.11329152607
 31
0.0
  0
LINE
  5
1337
330
2
100
AcDbEntity
  8
L-ZISSEN
100
AcDbLine
 10
616.5658889917869
 20
257.90008052607
 30
0.0
 11
616.5658889917869
 21
242.79616752607
 31
0.0
  0
LINE
  5
1338
330
2
100
AcDbEntity
  8
L-ZISSEN
100
AcDbLine
 10
598.065908991787
 20
258.40010352607
 30
0.0
 11
597.565928991787
 21
257.90011052607
 31
0.0
  0
ARC
  5
1339
330
2
100
AcDbEntity
  8
L-ZISSEN
100
AcDbCircle
 10
598.0658889917869
 20
242.79616752607
 30
0.0
 40
0.5
100
AcDbArc
 50
179.9996399999996
 51
249.9998400000105
  0
LINE
  5
133A
330
2
100
AcDbEntity
  8
L-ZISSEN
100
AcDbLine
 10
597.5658889917869
 20
242.79616752607
 30
0.0
 11
597.5658889917869
 21
257.90008052607
 31
0.0
  0
LINE
  5
133B
330
2
100
AcDbEntity
  8
L-ZISSEN
100
AcDbLine
 10
597.894918991787
 20
242.32636552607
 30
0.0
 11
599.065938991787
 21
241.90014852607
 31
0.0
  0
LINE
  5
133C
330
2
100
AcDbEntity
  8
L-ZISSEN
100
AcDbLine
 10
598.0658789917869
 20
258.40008052607
 30
0.0
 11
616.0658889917869
 21
258.40009552607
 31
0.0
  0
LINE
  5
133D
330
2
100
AcDbEntity
  8
L-ZISSEN
100
AcDbLine
 10
640.6522049917869
 20
268.99884252607
 30
0.0
 11
639.1303549917869
 21
263.31920852607
 31
0.0
  0
ARC
  5
133E
330
2
100
AcDbEntity
  8
L-ZISSEN
100
AcDbCircle
 10
634.300738991787
 20
264.61332552607
 30
0.0
 40
4.999998000000001
100
AcDbArc
 50
270.0000199999996
 51
344.9999699999999
  0
LINE
  5
133F
330
2
100
AcDbEntity
  8
L-TYUSIN
 48
0.5
100
AcDbLine
 10
661.065878991787
 20
407.11329152607
 30
0.0
 11
562.0658789917869
 21
407.11329152607
 31
0.0
  0
LINE
  5
1340
330
2
100
AcDbEntity
  8
L-ZISSEN
100
AcDbLine
 10
636.4648149917871
 20
354.78162452607
 30
0.0
 11
636.4648149917871
 21
334.91717652607
 31
0.0
  0
LINE
  5
1341
330
2
100
AcDbEntity
  8
L-ZISSEN
100
AcDbLine
 10
624.474091991787
 20
334.91717652607
 30
0.0
 11
624.474091991787
 21
354.78162452607
 31
0.0
  0
LINE
  5
1342
330
2
100
AcDbEntity
  8
L-ZISSEN
100
AcDbLine
 10
577.666942991787
 20
354.78162452607
 30
0.0
 11
577.666942991787
 21
334.91717652607
 31
0.0
  0
LINE
  5
1343
330
2
100
AcDbEntity
  8
L-ZISSEN
100
AcDbLine
 10
589.657665991787
 20
334.91717652607
 30
0.0
 11
589.657665991787
 21
354.78162452607
 31
0.0
  0
LINE
  5
1344
330
2
100
AcDbEntity
  8
L-ZISSEN
100
AcDbLine
 10
641.632972991787
 20
363.11329552607
 30
0.0
 11
640.822546991787
 21
270.24927352607
 31
0.0
  0
LINE
  5
1345
330
2
100
AcDbEntity
  8
L-ZISSEN
100
AcDbLine
 10
589.657665991787
 20
282.89123652607
 30
0.0
 11
589.657665991787
 21
329.24161752607
 31
0.0
  0
LINE
  5
1346
330
2
100
AcDbEntity
  8
L-ZISSEN
100
AcDbLine
 10
577.666942991787
 20
329.24161752607
 30
0.0
 11
577.666942991787
 21
282.89123652607
 31
0.0
  0
LINE
  5
1347
330
2
100
AcDbEntity
  8
L-ZISSEN
100
AcDbLine
 10
577.666942991787
 20
282.89123652607
 30
0.0
 11
589.657665991787
 21
282.89123652607
 31
0.0
  0
LINE
  5
1348
330
2
100
AcDbEntity
  8
L-ZISSEN
100
AcDbLine
 10
577.666942991787
 20
334.91717652607
 30
0.0
 11
589.657665991787
 21
334.91717652607
 31
0.0
  0
LINE
  5
1349
330
2
100
AcDbEntity
  8
L-ZISSEN
100
AcDbLine
 10
589.657665991787
 20
329.24161752607
 30
0.0
 11
577.666942991787
 21
329.24161752607
 31
0.0
  0
LINE
  5
134A
330
2
100
AcDbEntity
  8
L-ZISSEN
100
AcDbLine
 10
636.4648149917871
 20
329.24161752607
 30
0.0
 11
636.4648149917871
 21
282.89123652607
 31
0.0
  0
LINE
  5
134B
330
2
100
AcDbEntity
  8
L-ZISSEN
100
AcDbLine
 10
624.474091991787
 20
282.89123652607
 30
0.0
 11
624.474091991787
 21
329.24161752607
 31
0.0
  0
LINE
  5
134C
330
2
100
AcDbEntity
  8
L-ZISSEN
100
AcDbLine
 10
636.4648149917871
 20
282.89123652607
 30
0.0
 11
624.474091991787
 21
282.89123652607
 31
0.0
  0
LINE
  5
134D
330
2
100
AcDbEntity
  8
L-ZISSEN
100
AcDbLine
 10
636.4648149917871
 20
334.91717652607
 30
0.0
 11
624.474091991787
 21
334.91717652607
 31
0.0
  0
LINE
  5
134E
330
2
100
AcDbEntity
  8
L-ZISSEN
100
AcDbLine
 10
624.474091991787
 20
329.24161752607
 30
0.0
 11
636.4648149917871
 21
329.24161752607
 31
0.0
  0
LINE
  5
134F
330
2
100
AcDbEntity
  8
L-ZISSEN
100
AcDbLine
 10
568.0655724552532
 20
367.11329552607
 30
0.0
 11
646.0654815900955
 21
367.11329552607
 31
0.0
  0
LINE
  5
1350
330
2
100
AcDbEntity
  8
L-ZISSEN
100
AcDbLine
 10
613.5658789917869
 20
363.11329552607
 30
0.0
 11
645.5657409917869
 21
363.11329552607
 31
0.0
  0
LINE
  5
1351
330
2
100
AcDbEntity
  8
L-ZISSEN
100
AcDbLine
 10
567.5301444368552
 20
384.78233652607
 30
0.0
 11
568.0655724552532
 21
367.11329552607
 31
0.0
  0
LINE
  5
1352
330
2
100
AcDbEntity
  8
L-ZISSEN
100
AcDbLine
 10
568.5658789917869
 20
363.11329552607
 30
0.0
 11
600.5658789917869
 21
363.11329552607
 31
0.0
  0
LINE
  5
1355
330
2
100
AcDbEntity
  8
L-ZISSEN
100
AcDbLine
 10
589.657665991787
 20
354.78162452607
 30
0.0
 11
577.666942991787
 21
354.78162452607
 31
0.0
  0
LINE
  5
1357
330
2
100
AcDbEntity
  8
L-ZISSEN
100
AcDbLine
 10
568.5658789917869
 20
367.11329552607
 30
0.0
 11
568.5658789917869
 21
363.11329552607
 31
0.0
  0
LINE
  5
1358
330
2
100
AcDbEntity
  8
L-ZISSEN
100
AcDbLine
 10
613.5658789917869
 20
342.48027852607
 30
0.0
 11
600.5658789917869
 21
342.48027852607
 31
0.0
  0
LINE
  5
1359
330
2
100
AcDbEntity
  8
L-ZISSEN
100
AcDbLine
 10
613.5658789917869
 20
367.11329552607
 30
0.0
 11
613.5658789917869
 21
342.48027852607
 31
0.0
  0
LINE
  5
135A
330
2
100
AcDbEntity
  8
L-ZISSEN
100
AcDbLine
 10
600.5658789917869
 20
367.11329552607
 30
0.0
 11
600.5658789917869
 21
342.48027852607
 31
0.0
  0
LINE
  5
135B
330
2
100
AcDbEntity
  8
L-ZISSEN
100
AcDbLine
 10
567.0826877655413
 20
384.78233652607
 30
0.0
 11
601.2627157887775
 21
384.78233652607
 31
0.0
  0
LINE
  5
1366
330
2
100
AcDbEntity
  8
L-ZISSEN
100
AcDbLine
 10
646.5957836853543
 20
384.61329152607
 30
0.0
 11
646.0654815900955
 21
367.11329552607
 31
0.0
  0
LINE
  5
136A
330
2
100
AcDbEntity
  8
L-ZISSEN
100
AcDbLine
 10
624.474091991787
 20
354.78162452607
 30
0.0
 11
636.4648149917871
 21
354.78162452607
 31
0.0
  0
LINE
  5
136B
330
2
100
AcDbEntity
  8
L-ZISSEN
100
AcDbLine
 10
645.5657409917869
 20
367.11329552607
 30
0.0
 11
645.5657409917869
 21
363.11329552607
 31
0.0
  0
LINE
  5
136D
330
2
100
AcDbEntity
  8
L-TYUSIN
100
AcDbLine
 10
597.0658789917869
 20
701.11329152607
 30
-0.0019821880853622
 11
597.0658789917869
 21
653.11329152607
 31
-0.0019821880853622
  0
LINE
  5
136E
330
2
100
AcDbEntity
  8
L-ZISSEN
100
AcDbLine
 10
567.0658789917869
 20
699.11329152607
 30
0.0
 11
567.0658789917869
 21
655.11329152607
 31
0.0
  0
CIRCLE
  5
136F
330
2
100
AcDbEntity
  8
L-ZISSEN
100
AcDbCircle
 10
597.0658789917869
 20
677.11329152607
 30
-0.0019821880853622
 40
15.0
  0
CIRCLE
  5
1370
330
2
100
AcDbEntity
  8
L-ZISSEN
100
AcDbCircle
 10
597.0658789917869
 20
677.11329152607
 30
-0.0019821880853622
 40
13.5
  0
CIRCLE
  5
1371
330
2
100
AcDbEntity
  8
L-ZISSEN
100
AcDbCircle
 10
597.0658789917869
 20
677.11329152607
 30
-0.0019821880853622
 40
11.5
  0
CIRCLE
  5
1372
330
2
100
AcDbEntity
  8
L-ZISSEN
100
AcDbCircle
 10
597.0658789917869
 20
677.11329152607
 30
-0.0019821880853622
 40
19.0
  0
ARC
  5
1373
330
2
100
AcDbEntity
  8
L-ZISSEN
100
AcDbCircle
 10
607.0658789917869
 20
677.11329152607
 30
0.0
 40
37.5
100
AcDbArc
 50
11.53695899999978
 51
348.4630409999999
  0
LINE
  5
1374
330
2
100
AcDbEntity
  8
L-TYUSIN
100
AcDbLine
 10
607.0658789917869
 20
719.61329152607
 30
0.0
 11
607.0658789917871
 21
594.61329152607
 31
0.0
  0
LINE
  5
1375
330
2
100
AcDbEntity
  8
L-ZISSEN
100
AcDbLine
 10
642.565878991787
 20
479.01325652607
 30
0.0
 11
644.565878991787
 21
481.01325652607
 31
0.0
  0
LINE
  5
1376
330
2
100
AcDbEntity
  8
L-TYUSIN
100
AcDbLine
 10
663.565878991787
 20
485.51325652607
 30
0.0
 11
663.565878991787
 21
456.01325652607
 31
0.0
  0
LINE
  5
1377
330
2
100
AcDbEntity
  8
L-ZISSEN
100
AcDbLine
 10
656.565878991787
 20
480.51325652607
 30
0.0
 11
656.565878991787
 21
472.01325652607
 31
0.0
  0
LINE
  5
1378
330
2
100
AcDbEntity
  8
L-ZISSEN
100
AcDbLine
 10
670.5658789917869
 20
480.51325652607
 30
0.0
 11
670.5658789917869
 21
472.01325652607
 31
0.0
  0
LINE
  5
137A
330
2
100
AcDbEntity
  8
L-ZISSEN
100
AcDbLine
 10
618.5658789917869
 20
499.0132565260701
 30
0.0
 11
618.5658789917869
 21
472.01325652607
 31
0.0
  0
LINE
  5
137C
330
2
100
AcDbEntity
  8
L-ZISSEN
100
AcDbLine
 10
615.5658789917869
 20
472.01325652607
 30
0.0
 11
642.565878991787
 21
472.01325652607
 31
0.0
  0
LINE
  5
137D
330
2
100
AcDbEntity
  8
L-ZISSEN
100
AcDbLine
 10
644.565878991787
 20
436.11325652607
 30
0.0
 11
569.5658789917869
 21
436.11325652607
 31
0.0
  0
LINE
  5
137E
330
2
100
AcDbEntity
  8
L-ZISSEN
100
AcDbLine
 10
569.5658789917869
 20
436.81325652607
 30
0.0
 11
644.565878991787
 21
436.81325652607
 31
0.0
  0
LINE
  5
137F
330
2
100
AcDbEntity
  8
L-ZISSEN
100
AcDbLine
 10
569.5658789917869
 20
453.81325652607
 30
0.0
 11
569.5658789917869
 21
429.61325652607
 31
0.0
  0
LINE
  5
138A
330
2
100
AcDbEntity
  8
L-ZISSEN
100
AcDbLine
 10
572.0658789917869
 20
429.61325652607
 30
0.0
 11
567.0658789917869
 21
429.61325652607
 31
0.0
  0
LINE
  5
138B
330
2
100
AcDbEntity
  8
L-ZISSEN
100
AcDbLine
 10
580.0658789917869
 20
473.81325652607
 30
0.0
 11
614.0658789917869
 21
473.81325652607
 31
0.0
  0
LINE
  5
138C
330
2
100
AcDbEntity
  8
L-ZISSEN
100
AcDbLine
 10
580.0658789917869
 20
453.81325652607
 30
0.0
 11
580.0658789917869
 21
473.81325652607
 31
0.0
  0
LINE
  5
138E
330
2
100
AcDbEntity
  8
L-ZISSEN
100
AcDbLine
 10
569.5658789917869
 20
453.81325652607
 30
0.0
 11
644.565878991787
 21
453.81325652607
 31
0.0
  0
LINE
  5
1390
330
2
100
AcDbEntity
  8
L-ZISSEN
100
AcDbLine
 10
615.5658789917869
 20
472.01325652607
 30
0.0
 11
615.5658789917869
 21
453.81325652607
 31
0.0
  0
LINE
  5
1391
330
2
100
AcDbEntity
  8
L-ZISSEN
100
AcDbLine
 10
614.0658789917869
 20
453.81325652607
 30
0.0
 11
614.0658789917869
 21
473.81325652607
 31
0.0
  0
LINE
  5
1392
330
2
100
AcDbEntity
  8
L-ZISSEN
100
AcDbLine
 10
612.865878991787
 20
473.8132566832328
 30
-0.0019821880853622
 11
612.865878991787
 21
476.3132566832328
 31
-0.0019821880853622
  0
LINE
  5
1393
330
2
100
AcDbEntity
  8
L-ZISSEN
100
AcDbLine
 10
644.565878991787
 20
453.81325652607
 30
0.0
 11
644.565878991787
 21
429.61325652607
 31
0.0
  0
LINE
  5
1395
330
2
100
AcDbEntity
  8
L-ZISSEN
100
AcDbLine
 10
642.565878991787
 20
479.01325652607
 30
0.0
 11
642.565878991787
 21
453.81325652607
 31
0.0
  0
LINE
  5
1397
330
2
100
AcDbEntity
  8
L-ZISSEN
100
AcDbLine
 10
671.071431991787
 20
461.31325652607
 30
0.0
 11
671.071431991787
 21
465.51325652607
 31
0.0
  0
LINE
  5
1398
330
2
100
AcDbEntity
  8
L-ZISSEN
100
AcDbLine
 10
670.065878991787
 20
471.51325652607
 30
0.0
 11
657.065878991787
 21
471.51325652607
 31
0.0
  0
LINE
  5
1399
330
2
100
AcDbEntity
  8
L-ZISSEN
100
AcDbLine
 10
670.771431991787
 20
461.01325652607
 30
0.0
 11
656.360325991787
 21
461.01325652607
 31
0.0
  0
ARC
  5
139A
330
2
100
AcDbEntity
  8
L-ZISSEN
100
AcDbCircle
 10
657.065878991787
 20
472.01325652607
 30
0.0
 40
0.5
100
AcDbArc
 50
180.0
 51
270.0
  0
LINE
  5
139B
330
2
100
AcDbEntity
  8
L-ZISSEN
100
AcDbLine
 10
657.265878991787
 20
471.51325652607
 30
0.0
 11
657.265878991787
 21
465.51325652607
 31
0.0
  0
ARC
  5
139C
330
2
100
AcDbEntity
  8
L-ZISSEN
100
AcDbCircle
 10
656.360325991787
 20
461.31325652607
 30
0.0
 40
0.3
100
AcDbArc
 50
180.0
 51
270.0
  0
LINE
  5
139D
330
2
100
AcDbEntity
  8
L-ZISSEN
100
AcDbLine
 10
656.060325991787
 20
461.31325652607
 30
0.0
 11
656.060325991787
 21
465.51325652607
 31
0.0
  0
LINE
  5
139E
330
2
100
AcDbEntity
  8
L-ZISSEN
100
AcDbLine
 10
669.865878991787
 20
471.51325652607
 30
0.0
 11
669.865878991787
 21
465.51325652607
 31
0.0
  0
ARC
  5
139F
330
2
100
AcDbEntity
  8
L-ZISSEN
100
AcDbCircle
 10
670.065878991787
 20
472.01325652607
 30
0.0
 40
0.5
100
AcDbArc
 50
270.0
 51
0.0
  0
LINE
  5
13A0
330
2
100
AcDbEntity
  8
L-ZISSEN
100
AcDbLine
 10
671.071431991787
 20
465.51325652607
 30
0.0
 11
656.060325991787
 21
465.51325652607
 31
0.0
  0
ARC
  5
13A1
330
2
100
AcDbEntity
  8
L-ZISSEN
100
AcDbCircle
 10
670.771431991787
 20
461.31325652607
 30
0.0
 40
0.3
100
AcDbArc
 50
270.0
 51
0.0
  0
LINE
  5
13A2
330
2
100
AcDbEntity
  8
L-ZISSEN
100
AcDbLine
 10
620.5658789917869
 20
501.0132565260701
 30
0.0
 11
640.565878991787
 21
501.0132565260701
 31
0.0
  0
LINE
  5
13A3
330
2
100
AcDbEntity
  8
L-ZISSEN
100
AcDbLine
 10
642.565878991787
 20
497.0132565260701
 30
0.0
 11
618.4919589917869
 21
497.0132565260701
 31
0.0
  0
LINE
  5
13A4
330
2
100
AcDbEntity
  8
L-ZISSEN
100
AcDbLine
 10
618.5658789917869
 20
499.0132565260701
 30
0.0
 11
620.5658789917869
 21
501.0132565260701
 31
0.0
  0
LINE
  5
13A5
330
2
100
AcDbEntity
  8
L-ZISSEN
100
AcDbLine
 10
668.565878991787
 20
496.0132565260701
 30
0.0
 11
644.565878991787
 21
496.0132565260701
 31
0.0
  0
LINE
  5
13A6
330
2
100
AcDbEntity
  8
L-ZISSEN
100
AcDbLine
 10
670.5658789917869
 20
480.51325652607
 30
0.0
 11
644.565878991787
 21
480.51325652607
 31
0.0
  0
LINE
  5
13A9
330
2
100
AcDbEntity
  8
L-ZISSEN
100
AcDbLine
 10
645.565878991787
 20
480.51325652607
 30
0.0
 11
645.565878991787
 21
496.0132565260701
 31
0.0
  0
LINE
  5
13AA
330
2
100
AcDbEntity
  8
L-ZISSEN
100
AcDbLine
 10
642.565878991787
 20
497.0132565260701
 30
0.0
 11
642.565878991787
 21
499.0132565260701
 31
0.0
  0
LINE
  5
13AB
330
2
100
AcDbEntity
  8
L-ZISSEN
100
AcDbLine
 10
642.565878991787
 20
497.0132565260701
 30
0.0
 11
644.565878991787
 21
495.8585555260699
 31
0.0
  0
LINE
  5
13AC
330
2
100
AcDbEntity
  8
L-ZISSEN
100
AcDbLine
 10
642.565878991787
 20
499.0132565260701
 30
0.0
 11
640.565878991787
 21
501.0132565260701
 31
0.0
  0
LINE
  5
13AD
330
2
100
AcDbEntity
  8
L-ZISSEN
100
AcDbLine
 10
644.565878991787
 20
480.51325652607
 30
0.0
 11
644.565878991787
 21
496.0132565260701
 31
0.0
  0
ARC
  5
13B0
330
2
100
AcDbEntity
  8
L-ZISSEN
100
AcDbCircle
 10
668.565878991787
 20
495.5132565260701
 30
0.0
 40
0.5
100
AcDbArc
 50
0.0
 51
90.0
  0
LINE
  5
13B1
330
2
100
AcDbEntity
  8
L-ZISSEN
100
AcDbLine
 10
670.5658789917869
 20
480.51325652607
 30
0.0
 11
669.065878991787
 21
483.11133252607
 31
0.0
  0
LINE
  5
13B2
330
2
100
AcDbEntity
  8
L-ZISSEN
100
AcDbLine
 10
669.065878991787
 20
495.5132565260701
 30
0.0
 11
669.065878991787
 21
480.51325652607
 31
0.0
  0
LINE
  5
13B4
330
2
100
AcDbEntity
  8
L-ZISSEN
100
AcDbLine
 10
569.0658789917869
 20
655.11329152607
 30
0.0
 11
570.521759991787
 21
659.11329152607
 31
0.0
  0
LINE
  5
13B5
330
2
100
AcDbEntity
  8
L-ZISSEN
100
AcDbLine
 10
567.0658789917869
 20
655.11329152607
 30
0.0
 11
569.0658789917869
 21
655.11329152607
 31
0.0
  0
LINE
  5
13B6
330
2
100
AcDbEntity
  8
L-ZISSEN
100
AcDbLine
 10
567.0658789917869
 20
659.11329152607
 30
0.0
 11
572.0328699917869
 21
659.11329152607
 31
0.0
  0
ARC
  5
13B7
330
2
100
AcDbEntity
  8
L-ZISSEN
100
AcDbCircle
 10
621.5658789917869
 20
672.61329152607
 30
0.0
 40
3.0
100
AcDbArc
 50
0.0
 51
90.0
  0
LINE
  5
13B8
330
2
100
AcDbEntity
  8
L-ZISSEN
100
AcDbLine
 10
642.565878991787
 20
668.11329152607
 30
0.0
 11
615.5658789917869
 21
668.11329152607
 31
0.0
  0
LINE
  5
13B9
330
2
100
AcDbEntity
  8
L-ZISSEN
100
AcDbLine
 10
642.565878991787
 20
686.11329152607
 30
0.0
 11
615.5658789917869
 21
686.11329152607
 31
0.0
  0
LINE
  5
13BA
330
2
100
AcDbEntity
  8
L-ZISSEN
100
AcDbLine
 10
636.565878991787
 20
682.61329152607
 30
0.0
 11
620.5658789917869
 21
682.61329152607
 31
0.0
  0
LINE
  5
13BB
330
2
100
AcDbEntity
  8
L-ZISSEN
100
AcDbLine
 10
644.565878991787
 20
669.61329152607
 30
0.0
 11
618.5658789917869
 21
669.61329152607
 31
0.0
  0
LINE
  5
13BC
330
2
100
AcDbEntity
  8
L-ZISSEN
100
AcDbLine
 10
644.565878991787
 20
684.61329152607
 30
0.0
 11
618.5658789917869
 21
684.61329152607
 31
0.0
  0
LINE
  5
13BD
330
2
100
AcDbEntity
  8
L-ZISSEN
100
AcDbLine
 10
569.0658789917869
 20
699.11329152607
 30
0.0
 11
570.521759991787
 21
695.11329152607
 31
0.0
  0
LINE
  5
13BF
330
2
100
AcDbEntity
  8
L-ZISSEN
100
AcDbLine
 10
567.0658789917869
 20
695.11329152607
 30
0.0
 11
572.0328699917869
 21
695.11329152607
 31
0.0
  0
LINE
  5
13C0
330
2
100
AcDbEntity
  8
L-ZISSEN
100
AcDbLine
 10
567.0658789917869
 20
699.11329152607
 30
0.0
 11
569.0658789917869
 21
699.11329152607
 31
0.0
  0
CIRCLE
  5
13C1
330
2
100
AcDbEntity
  8
L-ZISSEN
100
AcDbCircle
 10
621.5658789917869
 20
672.61329152607
 30
0.0
 40
2.25
  0
LINE
  5
13C2
330
2
100
AcDbEntity
  8
L-ZISSEN
100
AcDbLine
 10
621.565881991787
 20
675.61329152607
 30
0.0
 11
618.5658789917869
 21
675.61329152607
 31
0.0
  0
LINE
  5
13C3
330
2
100
AcDbEntity
  8
L-ZISSEN
100
AcDbLine
 10
615.5658789917869
 20
668.11329152607
 30
0.0
 11
615.5658789917869
 21
672.7831645071478
 31
0.0
  0
LINE
  5
13C4
330
2
100
AcDbEntity
  8
L-ZISSEN
100
AcDbLine
 10
618.5658789917869
 20
669.61329152607
 30
0.0
 11
618.5658789917869
 21
684.61329152607
 31
0.0
  0
LINE
  5
13C5
330
2
100
AcDbEntity
  8
L-ZISSEN
100
AcDbLine
 10
620.5658789917869
 20
682.61329152607
 30
0.0
 11
618.5658789917869
 21
684.61329152607
 31
0.0
  0
LINE
  5
13C6
330
2
100
AcDbEntity
  8
L-ZISSEN
100
AcDbLine
 10
620.5658789917869
 20
675.61329152607
 30
0.0
 11
620.5658789917869
 21
682.61329152607
 31
0.0
  0
LINE
  5
13C7
330
2
100
AcDbEntity
  8
L-ZISSEN
100
AcDbLine
 10
668.565878991787
 20
669.36329152607
 30
0.0
 11
644.565878991787
 21
669.36329152607
 31
0.0
  0
LINE
  5
13C8
330
2
100
AcDbEntity
  8
L-ZISSEN
100
AcDbLine
 10
668.565878991787
 20
684.86329152607
 30
0.0
 11
644.565878991787
 21
684.86329152607
 31
0.0
  0
LINE
  5
13CB
330
2
100
AcDbEntity
  8
L-ZISSEN
100
AcDbLine
 10
642.565878991787
 20
668.11329152607
 30
0.0
 11
642.565878991787
 21
686.11329152607
 31
0.0
  0
LINE
  5
13CC
330
2
100
AcDbEntity
  8
L-ZISSEN
100
AcDbLine
 10
642.565878991787
 20
669.61329152607
 30
0.0
 11
642.565878991787
 21
684.61329152607
 31
0.0
  0
LINE
  5
13CD
330
2
100
AcDbEntity
  8
L-ZISSEN
100
AcDbLine
 10
636.565878991787
 20
681.61329152607
 30
0.0
 11
636.565878991787
 21
684.61329152607
 31
0.0
  0
LINE
  5
13CE
330
2
100
AcDbEntity
  8
L-ZISSEN
100
AcDbLine
 10
640.565878991787
 20
671.61329152607
 30
0.0
 11
640.565878991787
 21
678.61329152607
 31
0.0
  0
LINE
  5
13CF
330
2
100
AcDbEntity
  8
L-ZISSEN
100
AcDbLine
 10
642.565878991787
 20
678.61329152607
 30
0.0
 11
639.565878991787
 21
678.61329152607
 31
0.0
  0
ARC
  5
13D0
330
2
100
AcDbEntity
  8
L-ZISSEN
100
AcDbCircle
 10
639.565878991787
 20
681.61329152607
 30
0.0
 40
3.0
100
AcDbArc
 50
180.0
 51
270.0
  0
CIRCLE
  5
13D1
330
2
100
AcDbEntity
  8
L-ZISSEN
100
AcDbCircle
 10
639.565878991787
 20
681.61329152607
 30
0.0
 40
2.25
  0
LINE
  5
13D2
330
2
100
AcDbEntity
  8
L-ZISSEN
100
AcDbLine
 10
624.5658789917869
 20
669.61329152607
 30
0.0
 11
624.5658789917869
 21
672.61329352607
 31
0.0
  0
LINE
  5
13D3
330
2
100
AcDbEntity
  8
L-ZISSEN
100
AcDbLine
 10
640.565878991787
 20
671.61329152607
 30
0.0
 11
624.5658789917869
 21
671.61329152607
 31
0.0
  0
LINE
  5
13D4
330
2
100
AcDbEntity
  8
L-ZISSEN
100
AcDbLine
 10
669.065878991787
 20
684.36329152607
 30
0.0
 11
669.065878991787
 21
669.86329152607
 31
0.0
  0
ARC
  5
13D5
330
2
100
AcDbEntity
  8
L-ZISSEN
100
AcDbCircle
 10
668.565878991787
 20
669.86329152607
 30
0.0
 40
0.5
100
AcDbArc
 50
270.0
 51
0.0
  0
ARC
  5
13D6
330
2
100
AcDbEntity
  8
L-ZISSEN
100
AcDbCircle
 10
668.565878991787
 20
684.36329152607
 30
0.0
 40
0.5
100
AcDbArc
 50
0.0
 51
90.0
  0
LINE
  5
13D7
330
2
100
AcDbEntity
  8
L-ZISSEN
100
AcDbLine
 10
649.065878991787
 20
699.11329152607
 30
0.0
 11
645.065878991787
 21
699.11329152607
 31
0.0
  0
LINE
  5
13D8
330
2
100
AcDbEntity
  8
L-ZISSEN
100
AcDbLine
 10
645.065878991787
 20
699.11329152607
 30
0.0
 11
643.6099979917869
 21
695.11329152607
 31
0.0
  0
LINE
  5
13D9
330
2
100
AcDbEntity
  8
L-ZISSEN
100
AcDbLine
 10
647.065878991787
 20
655.11329152607
 30
0.0
 11
645.065878991787
 21
655.11329152607
 31
0.0
  0
LINE
  5
13DA
330
2
100
AcDbEntity
  8
L-ZISSEN
100
AcDbLine
 10
645.065878991787
 20
655.11329152607
 30
0.0
 11
643.6099979917869
 21
659.11329152607
 31
0.0
  0
LINE
  5
13DC
330
2
100
AcDbEntity
  8
L-ZISSEN
100
AcDbLine
 10
414.0658789917869
 20
473.67725652607
 30
0.006134
 11
380.0658789917869
 21
473.67725652607
 31
0.006134
  0
LINE
  5
13DD
330
2
100
AcDbEntity
  8
L-ZISSEN
100
AcDbLine
 10
572.4987849917869
 20
363.11329552607
 30
0.0
 11
573.3092109917869
 21
270.24927352607
 31
0.0
  0
LINE
  5
13DE
330
2
100
AcDbEntity
  8
L-ZISSEN
100
AcDbLine
 10
622.5988879917869
 20
714.61329152607
 30
0.0
 11
644.565878991787
 21
692.64630052607
 31
0.0
  0
LINE
  5
13DF
330
2
100
AcDbEntity
  8
L-ZISSEN
100
AcDbLine
 10
644.565878991787
 20
692.64630052607
 30
0.0
 11
644.565878991787
 21
661.58028252607
 31
0.0
  0
LINE
  5
13E0
330
2
100
AcDbEntity
  8
L-ZISSEN
100
AcDbLine
 10
644.565878991787
 20
661.58028252607
 30
0.0
 11
622.5988879917869
 21
639.61329152607
 31
0.0
  0
LINE
  5
13E1
330
2
100
AcDbEntity
  8
L-ZISSEN
100
AcDbLine
 10
622.5988879917869
 20
639.61329152607
 30
0.0
 11
591.5328699917869
 21
639.61329152607
 31
0.0
  0
LINE
  5
13E2
330
2
100
AcDbEntity
  8
L-ZISSEN
100
AcDbLine
 10
591.5328699917869
 20
639.61329152607
 30
0.0
 11
569.5658789917869
 21
661.58028252607
 31
0.0
  0
LINE
  5
13E3
330
2
100
AcDbEntity
  8
L-ZISSEN
100
AcDbLine
 10
569.5658789917869
 20
661.58028252607
 30
0.0
 11
569.5658789917869
 21
692.64630052607
 31
0.0
  0
LINE
  5
13E4
330
2
100
AcDbEntity
  8
L-ZISSEN
100
AcDbLine
 10
569.5658789917869
 20
692.64630052607
 30
0.0
 11
591.5328699917869
 21
714.61329152607
 31
0.0
  0
LINE
  5
13E5
330
2
100
AcDbEntity
  8
L-ZISSEN
100
AcDbLine
 10
591.5328699917869
 20
714.61329152607
 30
0.0
 11
622.5988879917869
 21
714.61329152607
 31
0.0
  0
LINE
  5
13E6
330
2
100
AcDbEntity
  8
L-ZISSEN
100
AcDbLine
 10
379.0658789917869
 20
384.61331052607
 30
0.006134
 11
357.5357143443948
 21
384.61331052607
 31
0.006134
  0
LINE
  5
13E8
330
2
100
AcDbEntity
  8
L-ZISSEN
100
AcDbLine
 10
387.5658689917869
 20
257.90009552607
 30
0.0
 11
388.0658689917869
 21
258.40009552607
 31
0.0
  0
LINE
  5
13E9
330
2
100
AcDbEntity
  8
L-ZISSEN
100
AcDbLine
 10
406.0658489917869
 20
258.40010352607
 30
0.0
 11
406.5658289917869
 21
257.90011052607
 31
0.0
  0
LINE
  5
13EA
330
2
100
AcDbEntity
  8
L-ZISSEN
100
AcDbLine
 10
394.1158789917869
 20
239.81341052607
 30
0.0
 11
400.015878991787
 21
239.81341052607
 31
0.0
  0
LINE
  5
13EB
330
2
100
AcDbEntity
  8
L-ZISSEN
100
AcDbLine
 10
394.1158789917869
 20
238.11329152607
 30
0.0
 11
400.015878991787
 21
238.11329152607
 31
0.0
  0
LINE
  5
13EC
330
2
100
AcDbEntity
  8
L-ZISSEN
100
AcDbLine
 10
393.7158689917869
 20
240.50623552607
 30
0.0
 11
400.4159159917868
 21
240.50623552607
 31
0.0
  0
LINE
  5
13ED
330
2
100
AcDbEntity
  8
L-ZISSEN
100
AcDbLine
 10
389.0659089917868
 20
241.90009552607
 30
0.0
 11
405.0658189917868
 21
241.90009552607
 31
0.0
  0
LINE
  5
13EE
330
2
100
AcDbEntity
  8
L-ZISSEN
100
AcDbLine
 10
406.5658689917869
 20
242.79616752607
 30
0.0
 11
406.5658689917869
 21
257.90008052607
 31
0.0
  0
LINE
  5
13EF
330
2
100
AcDbEntity
  8
L-ZISSEN
100
AcDbLine
 10
406.236838991787
 20
242.32636552607
 30
0.0
 11
405.0658189917868
 21
241.90014852607
 31
0.0
  0
ARC
  5
13F0
330
2
100
AcDbEntity
  8
L-ZISSEN
100
AcDbCircle
 10
406.0658689917869
 20
242.79616752607
 30
0.0
 40
0.5
100
AcDbArc
 50
290.0001600000028
 51
0.000360000000408
  0
LINE
  5
13F1
330
2
100
AcDbEntity
  8
L-ZISSEN
100
AcDbLine
 10
400.4158889917869
 20
240.50623552607
 30
0.0
 11
400.4158889917869
 21
241.90009552607
 31
0.0
  0
LINE
  5
13F2
330
2
100
AcDbEntity
  8
L-ZISSEN
100
AcDbLine
 10
400.4159289917869
 20
240.50625852607
 30
0.0
 11
400.0159189917869
 21
239.81343352607
 31
0.0
  0
LINE
  5
13F3
330
2
100
AcDbEntity
  8
L-ZISSEN
100
AcDbLine
 10
400.0158789917868
 20
238.11329152607
 30
0.0
 11
400.015878991787
 21
239.81341052607
 31
0.0
  0
LINE
  5
13F4
330
2
100
AcDbEntity
  8
L-ZISSEN
100
AcDbLine
 10
387.5658689917869
 20
257.90008052607
 30
0.0
 11
387.5658689917869
 21
242.79616752607
 31
0.0
  0
ARC
  5
13F5
330
2
100
AcDbEntity
  8
L-ZISSEN
100
AcDbCircle
 10
388.0658689917869
 20
242.79616752607
 30
0.0
 40
0.5
100
AcDbArc
 50
179.9996450000001
 51
249.9998800000052
  0
LINE
  5
13F6
330
2
100
AcDbEntity
  8
L-ZISSEN
100
AcDbLine
 10
393.7158689917869
 20
240.50623552607
 30
0.0
 11
393.7158689917869
 21
241.90009552607
 31
0.0
  0
LINE
  5
13F7
330
2
100
AcDbEntity
  8
L-ZISSEN
100
AcDbLine
 10
393.7158289917869
 20
240.50625852607
 30
0.0
 11
394.115838991787
 21
239.81343352607
 31
0.0
  0
LINE
  5
13F8
330
2
100
AcDbEntity
  8
L-ZISSEN
100
AcDbLine
 10
394.1158789917869
 20
238.11329152607
 30
0.0
 11
394.1158789917869
 21
239.81341052607
 31
0.0
  0
LINE
  5
13F9
330
2
100
AcDbEntity
  8
L-ZISSEN
100
AcDbLine
 10
389.0659089917868
 20
241.90014152607
 30
0.0
 11
387.8948689917869
 21
242.32636552607
 31
0.0
  0
LINE
  5
13FA
330
2
100
AcDbEntity
  8
L-ZISSEN
100
AcDbLine
 10
414.4740919917868
 20
334.91717652607
 30
0.0
 11
414.4740919917868
 21
354.78162452607
 31
0.0
  0
LINE
  5
13FB
330
2
100
AcDbEntity
  8
L-ZISSEN
100
AcDbLine
 10
426.464814991787
 20
354.78162452607
 30
0.0
 11
426.464814991787
 21
334.91717652607
 31
0.0
  0
LINE
  5
13FC
330
2
100
AcDbEntity
  8
L-ZISSEN
100
AcDbLine
 10
379.657665991787
 20
334.91717652607
 30
0.0
 11
379.657665991787
 21
354.78162452607
 31
0.0
  0
LINE
  5
13FD
330
2
100
AcDbEntity
  8
L-ZISSEN
100
AcDbLine
 10
367.6669429917869
 20
354.78162452607
 30
0.0
 11
367.6669429917869
 21
334.91717652607
 31
0.0
  0
LINE
  5
13FE
330
2
100
AcDbEntity
  8
L-ZISSEN
100
AcDbLine
 10
424.3009889917869
 20
259.61332152607
 30
0.0
 11
369.8310169917869
 21
259.61332152607
 31
0.0
  0
LINE
  5
13FF
330
2
100
AcDbEntity
  8
L-ZISSEN
100
AcDbLine
 10
426.464814991787
 20
329.24161752607
 30
0.0
 11
426.464814991787
 21
282.89123652607
 31
0.0
  0
LINE
  5
1400
330
2
100
AcDbEntity
  8
L-ZISSEN
100
AcDbLine
 10
414.4740919917868
 20
282.89123652607
 30
0.0
 11
414.4740919917868
 21
329.24161752607
 31
0.0
  0
LINE
  5
1401
330
2
100
AcDbEntity
  8
L-ZISSEN
100
AcDbLine
 10
430.6523689917868
 20
268.99898052607
 30
0.0
 11
429.1304989917869
 21
263.31928552607
 31
0.0
  0
ARC
  5
1402
330
2
100
AcDbEntity
  8
L-ZISSEN
100
AcDbCircle
 10
424.3009889917869
 20
264.61332552607
 30
0.0
 40
4.999998000000001
100
AcDbArc
 50
269.9999800000004
 51
344.9999399999999
  0
ARC
  5
1403
330
2
100
AcDbEntity
  8
L-ZISSEN
100
AcDbCircle
 10
425.8227189917869
 20
270.29301352607
 30
0.0
 40
4.999998000000001
100
AcDbArc
 50
344.9999899999996
 51
359.5001000000004
  0
LINE
  5
1404
330
2
100
AcDbEntity
  8
L-ZISSEN
100
AcDbLine
 10
426.464814991787
 20
282.89123652607
 30
0.0
 11
414.4740919917868
 21
282.89123652607
 31
0.0
  0
LINE
  5
1405
330
2
100
AcDbEntity
  8
L-ZISSEN
100
AcDbLine
 10
406.0658789917869
 20
258.40008052607
 30
0.0
 11
388.0658689917869
 21
258.40009552607
 31
0.0
  0
LINE
  5
1406
330
2
100
AcDbEntity
  8
L-ZISSEN
100
AcDbLine
 10
404.2824639917869
 20
259.61332152607
 30
0.0
 11
404.2824639917869
 21
258.40008052607
 31
0.0
  0
LINE
  5
1408
330
2
100
AcDbEntity
  8
L-ZISSEN
100
AcDbLine
 10
389.8492939917869
 20
259.61332152607
 30
0.0
 11
389.8492939917869
 21
258.40008052607
 31
0.0
  0
LINE
  5
1409
330
2
100
AcDbEntity
  8
L-ZISSEN
100
AcDbLine
 10
414.4740919917868
 20
329.24161752607
 30
0.0
 11
426.464814991787
 21
329.24161752607
 31
0.0
  0
LINE
  5
140A
330
2
100
AcDbEntity
  8
L-ZISSEN
100
AcDbLine
 10
426.464814991787
 20
334.91717652607
 30
0.0
 11
414.4740919917868
 21
334.91717652607
 31
0.0
  0
LINE
  5
140B
330
2
100
AcDbEntity
  8
L-ZISSEN
100
AcDbLine
 10
379.657665991787
 20
282.89123652607
 30
0.0
 11
379.657665991787
 21
329.24161752607
 31
0.0
  0
LINE
  5
140C
330
2
100
AcDbEntity
  8
L-ZISSEN
100
AcDbLine
 10
367.6669429917869
 20
329.24161752607
 30
0.0
 11
367.6669429917869
 21
282.89123652607
 31
0.0
  0
ARC
  5
140D
330
2
100
AcDbEntity
  8
L-ZISSEN
100
AcDbCircle
 10
369.8310189917869
 20
264.61332552607
 30
0.0
 40
4.999998000000001
100
AcDbArc
 50
195.0000300000001
 51
269.9999799999998
  0
LINE
  5
140E
330
2
100
AcDbEntity
  8
L-ZISSEN
100
AcDbLine
 10
363.4795529917869
 20
268.99884252607
 30
0.0
 11
365.0014029917869
 21
263.31920852607
 31
0.0
  0
ARC
  5
140F
330
2
100
AcDbEntity
  8
L-ZISSEN
100
AcDbCircle
 10
368.3091789917869
 20
270.29295252607
 30
0.0
 40
4.999998000000001
100
AcDbArc
 50
180.5000899999999
 51
195.0000199999996
  0
LINE
  5
1410
330
2
100
AcDbEntity
  8
L-ZISSEN
100
AcDbLine
 10
367.6669429917869
 20
282.89123652607
 30
0.0
 11
379.657665991787
 21
282.89123652607
 31
0.0
  0
LINE
  5
1411
330
2
100
AcDbEntity
  8
L-ZISSEN
100
AcDbLine
 10
379.657665991787
 20
329.24161752607
 30
0.0
 11
367.6669429917869
 21
329.24161752607
 31
0.0
  0
LINE
  5
1412
330
2
100
AcDbEntity
  8
L-ZISSEN
100
AcDbLine
 10
367.6669429917869
 20
334.91717652607
 30
0.0
 11
379.657665991787
 21
334.91717652607
 31
0.0
  0
LINE
  5
1413
330
2
100
AcDbEntity
  8
L-ZISSEN
100
AcDbLine
 10
414.4740919917868
 20
354.78162452607
 30
0.0
 11
426.464814991787
 21
354.78162452607
 31
0.0
  0
LINE
  5
1414
330
2
100
AcDbEntity
  8
L-ZISSEN
100
AcDbLine
 10
379.657665991787
 20
354.78162452607
 30
0.0
 11
367.6669429917869
 21
354.78162452607
 31
0.0
  0
LINE
  5
1415
330
2
100
AcDbEntity
  8
L-ZISSEN
100
AcDbLine
 10
431.6329729917869
 20
363.11329552607
 30
0.0
 11
430.8225469917869
 21
270.24927352607
 31
0.0
  0
LINE
  5
1416
330
2
100
AcDbEntity
  8
L-ZISSEN
100
AcDbLine
 10
362.4987849917869
 20
363.11329552607
 30
0.0
 11
363.3092109917869
 21
270.24927352607
 31
0.0
  0
LINE
  5
1417
330
2
100
AcDbEntity
  8
L-ZISSEN
100
AcDbLine
 10
583.8158789917869
 20
515.3132566832328
 30
-0.0019821880853622
 11
583.8158789917869
 21
503.1132566832329
 31
-0.0019821880853622
  0
LINE
  5
1418
330
2
100
AcDbEntity
  8
L-ZISSEN
100
AcDbLine
 10
610.3158789917869
 20
515.3132566832328
 30
-0.0019821880853622
 11
610.3158789917869
 21
503.1132566832329
 31
-0.0019821880853622
  0
LINE
  5
1419
330
2
100
AcDbEntity
  8
L-ZISSEN
100
AcDbLine
 10
582.0658789917869
 20
501.3132566832329
 30
-0.0019821880853622
 11
612.0658789917869
 21
501.3132566832329
 31
-0.0019821880853622
  0
LINE
  5
141A
330
2
100
AcDbEntity
  8
L-ZISSEN
100
AcDbLine
 10
583.8158789917869
 20
503.1132566832329
 30
-0.0019821880853622
 11
610.3158789917869
 21
503.1132566832329
 31
-0.0019821880853622
  0
LINE
  5
141B
330
2
100
AcDbEntity
  8
L-ZISSEN
100
AcDbLine
 10
578.0658789917869
 20
476.3132566832328
 30
-0.0019821880853622
 11
616.0658789917869
 21
476.3132566832328
 31
-0.0019821880853622
  0
LINE
  5
141C
330
2
100
AcDbEntity
  8
L-ZISSEN
100
AcDbLine
 10
578.0658789917869
 20
488.4132566832328
 30
-0.0019821880853622
 11
616.0658789917869
 21
488.4132566832328
 31
-0.0019821880853622
  0
LINE
  5
141D
330
2
100
AcDbEntity
  8
L-ZISSEN
100
AcDbLine
 10
578.0658789917869
 20
476.3132566832328
 30
-0.0019821880853622
 11
578.0658789917869
 21
488.4132566832328
 31
-0.0019821880853622
  0
LINE
  5
141E
330
2
100
AcDbEntity
  8
L-ZISSEN
100
AcDbLine
 10
582.0658789917869
 20
488.4132566832328
 30
-0.0019821880853622
 11
582.0658789917869
 21
501.3132566832329
 31
-0.0019821880853622
  0
LINE
  5
1420
330
2
100
AcDbEntity
  8
L-ZISSEN
100
AcDbLine
 10
616.0658789917869
 20
476.3132566832328
 30
-0.0019821880853622
 11
616.0658789917869
 21
488.4132566832328
 31
-0.0019821880853622
  0
LINE
  5
1421
330
2
100
AcDbEntity
  8
L-ZISSEN
100
AcDbLine
 10
607.0658789917869
 20
501.3132566832329
 30
-0.0019821880853622
 11
607.0658789917869
 21
503.1132566832329
 31
-0.0019821880853622
  0
LINE
  5
1422
330
2
100
AcDbEntity
  8
L-ZISSEN
100
AcDbLine
 10
612.0658789917869
 20
488.4132566832328
 30
-0.0019821880853622
 11
612.0658789917869
 21
501.3132566832329
 31
-0.0019821880853622
  0
LINE
  5
1423
330
2
100
AcDbEntity
  8
L-ZISSEN
100
AcDbLine
 10
583.3158789917869
 20
515.3132566832328
 30
-0.0019821880853622
 11
610.8158789917869
 21
515.3132566832328
 31
-0.0019821880853622
  0
LINE
  5
1424
330
2
100
AcDbEntity
  8
L-ZISSEN
100
AcDbLine
 10
583.3158789917869
 20
519.3132566832328
 30
-0.0019821880853622
 11
610.8158789917869
 21
519.3132566832328
 31
-0.0019821880853622
  0
LINE
  5
1425
330
2
100
AcDbEntity
  8
L-ZISSEN
100
AcDbLine
 10
584.5658789917869
 20
521.3132566832328
 30
-0.0019821880853622
 11
609.5658789917869
 21
521.3132566832328
 31
-0.0019821880853622
  0
LINE
  5
1426
330
2
100
AcDbEntity
  8
L-ZISSEN
100
AcDbLine
 10
583.3158789917869
 20
519.3132566832328
 30
-0.0019821880853622
 11
583.3158789917869
 21
515.3132566832328
 31
-0.0019821880853622
  0
LINE
  5
1427
330
2
100
AcDbEntity
  8
L-ZISSEN
100
AcDbLine
 10
584.5658789917869
 20
519.3132566832328
 30
-0.0019821880853622
 11
584.5658789917869
 21
521.3132566832328
 31
-0.0019821880853622
  0
LINE
  5
1428
330
2
100
AcDbEntity
  8
L-ZISSEN
100
AcDbLine
 10
610.8158789917869
 20
519.3132566832328
 30
-0.0019821880853622
 11
610.8158789917869
 21
515.3132566832328
 31
-0.0019821880853622
  0
LINE
  5
1429
330
2
100
AcDbEntity
  8
L-ZISSEN
100
AcDbLine
 10
609.5658789917869
 20
519.3132566832328
 30
-0.0019821880853622
 11
609.5658789917869
 21
521.3132566832328
 31
-0.0019821880853622
  0
LINE
  5
142A
330
2
100
AcDbEntity
  8
L-ZISSEN
100
AcDbLine
 10
531.710539991787
 20
442.46863052607
 30
0.0
 11
501.710539991787
 21
442.46863052607
 31
0.0
  0
LINE
  5
142B
330
2
100
AcDbEntity
  8
L-ZISSEN
100
AcDbLine
 10
661.065878991787
 20
669.36329152607
 30
0.0
 11
661.065878991787
 21
652.11329152607
 31
0.0
  0
TEXT
  5
142C
330
2
100
AcDbEntity
  8
L-ZISSEN
100
AcDbText
 10
503.1154156264699
 20
443.7280317532383
 30
0.0
 40
4.5
  1
AIR IN
100
AcDbText
  0
TEXT
  5
142D
330
2
100
AcDbEntity
  8
L-ZISSEN
100
AcDbText
 10
503.9391784428278
 20
434.4026922867883
 30
0.0
 40
4.5
  1
Rc3/8
100
AcDbText
  0
LINE
  5
142E
330
2
100
AcDbEntity
  8
L-ZISSEN
100
AcDbLine
 10
635.098887991787
 20
652.11329152607
 30
0.0
 11
661.065878991787
 21
652.11329152607
 31
0.0
  0
LINE
  5
142F
330
2
100
AcDbEntity
  8
L-ZISSEN
100
AcDbLine
 10
635.0988879917869
 20
702.11329152607
 30
0.0
 11
661.065878991787
 21
702.11329152607
 31
0.0
  0
LINE
  5
1430
330
2
100
AcDbEntity
  8
L-ZISSEN
100
AcDbLine
 10
647.065878991787
 20
699.11329152607
 30
0.0
 11
647.065878991787
 21
684.86329152607
 31
0.0
  0
LINE
  5
1431
330
2
100
AcDbEntity
  8
L-ZISSEN
100
AcDbLine
 10
642.098948991787
 20
659.1131915260701
 30
0.0
 11
635.0989189917871
 21
652.1131915260701
 31
0.0
  0
LINE
  5
1432
330
2
100
AcDbEntity
  8
L-ZISSEN
100
AcDbLine
 10
642.0989189917871
 20
659.11329152607
 30
0.0
 11
652.032848991787
 21
659.11329152607
 31
0.0
  0
LINE
  5
1433
330
2
100
AcDbEntity
  8
L-ZISSEN
100
AcDbLine
 10
642.098848991787
 20
695.11329152607
 30
0.0
 11
652.032908991787
 21
695.11329152607
 31
0.0
  0
LINE
  5
1434
330
2
100
AcDbEntity
  8
L-ZISSEN
100
AcDbLine
 10
642.098848991787
 20
695.11329152607
 30
0.0
 11
635.098858991787
 21
702.11329152607
 31
0.0
  0
LINE
  5
1435
330
2
100
AcDbEntity
  8
L-ZISSEN
100
AcDbLine
 10
636.0158789917871
 20
429.61329152607
 30
0.0
 11
636.0158789917871
 21
384.61329152607
 31
0.0
  0
CIRCLE
  5
1436
330
2
100
AcDbEntity
  8
L-ZISSEN
100
AcDbCircle
 10
647.065878991787
 20
391.11329152607
 30
0.0
 40
3.85714
  0
CIRCLE
  5
1437
330
2
100
AcDbEntity
  8
L-ZISSEN
100
AcDbCircle
 10
647.065878991787
 20
423.11329152607
 30
0.0
 40
3.85714
  0
LINE
  5
1438
330
2
100
AcDbEntity
  8
L-ZISSEN
100
AcDbLine
 10
647.065878991787
 20
669.36329152607
 30
0.0
 11
647.065878991787
 21
655.11329152607
 31
0.0
  0
CIRCLE
  5
1439
330
2
100
AcDbEntity
  8
L-ZISSEN
100
AcDbCircle
 10
607.0658789917869
 20
409.61323052607
 30
0.0
 40
25.5
  0
LINE
  5
143A
330
2
100
AcDbEntity
  8
L-ZISSEN
100
AcDbLine
 10
471.5658789917869
 20
384.1132305771355
 30
0.0036942468383625
 11
471.5658789917869
 21
435.1132305771355
 31
0.0036942468383625
  0
LINE
  5
143B
330
2
100
AcDbEntity
  8
L-ZISSEN
100
AcDbLine
 10
471.5658789917869
 20
435.1132305771355
 30
0.0036942468383625
 11
444.5658789917869
 21
435.1132305771355
 31
0.0036942468383625
  0
LINE
  5
143C
330
2
100
AcDbEntity
  8
L-ZISSEN
100
AcDbLine
 10
444.5658789917869
 20
435.1132305771355
 30
0.0036942468383625
 11
444.5658789917869
 21
384.1132305771355
 31
0.0036942468383625
  0
LINE
  5
143D
330
2
100
AcDbEntity
  8
L-ZISSEN
100
AcDbLine
 10
444.5658789917869
 20
384.1132305771355
 30
0.0036942468383625
 11
471.5658789917869
 21
384.1132305771355
 31
0.0036942468383625
  0
LINE
  5
143E
330
2
100
AcDbEntity
  8
L-ZISSEN
100
AcDbLine
 10
444.5658789917869
 20
416.6132305771355
 30
0.0036942468383625
 11
434.173134391776
 21
416.6132300556842
 31
0.006134
  0
LINE
  5
143F
330
2
100
AcDbEntity
  8
L-ZISSEN
100
AcDbLine
 10
434.1731315917749
 20
402.6132300556848
 30
0.006134
 11
444.5658789917869
 21
402.6132305771355
 31
0.0036942468383625
  0
LINE
  5
1440
330
2
100
AcDbEntity
  8
L-ZISSEN
100
AcDbLine
 10
581.5658789917873
 20
602.61329152607
 30
0.0
 11
632.5658789917871
 21
602.61329152607
 31
0.0
  0
LINE
  5
1441
330
2
100
AcDbEntity
  8
L-ZISSEN
100
AcDbLine
 10
632.5658789917871
 20
602.61329152607
 30
0.0
 11
632.5658789917871
 21
629.61329152607
 31
0.0
  0
LINE
  5
1442
330
2
100
AcDbEntity
  8
L-ZISSEN
100
AcDbLine
 10
632.5658789917871
 20
629.61329152607
 30
0.0
 11
581.5658789917873
 21
629.61329152607
 31
0.0
  0
LINE
  5
1443
330
2
100
AcDbEntity
  8
L-ZISSEN
100
AcDbLine
 10
614.0658789917873
 20
629.61329152607
 30
0.0
 11
614.0658789917873
 21
639.61329152607
 31
0.0
  0
LINE
  5
1444
330
2
100
AcDbEntity
  8
L-ZISSEN
100
AcDbLine
 10
581.5658789917873
 20
629.61329152607
 30
0.0
 11
581.5658789917873
 21
602.61329152607
 31
0.0
  0
LINE
  5
1445
330
2
100
AcDbEntity
  8
L-ZISSEN
100
AcDbLine
 10
600.0658789917873
 20
629.61329152607
 30
0.0
 11
600.0658789917873
 21
639.61329152607
 31
0.0
  0
LINE
  5
1446
330
2
100
AcDbEntity
  8
L-ZISSEN
100
AcDbLine
 10
614.802878991787
 20
397.20623052607
 30
0.0
 11
596.4822299815864
 21
426.5833917989891
 31
0.0
  0
INSERT
  5
1447
330
2
100
AcDbEntity
  8
L-ZISSEN
100
AcDbBlockReference
  2
_OPEN
 10
567.0658789917869
 20
407.11329152607
 30
0.0
 41
4.5
 42
4.5
 43
4.5
 50
315.0
  0
LINE
  5
1448
330
2
100
AcDbEntity
  8
L-ZISSEN
100
AcDbLine
 10
563.8838984764475
 20
410.2952720414094
 30
0.0
 11
531.710539991787
 21
442.46863052607
 31
0.0
  0
LINE
  5
1449
330
2
100
AcDbEntity
  8
L-TYUSIN
100
AcDbLine
 10
661.065878991787
 20
677.11329152607
 30
0.0
 11
562.0658789917869
 21
677.11329152607
 31
0.0
  0
LINE
  5
144A
330
2
100
AcDbEntity
  8
L-ZISSEN
100
AcDbLine
 10
661.065878991787
 20
702.11329152607
 30
0.0
 11
661.065878991787
 21
684.86329152607
 31
0.0
  0
LINE
  5
144B
330
2
100
AcDbEntity
  8
L-ZISSEN
100
AcDbLine
 10
661.065878991787
 20
702.11329152607
 30
0.0
 11
661.065878991787
 21
684.86329152607
 31
0.0
  0
TEXT
  5
144C
330
2
100
AcDbEntity
  8
L-ZISSEN
100
AcDbText
 10
678.7667876865295
 20
394.1460060403299
 30
0.0
 40
4.5
  1
P.P
100
AcDbText
  0
LINE
  5
144D
330
2
100
AcDbEntity
  8
L-ZISSEN
100
AcDbLine
 10
661.065878991787
 20
407.11329152607
 30
0.0
 11
674.7667876865295
 21
396.3960060403299
 31
0.0
  0
SOLID
  5
144E
330
2
100
AcDbEntity
  8
L-ZISSEN
100
AcDbTrace
 10
662.4358024643846
 20
405.6184936165392
 30
0.0
 11
662.8465518689568
 21
406.1435930081671
 31
0.0
 12
661.065878991787
 22
407.11329152607
 32
0.0
 13
661.065878991787
 23
407.11329152607
 33
0.0
  0
TEXT
  5
144F
330
2
100
AcDbEntity
  8
L-ZISSEN
100
AcDbText
 10
678.7667876865295
 20
664.1460060403299
 30
0.0
 40
4.5
  1
P.P
100
AcDbText
  0
LINE
  5
1450
330
2
100
AcDbEntity
  8
L-ZISSEN
100
AcDbLine
 10
661.065878991787
 20
677.11329152607
 30
0.0
 11
674.7667876865295
 21
666.3960060403299
 31
0.0
  0
SOLID
  5
1451
330
2
100
AcDbEntity
  8
L-ZISSEN
100
AcDbTrace
 10
662.4358024643846
 20
675.6184936165394
 30
0.0
 11
662.8465518689568
 21
676.143593008167
 31
0.0
 12
661.065878991787
 22
677.11329152607
 32
0.0
 13
661.065878991787
 23
677.11329152607
 33
0.0
  0
LINE
  5
1452
330
2
100
AcDbEntity
  8
L-TYUSIN
 48
0.5
100
AcDbLine
 10
397.0658789917869
 20
526.1772565260701
 30
0.006134
 11
397.0658789917869
 21
233.11329152607
 31
0.0
  0
LINE
  5
14FB
330
2
100
AcDbEntity
  8
L-ZISSEN
100
AcDbLine
 10
359.5658789917869
 20
453.81325652607
 30
0.006134
 11
359.5658769917869
 21
425.19063852607
 31
0.006134
  0
LINE
  5
14FC
330
2
100
AcDbEntity
  8
L-ZISSEN
100
AcDbLine
 10
612.8690421947962
 20
384.78233652607
 30
0.0
 11
636.0158789917871
 21
384.78233652607
 31
0.0
  0
LINE
  5
1536
330
2
100
AcDbEntity
  8
L-TYUSIN
 48
0.5
100
AcDbLine
 10
410.7158789917869
 20
407.11329152607
 30
0.006134
 11
383.4158789917869
 21
407.11329152607
 31
0.006134
  0
LINE
  5
3A22
330
2
100
AcDbEntity
  8
L-ZISSEN
100
AcDbLine
 10
587.0658789917869
 20
501.3132566832329
 30
-0.0019821880853622
 11
587.0658789917869
 21
503.1132566832329
 31
-0.0019821880853622
  0
LINE
  5
3A4E
330
2
100
AcDbEntity
  8
L-ZISSEN
100
AcDbLine
 10
581.2658789917868
 20
473.8132566832328
 30
-0.0019821880853622
 11
581.2658789917868
 21
476.3132566832328
 31
-0.0019821880853622
  0
LINE
  5
3A50
330
2
100
AcDbEntity
  8
L-TYUSIN
 48
0.5
100
AcDbLine
 10
597.0658789917869
 20
448.9492566832327
 30
-0.0019821880853622
 11
597.0658789917869
 21
526.3132566832328
 31
-0.0019821880853622
  0
LINE
  5
3A7F
330
2
100
AcDbEntity
  8
L-ZISSEN
100
AcDbLine
 10
615.5658789917869
 20
681.4434185449923
 30
0.0
 11
615.5658789917869
 21
686.11329152607
 31
0.0
  0
ENDSEC
  0
SECTION
  2
OBJECTS
  0
DICTIONARY
  5
1A
330
0
100
AcDbDictionary
281
     1
  3
ACAD_COLOR
350
1750
  3
ACAD_DETAILVIEWSTYLE
350
10C2
  3
ACAD_GROUP
350
18
  3
ACAD_IMAGE_VARS
350
10BC
  3
ACAD_LAYOUT
350
10AF
  3
ACAD_MATERIAL
350
10B2
  3
ACAD_MLEADERSTYLE
350
10B8
  3
ACAD_MLINESTYLE
350
19
  3
ACAD_PLOTSETTINGS
350
108A
  3
ACAD_PLOTSTYLENAME
350
108B
  3
ACAD_SCALELIST
350
108D
  3
ACAD_SECTIONVIEWSTYLE
350
10C3
  3
ACAD_TABLESTYLE
350
10B6
  3
ACAD_VISUALSTYLE
350
1071
  3
ACDB_RECOMPOSE_DATA
350
3D98
  3
AcDbVariableDictionary
350
10BD
  3
APPDATA
350
10BA
  0
SUN
  5
10BB
330
1070
100
AcDbSun
 90
        1
290
     0
 63
     7
421
 16777215
 40
1.0
291
     1
 91
  2455826
 92
 54000000
292
     0
 70
     2
 71
   256
280
     1
  0
DICTIONARY
  5
10F1
330
B
100
AcDbDictionary
280
     1
281
     1
  3
ACAD_LAYERSTATES
360
10F2
  0
DICTIONARY
  5
1748
330
1747
100
AcDbDictionary
280
     1
281
     1
  3
ADSK_XREC_LAYER_RECONCILED
360
1749
  0
DICTIONARY
  5
1750
102
{ACAD_REACTORS
330
1A
102
}
330
1A
100
AcDbDictionary
281
     1
  0
DICTIONARY
  5
10C2
102
{ACAD_REACTORS
330
1A
102
}
330
1A
100
AcDbDictionary
281
     1
  0
DICTIONARY
  5
18
102
{ACAD_REACTORS
330
1A
102
}
330
1A
100
AcDbDictionary
281
     1
  0
RASTERVARIABLES
  5
10BC
102
{ACAD_REACTORS
330
1A
102
}
330
1A
100
AcDbRasterVariables
 90
        0
 70
     1
 71
     1
 72
     0
  0
DICTIONARY
  5
10AF
102
{ACAD_REACTORS
330
1A
102
}
330
1A
100
AcDbDictionary
281
     1
  3
Model
350
10B0
  3
シート 1
350
10B1
  0
DICTIONARY
  5
10B2
102
{ACAD_REACTORS
330
1A
102
}
330
1A
100
AcDbDictionary
281
     1
  3
ByBlock
350
10B4
  3
ByLayer
350
10B3
  3
Global
350
10B5
  0
DICTIONARY
  5
10B8
102
{ACAD_REACTORS
330
1A
102
}
330
1A
100
AcDbDictionary
281
     1
  3
Standard
350
10B9
  0
DICTIONARY
  5
19
102
{ACAD_REACTORS
330
1A
102
}
330
1A
100
AcDbDictionary
281
     1
  3
STANDARD
350
1E
  0
DICTIONARY
  5
108A
102
{ACAD_REACTORS
330
1A
102
}
330
1A
100
AcDbDictionary
281
     1
  0
ACDBDICTIONARYWDFLT
  5
108B
102
{ACAD_REACTORS
330
1A
102
}
330
1A
100
AcDbDictionary
281
     1
  3
Normal
350
108C
100
AcDbDictionaryWithDefault
340
108C
  0
DICTIONARY
  5
108D
102
{ACAD_REACTORS
330
1A
102
}
330
1A
100
AcDbDictionary
281
     1
  3
A0
350
108E
  3
A1
350
108F
  3
A2
350
1090
  3
A3
350
1091
  3
A4
350
1092
  3
A5
350
1093
  3
A6
350
1094
  3
A7
350
1095
  3
A8
350
1096
  3
A9
350
1097
  3
B0
350
1098
  3
B1
350
1099
  3
B2
350
109A
  3
B3
350
109B
  3
B4
350
109C
  3
B5
350
109D
  3
B6
350
109E
  3
B7
350
109F
  3
B8
350
10A0
  3
B9
350
10A1
  3
C0
350
10A2
  3
C1
350
10A3
  3
C2
350
10A4
  3
C3
350
10A5
  3
C4
350
10A6
  3
C5
350
10A7
  3
C6
350
10A8
  3
C7
350
10A9
  3
C8
350
10AA
  3
C9
350
10AB
  3
D0
350
10AC
  3
D1
350
10AD
  3
D2
350
10AE
  0
DICTIONARY
  5
10C3
102
{ACAD_REACTORS
330
1A
102
}
330
1A
100
AcDbDictionary
281
     1
  0
DICTIONARY
  5
10B6
102
{ACAD_REACTORS
330
1A
102
}
330
1A
100
AcDbDictionary
281
     1
  3
Standard
350
10B7
  0
DICTIONARY
  5
1071
102
{ACAD_REACTORS
330
1A
102
}
330
1A
100
AcDbDictionary
281
     1
  3
2dWireframe
350
1076
  3
Basic
350
1079
  3
Brighten
350
107D
  3
ColorChange
350
1081
  3
Conceptual
350
107B
  3
Dim
350
107C
  3
EdgeColorOff
350
1084
  3
Facepattern
350
1080
  3
Flat
350
1072
  3
FlatWithEdges
350
1073
  3
Gouraud
350
1074
  3
GouraudWithEdges
350
1075
  3
Hidden
350
1078
  3
JitterOff
350
1082
  3
Linepattern
350
107F
  3
OverhangOff
350
1083
  3
Realistic
350
107A
  3
Shaded
350
1089
  3
Shaded with edges
350
1088
  3
Shades of Gray
350
1085
  3
Sketchy
350
1086
  3
Thicken
350
107E
  3
Wireframe
350
1077
  3
X-Ray
350
1087
  0
XRECORD
  5
3D98
102
{ACAD_REACTORS
330
1A
102
}
330
1A
100
AcDbXrecord
280
     1
 90
        1
330
10B7
  0
DICTIONARY
  5
10BD
102
{ACAD_REACTORS
330
1A
102
}
330
1A
100
AcDbDictionary
281
     1
  3
CANNOSCALE
350
10BE
  3
CMLEADERSTYLE
350
10C0
  3
CTABLESTYLE
350
10BF
  3
MSLTSCALE
350
10C1
  0
DICTIONARY
  5
10BA
102
{ACAD_REACTORS
330
1A
102
}
330
1A
100
AcDbDictionary
281
     1
  0
DICTIONARY
  5
10F2
102
{ACAD_REACTORS
330
10F1
102
}
330
10F1
100
AcDbDictionary
281
     1
  0
XRECORD
  5
1749
102
{ACAD_REACTORS
330
1748
102
}
330
1748
100
AcDbXrecord
280
     1
290
     1
  0
LAYOUT
  5
10B0
102
{ACAD_REACTORS
330
10AF
102
}
330
10AF
100
AcDbPlotSettings
  1

  2
none_device
  4
Letter_(8.50_x_11.00_Inches)
  6

 40
6.35
 41
6.35
 42
6.35
 43
6.35
 44
215.9
 45
279.4
 46
0.0
 47
0.0
 48
0.0
 49
0.0
140
0.0
141
0.0
142
1.0
143
180.8346773069324
 70
  1712
 72
     0
 73
     0
 74
     0
  7

 75
     0
 76
     0
 77
     2
 78
   300
147
0.0055299128181189
148
0.0
149
0.0
100
AcDbLayout
  1
Model
 70
     1
 71
     0
 10
0.0
 20
0.0
 11
12.0
 21
9.0
 12
0.0
 22
0.0
 32
0.0
 14
357.5357143443948
 24
233.11329152607
 34
-0.0019821880853622
 15
688.4096448293866
 25
719.61329152607
 35
0.006134
146
0.0
 13
0.0
 23
0.0
 33
0.0
 16
1.0
 26
0.0
 36
0.0
 17
0.0
 27
1.0
 37
0.0
 76
     0
330
2
331
1070
  0
LAYOUT
  5
10B1
102
{ACAD_REACTORS
330
10AF
102
}
330
10AF
100
AcDbPlotSettings
  1

  2
none_device
  4

  6

 40
0.0
 41
0.0
 42
0.0
 43
0.0
 44
0.0
 45
0.0
 46
0.0
 47
0.0
 48
0.0
 49
0.0
140
0.0
141
0.0
142
1.0
143
1.0
 70
   688
 72
     0
 73
     0
 74
     5
  7

 75
    16
 76
     0
 77
     2
 78
   300
147
1.0
148
0.0
149
0.0
100
AcDbLayout
  1
シート 1
 70
     0
 71
     1
 10
0.0
 20
0.0
 11
0.0
 21
0.0
 12
0.0
 22
0.0
 32
0.0
 14
1.000000000000000E+20
 24
1.000000000000000E+20
 34
1.000000000000000E+20
 15
-1.000000000000000E+20
 25
-1.000000000000000E+20
 35
-1.000000000000000E+20
146
0.0
 13
0.0
 23
0.0
 33
0.0
 16
1.0
 26
0.0
 36
0.0
 17
0.0
 27
1.0
 37
0.0
 76
     0
330
8
  0
MATERIAL
  5
10B4
102
{ACAD_REACTORS
330
10B2
102
}
330
10B2
100
AcDbMaterial
  1
ByBlock
 72
     1
 94
      127
  0
MATERIAL
  5
10B3
102
{ACAD_REACTORS
330
10B2
102
}
330
10B2
100
AcDbMaterial
  1
ByLayer
 72
     1
 94
      127
  0
MATERIAL
  5
10B5
102
{ACAD_REACTORS
330
10B2
102
}
330
10B2
100
AcDbMaterial
  1
Global
 72
     1
 94
      127
  0
MLEADERSTYLE
  5
10B9
102
{ACAD_REACTORS
330
10B8
102
}
330
10B8
100
AcDbMLeaderStyle
179
     2
170
     2
171
     1
172
     0
 90
        2
 40
0.0
 41
0.0
173
     1
 91
-1056964608
340
F
 92
       -2
290
     1
 42
0.09
291
     1
 43
0.36
  3
Standard
341
0
 44
0.18
300

342
D
174
     1
178
     1
175
     1
176
     0
 93
-1056964608
 45
0.18
292
     0
297
     0
 46
0.18
343
0
 94
-1056964608
 47
1.0
 49
1.0
140
1.0
293
     1
141
0.0
294
     1
177
     0
142
1.0
295
     0
296
     0
143
0.125
271
     0
272
     9
273
     9
  0
MLINESTYLE
  5
1E
102
{ACAD_REACTORS
330
19
102
}
330
19
100
AcDbMlineStyle
  2
STANDARD
 70
     0
  3

 62
     0
 51
90.0
 52
90.0
 71
     2
 49
0.5
 62
   256
  6
BYLAYER
 49
-0.5
 62
   256
  6
BYLAYER
  0
ACDBPLACEHOLDER
  5
108C
102
{ACAD_REACTORS
330
108B
102
}
330
108B
  0
SCALE
  5
108E
102
{ACAD_REACTORS
330
108D
102
}
330
108D
100
AcDbScale
 70
     0
300
1:1
140
1.0
141
1.0
290
     1
  0
SCALE
  5
108F
102
{ACAD_REACTORS
330
108D
102
}
330
108D
100
AcDbScale
 70
     0
300
1:2
140
1.0
141
2.0
290
     0
  0
SCALE
  5
1090
102
{ACAD_REACTORS
330
108D
102
}
330
108D
100
AcDbScale
 70
     0
300
1:4
140
1.0
141
4.0
290
     0
  0
SCALE
  5
1091
102
{ACAD_REACTORS
330
108D
102
}
330
108D
100
AcDbScale
 70
     0
300
1:5
140
1.0
141
5.0
290
     0
  0
SCALE
  5
1092
102
{ACAD_REACTORS
330
108D
102
}
330
108D
100
AcDbScale
 70
     0
300
1:8
140
1.0
141
8.0
290
     0
  0
SCALE
  5
1093
102
{ACAD_REACTORS
330
108D
102
}
330
108D
100
AcDbScale
 70
     0
300
1:10
140
1.0
141
10.0
290
     0
  0
SCALE
  5
1094
102
{ACAD_REACTORS
330
108D
102
}
330
108D
100
AcDbScale
 70
     0
300
1:16
140
1.0
141
16.0
290
     0
  0
SCALE
  5
1095
102
{ACAD_REACTORS
330
108D
102
}
330
108D
100
AcDbScale
 70
     0
300
1:20
140
1.0
141
20.0
290
     0
  0
SCALE
  5
1096
102
{ACAD_REACTORS
330
108D
102
}
330
108D
100
AcDbScale
 70
     0
300
1:30
140
1.0
141
30.0
290
     0
  0
SCALE
  5
1097
102
{ACAD_REACTORS
330
108D
102
}
330
108D
100
AcDbScale
 70
     0
300
1:40
140
1.0
141
40.0
290
     0
  0
SCALE
  5
1098
102
{ACAD_REACTORS
330
108D
102
}
330
108D
100
AcDbScale
 70
     0
300
1:50
140
1.0
141
50.0
290
     0
  0
SCALE
  5
1099
102
{ACAD_REACTORS
330
108D
102
}
330
108D
100
AcDbScale
 70
     0
300
1:100
140
1.0
141
100.0
290
     0
  0
SCALE
  5
109A
102
{ACAD_REACTORS
330
108D
102
}
330
108D
100
AcDbScale
 70
     0
300
2:1
140
2.0
141
1.0
290
     0
  0
SCALE
  5
109B
102
{ACAD_REACTORS
330
108D
102
}
330
108D
100
AcDbScale
 70
     0
300
4:1
140
4.0
141
1.0
290
     0
  0
SCALE
  5
109C
102
{ACAD_REACTORS
330
108D
102
}
330
108D
100
AcDbScale
 70
     0
300
8:1
140
8.0
141
1.0
290
     0
  0
SCALE
  5
109D
102
{ACAD_REACTORS
330
108D
102
}
330
108D
100
AcDbScale
 70
     0
300
10:1
140
10.0
141
1.0
290
     0
  0
SCALE
  5
109E
102
{ACAD_REACTORS
330
108D
102
}
330
108D
100
AcDbScale
 70
     0
300
100:1
140
100.0
141
1.0
290
     0
  0
SCALE
  5
109F
102
{ACAD_REACTORS
330
108D
102
}
330
108D
100
AcDbScale
 70
     0
300
1/128" = 1'-0"
140
0.0078125
141
12.0
290
     0
  0
SCALE
  5
10A0
102
{ACAD_REACTORS
330
108D
102
}
330
108D
100
AcDbScale
 70
     0
300
1/64" = 1'-0"
140
0.015625
141
12.0
290
     0
  0
SCALE
  5
10A1
102
{ACAD_REACTORS
330
108D
102
}
330
108D
100
AcDbScale
 70
     0
300
1/32" = 1'-0"
140
0.03125
141
12.0
290
     0
  0
SCALE
  5
10A2
102
{ACAD_REACTORS
330
108D
102
}
330
108D
100
AcDbScale
 70
     0
300
1/16" = 1'-0"
140
0.0625
141
12.0
290
     0
  0
SCALE
  5
10A3
102
{ACAD_REACTORS
330
108D
102
}
330
108D
100
AcDbScale
 70
     0
300
3/32" = 1'-0"
140
0.09375
141
12.0
290
     0
  0
SCALE
  5
10A4
102
{ACAD_REACTORS
330
108D
102
}
330
108D
100
AcDbScale
 70
     0
300
1/8" = 1'-0"
140
0.125
141
12.0
290
     0
  0
SCALE
  5
10A5
102
{ACAD_REACTORS
330
108D
102
}
330
108D
100
AcDbScale
 70
     0
300
3/16" = 1'-0"
140
0.1875
141
12.0
290
     0
  0
SCALE
  5
10A6
102
{ACAD_REACTORS
330
108D
102
}
330
108D
100
AcDbScale
 70
     0
300
1/4" = 1'-0"
140
0.25
141
12.0
290
     0
  0
SCALE
  5
10A7
102
{ACAD_REACTORS
330
108D
102
}
330
108D
100
AcDbScale
 70
     0
300
3/8" = 1'-0"
140
0.375
141
12.0
290
     0
  0
SCALE
  5
10A8
102
{ACAD_REACTORS
330
108D
102
}
330
108D
100
AcDbScale
 70
     0
300
1/2" = 1'-0"
140
0.5
141
12.0
290
     0
  0
SCALE
  5
10A9
102
{ACAD_REACTORS
330
108D
102
}
330
108D
100
AcDbScale
 70
     0
300
3/4" = 1'-0"
140
0.75
141
12.0
290
     0
  0
SCALE
  5
10AA
102
{ACAD_REACTORS
330
108D
102
}
330
108D
100
AcDbScale
 70
     0
300
1" = 1'-0"
140
1.0
141
12.0
290
     0
  0
SCALE
  5
10AB
102
{ACAD_REACTORS
330
108D
102
}
330
108D
100
AcDbScale
 70
     0
300
1-1/2" = 1'-0"
140
1.5
141
12.0
290
     0
  0
SCALE
  5
10AC
102
{ACAD_REACTORS
330
108D
102
}
330
108D
100
AcDbScale
 70
     0
300
3" = 1'-0"
140
3.0
141
12.0
290
     0
  0
SCALE
  5
10AD
102
{ACAD_REACTORS
330
108D
102
}
330
108D
100
AcDbScale
 70
     0
300
6" = 1'-0"
140
6.0
141
12.0
290
     0
  0
SCALE
  5
10AE
102
{ACAD_REACTORS
330
108D
102
}
330
108D
100
AcDbScale
 70
     0
300
1'-0" = 1'-0"
140
12.0
141
12.0
290
     0
  0
TABLESTYLE
  5
10B7
102
{ACAD_REACTORS
330
10B6
102
}
102
{ACAD_XDICTIONARY
360
3D96
102
}
330
10B6
100
AcDbTableStyle
  3
Standard
 70
     0
 71
     0
 40
0.06
 41
0.06
280
     0
281
     0
  7
STANDARD
140
0.18
170
     2
 62
     0
 63
   257
283
     0
 90
        4
 91
        0
  1

274
    -2
284
     1
 64
     0
275
    -2
285
     1
 65
     0
276
    -2
286
     1
 66
     0
277
    -2
287
     1
 67
     0
278
    -2
288
     1
 68
     0
279
    -2
289
     1
 69
     0
  7
STANDARD
140
0.25
170
     5
 62
     0
 63
   257
283
     0
 90
        4
 91
        0
  1

274
    -2
284
     1
 64
     0
275
    -2
285
     1
 65
     0
276
    -2
286
     1
 66
     0
277
    -2
287
     1
 67
     0
278
    -2
288
     1
 68
     0
279
    -2
289
     1
 69
     0
  7
STANDARD
140
0.18
170
     5
 62
     0
 63
   257
283
     0
 90
        4
 91
        0
  1

274
    -2
284
     1
 64
     0
275
    -2
285
     1
 65
     0
276
    -2
286
     1
 66
     0
277
    -2
287
     1
 67
     0
278
    -2
288
     1
 68
     0
279
    -2
289
     1
 69
     0
  0
VISUALSTYLE
  5
1076
102
{ACAD_REACTORS
330
1071
102
}
330
1071
100
AcDbVisualStyle
  2
2dWireframe
 70
     4
177
     2
291
     0
 71
     0
176
     1
 72
     2
176
     1
 73
     0
176
     1
 90
        0
176
     1
 40
0.6
176
     1
 41
30.0
176
     1
 62
     5
 63
     7
421
 16777215
176
     1
 74
     1
176
     1
 91
        4
176
     1
 64
     7
176
     1
 65
   257
176
     1
 75
     1
176
     1
175
     1
176
     1
 42
1.0
176
     1
 92
        0
176
     1
 66
   257
176
     1
 43
1.0
176
     1
 76
     1
176
     1
 77
     6
176
     1
 78
     2
176
     1
 67
     7
176
     1
 79
     5
176
     1
170
     0
176
     1
171
     0
176
     1
290
     0
176
     1
 93
        1
176
     1
 44
0.0
176
     1
173
     0
176
     1
  0
VISUALSTYLE
  5
1079
102
{ACAD_REACTORS
330
1071
102
}
330
1071
100
AcDbVisualStyle
  2
Basic
 70
     7
177
     2
291
     1
 71
     1
176
     1
 72
     0
176
     1
 73
     1
176
     1
 90
        0
176
     1
 40
0.6
176
     1
 41
30.0
176
     1
 62
     5
 63
     7
421
 16777215
176
     1
 74
     0
176
     1
 91
        4
176
     1
 64
     7
176
     1
 65
   257
176
     1
 75
     1
176
     1
175
     1
176
     1
 42
1.0
176
     1
 92
        8
176
     1
 66
     7
176
     1
 43
1.0
176
     1
 76
     1
176
     1
 77
     6
176
     1
 78
     2
176
     1
 67
     7
176
     1
 79
     5
176
     1
170
     0
176
     1
171
     0
176
     1
290
     0
176
     1
 93
        1
176
     1
 44
0.0
176
     1
173
     0
176
     1
  0
VISUALSTYLE
  5
107D
102
{ACAD_REACTORS
330
1071
102
}
330
1071
100
AcDbVisualStyle
  2
Brighten
 70
    12
177
     2
291
     1
 71
     2
176
     1
 72
     2
176
     1
 73
     0
176
     1
 90
        0
176
     1
 40
0.6
176
     1
 41
30.0
176
     1
 62
     5
 63
     7
421
 16777215
176
     1
 74
     1
176
     1
 91
        4
176
     1
 64
     7
176
     1
 65
   257
176
     1
 75
     1
176
     1
175
     1
176
     1
 42
1.0
176
     1
 92
        8
176
     1
 66
     7
176
     1
 43
1.0
176
     1
 76
     1
176
     1
 77
     6
176
     1
 78
     2
176
     1
 67
     7
176
     1
 79
     5
176
     1
170
     0
176
     1
171
     0
176
     1
290
     0
176
     1
 93
        1
176
     1
 44
50.0
176
     1
173
     0
176
     1
  0
VISUALSTYLE
  5
1081
102
{ACAD_REACTORS
330
1071
102
}
330
1071
100
AcDbVisualStyle
  2
ColorChange
 70
    16
177
     2
291
     1
 71
     2
176
     1
 72
     2
176
     1
 73
     3
176
     1
 90
        0
176
     1
 40
0.6
176
     1
 41
30.0
176
     1
 62
     5
 63
     8
421
  8421504
176
     1
 74
     1
176
     1
 91
        4
176
     1
 64
     7
176
     1
 65
   257
176
     1
 75
     1
176
     1
175
     1
176
     1
 42
1.0
176
     1
 92
        8
176
     1
 66
     8
424
  8421504
176
     1
 43
1.0
176
     1
 76
     1
176
     1
 77
     6
176
     1
 78
     2
176
     1
 67
     7
176
     1
 79
     5
176
     1
170
     0
176
     1
171
     0
176
     1
290
     0
176
     1
 93
        1
176
     1
 44
0.0
176
     1
173
     0
176
     1
  0
VISUALSTYLE
  5
107B
102
{ACAD_REACTORS
330
1071
102
}
330
1071
100
AcDbVisualStyle
  2
Conceptual
 70
     9
177
     2
291
     0
 71
     3
176
     1
 72
     2
176
     1
 73
     0
176
     1
 90
        0
176
     1
 40
0.6
176
     1
 41
30.0
176
     1
 62
     5
 63
     7
421
 16777215
176
     1
 74
     2
176
     1
 91
        2
176
     1
 64
     7
176
     1
 65
   257
176
     1
 75
     1
176
     1
175
     1
176
     1
 42
179.0
176
     1
 92
        8
176
     1
 66
     7
176
     1
 43
1.0
176
     1
 76
     1
176
     1
 77
     6
176
     1
 78
     2
176
     1
 67
     7
176
     1
 79
     3
176
     1
170
     0
176
     1
171
     0
176
     1
290
     0
176
     1
 93
        1
176
     1
 44
0.0
176
     1
173
     0
176
     1
  0
VISUALSTYLE
  5
107C
102
{ACAD_REACTORS
330
1071
102
}
330
1071
100
AcDbVisualStyle
  2
Dim
 70
    11
177
     2
291
     1
 71
     2
176
     1
 72
     2
176
     1
 73
     0
176
     1
 90
        0
176
     1
 40
0.6
176
     1
 41
30.0
176
     1
 62
     5
 63
     7
421
 16777215
176
     1
 74
     1
176
     1
 91
        4
176
     1
 64
     7
176
     1
 65
   257
176
     1
 75
     1
176
     1
175
     1
176
     1
 42
1.0
176
     1
 92
        8
176
     1
 66
     7
176
     1
 43
1.0
176
     1
 76
     1
176
     1
 77
     6
176
     1
 78
     2
176
     1
 67
     7
176
     1
 79
     5
176
     1
170
     0
176
     1
171
     0
176
     1
290
     0
176
     1
 93
        1
176
     1
 44
-50.0
176
     1
173
     0
176
     1
  0
VISUALSTYLE
  5
1084
102
{ACAD_REACTORS
330
1071
102
}
330
1071
100
AcDbVisualStyle
  2
EdgeColorOff
 70
    22
177
     2
291
     1
 71
     2
176
     0
 72
     2
176
     0
 73
     0
176
     0
 90
        0
176
     0
 40
0.6
176
     0
 41
30.0
176
     0
 62
     5
 63
     7
421
 16777215
176
     0
 74
     1
176
     0
 91
        4
176
     0
 64
     7
176
     0
 65
   257
176
     0
 75
     1
176
     0
175
     1
176
     0
 42
1.0
176
     0
 92
        8
176
     2
 66
     7
176
     0
 43
1.0
176
     0
 76
     1
176
     0
 77
     6
176
     0
 78
     2
176
     0
 67
     7
176
     0
 79
     5
176
     0
170
     0
176
     0
171
     0
176
     0
290
     0
176
     0
 93
        1
176
     0
 44
0.0
176
     0
173
     0
176
     0
  0
VISUALSTYLE
  5
1080
102
{ACAD_REACTORS
330
1071
102
}
330
1071
100
AcDbVisualStyle
  2
Facepattern
 70
    15
177
     2
291
     1
 71
     2
176
     1
 72
     2
176
     1
 73
     0
176
     1
 90
        0
176
     1
 40
0.6
176
     1
 41
30.0
176
     1
 62
     5
 63
     7
421
 16777215
176
     1
 74
     1
176
     1
 91
        4
176
     1
 64
     7
176
     1
 65
   257
176
     1
 75
     1
176
     1
175
     1
176
     1
 42
1.0
176
     1
 92
        8
176
     1
 66
     7
176
     1
 43
1.0
176
     1
 76
     1
176
     1
 77
     6
176
     1
 78
     2
176
     1
 67
     7
176
     1
 79
     5
176
     1
170
     0
176
     1
171
     0
176
     1
290
     0
176
     1
 93
        1
176
     1
 44
0.0
176
     1
173
     0
176
     1
  0
VISUALSTYLE
  5
1072
102
{ACAD_REACTORS
330
1071
102
}
330
1071
100
AcDbVisualStyle
  2
Flat
 70
     0
177
     2
291
     1
 71
     2
176
     1
 72
     1
176
     1
 73
     1
176
     1
 90
        2
176
     1
 40
0.6
176
     1
 41
30.0
176
     1
 62
     5
 63
     7
421
 16777215
176
     1
 74
     0
176
     1
 91
        0
176
     1
 64
     7
176
     1
 65
   257
176
     1
 75
     1
176
     1
175
     1
176
     1
 42
1.0
176
     1
 92
        8
176
     1
 66
     7
176
     1
 43
1.0
176
     1
 76
     1
176
     1
 77
     6
176
     1
 78
     2
176
     1
 67
     7
176
     1
 79
     5
176
     1
170
     0
176
     1
171
     0
176
     1
290
     0
176
     1
 93
       13
176
     1
 44
0.0
176
     1
173
     0
176
     1
  0
VISUALSTYLE
  5
1073
102
{ACAD_REACTORS
330
1071
102
}
330
1071
100
AcDbVisualStyle
  2
FlatWithEdges
 70
     1
177
     2
291
     1
 71
     2
176
     1
 72
     1
176
     1
 73
     1
176
     1
 90
        2
176
     1
 40
0.6
176
     1
 41
30.0
176
     1
 62
     5
 63
     7
421
 16777215
176
     1
 74
     1
176
     1
 91
        0
176
     1
 64
     7
176
     1
 65
   257
176
     1
 75
     1
176
     1
175
     1
176
     1
 42
1.0
176
     1
 92
        0
176
     1
 66
   257
176
     1
 43
1.0
176
     1
 76
     1
176
     1
 77
     6
176
     1
 78
     2
176
     1
 67
     7
176
     1
 79
     5
176
     1
170
     0
176
     1
171
     0
176
     1
290
     0
176
     1
 93
       13
176
     1
 44
0.0
176
     1
173
     0
176
     1
  0
VISUALSTYLE
  5
1074
102
{ACAD_REACTORS
330
1071
102
}
330
1071
100
AcDbVisualStyle
  2
Gouraud
 70
     2
177
     2
291
     1
 71
     2
176
     1
 72
     2
176
     1
 73
     1
176
     1
 90
        2
176
     1
 40
0.6
176
     1
 41
30.0
176
     1
 62
     5
 63
     7
421
 16777215
176
     1
 74
     0
176
     1
 91
        0
176
     1
 64
     7
176
     1
 65
   257
176
     1
 75
     1
176
     1
175
     1
176
     1
 42
1.0
176
     1
 92
        0
176
     1
 66
     7
176
     1
 43
1.0
176
     1
 76
     1
176
     1
 77
     6
176
     1
 78
     2
176
     1
 67
     7
176
     1
 79
     5
176
     1
170
     0
176
     1
171
     0
176
     1
290
     0
176
     1
 93
       13
176
     1
 44
0.0
176
     1
173
     0
176
     1
  0
VISUALSTYLE
  5
1075
102
{ACAD_REACTORS
330
1071
102
}
330
1071
100
AcDbVisualStyle
  2
GouraudWithEdges
 70
     3
177
     2
291
     1
 71
     2
176
     1
 72
     2
176
     1
 73
     1
176
     1
 90
        2
176
     1
 40
0.6
176
     1
 41
30.0
176
     1
 62
     5
 63
     7
421
 16777215
176
     1
 74
     1
176
     1
 91
        0
176
     1
 64
     7
176
     1
 65
   257
176
     1
 75
     1
176
     1
175
     1
176
     1
 42
1.0
176
     1
 92
        0
176
     1
 66
   257
176
     1
 43
1.0
176
     1
 76
     1
176
     1
 77
     6
176
     1
 78
     2
176
     1
 67
     7
176
     1
 79
     5
176
     1
170
     0
176
     1
171
     0
176
     1
290
     0
176
     1
 93
       13
176
     1
 44
0.0
176
     1
173
     0
176
     1
  0
VISUALSTYLE
  5
1078
102
{ACAD_REACTORS
330
1071
102
}
330
1071
100
AcDbVisualStyle
  2
Hidden
 70
     6
177
     2
291
     0
 71
     1
176
     1
 72
     2
176
     1
 73
     2
176
     1
 90
        0
176
     1
 40
0.6
176
     1
 41
30.0
176
     1
 62
     5
 63
     7
421
 16777215
176
     1
 74
     2
176
     1
 91
        2
176
     1
 64
     7
176
     1
 65
   257
176
     1
 75
     2
176
     1
175
     1
176
     1
 42
40.0
176
     1
 92
        0
176
     1
 66
   257
176
     1
 43
1.0
176
     1
 76
     1
176
     1
 77
     6
176
     1
 78
     2
176
     1
 67
     7
176
     1
 79
     3
176
     1
170
     0
176
     1
171
     0
176
     1
290
     0
176
     1
 93
        1
176
     1
 44
0.0
176
     1
173
     0
176
     1
  0
VISUALSTYLE
  5
1082
102
{ACAD_REACTORS
330
1071
102
}
330
1071
100
AcDbVisualStyle
  2
JitterOff
 70
    20
177
     2
291
     1
 71
     2
176
     0
 72
     2
176
     0
 73
     0
176
     0
 90
        0
176
     0
 40
0.6
176
     0
 41
30.0
176
     0
 62
     5
 63
     7
421
 16777215
176
     0
 74
     1
176
     0
 91
        4
176
     0
 64
     7
176
     0
 65
   257
176
     0
 75
     1
176
     0
175
     1
176
     0
 42
1.0
176
     0
 92
       10
176
     2
 66
     7
176
     0
 43
1.0
176
     0
 76
     1
176
     0
 77
     6
176
     0
 78
     2
176
     0
 67
     7
176
     0
 79
     5
176
     0
170
     0
176
     0
171
     0
176
     0
290
     0
176
     0
 93
        1
176
     0
 44
0.0
176
     0
173
     0
176
     0
  0
VISUALSTYLE
  5
107F
102
{ACAD_REACTORS
330
1071
102
}
330
1071
100
AcDbVisualStyle
  2
Linepattern
 70
    14
177
     2
291
     1
 71
     2
176
     1
 72
     2
176
     1
 73
     0
176
     1
 90
        0
176
     1
 40
0.6
176
     1
 41
30.0
176
     1
 62
     5
 63
     7
421
 16777215
176
     1
 74
     1
176
     1
 91
        4
176
     1
 64
     7
176
     1
 65
   257
176
     1
 75
     7
176
     1
175
     7
176
     1
 42
1.0
176
     1
 92
        8
176
     1
 66
     7
176
     1
 43
1.0
176
     1
 76
     1
176
     1
 77
     6
176
     1
 78
     2
176
     1
 67
     7
176
     1
 79
     5
176
     1
170
     0
176
     1
171
     0
176
     1
290
     0
176
     1
 93
        1
176
     1
 44
0.0
176
     1
173
     0
176
     1
  0
VISUALSTYLE
  5
1083
102
{ACAD_REACTORS
330
1071
102
}
330
1071
100
AcDbVisualStyle
  2
OverhangOff
 70
    21
177
     2
291
     1
 71
     2
176
     0
 72
     2
176
     0
 73
     0
176
     0
 90
        0
176
     0
 40
0.6
176
     0
 41
30.0
176
     0
 62
     5
 63
     7
421
 16777215
176
     0
 74
     1
176
     0
 91
        4
176
     0
 64
     7
176
     0
 65
   257
176
     0
 75
     1
176
     0
175
     1
176
     0
 42
1.0
176
     0
 92
        9
176
     2
 66
     7
176
     0
 43
1.0
176
     0
 76
     1
176
     0
 77
     6
176
     0
 78
     2
176
     0
 67
     7
176
     0
 79
     5
176
     0
170
     0
176
     0
171
     0
176
     0
290
     0
176
     0
 93
        1
176
     0
 44
0.0
176
     0
173
     0
176
     0
  0
VISUALSTYLE
  5
107A
102
{ACAD_REACTORS
330
1071
102
}
330
1071
100
AcDbVisualStyle
  2
Realistic
 70
     8
177
     2
291
     0
 71
     2
176
     1
 72
     3
176
     1
 73
     0
176
     1
 90
        2
176
     1
 40
0.6
176
     1
 41
30.0
176
     1
 62
     5
 63
     7
421
 16777215
176
     1
 74
     0
176
     1
 91
        0
176
     1
 64
     7
176
     1
 65
   257
176
     1
 75
     1
176
     1
175
     1
176
     1
 42
1.0
176
     1
 92
        8
176
     1
 66
   257
176
     1
 43
1.0
176
     1
 76
     1
176
     1
 77
     6
176
     1
 78
     2
176
     1
 67
     7
176
     1
 79
     3
176
     1
170
     0
176
     1
171
     0
176
     1
290
     0
176
     1
 93
       13
176
     1
 44
0.0
176
     1
173
     0
176
     1
  0
VISUALSTYLE
  5
1089
102
{ACAD_REACTORS
330
1071
102
}
330
1071
100
AcDbVisualStyle
  2
Shaded
 70
    27
177
     2
291
     0
 71
     2
176
     1
 72
     2
176
     1
 73
     1
176
     1
 90
        2
176
     1
 40
0.6
176
     1
 41
30.0
176
     1
 62
     5
 63
     7
421
 16777215
176
     1
 74
     0
176
     1
 91
        4
176
     1
 64
     7
176
     1
 65
   257
176
     1
 75
     1
176
     1
175
     1
176
     1
 42
1.0
176
     1
 92
        8
176
     1
 66
   257
176
     1
 43
1.0
176
     1
 76
     1
176
     1
 77
     6
176
     1
 78
     2
176
     1
 67
     8
425
  7895160
176
     1
 79
     3
176
     1
170
     0
176
     1
171
     0
176
     1
290
     0
176
     1
 93
        5
176
     1
 44
0.0
176
     1
173
     0
176
     1
  0
VISUALSTYLE
  5
1088
102
{ACAD_REACTORS
330
1071
102
}
330
1071
100
AcDbVisualStyle
  2
Shaded with edges
 70
    26
177
     2
291
     0
 71
     2
176
     1
 72
     2
176
     1
 73
     1
176
     1
 90
        2
176
     1
 40
0.6
176
     1
 41
30.0
176
     1
 62
     5
 63
     7
421
 16777215
176
     1
 74
     1
176
     1
 91
       10
176
     1
 64
     7
176
     1
 65
   257
176
     1
 75
     2
176
     1
175
     1
176
     1
 42
1.0
176
     1
 92
        8
176
     1
 66
   257
176
     1
 43
1.0
176
     1
 76
     1
176
     1
 77
     6
176
     1
 78
     2
176
     1
 67
     7
176
     1
 79
     3
176
     1
170
     0
176
     1
171
     0
176
     1
290
     0
176
     1
 93
        5
176
     1
 44
0.0
176
     1
173
     0
176
     1
  0
VISUALSTYLE
  5
1085
102
{ACAD_REACTORS
330
1071
102
}
330
1071
100
AcDbVisualStyle
  2
Shades of Gray
 70
    23
177
     2
291
     0
 71
     2
176
     1
 72
     2
176
     1
 73
     3
176
     1
 90
        0
176
     1
 40
0.6
176
     1
 41
30.0
176
     1
 62
     5
 63
     7
421
 16777215
176
     1
 74
     2
176
     1
 91
        2
176
     1
 64
     7
176
     1
 65
     7
176
     1
 75
     1
176
     1
175
     1
176
     1
 42
40.0
176
     1
 92
        8
176
     1
 66
     7
176
     1
 43
1.0
176
     1
 76
     1
176
     1
 77
     6
176
     1
 78
     2
176
     1
 67
     7
176
     1
 79
     3
176
     1
170
     0
176
     1
171
     0
176
     1
290
     0
176
     1
 93
        1
176
     1
 44
0.0
176
     1
173
     0
176
     1
  0
VISUALSTYLE
  5
1086
102
{ACAD_REACTORS
330
1071
102
}
330
1071
100
AcDbVisualStyle
  2
Sketchy
 70
    24
177
     2
291
     0
 71
     1
176
     1
 72
     2
176
     1
 73
     2
176
     1
 90
        0
176
     1
 40
0.6
176
     1
 41
30.0
176
     1
 62
     5
 63
     7
421
 16777215
176
     1
 74
     2
176
     1
 91
        2
176
     1
 64
     7
176
     1
 65
     7
176
     1
 75
     1
176
     1
175
     1
176
     1
 42
40.0
176
     1
 92
       11
176
     1
 66
     7
176
     1
 43
1.0
176
     1
 76
     1
176
     1
 77
     6
176
     1
 78
     2
176
     1
 67
     7
176
     1
 79
     6
176
     1
170
     0
176
     1
171
     0
176
     1
290
     0
176
     1
 93
        1
176
     1
 44
0.0
176
     1
173
     0
176
     1
  0
VISUALSTYLE
  5
107E
102
{ACAD_REACTORS
330
1071
102
}
330
1071
100
AcDbVisualStyle
  2
Thicken
 70
    13
177
     2
291
     1
 71
     2
176
     1
 72
     2
176
     1
 73
     0
176
     1
 90
        0
176
     1
 40
0.6
176
     1
 41
30.0
176
     1
 62
     5
 63
     7
421
 16777215
176
     1
 74
     1
176
     1
 91
        4
176
     1
 64
     7
176
     1
 65
   257
176
     1
 75
     1
176
     1
175
     1
176
     1
 42
1.0
176
     1
 92
       12
176
     1
 66
     7
176
     1
 43
1.0
176
     1
 76
     1
176
     1
 77
     6
176
     1
 78
     2
176
     1
 67
     7
176
     1
 79
     5
176
     1
170
     0
176
     1
171
     0
176
     1
290
     0
176
     1
 93
        1
176
     1
 44
0.0
176
     1
173
     0
176
     1
  0
VISUALSTYLE
  5
1077
102
{ACAD_REACTORS
330
1071
102
}
330
1071
100
AcDbVisualStyle
  2
Wireframe
 70
     5
177
     2
291
     0
 71
     0
176
     1
 72
     2
176
     1
 73
     0
176
     1
 90
        0
176
     1
 40
0.6
176
     1
 41
30.0
176
     1
 62
     5
 63
     7
421
 16777215
176
     1
 74
     1
176
     1
 91
        4
176
     1
 64
     7
176
     1
 65
   257
176
     1
 75
     1
176
     1
175
     1
176
     1
 42
1.0
176
     1
 92
        0
176
     1
 66
   257
176
     1
 43
1.0
176
     1
 76
     1
176
     1
 77
     6
176
     1
 78
     2
176
     1
 67
     7
176
     1
 79
     3
176
     1
170
     0
176
     1
171
     0
176
     1
290
     0
176
     1
 93
        1
176
     1
 44
0.0
176
     1
173
     0
176
     1
  0
VISUALSTYLE
  5
1087
102
{ACAD_REACTORS
330
1071
102
}
330
1071
100
AcDbVisualStyle
  2
X-Ray
 70
    25
177
     2
291
     0
 71
     2
176
     1
 72
     2
176
     1
 73
     1
176
     1
 90
        1
176
     1
 40
0.5
176
     1
 41
30.0
176
     1
 62
     5
 63
     7
421
 16777215
176
     1
 74
     1
176
     1
 91
        0
176
     1
 64
     7
176
     1
 65
   257
176
     1
 75
     1
176
     1
175
     1
176
     1
 42
1.0
176
     1
 92
        8
176
     1
 66
     7
176
     1
 43
1.0
176
     1
 76
     1
176
     1
 77
     6
176
     1
 78
     2
176
     1
 67
     7
176
     1
 79
     3
176
     1
170
     0
176
     1
171
     0
176
     1
290
     0
176
     1
 93
       13
176
     1
 44
0.0
176
     1
173
     0
176
     1
  0
DICTIONARYVAR
  5
10BE
102
{ACAD_REACTORS
330
10BD
102
}
330
10BD
100
DictionaryVariables
280
     0
  1
1:1
  0
DICTIONARYVAR
  5
10C0
102
{ACAD_REACTORS
330
10BD
102
}
330
10BD
100
DictionaryVariables
280
     0
  1
Standard
  0
DICTIONARYVAR
  5
10BF
102
{ACAD_REACTORS
330
10BD
102
}
330
10BD
100
DictionaryVariables
280
     0
  1
Standard
  0
DICTIONARYVAR
  5
10C1
102
{ACAD_REACTORS
330
10BD
102
}
330
10BD
100
DictionaryVariables
280
     0
  1
0
  0
DICTIONARY
  5
3D96
330
10B7
100
AcDbDictionary
280
     1
281
     1
  3
ACAD_ROUNDTRIP_2008_TABLESTYLE_CELLSTYLEMAP
360
3D97
  0
CELLSTYLEMAP
  5
3D97
102
{ACAD_REACTORS
330
3D96
102
}
330
3D96
100
AcDbCellStyleMap
 90
        3
300
CELLSTYLE
  1
TABLEFORMAT_BEGIN
 90
        5
170
     1
 91
        0
 92
    32768
 62
   257
 93
        1
300
CONTENTFORMAT
  1
CONTENTFORMAT_BEGIN
 90
        0
 91
        0
 92
        4
 93
        0
300

 40
0.0
140
1.0
 94
        5
 62
     0
340
D
144
0.25
309
CONTENTFORMAT_END
171
     1
301
MARGIN
  1
CELLMARGIN_BEGIN
 40
0.06
 40
0.06
 40
0.06
 40
0.06
 40
0.06
 40
0.06
309
CELLMARGIN_END
 94
        6
 95
        1
302
GRIDFORMAT
  1
GRIDFORMAT_BEGIN
 90
        0
 91
        1
 62
     0
 92
       -2
340
F
 93
        0
 40
0.045
309
GRIDFORMAT_END
 95
        2
302
GRIDFORMAT
  1
GRIDFORMAT_BEGIN
 90
        0
 91
        1
 62
     0
 92
       -2
340
F
 93
        0
 40
0.045
309
GRIDFORMAT_END
 95
        4
302
GRIDFORMAT
  1
GRIDFORMAT_BEGIN
 90
        0
 91
        1
 62
     0
 92
       -2
340
F
 93
        0
 40
0.045
309
GRIDFORMAT_END
 95
        8
302
GRIDFORMAT
  1
GRIDFORMAT_BEGIN
 90
        0
 91
        1
 62
     0
 92
       -2
340
F
 93
        0
 40
0.045
309
GRIDFORMAT_END
 95
       16
302
GRIDFORMAT
  1
GRIDFORMAT_BEGIN
 90
        0
 91
        1
 62
     0
 92
       -2
340
F
 93
        0
 40
0.045
309
GRIDFORMAT_END
 95
       32
302
GRIDFORMAT
  1
GRIDFORMAT_BEGIN
 90
        0
 91
        1
 62
     0
 92
       -2
340
F
 93
        0
 40
0.045
309
GRIDFORMAT_END
309
TABLEFORMAT_END
  1
CELLSTYLE_BEGIN
 90
        1
 91
        1
300
_TITLE
309
CELLSTYLE_END
300
CELLSTYLE
  1
TABLEFORMAT_BEGIN
 90
        5
170
     1
 91
        0
 92
        0
 62
   257
 93
        1
300
CONTENTFORMAT
  1
CONTENTFORMAT_BEGIN
 90
        0
 91
        0
 92
        4
 93
        0
300

 40
0.0
140
1.0
 94
        5
 62
     0
340
D
144
0.18
309
CONTENTFORMAT_END
171
     1
301
MARGIN
  1
CELLMARGIN_BEGIN
 40
0.06
 40
0.06
 40
0.06
 40
0.06
 40
0.06
 40
0.06
309
CELLMARGIN_END
 94
        6
 95
        1
302
GRIDFORMAT
  1
GRIDFORMAT_BEGIN
 90
        0
 91
        1
 62
     0
 92
       -2
340
F
 93
        0
 40
0.045
309
GRIDFORMAT_END
 95
        2
302
GRIDFORMAT
  1
GRIDFORMAT_BEGIN
 90
        0
 91
        1
 62
     0
 92
       -2
340
F
 93
        0
 40
0.045
309
GRIDFORMAT_END
 95
        4
302
GRIDFORMAT
  1
GRIDFORMAT_BEGIN
 90
        0
 91
        1
 62
     0
 92
       -2
340
F
 93
        0
 40
0.045
309
GRIDFORMAT_END
 95
        8
302
GRIDFORMAT
  1
GRIDFORMAT_BEGIN
 90
        0
 91
        1
 62
     0
 92
       -2
340
F
 93
        0
 40
0.045
309
GRIDFORMAT_END
 95
       16
302
GRIDFORMAT
  1
GRIDFORMAT_BEGIN
 90
        0
 91
        1
 62
     0
 92
       -2
340
F
 93
        0
 40
0.045
309
GRIDFORMAT_END
 95
       32
302
GRIDFORMAT
  1
GRIDFORMAT_BEGIN
 90
        0
 91
        1
 62
     0
 92
       -2
340
F
 93
        0
 40
0.045
309
GRIDFORMAT_END
309
TABLEFORMAT_END
  1
CELLSTYLE_BEGIN
 90
        2
 91
        1
300
_HEADER
309
CELLSTYLE_END
300
CELLSTYLE
  1
TABLEFORMAT_BEGIN
 90
        5
170
     1
 91
        0
 92
        0
 62
   257
 93
        1
300
CONTENTFORMAT
  1
CONTENTFORMAT_BEGIN
 90
        0
 91
        0
 92
        4
 93
        0
300

 40
0.0
140
1.0
 94
        2
 62
     0
340
D
144
0.18
309
CONTENTFORMAT_END
171
     1
301
MARGIN
  1
CELLMARGIN_BEGIN
 40
0.06
 40
0.06
 40
0.06
 40
0.06
 40
0.06
 40
0.06
309
CELLMARGIN_END
 94
        6
 95
        1
302
GRIDFORMAT
  1
GRIDFORMAT_BEGIN
 90
        0
 91
        1
 62
     0
 92
       -2
340
F
 93
        0
 40
0.045
309
GRIDFORMAT_END
 95
        2
302
GRIDFORMAT
  1
GRIDFORMAT_BEGIN
 90
        0
 91
        1
 62
     0
 92
       -2
340
F
 93
        0
 40
0.045
309
GRIDFORMAT_END
 95
        4
302
GRIDFORMAT
  1
GRIDFORMAT_BEGIN
 90
        0
 91
        1
 62
     0
 92
       -2
340
F
 93
        0
 40
0.045
309
GRIDFORMAT_END
 95
        8
302
GRIDFORMAT
  1
GRIDFORMAT_BEGIN
 90
        0
 91
        1
 62
     0
 92
       -2
340
F
 93
        0
 40
0.045
309
GRIDFORMAT_END
 95
       16
302
GRIDFORMAT
  1
GRIDFORMAT_BEGIN
 90
        0
 91
        1
 62
     0
 92
       -2
340
F
 93
        0
 40
0.045
309
GRIDFORMAT_END
 95
       32
302
GRIDFORMAT
  1
GRIDFORMAT_BEGIN
 90
        0
 91
        1
 62
     0
 92
       -2
340
F
 93
        0
 40
0.045
309
GRIDFORMAT_END
309
TABLEFORMAT_END
  1
CELLSTYLE_BEGIN
 90
        3
 91
        2
300
_DATA
309
CELLSTYLE_END
  0
ENDSEC
  0
EOF
