  0
SECTION
  2
HEADER
  9
$ACADVER
  1
AC1027
  9
$ACADMAINTVER
 70
   105
  9
$DWGCODEPAGE
  3
ANSI_932
  9
$REQUIREDVERSIONS
160
                 0
  9
$LASTSAVEDBY
  1
y-iwai
  9
$INSBASE
 10
0.0
 20
0.0
 30
0.0
  9
$EXTMIN
 10
344.5183212888838
 20
-139.3312432174716
 30
0.0
  9
$EXTMAX
 10
913.1583212888839
 20
414.2592773334488
 30
0.3276209051444079
  9
$LIMMIN
 10
-81.7274712834973
 20
-82.09691670234218
  9
$LIMMAX
 10
197.756758292511
 20
111.3183366585678
  9
$ORTHOMODE
 70
     1
  9
$REGENMODE
 70
     1
  9
$FILLMODE
 70
     1
  9
$QTEXTMODE
 70
     0
  9
$MIRRTEXT
 70
     1
  9
$LTSCALE
 40
1.0
  9
$ATTMODE
 70
     1
  9
$TEXTSIZE
 40
3.5
  9
$TRACEWID
 40
0.5
  9
$TEXTSTYLE
  7
STANDARD
  9
$CLAYER
  8
0
  9
$CELTYPE
  6
ByLayer
  9
$CECOLOR
 62
   256
  9
$CELTSCALE
 40
1.0
  9
$DISPSILH
 70
     0
  9
$DIMSCALE
 40
1.0
  9
$DIMASZ
 40
0.18
  9
$DIMEXO
 40
0.0625
  9
$DIMDLI
 40
0.38
  9
$DIMRND
 40
0.0
  9
$DIMDLE
 40
0.0
  9
$DIMEXE
 40
0.18
  9
$DIMTP
 40
0.0
  9
$DIMTM
 40
0.0
  9
$DIMTXT
 40
0.18
  9
$DIMCEN
 40
0.09
  9
$DIMTSZ
 40
0.0
  9
$DIMTOL
 70
     0
  9
$DIMLIM
 70
     0
  9
$DIMTIH
 70
     1
  9
$DIMTOH
 70
     1
  9
$DIMSE1
 70
     0
  9
$DIMSE2
 70
     0
  9
$DIMTAD
 70
     0
  9
$DIMZIN
 70
     0
  9
$DIMBLK
  1

  9
$DIMASO
 70
     1
  9
$DIMSHO
 70
     1
  9
$DIMPOST
  1

  9
$DIMAPOST
  1

  9
$DIMALT
 70
     0
  9
$DIMALTD
 70
     2
  9
$DIMALTF
 40
25.4
  9
$DIMLFAC
 40
1.0
  9
$DIMTOFL
 70
     0
  9
$DIMTVP
 40
0.0
  9
$DIMTIX
 70
     0
  9
$DIMSOXD
 70
     0
  9
$DIMSAH
 70
     0
  9
$DIMBLK1
  1

  9
$DIMBLK2
  1

  9
$DIMSTYLE
  2
Standard
  9
$DIMCLRD
 70
     0
  9
$DIMCLRE
 70
     0
  9
$DIMCLRT
 70
     0
  9
$DIMTFAC
 40
1.0
  9
$DIMGAP
 40
0.09
  9
$DIMJUST
 70
     0
  9
$DIMSD1
 70
     0
  9
$DIMSD2
 70
     0
  9
$DIMTOLJ
 70
     1
  9
$DIMTZIN
 70
     0
  9
$DIMALTZ
 70
     0
  9
$DIMALTTZ
 70
     0
  9
$DIMUPT
 70
     0
  9
$DIMDEC
 70
     4
  9
$DIMTDEC
 70
     4
  9
$DIMALTU
 70
     2
  9
$DIMALTTD
 70
     2
  9
$DIMTXSTY
  7
STANDARD
  9
$DIMAUNIT
 70
     0
  9
$DIMADEC
 70
     0
  9
$DIMALTRND
 40
0.0
  9
$DIMAZIN
 70
     0
  9
$DIMDSEP
 70
    46
  9
$DIMATFIT
 70
     3
  9
$DIMFRAC
 70
     0
  9
$DIMLDRBLK
  1

  9
$DIMLUNIT
 70
     2
  9
$DIMLWD
 70
    -2
  9
$DIMLWE
 70
    -2
  9
$DIMTMOVE
 70
     2
  9
$DIMFXL
 40
1.0
  9
$DIMFXLON
 70
     0
  9
$DIMJOGANG
 40
0.7853981633974483
  9
$DIMTFILL
 70
     0
  9
$DIMTFILLCLR
 70
     0
  9
$DIMARCSYM
 70
     0
  9
$DIMLTYPE
  6

  9
$DIMLTEX1
  6

  9
$DIMLTEX2
  6

  9
$DIMTXTDIRECTION
 70
     0
  9
$LUNITS
 70
     2
  9
$LUPREC
 70
     4
  9
$SKETCHINC
 40
0.1
  9
$FILLETRAD
 40
2.0
  9
$AUNITS
 70
     0
  9
$AUPREC
 70
     0
  9
$MENU
  1
ACAD
  9
$ELEVATION
 40
0.0
  9
$PELEVATION
 40
0.0
  9
$THICKNESS
 40
0.0
  9
$LIMCHECK
 70
     0
  9
$CHAMFERA
 40
0.0
  9
$CHAMFERB
 40
0.0
  9
$CHAMFERC
 40
0.0
  9
$CHAMFERD
 40
0.0
  9
$SKPOLY
 70
     0
  9
$TDCREATE
 40
2458760.461337408
  9
$TDUCREATE
 40
2458760.086337408
  9
$TDUPDATE
 40
2458871.658581296
  9
$TDUUPDATE
 40
2458871.283581296
  9
$TDINDWG
 40
0.0055288657
  9
$TDUSRTIMER
 40
0.0003934606
  9
$USRTIMER
 70
     1
  9
$ANGBASE
 50
0.0
  9
$ANGDIR
 70
     0
  9
$PDMODE
 70
     0
  9
$PDSIZE
 40
0.0
  9
$PLINEWID
 40
0.0
  9
$SPLFRAME
 70
     0
  9
$SPLINETYPE
 70
     6
  9
$SPLINESEGS
 70
     8
  9
$HANDSEED
  5
1F07
  9
$SURFTAB1
 70
     6
  9
$SURFTAB2
 70
     6
  9
$SURFTYPE
 70
     6
  9
$SURFU
 70
     6
  9
$SURFV
 70
     6
  9
$UCSBASE
  2

  9
$UCSNAME
  2

  9
$UCSORG
 10
0.0
 20
0.0
 30
0.0
  9
$UCSXDIR
 10
1.0
 20
0.0
 30
0.0
  9
$UCSYDIR
 10
0.0
 20
1.0
 30
0.0
  9
$UCSORTHOREF
  2

  9
$UCSORTHOVIEW
 70
     0
  9
$UCSORGTOP
 10
0.0
 20
0.0
 30
0.0
  9
$UCSORGBOTTOM
 10
0.0
 20
0.0
 30
0.0
  9
$UCSORGLEFT
 10
0.0
 20
0.0
 30
0.0
  9
$UCSORGRIGHT
 10
0.0
 20
0.0
 30
0.0
  9
$UCSORGFRONT
 10
0.0
 20
0.0
 30
0.0
  9
$UCSORGBACK
 10
0.0
 20
0.0
 30
0.0
  9
$PUCSBASE
  2

  9
$PUCSNAME
  2

  9
$PUCSORG
 10
0.0
 20
0.0
 30
0.0
  9
$PUCSXDIR
 10
1.0
 20
0.0
 30
0.0
  9
$PUCSYDIR
 10
0.0
 20
1.0
 30
0.0
  9
$PUCSORTHOREF
  2

  9
$PUCSORTHOVIEW
 70
     0
  9
$PUCSORGTOP
 10
0.0
 20
0.0
 30
0.0
  9
$PUCSORGBOTTOM
 10
0.0
 20
0.0
 30
0.0
  9
$PUCSORGLEFT
 10
0.0
 20
0.0
 30
0.0
  9
$PUCSORGRIGHT
 10
0.0
 20
0.0
 30
0.0
  9
$PUCSORGFRONT
 10
0.0
 20
0.0
 30
0.0
  9
$PUCSORGBACK
 10
0.0
 20
0.0
 30
0.0
  9
$USERI1
 70
     0
  9
$USERI2
 70
     0
  9
$USERI3
 70
     0
  9
$USERI4
 70
     0
  9
$USERI5
 70
     0
  9
$USERR1
 40
0.0
  9
$USERR2
 40
0.0
  9
$USERR3
 40
0.0
  9
$USERR4
 40
0.0
  9
$USERR5
 40
0.0
  9
$WORLDVIEW
 70
     1
  9
$SHADEDGE
 70
     3
  9
$SHADEDIF
 70
    70
  9
$TILEMODE
 70
     1
  9
$MAXACTVP
 70
    64
  9
$PINSBASE
 10
0.0
 20
0.0
 30
0.0
  9
$PLIMCHECK
 70
     0
  9
$PEXTMIN
 10
1.000000000000000E+20
 20
1.000000000000000E+20
 30
1.000000000000000E+20
  9
$PEXTMAX
 10
-1.000000000000000E+20
 20
-1.000000000000000E+20
 30
-1.000000000000000E+20
  9
$PLIMMIN
 10
0.0
 20
0.0
  9
$PLIMMAX
 10
0.0
 20
0.0
  9
$UNITMODE
 70
     0
  9
$VISRETAIN
 70
     1
  9
$PLINEGEN
 70
     0
  9
$PSLTSCALE
 70
     1
  9
$TREEDEPTH
 70
  3020
  9
$CMLSTYLE
  2
Standard
  9
$CMLJUST
 70
     0
  9
$CMLSCALE
 40
1.0
  9
$PROXYGRAPHICS
 70
     1
  9
$MEASUREMENT
 70
     0
  9
$CELWEIGHT
370
    -1
  9
$ENDCAPS
280
     0
  9
$JOINSTYLE
280
     0
  9
$LWDISPLAY
290
     0
  9
$INSUNITS
 70
     0
  9
$HYPERLINKBASE
  1

  9
$STYLESHEET
  1

  9
$XEDIT
290
     1
  9
$CEPSNTYPE
380
     0
  9
$PSTYLEMODE
290
     1
  9
$FINGERPRINTGUID
  2
{D7599CE8-DAA8-43CA-95E3-2A82FAB9818C}
  9
$VERSIONGUID
  2
{FAEB1C32-E019-11D5-929B-00C0DF256EC4}
  9
$EXTNAMES
290
     1
  9
$PSVPSCALE
 40
0.0
  9
$OLESTARTUP
290
     0
  9
$SORTENTS
280
   127
  9
$INDEXCTL
280
     0
  9
$HIDETEXT
280
     1
  9
$XCLIPFRAME
280
     2
  9
$HALOGAP
280
     0
  9
$OBSCOLOR
 70
   257
  9
$OBSLTYPE
280
     0
  9
$INTERSECTIONDISPLAY
280
     0
  9
$INTERSECTIONCOLOR
 70
   257
  9
$DIMASSOC
280
     2
  9
$PROJECTNAME
  1

  9
$CAMERADISPLAY
290
     0
  9
$LENSLENGTH
 40
50.0
  9
$CAMERAHEIGHT
 40
0.0
  9
$STEPSPERSEC
 40
2.0
  9
$STEPSIZE
 40
6.0
  9
$3DDWFPREC
 40
2.0
  9
$PSOLWIDTH
 40
0.25
  9
$PSOLHEIGHT
 40
4.0
  9
$LOFTANG1
 40
1.570796326794897
  9
$LOFTANG2
 40
1.570796326794897
  9
$LOFTMAG1
 40
0.0
  9
$LOFTMAG2
 40
0.0
  9
$LOFTPARAM
 70
     7
  9
$LOFTNORMALS
280
     1
  9
$LATITUDE
 40
37.795
  9
$LONGITUDE
 40
-122.394
  9
$NORTHDIRECTION
 40
0.0
  9
$TIMEZONE
 70
 -8000
  9
$LIGHTGLYPHDISPLAY
280
     1
  9
$TILEMODELIGHTSYNCH
280
     1
  9
$SOLIDHIST
280
     0
  9
$SHOWHIST
280
     1
  9
$DWFFRAME
280
     2
  9
$DGNFRAME
280
     2
  9
$REALWORLDSCALE
290
     1
  9
$INTERFERECOLOR
 62
   256
  9
$CSHADOW
280
     0
  9
$SHADOWPLANELOCATION
 40
0.0
  0
ENDSEC
  0
SECTION
  2
CLASSES
  0
CLASS
  1
ACDBDICTIONARYWDFLT
  2
AcDbDictionaryWithDefault
  3
ObjectDBX Classes
 90
        0
 91
        4
280
     0
281
     0
  0
CLASS
  1
MATERIAL
  2
AcDbMaterial
  3
ObjectDBX Classes
 90
     1153
 91
        4
280
     0
281
     0
  0
CLASS
  1
SCALE
  2
AcDbScale
  3
ObjectDBX Classes
 90
     1153
 91
        4
280
     0
281
     0
  0
CLASS
  1
VISUALSTYLE
  2
AcDbVisualStyle
  3
ObjectDBX Classes
 90
     4095
 91
        4
280
     0
281
     0
  0
CLASS
  1
TABLESTYLE
  2
AcDbTableStyle
  3
ObjectDBX Classes
 90
     4095
 91
        4
280
     0
281
     0
  0
CLASS
  1
MLEADERSTYLE
  2
AcDbMLeaderStyle
  3
ACDB_MLEADERSTYLE_CLASS
 90
     4095
 91
        4
280
     0
281
     0
  0
CLASS
  1
SUN
  2
AcDbSun
  3
SCENEOE
 90
     1153
 91
        4
280
     0
281
     0
  0
CLASS
  1
RASTERVARIABLES
  2
AcDbRasterVariables
  3
ISM
 90
        0
 91
        4
280
     0
281
     0
  0
CLASS
  1
DICTIONARYVAR
  2
AcDbDictionaryVar
  3
ObjectDBX Classes
 90
        0
 91
        4
280
     0
281
     0
  0
CLASS
  1
DIMASSOC
  2
AcDbDimAssoc
  3
"AcDbDimAssoc|Product Desc:     AcDim ARX App For Dimension|Company:          Autodesk, Inc.|WEB Address:      www.autodesk.com"
 90
        0
 91
        4
280
     0
281
     0
  0
CLASS
  1
CELLSTYLEMAP
  2
AcDbCellStyleMap
  3
ObjectDBX Classes
 90
     1152
 91
        4
280
     0
281
     0
  0
ENDSEC
  0
SECTION
  2
TABLES
  0
TABLE
  2
VPORT
  5
8
330
0
100
AcDbSymbolTable
 70
     1
  0
VPORT
  5
34
330
8
100
AcDbSymbolTableRecord
100
AcDbViewportTableRecord
  2
*Active
 70
     0
 10
0.0
 20
0.0
 11
1.0
 21
1.0
 12
628.8383212888839
 22
137.4640170579886
 13
0.0
 23
0.0
 14
0.5
 24
0.5
 15
0.5
 25
0.5
 16
0.0
 26
0.0
 36
1.0
 17
0.0
 27
0.0
 37
0.0
 40
564.6623309619389
 41
2.578253706754531
 42
50.0
 43
0.0
 44
0.0
 50
0.0
 51
0.0
 71
    16
 72
   100
 73
     1
 74
     3
 75
     0
 76
     0
 77
     0
 78
     0
281
     0
 65
     1
110
0.0
120
0.0
130
0.0
111
1.0
121
0.0
131
0.0
112
0.0
122
1.0
132
0.0
 79
     0
146
0.0
348
13A
 60
     3
 61
     5
292
     1
282
     1
141
0.0
142
0.0
 63
   250
361
153
  0
ENDTAB
  0
TABLE
  2
LTYPE
  5
5
330
0
100
AcDbSymbolTable
 70
    10
  0
LTYPE
  5
14
330
5
100
AcDbSymbolTableRecord
100
AcDbLinetypeTableRecord
  2
ByBlock
 70
     0
  3

 72
    65
 73
     0
 40
0.0
  0
LTYPE
  5
15
330
5
100
AcDbSymbolTableRecord
100
AcDbLinetypeTableRecord
  2
ByLayer
 70
     0
  3

 72
    65
 73
     0
 40
0.0
  0
LTYPE
  5
16
330
5
100
AcDbSymbolTableRecord
100
AcDbLinetypeTableRecord
  2
CONTINUOUS
 70
     0
  3
Solid line
 72
    65
 73
     0
 40
0.0
  0
LTYPE
  5
21
330
5
100
AcDbSymbolTableRecord
100
AcDbLinetypeTableRecord
  2
BORDER
 70
     0
  3
__ __ . __ __ .
 72
    65
 73
     6
 40
12.87098425678986
 49
3.67742407336853
 74
     0
 49
-1.838712036684265
 74
     0
 49
3.67742407336853
 74
     0
 49
-1.838712036684265
 74
     0
 49
0.0
 74
     0
 49
-1.838712036684265
 74
     0
  0
LTYPE
  5
22
330
5
100
AcDbSymbolTableRecord
100
AcDbLinetypeTableRecord
  2
CENTER
 70
     0
  3
____ _ ____ _
 72
    65
 73
     4
 40
14.70969629347412
 49
9.193560183421324
 74
     0
 49
-1.838712036684265
 74
     0
 49
1.838712036684265
 74
     0
 49
-1.838712036684265
 74
     0
  0
LTYPE
  5
23
330
5
100
AcDbSymbolTableRecord
100
AcDbLinetypeTableRecord
  2
DASHDOT
 70
     0
  3
__ . __ . __ .
 72
    65
 73
     4
 40
7.35484814673706
 49
3.67742407336853
 74
     0
 49
-1.838712036684265
 74
     0
 49
0.0
 74
     0
 49
-1.838712036684265
 74
     0
  0
LTYPE
  5
24
330
5
100
AcDbSymbolTableRecord
100
AcDbLinetypeTableRecord
  2
DASHED
 70
     0
  3
__ __ __ __ __
 72
    65
 73
     2
 40
5.516136110052795
 49
3.67742407336853
 74
     0
 49
-1.838712036684265
 74
     0
  0
LTYPE
  5
25
330
5
100
AcDbSymbolTableRecord
100
AcDbLinetypeTableRecord
  2
DIVIDE
 70
     0
  3
__ . . __ . . 
 72
    65
 73
     6
 40
9.193560183421326
 49
3.67742407336853
 74
     0
 49
-1.838712036684265
 74
     0
 49
0.0
 74
     0
 49
-1.838712036684265
 74
     0
 49
0.0
 74
     0
 49
-1.838712036684265
 74
     0
  0
LTYPE
  5
26
330
5
100
AcDbSymbolTableRecord
100
AcDbLinetypeTableRecord
  2
DOT
 70
     0
  3
..............
 72
    65
 73
     4
 40
3.67742407336853
 49
0.0
 74
     0
 49
-1.838712036684265
 74
     0
 49
0.0
 74
     0
 49
-1.838712036684265
 74
     0
  0
LTYPE
  5
27
330
5
100
AcDbSymbolTableRecord
100
AcDbLinetypeTableRecord
  2
HIDDEN
 70
     0
  3
_ _ _ _ _ _ _
 72
    65
 73
     2
 40
2.758068055026397
 49
1.838712036684265
 74
     0
 49
-0.9193560183421324
 74
     0
  0
LTYPE
  5
28
330
5
100
AcDbSymbolTableRecord
100
AcDbLinetypeTableRecord
  2
PHANTOM
 70
     0
  3
_____ _ _ _____ _ _ 
 72
    65
 73
     6
 40
18.38712036684265
 49
9.193560183421324
 74
     0
 49
-1.838712036684265
 74
     0
 49
1.838712036684265
 74
     0
 49
-1.838712036684265
 74
     0
 49
1.838712036684265
 74
     0
 49
-1.838712036684265
 74
     0
  0
LTYPE
  5
48C
330
5
100
AcDbSymbolTableRecord
100
AcDbLinetypeTableRecord
  2
CENTER1
 70
     0
  3
----- - ----- - ----- - ----- - ----- - -----
 72
    65
 73
     4
 40
20.0
 49
15.0
 74
     0
 49
-1.5
 74
     0
 49
2.0
 74
     0
 49
-1.5
 74
     0
  0
ENDTAB
  0
TABLE
  2
LAYER
  5
2
102
{ACAD_XDICTIONARY
360
1AB1
102
}
330
0
100
AcDbSymbolTable
 70
    10
  0
LAYER
  5
10
330
2
100
AcDbSymbolTableRecord
100
AcDbLayerTableRecord
  2
0
 70
     0
 62
     7
  6
CONTINUOUS
370
    -3
390
F
347
2E
348
0
  0
LAYER
  5
29
330
2
100
AcDbSymbolTableRecord
100
AcDbLayerTableRecord
  2
1
 70
     0
 62
     7
  6
CONTINUOUS
370
    -3
390
F
347
2E
348
0
  0
LAYER
  5
156
330
2
100
AcDbSymbolTableRecord
100
AcDbLayerTableRecord
  2
PV
 70
     0
 62
     7
  6
CONTINUOUS
370
    -3
390
F
347
2E
348
0
  0
LAYER
  5
158
330
2
100
AcDbSymbolTableRecord
100
AcDbLayerTableRecord
  2
L-ZISSEN
 70
     0
 62
     7
  6
CONTINUOUS
370
    -3
390
F
347
2E
348
0
  0
LAYER
  5
159
330
2
100
AcDbSymbolTableRecord
100
AcDbLayerTableRecord
  2
L-HASEN
 70
     0
 62
     5
  6
DASHED
370
    -3
390
F
347
2E
348
0
  0
LAYER
  5
486
330
2
100
AcDbSymbolTableRecord
100
AcDbLayerTableRecord
  2
L-TYUSIN
 70
     0
 62
     1
  6
CENTER
370
    -3
390
F
347
2E
348
0
  0
LAYER
  5
48A
330
2
100
AcDbSymbolTableRecord
100
AcDbLayerTableRecord
  2
L-SOUZOU
 70
     0
 62
     2
  6
PHANTOM
370
    -3
390
F
347
2E
348
0
  0
LAYER
  5
1781
330
2
100
AcDbSymbolTableRecord
100
AcDbLayerTableRecord
  2
SUNPOU
 70
     0
 62
     3
  6
CONTINUOUS
370
    -3
390
F
347
2E
348
0
  0
LAYER
  5
1786
330
2
100
AcDbSymbolTableRecord
100
AcDbLayerTableRecord
  2
L-SAISEN
 70
     0
 62
     6
  6
CONTINUOUS
370
    -3
390
F
347
2E
348
0
  0
LAYER
  5
1D94
330
2
100
AcDbSymbolTableRecord
100
AcDbLayerTableRecord
  2
Defpoints
 70
     0
 62
     7
  6
CONTINUOUS
290
     0
370
    -3
390
F
347
2E
348
0
  0
ENDTAB
  0
TABLE
  2
STYLE
  5
3
330
0
100
AcDbSymbolTable
 70
     5
  0
STYLE
  5
11
330
3
100
AcDbSymbolTableRecord
100
AcDbTextStyleTableRecord
  2
STANDARD
 70
     0
 40
0.0
 41
1.0
 50
0.0
 71
     0
 42
3.5
  3
txt
  4

  0
STYLE
  5
30
330
3
100
AcDbSymbolTableRecord
100
AcDbTextStyleTableRecord
  2
SIMPLEX
 70
     0
 40
0.0
 41
1.0
 50
0.0
 71
     0
 42
3.5
  3
simplex
  4

  0
STYLE
  5
31
330
3
100
AcDbSymbolTableRecord
100
AcDbTextStyleTableRecord
  2
COMPLEX
 70
     0
 40
0.0
 41
1.0
 50
0.0
 71
     0
 42
3.5
  3
complex
  4

  0
STYLE
  5
32
330
3
100
AcDbSymbolTableRecord
100
AcDbTextStyleTableRecord
  2
ITALIC
 70
     0
 40
0.0
 41
1.0
 50
0.0
 71
     0
 42
3.5
  3
italic
  4

  0
STYLE
  5
48F
330
3
100
AcDbSymbolTableRecord
100
AcDbTextStyleTableRecord
  2
KANJI
 70
     0
 40
0.0
 41
0.8
 50
0.0
 71
     0
 42
3.5
  3
C:\Program Files\AutoCAD LT\ROMANS
  4
BIGFONT
  0
ENDTAB
  0
TABLE
  2
VIEW
  5
6
330
0
100
AcDbSymbolTable
 70
     0
  0
ENDTAB
  0
TABLE
  2
UCS
  5
7
330
0
100
AcDbSymbolTable
 70
     0
  0
ENDTAB
  0
TABLE
  2
APPID
  5
9
330
0
100
AcDbSymbolTable
 70
     1
  0
APPID
  5
12
330
9
100
AcDbSymbolTableRecord
100
AcDbRegAppTableRecord
  2
ACAD
 70
     0
  0
ENDTAB
  0
TABLE
  2
DIMSTYLE
  5
A
330
0
100
AcDbSymbolTable
 70
     2
100
AcDbDimStyleTable
  0
DIMSTYLE
105
33
330
A
100
AcDbSymbolTableRecord
100
AcDbDimStyleTableRecord
  2
Standard
 70
     0
178
     0
340
11
  0
DIMSTYLE
105
1789
330
A
100
AcDbSymbolTableRecord
100
AcDbDimStyleTableRecord
  2
STANDARD$7
 70
     0
 41
2.0
 42
1.0
 44
1.0
 73
     0
 74
     0
 77
     3
140
3.0
147
1.0
176
     3
177
     3
178
     3
340
11
  0
ENDTAB
  0
TABLE
  2
BLOCK_RECORD
  5
1
330
0
100
AcDbSymbolTable
 70
     4
  0
BLOCK_RECORD
  5
1D
330
1
100
AcDbSymbolTableRecord
100
AcDbBlockTableRecord
  2
*Model_Space
340
1E
 70
     0
280
     1
281
     0
  0
BLOCK_RECORD
  5
1B
330
1
100
AcDbSymbolTableRecord
100
AcDbBlockTableRecord
  2
*Paper_Space
340
1C
 70
     0
280
     1
281
     0
  0
BLOCK_RECORD
  5
20B
330
1
100
AcDbSymbolTableRecord
100
AcDbBlockTableRecord
  2
_OPEN
340
0
102
{BLKREFS
331
392
331
425
102
}
 70
     0
280
     1
281
     0
  0
BLOCK_RECORD
  5
1155
330
1
100
AcDbSymbolTableRecord
100
AcDbBlockTableRecord
  2
ITOH105
340
0
 70
     0
280
     1
281
     0
  0
BLOCK_RECORD
  5
1847
330
1
100
AcDbSymbolTableRecord
100
AcDbBlockTableRecord
  2
A$C024A51CF
340
0
 70
     0
280
     1
281
     0
  0
ENDTAB
  0
ENDSEC
  0
SECTION
  2
BLOCKS
  0
BLOCK
  5
131
330
1D
100
AcDbEntity
  8
0
100
AcDbBlockBegin
  2
*Model_Space
 70
     0
 10
0.0
 20
0.0
 30
0.0
  3
*Model_Space
  1

  0
ENDBLK
  5
132
330
1D
100
AcDbEntity
  8
0
100
AcDbBlockEnd
  0
BLOCK
  5
133
330
1B
100
AcDbEntity
 67
     1
  8
0
100
AcDbBlockBegin
  2
*Paper_Space
 70
     0
 10
0.0
 20
0.0
 30
0.0
  3
*Paper_Space
  1

  0
ENDBLK
  5
134
330
1B
100
AcDbEntity
 67
     1
  8
0
100
AcDbBlockEnd
  0
BLOCK
  5
20C
330
20B
100
AcDbEntity
  8
0
100
AcDbBlockBegin
  2
_OPEN
 70
     0
 10
0.0
 20
0.0
 30
0.0
  3
_OPEN
  1

  0
LINE
  5
20D
330
20B
100
AcDbEntity
  8
0
  6
ByBlock
 62
     0
100
AcDbLine
 10
-1.0
 20
0.166667
 30
0.0
 11
0.0
 21
0.0
 31
0.0
  0
LINE
  5
20E
330
20B
100
AcDbEntity
  8
0
  6
ByBlock
 62
     0
100
AcDbLine
 10
0.0
 20
0.0
 30
0.0
 11
-1.0
 21
-0.166667
 31
0.0
  0
LINE
  5
20F
330
20B
100
AcDbEntity
  8
0
  6
ByBlock
 62
     0
100
AcDbLine
 10
0.0
 20
0.0
 30
0.0
 11
-1.0
 21
0.0
 31
0.0
  0
ENDBLK
  5
210
330
20B
100
AcDbEntity
  8
0
100
AcDbBlockEnd
  0
BLOCK
  5
1156
330
1155
100
AcDbEntity
  8
0
100
AcDbBlockBegin
  2
ITOH105
 70
     0
 10
0.0
 20
0.0
 30
0.0
  3
ITOH105
  1

  0
LINE
  5
1157
330
1155
100
AcDbEntity
  8
L-ZISSEN
100
AcDbLine
 10
-14.1543724759548
 20
23.2493648042106
 30
0.0
 11
14.8456275240452
 21
23.2493648042106
 31
0.0
  0
LINE
  5
1158
330
1155
100
AcDbEntity
  8
L-ZISSEN
100
AcDbLine
 10
14.8456275240452
 20
23.2493648042106
 30
0.0
 11
14.8456275240452
 21
27.04936480421055
 31
0.0
  0
LINE
  5
1159
330
1155
100
AcDbEntity
  8
L-ZISSEN
100
AcDbLine
 10
-14.1543724759548
 20
27.04936480421055
 30
0.0
 11
-14.1543724759548
 21
23.2493648042106
 31
0.0
  0
LINE
  5
115A
330
1155
100
AcDbEntity
  8
L-ZISSEN
100
AcDbLine
 10
11.3456275240452
 20
13.34936480421062
 30
0.0
 11
-10.6543724759548
 21
13.34936480421062
 31
0.0
  0
LINE
  5
115B
330
1155
100
AcDbEntity
  8
L-ZISSEN
100
AcDbLine
 10
-10.6543724759548
 20
13.34936480421062
 30
0.0
 11
-10.6543724759548
 21
23.2493648042106
 31
0.0
  0
LINE
  5
115C
330
1155
100
AcDbEntity
  8
L-ZISSEN
100
AcDbLine
 10
11.3456275240452
 20
13.34936480421062
 30
0.0
 11
11.3456275240452
 21
23.2493648042106
 31
0.0
  0
LINE
  5
115D
330
1155
100
AcDbEntity
  8
L-TYUSIN
100
AcDbLine
 10
0.3456275240451987
 20
27.04936480421043
 30
0.0
 11
0.3456275240451987
 21
9.538142199001086
 31
0.0
  0
ENDBLK
  5
115E
330
1155
100
AcDbEntity
  8
0
100
AcDbBlockEnd
  0
BLOCK
  5
1848
330
1847
100
AcDbEntity
  8
0
100
AcDbBlockBegin
  2
A$C024A51CF
 70
     0
 10
0.0
 20
0.0
 30
0.0
  3
A$C024A51CF
  1

  0
LINE
  5
1849
330
1847
100
AcDbEntity
  8
L-ZISSEN
  6
Continuous
 62
     7
100
AcDbLine
 10
3.00000004476982
 20
21.53709529441966
 30
0.0
 11
49.00000004476971
 21
21.53709529441966
 31
0.0
  0
LINE
  5
184A
330
1847
100
AcDbEntity
  8
L-ZISSEN
  6
Continuous
 62
     7
100
AcDbLine
 10
0.0000000447698199
 20
2.537095294419657
 30
0.0
 11
52.00000004476982
 21
2.537095294419657
 31
0.0
  0
LINE
  5
184B
330
1847
100
AcDbEntity
  8
L-ZISSEN
  6
Continuous
 62
     7
100
AcDbLine
 10
0.0000000447697062
 20
6.537095294419629
 30
0.0
 11
52.00000004476982
 21
6.537095294419601
 31
0.0
  0
LINE
  5
184C
330
1847
100
AcDbEntity
  8
L-TYUSIN
  6
CENTER
 62
     1
100
AcDbLine
 10
26.00000004476976
 20
24.58828304140729
 30
0.0
 11
26.00000004476976
 21
0.0
 31
0.0
  0
LINE
  5
184D
330
1847
100
AcDbEntity
  8
L-ZISSEN
  6
Continuous
 62
     7
100
AcDbLine
 10
24.31430023618765
 20
18.53709529441966
 30
0.0
 11
24.31430023618759
 21
6.537095294419657
 31
0.0
  0
LINE
  5
184E
330
1847
100
AcDbEntity
  8
L-ZISSEN
  6
Continuous
 62
     7
100
AcDbLine
 10
29.68569985335199
 20
6.537095294419714
 30
0.0
 11
29.68569985335188
 21
18.53709529441971
 31
0.0
  0
LINE
  5
184F
330
1847
100
AcDbEntity
  8
L-ZISSEN
  6
Continuous
 62
     7
100
AcDbLine
 10
27.68569985335188
 20
18.53709529441966
 30
0.0
 11
27.68569985335199
 21
6.537095294419657
 31
0.0
  0
LINE
  5
1850
330
1847
100
AcDbEntity
  8
L-ZISSEN
  6
Continuous
 62
     7
100
AcDbLine
 10
36.61152473427831
 20
18.53709529441971
 30
0.0
 11
36.61152473427836
 21
6.537095294419714
 31
0.0
  0
LINE
  5
1851
330
1847
100
AcDbEntity
  8
L-ZISSEN
  6
Continuous
 62
     7
100
AcDbLine
 10
38.51508564019849
 20
6.537095294419714
 30
0.0
 11
38.51508564019849
 21
18.53709529441971
 31
0.0
  0
LINE
  5
1852
330
1847
100
AcDbEntity
  8
L-ZISSEN
  6
Continuous
 62
     7
100
AcDbLine
 10
1.613213688121334
 20
6.537095294419714
 30
0.0
 11
1.613213688121334
 21
18.53709529441971
 31
0.0
  0
LINE
  5
1853
330
1847
100
AcDbEntity
  8
L-ZISSEN
  6
Continuous
 62
     7
100
AcDbLine
 10
2.9933483650629
 20
18.53709529441971
 30
0.0
 11
2.993348365062843
 21
6.537095294419714
 31
0.0
  0
LINE
  5
1854
330
1847
100
AcDbEntity
  8
L-ZISSEN
  6
Continuous
 62
     7
100
AcDbLine
 10
7.983786478170884
 20
18.53709529441971
 30
0.0
 11
7.983786478170828
 21
6.537095294419714
 31
0.0
  0
LINE
  5
1855
330
1847
100
AcDbEntity
  8
L-ZISSEN
  6
Continuous
 62
     7
100
AcDbLine
 10
6.301714485128571
 20
6.537095294419714
 30
0.0
 11
6.301714485128571
 21
18.53709529441971
 31
0.0
  0
LINE
  5
1856
330
1847
100
AcDbEntity
  8
L-ZISSEN
  6
Continuous
 62
     7
100
AcDbLine
 10
13.48491444934103
 20
6.537095294419714
 30
0.0
 11
13.48491444934103
 21
18.53709529441971
 31
0.0
  0
LINE
  5
1857
330
1847
100
AcDbEntity
  8
L-ZISSEN
  6
Continuous
 62
     7
100
AcDbLine
 10
15.38847535526128
 20
18.53709529441971
 30
0.0
 11
15.38847535526122
 21
6.537095294419714
 31
0.0
  0
LINE
  5
1858
330
1847
100
AcDbEntity
  8
L-ZISSEN
  6
Continuous
 62
     7
100
AcDbLine
 10
22.31430023618759
 20
6.537095294419714
 30
0.0
 11
22.31430023618765
 21
18.53709529441971
 31
0.0
  0
LINE
  5
1859
330
1847
100
AcDbEntity
  8
L-ZISSEN
  6
Continuous
 62
     7
100
AcDbLine
 10
1.000000044769763
 20
6.537095294419629
 30
0.0
 11
1.000000044769763
 21
19.5370952944196
 31
0.0
  0
LINE
  5
185A
330
1847
100
AcDbEntity
  8
L-ZISSEN
  6
Continuous
 62
     7
100
AcDbLine
 10
0.0000000447697062
 20
6.537095294419629
 30
0.0
 11
0.0000000447697062
 21
18.53709529441949
 31
0.0
  0
LINE
  5
185B
330
1847
100
AcDbEntity
  8
L-ZISSEN
  6
Continuous
 62
     7
100
AcDbLine
 10
0.0000000447698199
 20
6.537095294419657
 30
0.0
 11
0.0000000447698199
 21
2.537095294419657
 31
0.0
  0
ARC
  5
185C
330
1847
100
AcDbEntity
  8
L-ZISSEN
  6
Continuous
 62
     7
100
AcDbCircle
 10
7.142750481649728
 20
18.53709529441971
 30
0.0
 40
0.8410359965211285
100
AcDbArc
 50
0.0
 51
180.0
  0
ARC
  5
185D
330
1847
100
AcDbEntity
  8
L-ZISSEN
  6
Continuous
 62
     7
100
AcDbCircle
 10
3.00000004476982
 20
19.5370952944196
 30
0.0
 40
2.00000000000005
100
AcDbArc
 50
90.0
 51
180.0
  0
ARC
  5
185E
330
1847
100
AcDbEntity
  8
L-ZISSEN
  6
Continuous
 62
     7
100
AcDbCircle
 10
2.303281026592117
 20
18.53709529441971
 30
0.0
 40
0.6900673384707545
100
AcDbArc
 50
0.0
 51
180.0
  0
ARC
  5
185F
330
1847
100
AcDbEntity
  8
L-ZISSEN
  6
Continuous
 62
     7
100
AcDbCircle
 10
1.000000044769763
 20
18.53709529441949
 30
0.0
 40
1.000000000000057
100
AcDbArc
 50
89.99999999999675
 51
180.0
  0
ARC
  5
1860
330
1847
100
AcDbEntity
  8
L-ZISSEN
  6
Continuous
 62
     7
100
AcDbCircle
 10
14.43669490230116
 20
18.53709529441971
 30
0.0
 40
0.9517804529600937
100
AcDbArc
 50
0.0
 51
180.0
  0
ARC
  5
1861
330
1847
100
AcDbEntity
  8
L-ZISSEN
  6
Continuous
 62
     7
100
AcDbCircle
 10
23.31430023618765
 20
18.53709529441971
 30
0.0
 40
1.0
100
AcDbArc
 50
0.0
 51
180.0
  0
ARC
  5
1862
330
1847
100
AcDbEntity
  8
L-ZISSEN
  6
Continuous
 62
     7
100
AcDbCircle
 10
28.68569985335188
 20
18.53709529441971
 30
0.0
 40
1.0
100
AcDbArc
 50
0.0
 51
180.0
  0
ARC
  5
1863
330
1847
100
AcDbEntity
  8
L-ZISSEN
  6
Continuous
 62
     7
100
AcDbCircle
 10
37.56330518723843
 20
18.53709529441971
 30
0.0
 40
0.9517804529600937
100
AcDbArc
 50
0.0
 51
180.0
  0
LINE
  5
1864
330
1847
100
AcDbEntity
  8
L-ZISSEN
  6
Continuous
 62
     7
100
AcDbLine
 10
51.00665172447668
 20
18.5370952944196
 30
0.0
 11
51.00665172447668
 21
6.537095294419601
 31
0.0
  0
LINE
  5
1865
330
1847
100
AcDbEntity
  8
L-ZISSEN
  6
Continuous
 62
     7
100
AcDbLine
 10
52.00000004476982
 20
6.537095294419657
 30
0.0
 11
52.00000004476982
 21
18.53709529441954
 31
0.0
  0
LINE
  5
1866
330
1847
100
AcDbEntity
  8
L-ZISSEN
  6
Continuous
 62
     7
100
AcDbLine
 10
51.00000004476982
 20
6.537095294419657
 30
0.0
 11
51.00000004476982
 21
19.5370952944196
 31
0.0
  0
LINE
  5
1867
330
1847
100
AcDbEntity
  8
L-ZISSEN
  6
Continuous
 62
     7
100
AcDbLine
 10
49.00665172447668
 20
18.53709529441971
 30
0.0
 11
49.00665172447674
 21
6.537095294419714
 31
0.0
  0
LINE
  5
1868
330
1847
100
AcDbEntity
  8
L-ZISSEN
  6
Continuous
 62
     7
100
AcDbLine
 10
50.38678640141819
 20
6.537095294419714
 30
0.0
 11
50.38678640141819
 21
18.53709529441971
 31
0.0
  0
LINE
  5
1869
330
1847
100
AcDbEntity
  8
L-ZISSEN
  6
Continuous
 62
     7
100
AcDbLine
 10
45.69828560441096
 20
6.537095294419714
 30
0.0
 11
45.69828560441096
 21
18.53709529441971
 31
0.0
  0
LINE
  5
186A
330
1847
100
AcDbEntity
  8
L-ZISSEN
  6
Continuous
 62
     7
100
AcDbLine
 10
44.0162136113687
 20
18.53709529441971
 30
0.0
 11
44.01621361136876
 21
6.537095294419714
 31
0.0
  0
LINE
  5
186B
330
1847
100
AcDbEntity
  8
L-ZISSEN
  6
Continuous
 62
     7
100
AcDbLine
 10
52.00000004476982
 20
2.537095294419657
 30
0.0
 11
52.00000004476982
 21
6.537095294419657
 31
0.0
  0
ARC
  5
186C
330
1847
100
AcDbEntity
  8
L-ZISSEN
  6
Continuous
 62
     7
100
AcDbCircle
 10
44.85724960788986
 20
18.53709529441971
 30
0.0
 40
0.8410359965211285
100
AcDbArc
 50
0.0
 51
180.0
  0
ARC
  5
186D
330
1847
100
AcDbEntity
  8
L-ZISSEN
  6
Continuous
 62
     7
100
AcDbCircle
 10
49.69671906294747
 20
18.53709529441971
 30
0.0
 40
0.6900673384707545
100
AcDbArc
 50
0.0
 51
180.0
  0
ARC
  5
186E
330
1847
100
AcDbEntity
  8
L-ZISSEN
  6
Continuous
 62
     7
100
AcDbCircle
 10
51.00000004476982
 20
18.53709529441954
 30
0.0
 40
1.000000000000057
100
AcDbArc
 50
0.0
 51
90.0
  0
ARC
  5
186F
330
1847
100
AcDbEntity
  8
L-ZISSEN
  6
Continuous
 62
     7
100
AcDbCircle
 10
49.00000004476971
 20
19.5370952944196
 30
0.0
 40
2.00000000000005
100
AcDbArc
 50
0.0
 51
90.0
  0
ENDBLK
  5
1870
330
1847
100
AcDbEntity
  8
0
100
AcDbBlockEnd
  0
ENDSEC
  0
SECTION
  2
ENTITIES
  0
LINE
  5
305
330
1D
100
AcDbEntity
  8
PV
 62
     7
100
AcDbLine
 10
368.4143212888839
 20
73.14475678252842
 30
0.0
 11
372.4195906650258
 21
149.5817567825284
 31
0.0
  0
LINE
  5
306
330
1D
100
AcDbEntity
  8
PV
 62
     7
100
AcDbLine
 10
486.0033212888839
 20
73.14475678252842
 30
0.0
 11
481.9969858309277
 21
149.5817567825285
 31
0.0
  0
LINE
  5
307
330
1D
100
AcDbEntity
  8
PV
  6
CENTER
 62
     1
100
AcDbLine
 10
427.2083212888839
 20
115.0747567825284
 30
0.0
 11
427.2083212888839
 21
-137.4782432174715
 31
0.0
  0
LINE
  5
308
330
1D
100
AcDbEntity
  8
PV
  6
CENTER
 62
     1
100
AcDbLine
 10
427.2083212888839
 20
159.6697567825284
 30
0.0
 11
427.2083212888839
 21
50.94275678252842
 31
0.0
  0
LINE
  5
309
330
1D
100
AcDbEntity
  8
PV
 62
     7
100
AcDbLine
 10
357.5083212888838
 20
101.6687567825284
 30
0.0
 11
357.5083212888838
 21
42.66875678252842
 31
0.0
  0
LINE
  5
30A
330
1D
100
AcDbEntity
  8
PV
 62
     7
100
AcDbLine
 10
355.2083212888839
 20
40.36875678252841
 30
0.0
 11
355.2083212888839
 21
101.6687567825284
 31
0.0
  0
LINE
  5
30D
330
1D
100
AcDbEntity
  8
PV
 62
     7
100
AcDbLine
 10
480.2083212888839
 20
-0.3312432174715809
 30
0.0
 11
477.9304107830474
 21
-130.8312432174716
 31
0.0
  0
LINE
  5
30E
330
1D
100
AcDbEntity
  8
PV
 62
     7
100
AcDbLine
 10
471.2083212888839
 20
-0.3312432174715809
 30
0.0
 11
468.9304107830473
 21
-130.8312432174716
 31
0.0
  0
LINE
  5
30F
330
1D
100
AcDbEntity
  8
PV
 62
     7
100
AcDbLine
 10
383.2083212888839
 20
-0.3312432174715809
 30
0.0
 11
385.4862317947205
 21
-130.8312432174716
 31
0.0
  0
LINE
  5
310
330
1D
100
AcDbEntity
  8
PV
 62
     7
100
AcDbLine
 10
374.2083212888839
 20
-0.3312432174715809
 30
0.0
 11
376.4862317947204
 21
-130.8312432174716
 31
0.0
  0
LINE
  5
311
330
1D
100
AcDbEntity
  8
PV
 62
     7
100
AcDbLine
 10
477.9304107830475
 20
-130.8312432174716
 30
0.0
 11
376.4862317947204
 21
-130.8312432174716
 31
0.0
  0
LINE
  5
312
330
1D
100
AcDbEntity
  8
L-ZISSEN
100
AcDbLine
 10
387.7083212888839
 20
-139.3312432174716
 30
0.0
 11
403.7083212888839
 21
-139.3312432174716
 31
0.0
  0
LINE
  5
314
330
1D
100
AcDbEntity
  8
PV
 62
     7
100
AcDbLine
 10
387.7083212888839
 20
-139.3312432174716
 30
0.0
 11
387.7083212888839
 21
-130.8312432174716
 31
0.0
  0
LINE
  5
315
330
1D
100
AcDbEntity
  8
PV
 62
     7
100
AcDbLine
 10
435.2083212888839
 20
-135.7012432174716
 30
0.0
 11
419.2083212888839
 21
-135.7012432174716
 31
0.0
  0
LINE
  5
317
330
1D
100
AcDbEntity
  8
PV
 62
     7
100
AcDbLine
 10
403.7083212888839
 20
-139.3312432174716
 30
0.0
 11
403.7083212888839
 21
-130.8312432174716
 31
0.0
  0
LINE
  5
318
330
1D
100
AcDbEntity
  8
PV
 62
     7
100
AcDbLine
 10
419.2083212888839
 20
-135.7012432174716
 30
0.0
 11
419.2083212888839
 21
-130.7012432174716
 31
0.0
  0
LINE
  5
319
330
1D
100
AcDbEntity
  8
PV
 62
     7
100
AcDbLine
 10
435.2083212888839
 20
-135.7012432174716
 30
0.0
 11
435.2083212888839
 21
-130.7012432174716
 31
0.0
  0
LINE
  5
31A
330
1D
100
AcDbEntity
  8
L-ZISSEN
100
AcDbLine
 10
450.7083212888839
 20
-139.3312432174716
 30
0.0
 11
466.708321288884
 21
-139.3312432174716
 31
0.0
  0
LINE
  5
31C
330
1D
100
AcDbEntity
  8
PV
 62
     7
100
AcDbLine
 10
450.7083212888839
 20
-139.3312432174716
 30
0.0
 11
450.7083212888839
 21
-130.8312432174716
 31
0.0
  0
LINE
  5
31E
330
1D
100
AcDbEntity
  8
PV
 62
     7
100
AcDbLine
 10
466.708321288884
 20
-139.3312432174716
 30
0.0
 11
466.7083212888839
 21
-130.8312432174716
 31
0.0
  0
LINE
  5
31F
330
1D
100
AcDbEntity
  8
PV
 62
     7
100
AcDbLine
 10
484.7083212888839
 20
3.168756782528419
 30
0.0
 11
369.7083212888839
 21
3.168756782528419
 31
0.0
  0
LINE
  5
320
330
1D
100
AcDbEntity
  8
PV
 62
     7
100
AcDbLine
 10
484.7083212888839
 20
-0.3312432174715809
 30
0.0
 11
369.7083212888839
 21
-0.3312432174715809
 31
0.0
  0
LINE
  5
321
330
1D
100
AcDbEntity
  8
PV
 62
     7
100
AcDbLine
 10
437.7083212888839
 20
68.86875678252841
 30
0.0
 11
476.7083212888839
 21
68.86875678252841
 31
0.0
  0
LINE
  5
322
330
1D
100
AcDbEntity
  8
PV
 62
     7
100
AcDbLine
 10
483.7083212888839
 20
53.66875678252842
 30
0.0
 11
366.2083212888839
 21
53.66875678252842
 31
0.0
  0
LINE
  5
323
330
1D
100
AcDbEntity
  8
PV
 62
     7
100
AcDbLine
 10
488.2083212888839
 20
3.668756782528419
 30
0.0
 11
366.2083212888839
 21
3.668756782528419
 31
0.0
  0
LINE
  5
328
330
1D
100
AcDbEntity
  8
PV
 62
     7
100
AcDbLine
 10
403.2083212888839
 20
71.66875678252842
 30
0.0
 11
371.2083212888839
 21
71.66875678252842
 31
0.0
  0
LINE
  5
329
330
1D
100
AcDbEntity
  8
PV
 62
     7
100
AcDbLine
 10
407.7083212888839
 20
60.66875678252842
 30
0.0
 11
366.7083212888839
 21
60.66875678252842
 31
0.0
  0
LINE
  5
32A
330
1D
100
AcDbEntity
  8
PV
 62
     7
100
AcDbLine
 10
363.9083212888839
 20
27.66875678252842
 30
0.0
 11
363.9083212888839
 21
40.36875678252841
 31
0.0
  0
LINE
  5
32C
330
1D
100
AcDbEntity
  8
PV
 62
     7
100
AcDbLine
 10
366.2083212888839
 20
53.66875678252842
 30
0.0
 11
366.2083212888839
 21
3.668756782528419
 31
0.0
  0
LINE
  5
32D
330
1D
100
AcDbEntity
  8
PV
 62
     7
100
AcDbLine
 10
366.2083212888839
 20
27.66875678252842
 30
0.0
 11
363.9083212888839
 21
27.66875678252842
 31
0.0
  0
LINE
  5
32E
330
1D
100
AcDbEntity
  8
PV
 62
     7
100
AcDbLine
 10
369.7083212888839
 20
3.168756782528419
 30
0.0
 11
369.7083212888839
 21
-0.3312432174715809
 31
0.0
  0
LINE
  5
32F
330
1D
100
AcDbEntity
  8
PV
 62
     7
100
AcDbLine
 10
363.9083212888839
 20
40.36875678252841
 30
0.0
 11
355.2083212888839
 21
40.36875678252841
 31
0.0
  0
LINE
  5
330
330
1D
100
AcDbEntity
  8
PV
 62
     7
100
AcDbLine
 10
366.2083212888839
 20
42.66875678252842
 30
0.0
 11
357.5083212888838
 21
42.66875678252842
 31
0.0
  0
LINE
  5
331
330
1D
100
AcDbEntity
  8
PV
  6
CENTER
 62
     1
100
AcDbLine
 10
387.2083212888839
 20
76.40375678252843
 30
0.0
 11
387.2083212888839
 21
49.9197567825284
 31
0.0
  0
LINE
  5
332
330
1D
100
AcDbEntity
  8
PV
 62
     7
100
AcDbLine
 10
366.7083212888839
 20
60.66875678252842
 30
0.0
 11
366.7083212888839
 21
53.66875678252842
 31
0.0
  0
LINE
  5
333
330
1D
100
AcDbEntity
  8
PV
 62
     7
100
AcDbLine
 10
368.3053212888839
 20
60.66875678252842
 30
0.0
 11
368.4143212888839
 21
73.14475678252842
 31
0.0
  0
LINE
  5
334
330
1D
100
AcDbEntity
  8
PV
 62
     7
100
AcDbLine
 10
371.2083212888839
 20
60.66875678252842
 30
0.0
 11
371.2083212888839
 21
71.66875678252842
 31
0.0
  0
CIRCLE
  5
335
330
1D
100
AcDbEntity
  8
PV
 62
     7
100
AcDbCircle
 10
427.2083212888839
 20
25.66875678252842
 30
0.0
 40
8.65
  0
LINE
  5
336
330
1D
100
AcDbEntity
  8
PV
  6
CENTER
 62
     1
100
AcDbLine
 10
442.2083212888839
 20
25.66875678252842
 30
0.0
 11
412.2083212888839
 21
25.66875678252842
 31
0.0
  0
LINE
  5
337
330
1D
100
AcDbEntity
  8
PV
 62
     7
100
AcDbLine
 10
428.7083212888839
 20
63.66875678252842
 30
0.0
 11
417.2503212888839
 21
63.66875678252842
 31
0.0
  0
LINE
  5
338
330
1D
100
AcDbEntity
  8
PV
 62
     7
100
AcDbLine
 10
426.7083212888839
 20
70.66875678252842
 30
0.0
 11
416.7083212888839
 21
70.66875678252842
 31
0.0
  0
LINE
  5
339
330
1D
100
AcDbEntity
  8
PV
  6
CENTER
 62
     1
100
AcDbLine
 10
413.2083212888839
 20
98.66825678252843
 30
0.0
 11
413.2083212888839
 21
51.68775678252842
 31
0.0
  0
LINE
  5
33A
330
1D
100
AcDbEntity
  8
PV
 62
     7
100
AcDbLine
 10
417.2503212888839
 20
65.14575678252845
 30
0.0
 11
417.2503212888839
 21
53.66875678252842
 31
0.0
  0
LINE
  5
33B
330
1D
100
AcDbEntity
  8
PV
 62
     7
100
AcDbLine
 10
409.167321288884
 20
65.14575678252845
 30
0.0
 11
409.167321288884
 21
53.66875678252842
 31
0.0
  0
LINE
  5
33C
330
1D
100
AcDbEntity
  8
PV
 62
     7
100
AcDbLine
 10
407.7083212888839
 20
60.66875678252842
 30
0.0
 11
407.7083212888839
 21
53.66875678252842
 31
0.0
  0
LINE
  5
33D
330
1D
100
AcDbEntity
  8
PV
 62
     7
100
AcDbLine
 10
403.2083212888839
 20
60.66875678252842
 30
0.0
 11
403.2083212888839
 21
71.66875678252842
 31
0.0
  0
LINE
  5
33E
330
1D
100
AcDbEntity
  8
PV
 62
     7
100
AcDbLine
 10
416.7083212888839
 20
70.66875678252842
 30
0.0
 11
416.7083212888839
 21
65.14575678252845
 31
0.0
  0
LINE
  5
33F
330
1D
100
AcDbEntity
  8
PV
 62
     7
100
AcDbLine
 10
417.2503212888839
 20
65.14575678252845
 30
0.0
 11
409.167321288884
 21
65.14575678252845
 31
0.0
  0
LINE
  5
340
330
1D
100
AcDbEntity
  8
PV
 62
     7
100
AcDbLine
 10
430.7083212888839
 20
57.80175678252846
 30
0.0
 11
430.7083212888839
 21
53.66875678252842
 31
0.0
  0
LINE
  5
341
330
1D
100
AcDbEntity
  8
PV
 62
     7
100
AcDbLine
 10
437.7083212888839
 20
53.66875678252842
 30
0.0
 11
437.7083212888839
 21
68.86875678252841
 31
0.0
  0
LINE
  5
342
330
1D
100
AcDbEntity
  8
PV
 62
     7
100
AcDbLine
 10
426.7083212888839
 20
70.66875678252842
 30
0.0
 11
426.7083212888839
 21
63.66875678252842
 31
0.0
  0
LINE
  5
343
330
1D
100
AcDbEntity
  8
PV
 62
     7
100
AcDbLine
 10
429.2083212888839
 20
63.16875678252842
 30
0.0
 11
429.2083212888839
 21
58.66875678252842
 31
0.0
  0
LINE
  5
344
330
1D
100
AcDbEntity
  8
PV
 62
     7
100
AcDbLine
 10
429.2083212888839
 20
58.66875678252842
 30
0.0
 11
430.7083212888839
 21
57.80175678252846
 31
0.0
  0
LINE
  5
345
330
1D
100
AcDbEntity
  8
PV
 62
     7
100
AcDbLine
 10
429.2083212888839
 20
63.16875678252842
 30
0.0
 11
428.7083212888839
 21
63.66875678252842
 31
0.0
  0
LINE
  5
349
330
1D
100
AcDbEntity
  8
PV
 62
     7
100
AcDbLine
 10
515.2083212888839
 20
33.16875678252842
 30
0.0
 11
493.2083212888839
 21
33.16875678252842
 31
0.0
  0
LINE
  5
34A
330
1D
100
AcDbEntity
  8
PV
 62
     7
100
AcDbLine
 10
515.2083212888839
 20
-2.831243217471581
 30
0.0
 11
493.2083212888839
 21
-2.831243217471581
 31
0.0
  0
LINE
  5
34B
330
1D
100
AcDbEntity
  8
PV
 62
     7
100
AcDbLine
 10
493.2083212888839
 20
33.16875678252842
 30
0.0
 11
493.2083212888839
 21
-2.831243217471581
 31
0.0
  0
LINE
  5
34C
330
1D
100
AcDbEntity
  8
PV
 62
     7
100
AcDbLine
 10
483.7083212888839
 20
3.668756782528419
 30
0.0
 11
483.7083212888839
 21
53.66875678252842
 31
0.0
  0
LINE
  5
34D
330
1D
100
AcDbEntity
  8
PV
 62
     7
100
AcDbLine
 10
484.7083212888839
 20
3.168756782528419
 30
0.0
 11
484.7083212888839
 21
-0.3312432174715809
 31
0.0
  0
LINE
  5
34E
330
1D
100
AcDbEntity
  8
PV
 62
     7
100
AcDbLine
 10
493.2083212888839
 20
9.168756782528419
 30
0.0
 11
487.2083212888839
 21
9.168756782528419
 31
0.0
  0
LINE
  5
34F
330
1D
100
AcDbEntity
  8
PV
 62
     7
100
AcDbLine
 10
493.2083212888839
 20
21.16875678252842
 30
0.0
 11
487.2083212888839
 21
21.16875678252842
 31
0.0
  0
LINE
  5
350
330
1D
100
AcDbEntity
  8
PV
 62
     7
100
AcDbLine
 10
487.2083212888839
 20
21.16875678252842
 30
0.0
 11
487.2083212888839
 21
9.168756782528419
 31
0.0
  0
LINE
  5
351
330
1D
100
AcDbEntity
  8
PV
 62
     7
100
AcDbLine
 10
487.2083212888839
 20
9.668756782528419
 30
0.0
 11
483.7083212888839
 21
9.668756782528419
 31
0.0
  0
LINE
  5
352
330
1D
100
AcDbEntity
  8
PV
 62
     7
100
AcDbLine
 10
487.2083212888839
 20
10.16875678252842
 30
0.0
 11
483.7083212888839
 21
10.16875678252842
 31
0.0
  0
LINE
  5
353
330
1D
100
AcDbEntity
  8
PV
 62
     7
100
AcDbLine
 10
488.2083212888839
 20
3.668756782528419
 30
0.0
 11
488.2083212888839
 21
9.138756782528446
 31
0.0
  0
LINE
  5
354
330
1D
100
AcDbEntity
  8
PV
 62
     7
100
AcDbLine
 10
487.2083212888839
 20
20.16875678252842
 30
0.0
 11
483.7083212888839
 21
20.16875678252842
 31
0.0
  0
LINE
  5
355
330
1D
100
AcDbEntity
  8
PV
 62
     7
100
AcDbLine
 10
476.708321288884
 20
53.66875678252842
 30
0.0
 11
476.7083212888839
 21
68.86875678252841
 31
0.0
  0
LINE
  5
357
330
1D
100
AcDbEntity
  8
PV
 62
     7
100
AcDbLine
 10
486.1783212888839
 20
53.08175678252843
 30
0.0
 11
486.0033212888839
 21
73.14475678252842
 31
0.0
  0
LINE
  5
359
330
1D
100
AcDbEntity
  8
PV
 62
     7
100
AcDbLine
 10
503.2083212888839
 20
45.16875678252842
 30
0.0
 11
483.7083212888839
 21
45.16875678252842
 31
0.0
  0
LINE
  5
35A
330
1D
100
AcDbEntity
  8
PV
 62
     7
100
AcDbLine
 10
487.5083212888838
 20
53.08875678252843
 30
0.0
 11
483.7083212888839
 21
53.08875678252843
 31
0.0
  0
LINE
  5
35B
330
1D
100
AcDbEntity
  8
PV
 62
     7
100
AcDbLine
 10
487.5083212888838
 20
48.66875678252842
 30
0.0
 11
487.5083212888838
 21
53.08875678252843
 31
0.0
  0
LINE
  5
35C
330
1D
100
AcDbEntity
  8
PV
 62
     7
100
AcDbLine
 10
488.2083212888839
 20
48.66875678252842
 30
0.0
 11
483.7083212888839
 21
48.66875678252842
 31
0.0
  0
LINE
  5
35D
330
1D
100
AcDbEntity
  8
PV
 62
     7
100
AcDbLine
 10
488.2083212888839
 20
45.66875678252842
 30
0.0
 11
483.7083212888839
 21
45.66875678252842
 31
0.0
  0
LINE
  5
35E
330
1D
100
AcDbEntity
  8
PV
 62
     7
100
AcDbLine
 10
488.2083212888839
 20
45.66875678252842
 30
0.0
 11
488.2083212888839
 21
48.66875678252842
 31
0.0
  0
LINE
  5
361
330
1D
100
AcDbEntity
  8
PV
 62
     7
100
AcDbLine
 10
515.2083212888839
 20
33.16875678252842
 30
0.0
 11
515.2083212888839
 21
-2.831243217471581
 31
0.0
  0
ARC
  5
362
330
1D
100
AcDbEntity
  8
PV
 62
     7
100
AcDbCircle
 10
520.2083212888839
 20
27.66875678252842
 30
0.0
 40
17.0
100
AcDbArc
 50
270.0
 51
0.0
  0
LINE
  5
363
330
1D
100
AcDbEntity
  8
PV
 62
     7
100
AcDbLine
 10
520.2083212888839
 20
10.66875678252842
 30
0.0
 11
515.2083212888839
 21
10.66875678252842
 31
0.0
  0
LINE
  5
36A
330
1D
100
AcDbEntity
  8
PV
 62
     7
100
AcDbLine
 10
372.4195906650258
 20
149.5817567825284
 30
0.0
 11
481.9969858309278
 21
149.5817567825284
 31
0.0
  0
LINE
  5
36B
330
1D
100
AcDbEntity
  8
PV
  6
CENTER
 62
     1
100
AcDbLine
 10
367.2633212888838
 20
91.66875678252842
 30
0.0
 11
344.5183212888838
 21
91.66875678252842
 31
0.0
  0
LINE
  5
36C
330
1D
100
AcDbEntity
  8
PV
 62
     7
100
AcDbLine
 10
355.2083212888839
 20
101.6687567825284
 30
0.0
 11
357.5083212888838
 21
101.6687567825284
 31
0.0
  0
LINE
  5
372
330
1D
100
AcDbEntity
  8
PV
  6
CENTER
 62
     1
100
AcDbLine
 10
862.2253212888838
 20
104.6977567825284
 30
0.0
 11
862.2253212888838
 21
78.63975678252842
 31
0.0
  0
LINE
  5
373
330
1D
100
AcDbEntity
  8
PV
  6
DASHED
 62
     5
100
AcDbLine
 10
880.2253212888838
 20
66.45975678252842
 30
0.0
 11
880.2253212888838
 21
98.66875678252842
 31
0.0
  0
LINE
  5
374
330
1D
100
AcDbEntity
  8
PV
  6
DASHED
 62
     5
100
AcDbLine
 10
844.2253212888838
 20
66.45975678252842
 30
0.0
 11
844.2253212888838
 21
98.66875678252842
 31
0.0
  0
LINE
  5
375
330
1D
100
AcDbEntity
  8
PV
 62
     7
100
AcDbLine
 10
778.2253212888838
 20
48.66875678252842
 30
0.0
 11
778.2253212888838
 21
79.66875678252819
 31
0.0
  0
LINE
  5
376
330
1D
100
AcDbEntity
  8
PV
  6
CENTER
 62
     1
100
AcDbLine
 10
760.2253212888838
 20
104.6977567825284
 30
0.0
 11
760.2253212888838
 21
78.63975678252842
 31
0.0
  0
LINE
  5
377
330
1D
100
AcDbEntity
  8
PV
 62
     7
100
AcDbLine
 10
791.4643846019013
 20
98.66875678252819
 30
0.0
 11
794.1366305766127
 21
149.6687567825285
 31
0.0
  0
LINE
  5
378
330
1D
100
AcDbEntity
  8
PV
 62
     7
100
AcDbLine
 10
907.7193212888839
 20
73.23075678252849
 30
0.0
 11
903.7139995131267
 21
149.6687567825284
 31
0.0
  0
CIRCLE
  5
37B
330
1D
100
AcDbEntity
  8
PV
 62
     7
100
AcDbCircle
 10
780.2253212888838
 20
40.16875678252842
 30
0.0
 40
3.8
  0
LINE
  5
37C
330
1D
100
AcDbEntity
  8
PV
 62
     7
100
AcDbLine
 10
876.2253212888838
 20
-0.3312432174715809
 30
0.0
 11
750.4273212888838
 21
-0.3312432174715809
 31
0.0
  0
LINE
  5
37D
330
1D
100
AcDbEntity
  8
PV
 62
     7
100
AcDbLine
 10
783.7253212888838
 20
45.66875678252842
 30
0.0
 11
767.2253212888838
 21
45.66875678252842
 31
0.0
  0
LINE
  5
37E
330
1D
100
AcDbEntity
  8
PV
 62
     7
100
AcDbLine
 10
783.7253212888838
 20
48.66875678252842
 30
0.0
 11
767.2253212888838
 21
48.66875678252842
 31
0.0
  0
LINE
  5
37F
330
1D
100
AcDbEntity
  8
PV
 62
     7
100
AcDbLine
 10
783.7253212888838
 20
45.16875678252842
 30
0.0
 11
779.2253212888838
 21
45.16875678252842
 31
0.0
  0
LINE
  5
380
330
1D
100
AcDbEntity
  8
PV
 62
     7
100
AcDbLine
 10
869.4474107830473
 20
-130.8312432174716
 30
0.0
 11
717.0032317947205
 21
-130.8312432174716
 31
0.0
  0
LINE
  5
381
330
1D
100
AcDbEntity
  8
PV
  6
CENTER
 62
     1
100
AcDbLine
 10
818.4113212888839
 20
25.66875678252842
 30
0.0
 11
699.6633212888839
 21
25.66875678252842
 31
0.0
  0
LINE
  5
382
330
1D
100
AcDbEntity
  8
PV
 62
     7
100
AcDbLine
 10
723.7253212888838
 20
-0.3312432174715809
 30
0.0
 11
726.0032317947205
 21
-130.8312432174716
 31
0.0
  0
LINE
  5
383
330
1D
100
AcDbEntity
  8
PV
 62
     7
100
AcDbLine
 10
714.7253212888838
 20
-0.3312432174715809
 30
0.0
 11
717.0032317947204
 21
-130.8312432174716
 31
0.0
  0
LINE
  5
384
330
1D
100
AcDbEntity
  8
L-ZISSEN
100
AcDbLine
 10
735.2253212888838
 20
-139.3312432174716
 30
0.0
 11
751.2253212888838
 21
-139.3312432174716
 31
0.0
  0
LINE
  5
385
330
1D
100
AcDbEntity
  8
L-ZISSEN
100
AcDbLine
 10
735.2253212888838
 20
-138.8312432174716
 30
0.0
 11
735.2253212888838
 21
-139.3312432174716
 31
0.0
  0
LINE
  5
386
330
1D
100
AcDbEntity
  8
PV
 62
     7
100
AcDbLine
 10
735.2253212888838
 20
-138.8312432174716
 30
0.0
 11
735.2253212888838
 21
-130.8312432174716
 31
0.0
  0
LINE
  5
387
330
1D
100
AcDbEntity
  8
L-ZISSEN
100
AcDbLine
 10
751.2253212888838
 20
-138.8312432174716
 30
0.0
 11
751.2253212888838
 21
-139.3312432174716
 31
0.0
  0
LINE
  5
388
330
1D
100
AcDbEntity
  8
PV
 62
     7
100
AcDbLine
 10
751.2253212888838
 20
-138.8312432174716
 30
0.0
 11
751.2253212888838
 21
-130.8312432174716
 31
0.0
  0
LINE
  5
389
330
1D
100
AcDbEntity
  8
L-ZISSEN
100
AcDbLine
 10
673.3699822888839
 20
61.02409578252843
 30
0.0
 11
643.3699822888839
 21
61.02409578252843
 31
0.0
  0
TEXT
  5
38A
330
1D
100
AcDbEntity
  8
L-ZISSEN
100
AcDbText
 10
645.0891725313141
 20
53.24756160107842
 30
0.0
 40
4.5
  1
Rc3/8
100
AcDbText
  0
TEXT
  5
38B
330
1D
100
AcDbEntity
  8
L-ZISSEN
100
AcDbText
 10
643.8234958729432
 20
62.09720698781672
 30
0.0
 40
4.5
  1
AIR IN
100
AcDbText
  0
LINE
  5
38C
330
1D
100
AcDbEntity
  8
PV
 62
     7
100
AcDbLine
 10
732.023321288884
 20
-0.3312432174715809
 30
0.0
 11
710.2253212888838
 21
-0.3312432174715809
 31
0.0
  0
LINE
  5
38D
330
1D
100
AcDbEntity
  8
PV
 62
     7
100
AcDbLine
 10
727.7823212888838
 20
3.168756782528419
 30
0.0
 11
710.2253212888838
 21
3.168756782528419
 31
0.0
  0
CIRCLE
  5
38E
330
1D
100
AcDbEntity
  8
PV
 62
     7
100
AcDbCircle
 10
741.2253212888838
 20
15.16875678252842
 30
0.0
 40
18.0
  0
LINE
  5
390
330
1D
100
AcDbEntity
  8
PV
 62
     7
100
AcDbLine
 10
708.7253212888838
 20
3.668756782528419
 30
0.0
 11
727.3533212888839
 21
3.668756782528419
 31
0.0
  0
LINE
  5
391
330
1D
100
AcDbEntity
  8
PV
 62
     7
100
AcDbLine
 10
708.7253212888838
 20
53.66875678252842
 30
0.0
 11
767.2253212888838
 21
53.66875678252842
 31
0.0
  0
INSERT
  5
392
330
1D
100
AcDbEntity
  8
L-ZISSEN
100
AcDbBlockReference
  2
_OPEN
 10
708.7253212888838
 20
25.66875678252842
 30
0.0
 41
4.5
 42
4.5
 43
4.5
 50
314.9999999999998
  0
LINE
  5
393
330
1D
100
AcDbEntity
  8
PV
 62
     7
100
AcDbLine
 10
708.7253212888838
 20
53.66875678252842
 30
0.0
 11
708.7253212888838
 21
3.668756782528419
 31
0.0
  0
LINE
  5
394
330
1D
100
AcDbEntity
  8
PV
 62
     7
100
AcDbLine
 10
710.2253212888838
 20
3.168756782528419
 30
0.0
 11
710.2253212888838
 21
-0.3312432174715809
 31
0.0
  0
LINE
  5
395
330
1D
100
AcDbEntity
  8
L-ZISSEN
100
AcDbLine
 10
705.5433407735444
 20
28.85073729786785
 30
0.0
 11
673.3699822888839
 21
61.02409578252843
 31
0.0
  0
LINE
  5
397
330
1D
100
AcDbEntity
  8
PV
 62
     7
100
AcDbLine
 10
776.2253212888838
 20
42.16875678252842
 30
0.0
 11
776.2253212888838
 21
13.16875678252842
 31
0.0
  0
LINE
  5
398
330
1D
100
AcDbEntity
  8
PV
 62
     7
100
AcDbLine
 10
767.2253212888838
 20
3.668756782528419
 30
0.0
 11
767.2253212888838
 21
53.66875678252842
 31
0.0
  0
LINE
  5
399
330
1D
100
AcDbEntity
  8
PV
 62
     7
100
AcDbLine
 10
748.9623212888838
 20
2.761756782528437
 30
0.0
 11
733.3053212888839
 21
27.86775678252843
 31
0.0
  0
ARC
  5
39A
330
1D
100
AcDbEntity
  8
PV
 62
     7
100
AcDbCircle
 10
779.2253212888838
 20
13.16875678252842
 30
0.0
 40
3.0
100
AcDbArc
 50
180.0
 51
270.0
  0
ARC
  5
3A1
330
1D
100
AcDbEntity
  8
PV
 62
     7
100
AcDbCircle
 10
779.2253212888838
 20
42.16875678252842
 30
0.0
 40
3.0
100
AcDbArc
 50
90.0
 51
180.0
  0
LINE
  5
3A3
330
1D
100
AcDbEntity
  8
PV
 62
     7
100
AcDbLine
 10
862.7253212888838
 20
-0.3312432174715809
 30
0.0
 11
860.4474107830473
 21
-130.8312432174716
 31
0.0
  0
LINE
  5
3A4
330
1D
100
AcDbEntity
  8
PV
 62
     7
100
AcDbLine
 10
871.7253212888838
 20
-0.3312432174715809
 30
0.0
 11
869.4474107830473
 21
-130.8312432174716
 31
0.0
  0
LINE
  5
3A5
330
1D
100
AcDbEntity
  8
PV
 62
     7
100
AcDbLine
 10
788.7513212888839
 20
-0.3312432174715809
 30
0.0
 11
787.6118582538644
 21
-130.8312432174716
 31
0.0
  0
LINE
  5
3A6
330
1D
100
AcDbEntity
  8
PV
 62
     7
100
AcDbLine
 10
797.6996061311479
 20
-0.3312432174715809
 30
0.0
 11
798.8387798905607
 21
-130.8312432174716
 31
0.0
  0
LINE
  5
3A7
330
1D
100
AcDbEntity
  8
L-ZISSEN
100
AcDbLine
 10
835.2253212888838
 20
-139.3312432174716
 30
0.0
 11
851.2253212888837
 21
-139.3312432174716
 31
0.0
  0
LINE
  5
3A8
330
1D
100
AcDbEntity
  8
PV
 62
     7
100
AcDbLine
 10
801.2253212888838
 20
-135.8312432174716
 30
0.0
 11
785.2253212888838
 21
-135.8312432174716
 31
0.0
  0
LINE
  5
3A9
330
1D
100
AcDbEntity
  8
PV
 62
     7
100
AcDbLine
 10
785.2253212888838
 20
-135.8312432174716
 30
0.0
 11
785.2253212888838
 21
-130.8312432174716
 31
0.0
  0
LINE
  5
3AA
330
1D
100
AcDbEntity
  8
PV
 62
     7
100
AcDbLine
 10
801.2253212888838
 20
-135.8312432174716
 30
0.0
 11
801.2253212888838
 21
-130.8312432174716
 31
0.0
  0
LINE
  5
3AB
330
1D
100
AcDbEntity
  8
L-ZISSEN
100
AcDbLine
 10
835.2253212888838
 20
-138.8312432174716
 30
0.0
 11
835.2253212888838
 21
-139.3312432174716
 31
0.0
  0
LINE
  5
3AC
330
1D
100
AcDbEntity
  8
PV
 62
     7
100
AcDbLine
 10
835.2253212888838
 20
-138.8312432174716
 30
0.0
 11
835.2253212888838
 21
-130.8312432174716
 31
0.0
  0
LINE
  5
3AD
330
1D
100
AcDbEntity
  8
L-ZISSEN
100
AcDbLine
 10
851.2253212888838
 20
-138.8312432174716
 30
0.0
 11
851.2253212888838
 21
-139.3312432174716
 31
0.0
  0
LINE
  5
3AE
330
1D
100
AcDbEntity
  8
PV
 62
     7
100
AcDbLine
 10
851.2253212888838
 20
-138.8312432174716
 30
0.0
 11
851.2253212888838
 21
-130.8312432174716
 31
0.0
  0
LINE
  5
3AF
330
1D
100
AcDbEntity
  8
PV
 62
     7
100
AcDbLine
 10
904.7253212888838
 20
-24.33124321747158
 30
0.0
 11
880.7253212888838
 21
-24.33124321747158
 31
0.0
  0
LINE
  5
3B0
330
1D
100
AcDbEntity
  8
PV
 62
     7
100
AcDbLine
 10
880.7253212888838
 20
-9.331243217471581
 30
0.0
 11
904.7253212888838
 21
-9.331243217471581
 31
0.0
  0
LINE
  5
3B1
330
1D
100
AcDbEntity
  8
PV
 62
     7
100
AcDbLine
 10
906.2253212888838
 20
-4.331243217471581
 30
0.0
 11
879.2253212888838
 21
-4.331243217471581
 31
0.0
  0
LINE
  5
3B2
330
1D
100
AcDbEntity
  8
PV
 62
     7
100
AcDbLine
 10
755.07270371301
 20
3.668756782528419
 30
0.0
 11
906.7253212888838
 21
3.668756782528419
 31
0.0
  0
LINE
  5
3B3
330
1D
100
AcDbEntity
  8
PV
 62
     7
100
AcDbLine
 10
767.2253212888838
 20
9.668756782528362
 30
0.0
 11
895.7253212888838
 21
9.668756782528419
 31
0.0
  0
LINE
  5
3B4
330
1D
100
AcDbEntity
  8
PV
 62
     7
100
AcDbLine
 10
909.2253212888838
 20
53.16875678252842
 30
0.0
 11
817.7253212888838
 21
53.16875678252842
 31
0.0
  0
LINE
  5
3B5
330
1D
100
AcDbEntity
  8
PV
 62
     7
100
AcDbLine
 10
895.7253212888838
 20
45.66875678252842
 30
0.0
 11
817.7253212888838
 21
45.66875678252842
 31
0.0
  0
LINE
  5
3B6
330
1D
100
AcDbEntity
  8
PV
 62
     7
100
AcDbLine
 10
909.2253212888838
 20
48.66875678252842
 30
0.0
 11
817.7253212888838
 21
48.66875678252842
 31
0.0
  0
LINE
  5
3B7
330
1D
100
AcDbEntity
  8
PV
 62
     7
100
AcDbLine
 10
880.7253212888838
 20
-9.331243217471581
 30
0.0
 11
880.7253212888838
 21
-24.33124321747158
 31
0.0
  0
LINE
  5
3B8
330
1D
100
AcDbEntity
  8
PV
 62
     7
100
AcDbLine
 10
876.2253212888838
 20
3.168756782528419
 30
0.0
 11
754.6417291538826
 21
3.168756782528419
 31
0.0
  0
LINE
  5
3BB
330
1D
100
AcDbEntity
  8
PV
 62
     7
100
AcDbLine
 10
825.2253212888838
 20
13.16875678252842
 30
0.0
 11
825.2253212888838
 21
42.16875678252842
 31
0.0
  0
LINE
  5
3BD
330
1D
100
AcDbEntity
  8
PV
 62
     7
100
AcDbLine
 10
822.2253212888838
 20
10.16875678252842
 30
0.0
 11
779.2253212888838
 21
10.16875678252842
 31
0.0
  0
CIRCLE
  5
3BE
330
1D
100
AcDbEntity
  8
PV
 62
     7
100
AcDbCircle
 10
821.2253212888838
 20
15.16875678252842
 30
0.0
 40
3.8
  0
ARC
  5
3BF
330
1D
100
AcDbEntity
  8
PV
 62
     7
100
AcDbCircle
 10
822.2253212888838
 20
13.16875678252842
 30
0.0
 40
3.0
100
AcDbArc
 50
270.0
 51
0.0
  0
LINE
  5
3C6
330
1D
100
AcDbEntity
  8
PV
 62
     7
100
AcDbLine
 10
822.2253212888838
 20
45.16875678252842
 30
0.0
 11
817.7253212888838
 21
45.16875678252842
 31
0.0
  0
ARC
  5
3C7
330
1D
100
AcDbEntity
  8
PV
 62
     7
100
AcDbCircle
 10
822.2253212888838
 20
42.16875678252842
 30
0.0
 40
3.0
100
AcDbArc
 50
0.0
 51
90.0
  0
LINE
  5
3CA
330
1D
100
AcDbEntity
  8
PV
 62
     7
100
AcDbLine
 10
879.2253212888838
 20
3.668756782528419
 30
0.0
 11
879.2253212888838
 21
-4.331243217471581
 31
0.0
  0
LINE
  5
3CB
330
1D
100
AcDbEntity
  8
PV
 62
     7
100
AcDbLine
 10
876.2253212888838
 20
3.168756782528419
 30
0.0
 11
876.2253212888838
 21
-0.3312432174715809
 31
0.0
  0
LINE
  5
3CC
330
1D
100
AcDbEntity
  8
PV
 62
     7
100
AcDbLine
 10
882.7253212888838
 20
-9.331243217471581
 30
0.0
 11
882.7253212888838
 21
-4.331243217471581
 31
0.0
  0
LINE
  5
3CD
330
1D
100
AcDbEntity
  8
PV
  6
CENTER
 62
     1
100
AcDbLine
 10
892.7253212888838
 20
6.950693153607801
 30
0.0
 11
892.7253212888838
 21
-29.33124321747158
 31
0.0
  0
LINE
  5
3CE
330
1D
100
AcDbEntity
  8
PV
 62
     7
100
AcDbLine
 10
904.7253212888838
 20
-9.331243217471581
 30
0.0
 11
904.7253212888838
 21
-24.33124321747158
 31
0.0
  0
LINE
  5
3CF
330
1D
100
AcDbEntity
  8
PV
 62
     7
100
AcDbLine
 10
895.7253212888838
 20
9.668756782528419
 30
0.0
 11
895.7253212888838
 21
45.66875678252842
 31
0.0
  0
LINE
  5
3D0
330
1D
100
AcDbEntity
  8
PV
 62
     7
100
AcDbLine
 10
908.7253212888838
 20
5.668756782528419
 30
0.0
 11
908.7253212888838
 21
46.66875678252842
 31
0.0
  0
LINE
  5
3D1
330
1D
100
AcDbEntity
  8
PV
 62
     7
100
AcDbLine
 10
906.2253212888838
 20
3.668756782528419
 30
0.0
 11
906.2253212888838
 21
-4.331243217471581
 31
0.0
  0
LINE
  5
3D2
330
1D
100
AcDbEntity
  8
PV
 62
     7
100
AcDbLine
 10
902.2253212888838
 20
-4.331243217471581
 30
0.0
 11
902.2253212888838
 21
-9.331243217471581
 31
0.0
  0
ARC
  5
3D3
330
1D
100
AcDbEntity
  8
PV
 62
     7
100
AcDbCircle
 10
906.7253212888838
 20
5.668756782528419
 30
0.0
 40
2.0
100
AcDbArc
 50
270.0
 51
0.0
  0
LINE
  5
3D4
330
1D
100
AcDbEntity
  8
PV
 62
     7
100
AcDbLine
 10
907.8943212888838
 20
53.16875678252842
 30
0.0
 11
907.7193212888839
 21
73.23075678252849
 31
0.0
  0
LINE
  5
3D5
330
1D
100
AcDbEntity
  8
PV
 62
     7
100
AcDbLine
 10
909.2253212888838
 20
48.66875678252842
 30
0.0
 11
909.2253212888838
 21
53.16875678252842
 31
0.0
  0
ARC
  5
3D6
330
1D
100
AcDbEntity
  8
PV
 62
     7
100
AcDbCircle
 10
906.7253212888838
 20
46.66875678252842
 30
0.0
 40
2.0
100
AcDbArc
 50
0.0
 51
90.0
  0
LINE
  5
3D8
330
1D
100
AcDbEntity
  8
PV
  6
CENTER
 62
     1
100
AcDbLine
 10
764.3973212888839
 20
318.7537567825285
 30
0.0
 11
806.0543212888839
 21
318.7537567825285
 31
0.0
  0
LINE
  5
3D9
330
1D
100
AcDbEntity
  8
PV
  6
CENTER
 62
     1
100
AcDbLine
 10
913.1583212888839
 20
318.7537567825285
 30
0.0
 11
699.1853212888839
 21
318.7537567825285
 31
0.0
  0
LINE
  5
3DA
330
1D
100
AcDbEntity
  8
PV
 62
     7
100
AcDbLine
 10
905.7253212888838
 20
379.7537567825284
 30
0.0
 11
711.7253212888838
 21
379.7537567825284
 31
0.0
  0
LINE
  5
3DB
330
1D
100
AcDbEntity
  8
PV
 62
     7
100
AcDbLine
 10
769.2253212888838
 20
257.7537567825285
 30
0.0
 11
905.7253212888838
 21
257.7537567825285
 31
0.0
  0
LINE
  5
3DC
330
1D
100
AcDbEntity
  8
PV
  6
CENTER
 62
     1
100
AcDbLine
 10
722.2253212888838
 20
332.7537567825285
 30
0.0
 11
741.2253212888838
 21
288.7537567825285
 31
0.0
  0
LINE
  5
3DD
330
1D
100
AcDbEntity
  8
PV
 62
     7
100
AcDbLine
 10
767.2253212888838
 20
260.2537567825285
 30
0.0
 11
767.2253212888838
 21
379.7537567825284
 31
0.0
  0
LINE
  5
3DE
330
1D
100
AcDbEntity
  8
PV
 62
     7
100
AcDbLine
 10
720.7253212888838
 20
309.2537567825285
 30
0.0
 11
720.7253212888838
 21
268.2537567825285
 31
0.0
  0
LINE
  5
3E0
330
1D
100
AcDbEntity
  8
PV
 62
     7
100
AcDbLine
 10
761.7253212888838
 20
309.2537567825285
 30
0.0
 11
761.7253212888838
 21
268.2537567825285
 31
0.0
  0
LINE
  5
3E1
330
1D
100
AcDbEntity
  8
PV
 62
     7
100
AcDbLine
 10
708.7253212888838
 20
376.7537567825284
 30
0.0
 11
708.7253212888838
 21
264.2537567825285
 31
0.0
  0
LINE
  5
3E2
330
1D
100
AcDbEntity
  8
PV
 62
     7
100
AcDbLine
 10
751.2253212888838
 20
87.66875678252842
 30
0.0
 11
769.2253212888838
 21
87.66875678252842
 31
0.0
  0
LINE
  5
3E3
330
1D
100
AcDbEntity
  8
PV
 62
     7
100
AcDbLine
 10
775.2253212888838
 20
101.6687567825284
 30
0.0
 11
748.9753212888838
 21
101.6687567825284
 31
0.0
  0
LINE
  5
3E4
330
1D
100
AcDbEntity
  8
PV
 62
     7
100
AcDbLine
 10
751.2253212888838
 20
95.66875678252842
 30
0.0
 11
769.2253212888838
 21
95.66875678252842
 31
0.0
  0
LINE
  5
3E5
330
1D
100
AcDbEntity
  8
PV
  6
CENTER
 62
     1
100
AcDbLine
 10
775.0073212888839
 20
91.66875678252842
 30
0.0
 11
745.2253212888838
 21
91.66875678252842
 31
0.0
  0
LINE
  5
3ED
330
1D
100
AcDbEntity
  8
PV
  6
CENTER
 62
     1
100
AcDbLine
 10
760.2253212888838
 20
98.20575678252845
 30
0.0
 11
760.2253212888838
 21
85.13075678252847
 31
0.0
  0
LINE
  5
3EE
330
1D
100
AcDbEntity
  8
PV
  6
CENTER
 62
     1
100
AcDbLine
 10
769.2253212888838
 20
98.20575678252845
 30
0.0
 11
769.2253212888838
 21
85.13075678252847
 31
0.0
  0
ARC
  5
3EF
330
1D
100
AcDbEntity
  8
PV
 62
     7
100
AcDbCircle
 10
769.2253212888838
 20
91.66875678252842
 30
0.0
 40
4.0
100
AcDbArc
 50
270.0
 51
90.0
  0
LINE
  5
3F0
330
1D
100
AcDbEntity
  8
PV
 62
     7
100
AcDbLine
 10
775.2253212888838
 20
101.6687567825284
 30
0.0
 11
778.2253212888838
 21
98.66875678252842
 31
0.0
  0
LINE
  5
3F1
330
1D
100
AcDbEntity
  8
PV
 62
     7
100
AcDbLine
 10
765.2253212888838
 20
262.2537567825285
 30
0.0
 11
710.7253212888838
 21
262.2537567825285
 31
0.0
  0
LINE
  5
3F2
330
1D
100
AcDbEntity
  8
PV
 62
     7
100
AcDbLine
 10
759.2253212888838
 20
230.7537567825285
 30
0.0
 11
723.2253212888838
 21
230.7537567825285
 31
0.0
  0
LINE
  5
3F3
330
1D
100
AcDbEntity
  8
PV
 62
     7
100
AcDbLine
 10
759.2253212888838
 20
252.7537567825285
 30
0.0
 11
723.2253212888838
 21
252.7537567825285
 31
0.0
  0
LINE
  5
3F4
330
1D
100
AcDbEntity
  8
PV
 62
     7
100
AcDbLine
 10
761.7253212888838
 20
268.2537567825285
 30
0.0
 11
720.7253212888838
 21
268.2537567825285
 31
0.0
  0
LINE
  5
3F5
330
1D
100
AcDbEntity
  8
PV
 62
     7
100
AcDbLine
 10
723.2253212888838
 20
230.7537567825285
 30
0.0
 11
723.2253212888838
 21
252.7537567825285
 31
0.0
  0
ARC
  5
3F6
330
1D
100
AcDbEntity
  8
PV
 62
     7
100
AcDbCircle
 10
710.7253212888838
 20
264.2537567825285
 30
0.0
 40
2.0
100
AcDbArc
 50
180.0
 51
270.0
  0
LINE
  5
3F7
330
1D
100
AcDbEntity
  8
PV
 62
     7
100
AcDbLine
 10
759.2253212888838
 20
230.7537567825285
 30
0.0
 11
759.2253212888838
 21
252.7537567825285
 31
0.0
  0
LINE
  5
3F8
330
1D
100
AcDbEntity
  8
PV
 62
     7
100
AcDbLine
 10
747.2253212888838
 20
258.7537567825285
 30
0.0
 11
735.2253212888838
 21
258.7537567825285
 31
0.0
  0
LINE
  5
3F9
330
1D
100
AcDbEntity
  8
PV
 62
     7
100
AcDbLine
 10
736.2253212888838
 20
258.7537567825285
 30
0.0
 11
736.2253212888838
 21
262.2537567825285
 31
0.0
  0
LINE
  5
3FA
330
1D
100
AcDbEntity
  8
PV
 62
     7
100
AcDbLine
 10
735.2253212888838
 20
252.7537567825285
 30
0.0
 11
735.2253212888838
 21
258.7537567825285
 31
0.0
  0
LINE
  5
3FB
330
1D
100
AcDbEntity
  8
PV
 62
     7
100
AcDbLine
 10
746.2253212888838
 20
258.7537567825285
 30
0.0
 11
746.2253212888838
 21
262.2537567825285
 31
0.0
  0
LINE
  5
3FC
330
1D
100
AcDbEntity
  8
PV
 62
     7
100
AcDbLine
 10
747.2253212888838
 20
252.7537567825285
 30
0.0
 11
747.2253212888838
 21
258.7537567825285
 31
0.0
  0
ARC
  5
3FD
330
1D
100
AcDbEntity
  8
PV
 62
     7
100
AcDbCircle
 10
765.2253212888838
 20
260.2537567825285
 30
0.0
 40
2.0
100
AcDbArc
 50
0.0
 51
90.0
  0
ARC
  5
400
330
1D
100
AcDbEntity
  8
PV
 62
     7
100
AcDbCircle
 10
769.2253212888838
 20
259.7537567825285
 30
0.0
 40
2.0
100
AcDbArc
 50
180.0
 51
270.0
  0
LINE
  5
401
330
1D
100
AcDbEntity
  8
PV
 62
     7
100
AcDbLine
 10
767.2253212888838
 20
260.2537567825285
 30
0.0
 11
767.2253212888838
 21
259.7537567825285
 31
0.0
  0
CIRCLE
  5
402
330
1D
100
AcDbEntity
  8
PV
 62
     7
100
AcDbCircle
 10
756.9753212888838
 20
273.0037567825285
 30
0.0
 40
4.0
  0
LINE
  5
407
330
1D
100
AcDbEntity
  8
L-ZISSEN
100
AcDbLine
 10
735.4559424993115
 20
369.7947142213812
 30
0.0
 11
705.3295873453078
 21
408.3152603952203
 31
0.0
  0
LINE
  5
408
330
1D
100
AcDbEntity
  8
PV
  6
CENTER
 62
     1
100
AcDbLine
 10
760.2253212888838
 20
394.6037567825285
 30
0.0
 11
760.2253212888838
 21
384.6037567825285
 31
0.0
  0
LINE
  5
409
330
1D
100
AcDbEntity
  8
PV
 62
     7
100
AcDbLine
 10
726.2663212888839
 20
332.7537567825285
 30
0.0
 11
724.2463212888839
 21
336.2537567825285
 31
0.0
  0
LINE
  5
40A
330
1D
100
AcDbEntity
  8
PV
 62
     7
100
AcDbLine
 10
724.2463212888839
 20
329.2537567825285
 30
0.0
 11
726.2663212888839
 21
332.7537567825285
 31
0.0
  0
LINE
  5
40B
330
1D
100
AcDbEntity
  8
PV
 62
     7
100
AcDbLine
 10
720.7253212888838
 20
309.2537567825285
 30
0.0
 11
726.2907446237103
 21
309.2537567825285
 31
0.0
  0
ARC
  5
40C
330
1D
100
AcDbEntity
  8
PV
 62
     7
100
AcDbCircle
 10
725.4753212888838
 20
304.5037567825285
 30
0.0
 40
4.0
100
AcDbArc
 50
70.88351412763485
 51
343.1164858723645
  0
CIRCLE
  5
40D
330
1D
100
AcDbEntity
  8
PV
 62
     7
100
AcDbCircle
 10
726.4753212888838
 20
374.5037567825284
 30
0.0
 40
4.0
  0
ARC
  5
40E
330
1D
100
AcDbEntity
  8
PV
 62
     7
100
AcDbCircle
 10
726.2253212888838
 20
374.2537567825284
 30
0.0
 40
5.0
100
AcDbArc
 50
90.0
 51
180.0
  0
ARC
  5
40F
330
1D
100
AcDbEntity
  8
PV
 62
     7
100
AcDbCircle
 10
726.2253212888838
 20
343.2537567825285
 30
0.0
 40
5.0
100
AcDbArc
 50
180.0
 51
270.0
  0
CIRCLE
  5
410
330
1D
100
AcDbEntity
  8
PV
 62
     7
100
AcDbCircle
 10
726.4753212888838
 20
343.0037567825285
 30
0.0
 40
4.0
  0
LINE
  5
411
330
1D
100
AcDbEntity
  8
PV
  6
CENTER
 62
     1
100
AcDbLine
 10
719.2253212888838
 20
358.7537567825285
 30
0.0
 11
769.2253212888838
 21
358.7537567825285
 31
0.0
  0
LINE
  5
412
330
1D
100
AcDbEntity
  8
PV
 62
     7
100
AcDbLine
 10
718.1843212888839
 20
332.7537567825285
 30
0.0
 11
720.2043212888839
 21
329.2537567825285
 31
0.0
  0
LINE
  5
413
330
1D
100
AcDbEntity
  8
PV
 62
     7
100
AcDbLine
 10
720.2043212888839
 20
336.2537567825285
 30
0.0
 11
718.1843212888839
 21
332.7537567825285
 31
0.0
  0
LINE
  5
414
330
1D
100
AcDbEntity
  8
PV
 62
     7
100
AcDbLine
 10
724.2463212888839
 20
336.2537567825285
 30
0.0
 11
720.2043212888839
 21
336.2537567825285
 31
0.0
  0
LINE
  5
415
330
1D
100
AcDbEntity
  8
PV
 62
     7
100
AcDbLine
 10
720.2043212888839
 20
329.2537567825285
 30
0.0
 11
724.2463212888839
 21
329.2537567825285
 31
0.0
  0
LINE
  5
416
330
1D
100
AcDbEntity
  8
PV
 62
     7
100
AcDbLine
 10
721.2253212888838
 20
374.2537567825284
 30
0.0
 11
721.2253212888838
 21
343.2537567825285
 31
0.0
  0
ARC
  5
417
330
1D
100
AcDbEntity
  8
PV
 62
     7
100
AcDbCircle
 10
711.7253212888838
 20
376.7537567825284
 30
0.0
 40
3.0
100
AcDbArc
 50
90.0
 51
180.0
  0
ARC
  5
418
330
1D
100
AcDbEntity
  8
PV
 62
     7
100
AcDbCircle
 10
762.2253212888838
 20
343.2537567825285
 30
0.0
 40
5.0
100
AcDbArc
 50
270.0
 51
0.0
  0
LINE
  5
419
330
1D
100
AcDbEntity
  8
PV
  6
CENTER
 62
     1
100
AcDbLine
 10
744.2253212888838
 20
383.7537567825284
 30
0.0
 11
744.2253212888838
 21
333.7537567825285
 31
0.0
  0
CIRCLE
  5
41A
330
1D
100
AcDbEntity
  8
PV
 62
     7
100
AcDbCircle
 10
761.9753212888838
 20
343.0037567825285
 30
0.0
 40
4.0
  0
CIRCLE
  5
41B
330
1D
100
AcDbEntity
  8
PV
 62
     7
100
AcDbCircle
 10
744.2253212888838
 20
324.2537567825285
 30
0.0
 40
9.0
  0
LINE
  5
41C
330
1D
100
AcDbEntity
  8
PV
 62
     7
100
AcDbLine
 10
762.2253212888838
 20
338.2537567825285
 30
0.0
 11
726.2253212888838
 21
338.2537567825285
 31
0.0
  0
CIRCLE
  5
41D
330
1D
100
AcDbEntity
  8
PV
 62
     7
100
AcDbCircle
 10
744.2253212888838
 20
324.2537567825285
 30
0.0
 40
4.75
  0
LINE
  5
41E
330
1D
100
AcDbEntity
  8
PV
 62
     7
100
AcDbLine
 10
739.2503212888839
 20
316.7537567825285
 30
0.0
 11
749.2003212888839
 21
316.7537567825285
 31
0.0
  0
LINE
  5
41F
330
1D
100
AcDbEntity
  8
PV
 62
     7
100
AcDbLine
 10
739.2503212888839
 20
331.7537567825285
 30
0.0
 11
749.2003212888839
 21
331.7537567825285
 31
0.0
  0
LINE
  5
420
330
1D
100
AcDbEntity
  8
PV
 62
     7
100
AcDbLine
 10
742.2253212888838
 20
390.7537567825284
 30
0.0
 11
778.2253212888838
 21
390.7537567825284
 31
0.0
  0
LINE
  5
421
330
1D
100
AcDbEntity
  8
PV
 62
     7
100
AcDbLine
 10
742.2253212888838
 20
388.4537567825284
 30
0.0
 11
778.2253212888838
 21
388.4537567825284
 31
0.0
  0
CIRCLE
  5
422
330
1D
100
AcDbEntity
  8
PV
 62
     7
100
AcDbCircle
 10
744.2253212888838
 20
358.7537567825285
 30
0.0
 40
16.0
  0
LINE
  5
423
330
1D
100
AcDbEntity
  8
PV
 62
     7
100
AcDbLine
 10
762.2253212888838
 20
379.2537567825284
 30
0.0
 11
726.2253212888838
 21
379.2537567825284
 31
0.0
  0
CIRCLE
  5
424
330
1D
100
AcDbEntity
  8
PV
 62
     7
100
AcDbCircle
 10
744.2253212888838
 20
358.7537567825285
 30
0.0
 40
9.6
  0
INSERT
  5
425
330
1D
100
AcDbEntity
  8
L-ZISSEN
100
AcDbBlockReference
  2
_OPEN
 10
738.2281790890798
 20
366.2500415580243
 30
0.0
 41
4.5
 42
4.5
 43
4.5
 50
308.0284421712006
  0
CIRCLE
  5
426
330
1D
100
AcDbEntity
  8
PV
 62
     7
100
AcDbCircle
 10
744.2253212888838
 20
358.7537567825285
 30
0.0
 40
5.0
  0
LINE
  5
427
330
1D
100
AcDbEntity
  8
PV
 62
     7
100
AcDbLine
 10
742.2253212888838
 20
379.7537567825284
 30
0.0
 11
742.2253212888838
 21
390.7537567825284
 31
0.0
  0
ARC
  5
428
330
1D
100
AcDbEntity
  8
PV
 62
     7
100
AcDbCircle
 10
762.2253212888838
 20
374.2537567825284
 30
0.0
 40
5.0
100
AcDbArc
 50
0.0
 51
90.0
  0
CIRCLE
  5
429
330
1D
100
AcDbEntity
  8
PV
 62
     7
100
AcDbCircle
 10
761.9753212888838
 20
374.5037567825284
 30
0.0
 40
4.0
  0
LINE
  5
42A
330
1D
100
AcDbEntity
  8
PV
 62
     7
100
AcDbLine
 10
778.2253212888838
 20
379.7537567825284
 30
0.0
 11
778.2253212888838
 21
390.7537567825284
 31
0.0
  0
TEXT
  5
42B
330
1D
100
AcDbEntity
  8
L-ZISSEN
100
AcDbText
 10
679.5485890554438
 20
400.6138383613199
 30
0.0
 40
4.5
  1
Rc1/2
100
AcDbText
  0
TEXT
  5
42C
330
1D
100
AcDbEntity
  8
L-ZISSEN
100
AcDbText
 10
675.9344328019143
 20
409.7592773334488
 30
0.0
 40
4.5
  1
FOG OUT
100
AcDbText
  0
LINE
  5
42D
330
1D
100
AcDbEntity
  8
L-ZISSEN
100
AcDbLine
 10
705.3295873453078
 20
408.3152603952203
 30
0.0
 11
674.729711012401
 21
408.3152603952208
 31
0.0
  0
LINE
  5
42E
330
1D
100
AcDbEntity
  8
PV
  6
CENTER
 62
     1
100
AcDbLine
 10
892.7253212888838
 20
292.7537567825285
 30
0.0
 11
892.7253212888838
 21
262.7537567825285
 31
0.0
  0
ARC
  5
42F
330
1D
100
AcDbEntity
  8
PV
 62
     7
100
AcDbCircle
 10
778.9253212888839
 20
295.7537567825285
 30
0.0
 40
17.2
100
AcDbArc
 50
304.33
 51
55.67030000000011
  0
LINE
  5
430
330
1D
100
AcDbEntity
  8
PV
 62
     7
100
AcDbLine
 10
909.2253212888838
 20
373.2537567825284
 30
0.0
 11
909.2253212888838
 21
264.2537567825285
 31
0.0
  0
ARC
  5
431
330
1D
100
AcDbEntity
  8
PV
 62
     7
100
AcDbCircle
 10
778.9253212888839
 20
295.7537567825285
 30
0.0
 40
20.2193
100
AcDbArc
 50
318.7919999999998
 51
41.20769999999995
  0
LINE
  5
432
330
1D
100
AcDbEntity
  8
PV
 62
     7
100
AcDbLine
 10
903.7133212888839
 20
368.5417567825284
 30
0.0
 11
903.7133212888839
 21
268.9647567825285
 31
0.0
  0
CIRCLE
  5
433
330
1D
100
AcDbEntity
  8
L-HASEN
100
AcDbCircle
 10
892.7253212888838
 20
277.7537567825285
 30
0.0
 40
10.5
  0
LINE
  5
434
330
1D
100
AcDbEntity
  8
PV
  6
CENTER
 62
     1
100
AcDbLine
 10
877.7253212888838
 20
277.7537567825285
 30
0.0
 11
907.7253212888838
 21
277.7537567825285
 31
0.0
  0
LINE
  5
435
330
1D
100
AcDbEntity
  8
PV
 62
     7
100
AcDbLine
 10
794.4253212888839
 20
258.4537567825284
 30
0.0
 11
903.4253212888839
 21
258.4537567825284
 31
0.0
  0
LINE
  5
436
330
1D
100
AcDbEntity
  8
PV
 62
     7
100
AcDbLine
 10
898.7133212888839
 20
263.9647567825285
 30
0.0
 11
799.1373212888839
 21
263.9647567825285
 31
0.0
  0
LINE
  5
437
330
1D
100
AcDbEntity
  8
PV
 62
     7
100
AcDbLine
 10
794.1366305766126
 20
149.6687567825284
 30
0.0
 11
903.7139995131267
 21
149.6687567825284
 31
0.0
  0
LINE
  5
438
330
1D
100
AcDbEntity
  8
PV
  6
DASHED
 62
     5
100
AcDbLine
 10
853.2253212888838
 20
95.66875678252842
 30
0.0
 11
871.2253212888838
 21
95.66875678252842
 31
0.0
  0
LINE
  5
439
330
1D
100
AcDbEntity
  8
PV
  6
CENTER
 62
     1
100
AcDbLine
 10
877.0073212888839
 20
91.66875678252842
 30
0.0
 11
847.2253212888838
 21
91.66875678252842
 31
0.0
  0
LINE
  5
43A
330
1D
100
AcDbEntity
  8
PV
  6
DASHED
 62
     5
100
AcDbLine
 10
877.2253212888838
 20
101.6687567825284
 30
0.0
 11
847.2253212888838
 21
101.6687567825284
 31
0.0
  0
ARC
  5
43B
330
1D
100
AcDbEntity
  8
PV
  6
DASHED
 62
     5
100
AcDbCircle
 10
853.2253212888838
 20
91.66875678252842
 30
0.0
 40
4.0
100
AcDbArc
 50
90.0
 51
270.0
  0
LINE
  5
43C
330
1D
100
AcDbEntity
  8
PV
  6
DASHED
 62
     5
100
AcDbLine
 10
847.2253212888838
 20
101.6687567825284
 30
0.0
 11
844.2253212888838
 21
98.66875678252842
 31
0.0
  0
LINE
  5
43D
330
1D
100
AcDbEntity
  8
PV
  6
CENTER
 62
     1
100
AcDbLine
 10
853.2253212888838
 20
98.20575678252845
 30
0.0
 11
853.2253212888838
 21
85.13075678252847
 31
0.0
  0
LINE
  5
43E
330
1D
100
AcDbEntity
  8
PV
  6
CENTER
 62
     1
100
AcDbLine
 10
862.2253212888838
 20
98.20575678252845
 30
0.0
 11
862.2253212888838
 21
85.13075678252847
 31
0.0
  0
LINE
  5
43F
330
1D
100
AcDbEntity
  8
PV
  6
DASHED
 62
     5
100
AcDbLine
 10
877.2253212888838
 20
101.6687567825284
 30
0.0
 11
880.2253212888838
 21
98.66875678252842
 31
0.0
  0
ARC
  5
440
330
1D
100
AcDbEntity
  8
PV
  6
DASHED
 62
     5
100
AcDbCircle
 10
871.2253212888838
 20
91.66875678252842
 30
0.0
 40
4.0
100
AcDbArc
 50
270.0
 51
90.0
  0
LINE
  5
441
330
1D
100
AcDbEntity
  8
PV
  6
CENTER
 62
     1
100
AcDbLine
 10
871.2253212888838
 20
98.20575678252845
 30
0.0
 11
871.2253212888838
 21
85.13075678252847
 31
0.0
  0
ARC
  5
445
330
1D
100
AcDbEntity
  8
PV
 62
     7
100
AcDbCircle
 10
794.4253212888839
 20
264.2537567825285
 30
0.0
 40
5.8
100
AcDbArc
 50
180.0
 51
270.0
  0
ARC
  5
446
330
1D
100
AcDbEntity
  8
PV
 62
     7
100
AcDbCircle
 10
799.1373212888839
 20
268.9647567825285
 30
0.0
 40
5.0
100
AcDbArc
 50
180.0
 51
270.0
  0
LINE
  5
447
330
1D
100
AcDbEntity
  8
PV
 62
     7
100
AcDbLine
 10
788.6253212888839
 20
281.5497567825284
 30
0.0
 11
788.6253212888839
 21
264.2537567825285
 31
0.0
  0
LINE
  5
448
330
1D
100
AcDbEntity
  8
PV
 62
     7
100
AcDbLine
 10
794.1373212888839
 20
282.4327567825284
 30
0.0
 11
794.1373212888839
 21
268.9647567825285
 31
0.0
  0
ARC
  5
44C
330
1D
100
AcDbEntity
  8
PV
 62
     7
100
AcDbCircle
 10
903.4253212888839
 20
264.2537567825285
 30
0.0
 40
5.8
100
AcDbArc
 50
270.0
 51
0.0
  0
ARC
  5
44D
330
1D
100
AcDbEntity
  8
PV
 62
     7
100
AcDbCircle
 10
898.7133212888839
 20
268.9647567825285
 30
0.0
 40
5.0
100
AcDbArc
 50
270.0
 51
0.0
  0
ARC
  5
44E
330
1D
100
AcDbEntity
  8
PV
 62
     7
100
AcDbCircle
 10
905.7253212888838
 20
260.7537567825285
 30
0.0
 40
3.0
100
AcDbArc
 50
270.0
 51
0.0
  0
LINE
  5
44F
330
1D
100
AcDbEntity
  8
PV
 62
     7
100
AcDbLine
 10
908.7253212888838
 20
260.7537567825285
 30
0.0
 11
908.7253212888838
 21
261.8977567825285
 31
0.0
  0
LINE
  5
450
330
1D
100
AcDbEntity
  8
PV
 62
     7
100
AcDbLine
 10
794.4253212888839
 20
379.0537567825286
 30
0.0
 11
903.4253212888839
 21
379.0537567825286
 31
0.0
  0
LINE
  5
451
330
1D
100
AcDbEntity
  8
PV
 62
     7
100
AcDbLine
 10
898.7133212888839
 20
373.5417567825284
 30
0.0
 11
799.1373212888839
 21
373.5417567825284
 31
0.0
  0
LINE
  5
452
330
1D
100
AcDbEntity
  8
PV
  6
CENTER
 62
     1
100
AcDbLine
 10
862.2253212888838
 20
394.6037567825285
 30
0.0
 11
862.2253212888838
 21
384.6037567825285
 31
0.0
  0
LINE
  5
453
330
1D
100
AcDbEntity
  8
PV
 62
     7
100
AcDbLine
 10
788.6253212888839
 20
373.2537567825284
 30
0.0
 11
788.6253212888839
 21
309.9567567825284
 31
0.0
  0
LINE
  5
454
330
1D
100
AcDbEntity
  8
PV
 62
     7
100
AcDbLine
 10
794.1373212888839
 20
368.5417567825284
 30
0.0
 11
794.1373212888839
 21
309.0737567825284
 31
0.0
  0
ARC
  5
455
330
1D
100
AcDbEntity
  8
PV
 62
     7
100
AcDbCircle
 10
794.4253212888839
 20
373.2537567825284
 30
0.0
 40
5.8
100
AcDbArc
 50
90.0
 51
180.0
  0
ARC
  5
456
330
1D
100
AcDbEntity
  8
PV
 62
     7
100
AcDbCircle
 10
799.1373212888839
 20
368.5417567825284
 30
0.0
 40
5.0
100
AcDbArc
 50
90.0
 51
180.0
  0
LINE
  5
457
330
1D
100
AcDbEntity
  8
PV
 62
     7
100
AcDbLine
 10
826.7253212888838
 20
389.7537567825284
 30
0.0
 11
816.7253212888838
 21
389.7537567825284
 31
0.0
  0
LINE
  5
458
330
1D
100
AcDbEntity
  8
PV
 62
     7
100
AcDbLine
 10
816.7253212888838
 20
389.7537567825284
 30
0.0
 11
816.7253212888838
 21
379.7537567825284
 31
0.0
  0
LINE
  5
459
330
1D
100
AcDbEntity
  8
PV
 62
     7
100
AcDbLine
 10
826.7253212888838
 20
379.7537567825284
 30
0.0
 11
826.7253212888838
 21
389.7537567825284
 31
0.0
  0
LINE
  5
45A
330
1D
100
AcDbEntity
  8
PV
 62
     7
100
AcDbLine
 10
844.2253212888838
 20
388.4537567825284
 30
0.0
 11
880.2253212888838
 21
388.4537567825284
 31
0.0
  0
LINE
  5
45B
330
1D
100
AcDbEntity
  8
PV
 62
     7
100
AcDbLine
 10
844.2253212888838
 20
390.7537567825284
 30
0.0
 11
880.2253212888838
 21
390.7537567825284
 31
0.0
  0
LINE
  5
45C
330
1D
100
AcDbEntity
  8
PV
 62
     7
100
AcDbLine
 10
844.2253212888838
 20
379.7537567825284
 30
0.0
 11
844.2253212888838
 21
390.7537567825284
 31
0.0
  0
LINE
  5
45D
330
1D
100
AcDbEntity
  8
PV
 62
     7
100
AcDbLine
 10
880.2253212888838
 20
379.7537567825284
 30
0.0
 11
880.2253212888838
 21
390.7537567825284
 31
0.0
  0
ARC
  5
45E
330
1D
100
AcDbEntity
  8
PV
 62
     7
100
AcDbCircle
 10
903.4253212888839
 20
373.2537567825284
 30
0.0
 40
5.8
100
AcDbArc
 50
0.0
 51
90.0
  0
ARC
  5
45F
330
1D
100
AcDbEntity
  8
PV
 62
     7
100
AcDbCircle
 10
898.7133212888839
 20
368.5417567825284
 30
0.0
 40
5.0
100
AcDbArc
 50
0.0
 51
90.0
  0
ARC
  5
460
330
1D
100
AcDbEntity
  8
PV
 62
     7
100
AcDbCircle
 10
905.7253212888838
 20
376.7537567825284
 30
0.0
 40
3.0
100
AcDbArc
 50
0.0
 51
90.0
  0
LINE
  5
461
330
1D
100
AcDbEntity
  8
PV
 62
     7
100
AcDbLine
 10
908.7253212888838
 20
375.6087567825284
 30
0.0
 11
908.7253212888838
 21
376.7537567825284
 31
0.0
  0
LINE
  5
463
330
1D
100
AcDbEntity
  8
L-ZISSEN
100
AcDbLine
 10
720.7253212888838
 20
65.66875678252842
 30
0.0
 11
761.7253212888838
 21
65.66875678252842
 31
0.0
  0
LINE
  5
464
330
1D
100
AcDbEntity
  8
L-ZISSEN
100
AcDbLine
 10
767.2253212888838
 20
53.66875678252842
 30
0.0
 11
767.2253212888838
 21
65.66875678252842
 31
0.0
  0
LINE
  5
465
330
1D
100
AcDbEntity
  8
L-ZISSEN
100
AcDbLine
 10
767.2253212888838
 20
65.66875678252842
 30
0.0
 11
720.2253212888838
 21
65.66875678252842
 31
0.0
  0
LINE
  5
466
330
1D
100
AcDbEntity
  8
L-ZISSEN
100
AcDbLine
 10
720.2253212888838
 20
65.66875678252842
 30
0.0
 11
720.2253212888838
 21
53.66875678252842
 31
0.0
  0
LINE
  5
482
330
1D
100
AcDbEntity
  8
L-ZISSEN
100
AcDbLine
 10
437.7083212888839
 20
65.66875678252842
 30
0.0
 11
476.7083212888839
 21
65.66875678252842
 31
0.0
  0
LINE
  5
16F6
330
1D
100
AcDbEntity
  8
L-ZISSEN
100
AcDbLine
 10
783.7253212888838
 20
27.66875678252842
 30
0.0
 11
783.7253212888838
 21
37.34032965778228
 31
0.0
  0
ARC
  5
16F7
330
1D
100
AcDbEntity
  8
L-ZISSEN
100
AcDbCircle
 10
780.2253212888838
 20
40.16875678252842
 30
0.0
 40
4.5
100
AcDbArc
 50
321.0575587310196
 51
38.94244126898049
  0
ARC
  5
16F8
330
1D
100
AcDbEntity
  8
L-ZISSEN
100
AcDbCircle
 10
800.7253212888838
 20
27.66875678252842
 30
0.0
 40
17.0
100
AcDbArc
 50
180.0
 51
0.0
  0
LINE
  5
16F9
330
1D
100
AcDbEntity
  8
L-ZISSEN
100
AcDbLine
 10
805.7253212888838
 20
10.79968639037435
 30
0.0
 11
805.7253212888838
 21
11.42067997325654
 31
0.0
  0
LINE
  5
16FA
330
1D
100
AcDbEntity
  8
L-ZISSEN
100
AcDbLine
 10
795.7253212888838
 20
10.79968639037435
 30
0.0
 11
795.7253212888838
 21
11.42067997325654
 31
0.0
  0
LINE
  5
16FB
330
1D
100
AcDbEntity
  8
L-ZISSEN
100
AcDbLine
 10
800.7253212888838
 20
10.66875678252842
 30
0.0
 11
795.7253212888838
 21
10.79968639037435
 31
0.0
  0
LINE
  5
16FC
330
1D
100
AcDbEntity
  8
L-ZISSEN
100
AcDbLine
 10
800.7253212888838
 20
10.66875678252842
 30
0.0
 11
805.7253212888838
 21
10.79968639037435
 31
0.0
  0
LINE
  5
16FD
330
1D
100
AcDbEntity
  8
L-ZISSEN
100
AcDbLine
 10
817.7253212888838
 20
27.66875678252842
 30
0.0
 11
817.7253212888838
 21
70.97260435982167
 31
0.0
  0
LINE
  5
16FE
330
1D
100
AcDbEntity
  8
L-ZISSEN
  6
Continuous
 62
     7
100
AcDbLine
 10
826.7253212888838
 20
79.66875678252819
 30
0.0
 11
826.7253212888838
 21
83.66875678252819
 31
0.0
  0
LINE
  5
16FF
330
1D
100
AcDbEntity
  8
L-ZISSEN
100
AcDbLine
 10
780.7253212888838
 20
76.16875678252842
 30
0.0
 11
820.7253212888838
 21
76.16875678252842
 31
0.0
  0
LINE
  5
1700
330
1D
100
AcDbEntity
  8
L-ZISSEN
  6
Continuous
 62
     7
100
AcDbLine
 10
774.7253212888838
 20
79.66875678252819
 30
0.0
 11
826.7253212888838
 21
79.66875678252819
 31
0.0
  0
LINE
  5
1701
330
1D
100
AcDbEntity
  8
L-ZISSEN
100
AcDbLine
 10
783.7253212888838
 20
70.97260435982167
 30
0.0
 11
817.7253212888838
 21
70.97260435982167
 31
0.0
  0
LINE
  5
1702
330
1D
100
AcDbEntity
  8
L-ZISSEN
100
AcDbLine
 10
820.7253212888838
 20
79.66875678252842
 30
0.0
 11
820.7253212888838
 21
76.16875678252842
 31
0.0
  0
LINE
  5
1703
330
1D
100
AcDbEntity
  8
L-ZISSEN
100
AcDbLine
 10
820.7253212888838
 20
76.16875678252819
 30
0.0
 11
817.7253212888838
 21
70.97260435982167
 31
0.0
  0
LINE
  5
1704
330
1D
100
AcDbEntity
  8
L-ZISSEN
  6
Continuous
 62
     7
100
AcDbLine
 10
777.7253212888838
 20
98.66875678252819
 30
0.0
 11
823.7253212888838
 21
98.66875678252819
 31
0.0
  0
LINE
  5
1705
330
1D
100
AcDbEntity
  8
L-ZISSEN
  6
Continuous
 62
     7
100
AcDbLine
 10
774.7253212888838
 20
83.66875678252819
 30
0.0
 11
826.7253212888838
 21
83.66875678252819
 31
0.0
  0
ARC
  5
1706
330
1D
100
AcDbEntity
  8
L-ZISSEN
  6
Continuous
 62
     7
100
AcDbCircle
 10
798.039621480302
 20
95.66875678252819
 30
0.0
 40
1.0
100
AcDbArc
 50
0.0
 51
180.0
  0
LINE
  5
1707
330
1D
100
AcDbEntity
  8
L-ZISSEN
  6
Continuous
 62
     7
100
AcDbLine
 10
797.0396214803015
 20
83.66875678252819
 30
0.0
 11
797.039621480302
 21
95.66875678252819
 31
0.0
  0
ARC
  5
1708
330
1D
100
AcDbEntity
  8
L-ZISSEN
  6
Continuous
 62
     7
100
AcDbCircle
 10
803.4110210974661
 20
95.66875678252819
 30
0.0
 40
1.0
100
AcDbArc
 50
0.0
 51
180.0
  0
LINE
  5
1709
330
1D
100
AcDbEntity
  8
L-ZISSEN
  6
Continuous
 62
     7
100
AcDbLine
 10
799.039621480302
 20
95.66875678252819
 30
0.0
 11
799.0396214803015
 21
83.66875678252819
 31
0.0
  0
LINE
  5
170A
330
1D
100
AcDbEntity
  8
L-ZISSEN
  6
Continuous
 62
     7
100
AcDbLine
 10
802.4110210974661
 20
95.66875678252819
 30
0.0
 11
802.4110210974661
 21
83.66875678252819
 31
0.0
  0
LINE
  5
170B
330
1D
100
AcDbEntity
  8
L-ZISSEN
  6
Continuous
 62
     7
100
AcDbLine
 10
804.4110210974661
 20
83.66875678252819
 30
0.0
 11
804.4110210974661
 21
95.66875678252819
 31
0.0
  0
ARC
  5
170C
330
1D
100
AcDbEntity
  8
L-ZISSEN
  6
Continuous
 62
     7
100
AcDbCircle
 10
823.7253212888838
 20
96.66875678252819
 30
0.0
 40
2.00000000000005
100
AcDbArc
 50
0.0
 51
90.0
  0
ARC
  5
170D
330
1D
100
AcDbEntity
  8
L-ZISSEN
  6
Continuous
 62
     7
100
AcDbCircle
 10
819.582570852004
 20
95.66875678252819
 30
0.0
 40
0.8410359965211285
100
AcDbArc
 50
0.0
 51
180.0
  0
ARC
  5
170E
330
1D
100
AcDbEntity
  8
L-ZISSEN
  6
Continuous
 62
     7
100
AcDbCircle
 10
812.2886264313527
 20
95.66875678252819
 30
0.0
 40
0.9517804529600937
100
AcDbArc
 50
0.0
 51
180.0
  0
LINE
  5
170F
330
1D
100
AcDbEntity
  8
L-ZISSEN
  6
Continuous
 62
     7
100
AcDbLine
 10
820.4236068485254
 20
83.66875678252819
 30
0.0
 11
820.4236068485254
 21
95.66875678252819
 31
0.0
  0
LINE
  5
1710
330
1D
100
AcDbEntity
  8
L-ZISSEN
  6
Continuous
 62
     7
100
AcDbLine
 10
818.741534855483
 20
95.66875678252819
 30
0.0
 11
818.741534855483
 21
83.66875678252819
 31
0.0
  0
LINE
  5
1711
330
1D
100
AcDbEntity
  8
L-ZISSEN
  6
Continuous
 62
     7
100
AcDbLine
 10
811.3368459783926
 20
95.66875678252819
 30
0.0
 11
811.3368459783926
 21
83.66875678252819
 31
0.0
  0
LINE
  5
1712
330
1D
100
AcDbEntity
  8
L-ZISSEN
  6
Continuous
 62
     7
100
AcDbLine
 10
813.2404068843127
 20
83.66875678252819
 30
0.0
 11
813.2404068843127
 21
95.66875678252819
 31
0.0
  0
ARC
  5
1713
330
1D
100
AcDbEntity
  8
L-ZISSEN
  6
Continuous
 62
     7
100
AcDbCircle
 10
825.7253212888838
 20
95.66875678252819
 30
0.0
 40
1.000000000000057
100
AcDbArc
 50
0.0
 51
90.0
  0
ARC
  5
1714
330
1D
100
AcDbEntity
  8
L-ZISSEN
  6
Continuous
 62
     7
100
AcDbCircle
 10
824.4220403070615
 20
95.66875678252819
 30
0.0
 40
0.6900673384707545
100
AcDbArc
 50
0.0
 51
180.0
  0
LINE
  5
1715
330
1D
100
AcDbEntity
  8
L-ZISSEN
  6
Continuous
 62
     7
100
AcDbLine
 10
825.7319729685908
 20
95.66875678252819
 30
0.0
 11
825.7319729685908
 21
83.66875678252819
 31
0.0
  0
LINE
  5
1716
330
1D
100
AcDbEntity
  8
L-ZISSEN
  6
Continuous
 62
     7
100
AcDbLine
 10
826.7253212888838
 20
83.66875678252819
 30
0.0
 11
826.7253212888838
 21
95.66875678252819
 31
0.0
  0
LINE
  5
1717
330
1D
100
AcDbEntity
  8
L-ZISSEN
  6
Continuous
 62
     7
100
AcDbLine
 10
825.7253212888838
 20
83.66875678252819
 30
0.0
 11
825.7253212888838
 21
96.66875678252819
 31
0.0
  0
LINE
  5
1718
330
1D
100
AcDbEntity
  8
L-ZISSEN
  6
Continuous
 62
     7
100
AcDbLine
 10
825.1121076455322
 20
83.66875678252819
 30
0.0
 11
825.1121076455322
 21
95.66875678252819
 31
0.0
  0
LINE
  5
1719
330
1D
100
AcDbEntity
  8
L-ZISSEN
  6
Continuous
 62
     7
100
AcDbLine
 10
823.7319729685908
 20
95.66875678252819
 30
0.0
 11
823.7319729685908
 21
83.66875678252819
 31
0.0
  0
LINE
  5
171A
330
1D
100
AcDbEntity
  8
L-ZISSEN
100
AcDbLine
 10
783.7253212888838
 20
42.99718390727463
 30
0.0
 11
783.7253212888838
 21
70.97260435982145
 31
0.0
  0
LINE
  5
171B
330
1D
100
AcDbEntity
  8
L-ZISSEN
100
AcDbLine
 10
780.7253212888838
 20
79.66875678252842
 30
0.0
 11
780.7253212888838
 21
76.16875678252842
 31
0.0
  0
LINE
  5
171C
330
1D
100
AcDbEntity
  8
L-ZISSEN
100
AcDbLine
 10
780.7253212888838
 20
76.16875678252819
 30
0.0
 11
783.7253212888838
 21
70.97260435982167
 31
0.0
  0
LINE
  5
171D
330
1D
100
AcDbEntity
  8
L-ZISSEN
  6
Continuous
 62
     7
100
AcDbLine
 10
774.7253212888838
 20
83.66875678252819
 30
0.0
 11
774.7253212888838
 21
79.66875678252819
 31
0.0
  0
LINE
  5
171E
330
1D
100
AcDbEntity
  8
L-ZISSEN
  6
Continuous
 62
     7
100
AcDbLine
 10
776.3385349322355
 20
83.66875678252819
 30
0.0
 11
776.3385349322355
 21
95.66875678252819
 31
0.0
  0
LINE
  5
171F
330
1D
100
AcDbEntity
  8
L-ZISSEN
  6
Continuous
 62
     7
100
AcDbLine
 10
777.7186696091769
 20
95.66875678252819
 30
0.0
 11
777.7186696091769
 21
83.66875678252819
 31
0.0
  0
LINE
  5
1720
330
1D
100
AcDbEntity
  8
L-ZISSEN
  6
Continuous
 62
     7
100
AcDbLine
 10
775.7253212888838
 20
83.66875678252819
 30
0.0
 11
775.7253212888838
 21
96.66875678252819
 31
0.0
  0
LINE
  5
1721
330
1D
100
AcDbEntity
  8
L-ZISSEN
  6
Continuous
 62
     7
100
AcDbLine
 10
774.7253212888838
 20
83.66875678252819
 30
0.0
 11
774.7253212888838
 21
95.66875678252819
 31
0.0
  0
LINE
  5
1722
330
1D
100
AcDbEntity
  8
L-ZISSEN
  6
Continuous
 62
     7
100
AcDbLine
 10
781.0270357292427
 20
83.66875678252819
 30
0.0
 11
781.0270357292432
 21
95.66875678252819
 31
0.0
  0
ARC
  5
1723
330
1D
100
AcDbEntity
  8
L-ZISSEN
  6
Continuous
 62
     7
100
AcDbCircle
 10
777.7253212888838
 20
96.66875678252819
 30
0.0
 40
2.00000000000005
100
AcDbArc
 50
90.0
 51
180.0
  0
ARC
  5
1724
330
1D
100
AcDbEntity
  8
L-ZISSEN
  6
Continuous
 62
     7
100
AcDbCircle
 10
775.7253212888838
 20
95.66875678252819
 30
0.0
 40
1.000000000000057
100
AcDbArc
 50
90.0
 51
180.0
  0
ARC
  5
1725
330
1D
100
AcDbEntity
  8
L-ZISSEN
  6
Continuous
 62
     7
100
AcDbCircle
 10
777.0286022707062
 20
95.66875678252819
 30
0.0
 40
0.6900673384707545
100
AcDbArc
 50
0.0
 51
180.0
  0
ARC
  5
1726
330
1D
100
AcDbEntity
  8
L-ZISSEN
  6
Continuous
 62
     7
100
AcDbCircle
 10
781.8680717257641
 20
95.66875678252819
 30
0.0
 40
0.8410359965211285
100
AcDbArc
 50
0.0
 51
180.0
  0
LINE
  5
1727
330
1D
100
AcDbEntity
  8
L-ZISSEN
  6
Continuous
 62
     7
100
AcDbLine
 10
782.7091077222851
 20
95.66875678252819
 30
0.0
 11
782.7091077222851
 21
83.66875678252819
 31
0.0
  0
LINE
  5
1728
330
1D
100
AcDbEntity
  8
L-ZISSEN
  6
Continuous
 62
     7
100
AcDbLine
 10
790.1137965993755
 20
95.66875678252819
 30
0.0
 11
790.1137965993755
 21
83.66875678252819
 31
0.0
  0
LINE
  5
1729
330
1D
100
AcDbEntity
  8
L-ZISSEN
  6
Continuous
 62
     7
100
AcDbLine
 10
788.2102356934554
 20
83.66875678252819
 30
0.0
 11
788.2102356934554
 21
95.66875678252819
 31
0.0
  0
ARC
  5
172A
330
1D
100
AcDbEntity
  8
L-ZISSEN
  6
Continuous
 62
     7
100
AcDbCircle
 10
789.1620161464155
 20
95.66875678252819
 30
0.0
 40
0.9517804529600937
100
AcDbArc
 50
0.0
 51
180.0
  0
LINE
  5
172B
330
1D
100
AcDbEntity
  8
L-ZISSEN
  6
Continuous
 62
     7
100
AcDbLine
 10
546.2083212888836
 20
79.66875678252819
 30
0.3276209051444079
 11
546.2083212888836
 21
83.66875678252819
 31
0.3276209051444079
  0
LINE
  5
172C
330
1D
100
AcDbEntity
  8
L-ZISSEN
  6
Continuous
 62
     7
100
AcDbLine
 10
494.2083212888836
 20
83.66875678252819
 30
0.3276209051444079
 11
494.2083212888836
 21
79.66875678252819
 31
0.3276209051444079
  0
LINE
  5
172D
330
1D
100
AcDbEntity
  8
L-ZISSEN
 62
     7
100
AcDbLine
 10
503.2083212888836
 20
70.97260435982145
 30
0.3276209051444079
 11
537.2083212888836
 21
70.97260435982145
 31
0.3276209051444079
  0
LINE
  5
172E
330
1D
100
AcDbEntity
  8
L-ZISSEN
 62
     7
100
AcDbLine
 10
500.2083212888836
 20
76.16875678252819
 30
0.3276209051444079
 11
540.2083212888836
 21
76.16875678252819
 31
0.3276209051444079
  0
LINE
  5
172F
330
1D
100
AcDbEntity
  8
L-ZISSEN
  6
Continuous
 62
     7
100
AcDbLine
 10
494.2083212888836
 20
79.66875678252819
 30
0.3276209051444079
 11
546.2083212888836
 21
79.66875678252819
 31
0.3276209051444079
  0
LINE
  5
1730
330
1D
100
AcDbEntity
  8
L-ZISSEN
 62
     7
100
AcDbLine
 10
503.2083212888833
 20
45.16875678252819
 30
0.3276209051444079
 11
503.2083212888836
 21
70.97260435982145
 31
0.3276209051444079
  0
LINE
  5
1731
330
1D
100
AcDbEntity
  8
L-ZISSEN
 62
     7
100
AcDbLine
 10
500.2083212888836
 20
76.16875678252819
 30
0.3276209051444079
 11
503.2083212888836
 21
70.97260435982145
 31
0.3276209051444079
  0
LINE
  5
1732
330
1D
100
AcDbEntity
  8
L-ZISSEN
 62
     7
100
AcDbLine
 10
500.2083212888836
 20
79.66875678252819
 30
0.3276209051444079
 11
500.2083212888836
 21
76.16875678252819
 31
0.3276209051444079
  0
LINE
  5
1733
330
1D
100
AcDbEntity
  8
L-ZISSEN
 62
     7
100
AcDbLine
 10
537.2083212888836
 20
27.66875678252819
 30
0.3276209051444079
 11
537.2083212888836
 21
70.97260435982145
 31
0.3276209051444079
  0
LINE
  5
1734
330
1D
100
AcDbEntity
  8
L-ZISSEN
 62
     7
100
AcDbLine
 10
540.2083212888836
 20
76.16875678252819
 30
0.3276209051444079
 11
537.2083212888836
 21
70.97260435982145
 31
0.3276209051444079
  0
LINE
  5
1735
330
1D
100
AcDbEntity
  8
L-ZISSEN
 62
     7
100
AcDbLine
 10
540.2083212888836
 20
79.66875678252819
 30
0.3276209051444079
 11
540.2083212888836
 21
76.16875678252819
 31
0.3276209051444079
  0
LINE
  5
1736
330
1D
100
AcDbEntity
  8
L-ZISSEN
  6
Continuous
 62
     7
100
AcDbLine
 10
497.2083212888836
 20
98.66875678252819
 30
0.3276209051444079
 11
543.2083212888836
 21
98.66875678252819
 31
0.3276209051444079
  0
LINE
  5
1737
330
1D
100
AcDbEntity
  8
L-ZISSEN
  6
Continuous
 62
     7
100
AcDbLine
 10
494.2083212888836
 20
83.66875678252819
 30
0.3276209051444079
 11
546.2083212888836
 21
83.66875678252819
 31
0.3276209051444079
  0
ARC
  5
1738
330
1D
100
AcDbEntity
  8
L-ZISSEN
  6
Continuous
 62
     7
100
AcDbCircle
 10
497.2083212888836
 20
96.66875678252819
 30
0.3276209051444079
 40
2.00000000000005
100
AcDbArc
 50
90.0
 51
180.0
  0
ARC
  5
1739
330
1D
100
AcDbEntity
  8
L-ZISSEN
  6
Continuous
 62
     7
100
AcDbCircle
 10
501.3510717257639
 20
95.66875678252819
 30
0.3276209051444079
 40
0.8410359965211285
100
AcDbArc
 50
0.0
 51
180.0
  0
LINE
  5
173A
330
1D
100
AcDbEntity
  8
L-ZISSEN
  6
Continuous
 62
     7
100
AcDbLine
 10
497.2016696091766
 20
95.66875678252819
 30
0.3276209051444079
 11
497.2016696091766
 21
83.66875678252819
 31
0.3276209051444079
  0
LINE
  5
173B
330
1D
100
AcDbEntity
  8
L-ZISSEN
  6
Continuous
 62
     7
100
AcDbLine
 10
502.1921077222848
 20
95.66875678252819
 30
0.3276209051444079
 11
502.1921077222848
 21
83.66875678252819
 31
0.3276209051444079
  0
LINE
  5
173C
330
1D
100
AcDbEntity
  8
L-ZISSEN
  6
Continuous
 62
     7
100
AcDbLine
 10
500.5100357292424
 20
83.66875678252819
 30
0.3276209051444079
 11
500.5100357292429
 21
95.66875678252819
 31
0.3276209051444079
  0
ARC
  5
173D
330
1D
100
AcDbEntity
  8
L-ZISSEN
  6
Continuous
 62
     7
100
AcDbCircle
 10
495.2083212888836
 20
95.66875678252819
 30
0.3276209051444079
 40
1.000000000000057
100
AcDbArc
 50
90.0
 51
180.0
  0
LINE
  5
173E
330
1D
100
AcDbEntity
  8
L-ZISSEN
  6
Continuous
 62
     7
100
AcDbLine
 10
495.8215349322352
 20
83.66875678252819
 30
0.3276209051444079
 11
495.8215349322352
 21
95.66875678252819
 31
0.3276209051444079
  0
LINE
  5
173F
330
1D
100
AcDbEntity
  8
L-ZISSEN
  6
Continuous
 62
     7
100
AcDbLine
 10
495.2083212888836
 20
83.66875678252819
 30
0.3276209051444079
 11
495.2083212888836
 21
96.66875678252819
 31
0.3276209051444079
  0
LINE
  5
1740
330
1D
100
AcDbEntity
  8
L-ZISSEN
  6
Continuous
 62
     7
100
AcDbLine
 10
494.2083212888836
 20
83.66875678252819
 30
0.3276209051444079
 11
494.2083212888836
 21
95.66875678252819
 31
0.3276209051444079
  0
ARC
  5
1741
330
1D
100
AcDbEntity
  8
L-ZISSEN
  6
Continuous
 62
     7
100
AcDbCircle
 10
496.5116022707059
 20
95.66875678252819
 30
0.3276209051444079
 40
0.6900673384707545
100
AcDbArc
 50
0.0
 51
180.0
  0
ARC
  5
1742
330
1D
100
AcDbEntity
  8
L-ZISSEN
  6
Continuous
 62
     7
100
AcDbCircle
 10
508.6450161464152
 20
95.66875678252819
 30
0.3276209051444079
 40
0.9517804529600937
100
AcDbArc
 50
0.0
 51
180.0
  0
LINE
  5
1743
330
1D
100
AcDbEntity
  8
L-ZISSEN
  6
Continuous
 62
     7
100
AcDbLine
 10
509.5967965993752
 20
95.66875678252819
 30
0.3276209051444079
 11
509.5967965993752
 21
83.66875678252819
 31
0.3276209051444079
  0
LINE
  5
1744
330
1D
100
AcDbEntity
  8
L-ZISSEN
  6
Continuous
 62
     7
100
AcDbLine
 10
507.6932356934551
 20
83.66875678252819
 30
0.3276209051444079
 11
507.6932356934551
 21
95.66875678252819
 31
0.3276209051444079
  0
ARC
  5
1745
330
1D
100
AcDbEntity
  8
L-ZISSEN
  6
Continuous
 62
     7
100
AcDbCircle
 10
522.8940210974658
 20
95.66875678252819
 30
0.3276209051444079
 40
1.0
100
AcDbArc
 50
0.0
 51
180.0
  0
ARC
  5
1746
330
1D
100
AcDbEntity
  8
L-ZISSEN
  6
Continuous
 62
     7
100
AcDbCircle
 10
517.5226214803017
 20
95.66875678252819
 30
0.3276209051444079
 40
1.0
100
AcDbArc
 50
0.0
 51
180.0
  0
LINE
  5
1747
330
1D
100
AcDbEntity
  8
L-ZISSEN
  6
Continuous
 62
     7
100
AcDbLine
 10
518.5226214803017
 20
95.66875678252819
 30
0.3276209051444079
 11
518.5226214803013
 21
83.66875678252819
 31
0.3276209051444079
  0
LINE
  5
1748
330
1D
100
AcDbEntity
  8
L-ZISSEN
  6
Continuous
 62
     7
100
AcDbLine
 10
521.8940210974658
 20
95.66875678252819
 30
0.3276209051444079
 11
521.8940210974658
 21
83.66875678252819
 31
0.3276209051444079
  0
LINE
  5
1749
330
1D
100
AcDbEntity
  8
L-ZISSEN
  6
Continuous
 62
     7
100
AcDbLine
 10
523.8940210974658
 20
83.66875678252819
 30
0.3276209051444079
 11
523.8940210974658
 21
95.66875678252819
 31
0.3276209051444079
  0
LINE
  5
174A
330
1D
100
AcDbEntity
  8
L-ZISSEN
  6
Continuous
 62
     7
100
AcDbLine
 10
516.5226214803013
 20
83.66875678252819
 30
0.3276209051444079
 11
516.5226214803017
 21
95.66875678252819
 31
0.3276209051444079
  0
ARC
  5
174B
330
1D
100
AcDbEntity
  8
L-ZISSEN
  6
Continuous
 62
     7
100
AcDbCircle
 10
543.2083212888836
 20
96.66875678252819
 30
0.3276209051444079
 40
2.00000000000005
100
AcDbArc
 50
0.0
 51
90.0
  0
ARC
  5
174C
330
1D
100
AcDbEntity
  8
L-ZISSEN
  6
Continuous
 62
     7
100
AcDbCircle
 10
539.0655708520037
 20
95.66875678252819
 30
0.3276209051444079
 40
0.8410359965211285
100
AcDbArc
 50
0.0
 51
180.0
  0
ARC
  5
174D
330
1D
100
AcDbEntity
  8
L-ZISSEN
  6
Continuous
 62
     7
100
AcDbCircle
 10
531.7716264313524
 20
95.66875678252819
 30
0.3276209051444079
 40
0.9517804529600937
100
AcDbArc
 50
0.0
 51
180.0
  0
LINE
  5
174E
330
1D
100
AcDbEntity
  8
L-ZISSEN
  6
Continuous
 62
     7
100
AcDbLine
 10
530.8198459783923
 20
95.66875678252819
 30
0.3276209051444079
 11
530.8198459783923
 21
83.66875678252819
 31
0.3276209051444079
  0
LINE
  5
174F
330
1D
100
AcDbEntity
  8
L-ZISSEN
  6
Continuous
 62
     7
100
AcDbLine
 10
532.7234068843125
 20
83.66875678252819
 30
0.3276209051444079
 11
532.7234068843125
 21
95.66875678252819
 31
0.3276209051444079
  0
LINE
  5
1750
330
1D
100
AcDbEntity
  8
L-ZISSEN
  6
Continuous
 62
     7
100
AcDbLine
 10
538.2245348554827
 20
95.66875678252819
 30
0.3276209051444079
 11
538.2245348554827
 21
83.66875678252819
 31
0.3276209051444079
  0
ARC
  5
1751
330
1D
100
AcDbEntity
  8
L-ZISSEN
  6
Continuous
 62
     7
100
AcDbCircle
 10
545.2083212888836
 20
95.66875678252819
 30
0.3276209051444079
 40
1.000000000000057
100
AcDbArc
 50
0.0
 51
90.0
  0
ARC
  5
1752
330
1D
100
AcDbEntity
  8
L-ZISSEN
  6
Continuous
 62
     7
100
AcDbCircle
 10
543.9050403070612
 20
95.66875678252819
 30
0.3276209051444079
 40
0.6900673384707545
100
AcDbArc
 50
0.0
 51
180.0
  0
LINE
  5
1753
330
1D
100
AcDbEntity
  8
L-ZISSEN
  6
Continuous
 62
     7
100
AcDbLine
 10
545.2149729685905
 20
95.66875678252819
 30
0.3276209051444079
 11
545.2149729685905
 21
83.66875678252819
 31
0.3276209051444079
  0
LINE
  5
1754
330
1D
100
AcDbEntity
  8
L-ZISSEN
  6
Continuous
 62
     7
100
AcDbLine
 10
546.2083212888836
 20
83.66875678252819
 30
0.3276209051444079
 11
546.2083212888836
 21
95.66875678252819
 31
0.3276209051444079
  0
LINE
  5
1755
330
1D
100
AcDbEntity
  8
L-ZISSEN
  6
Continuous
 62
     7
100
AcDbLine
 10
545.2083212888836
 20
83.66875678252819
 30
0.3276209051444079
 11
545.2083212888836
 21
96.66875678252819
 31
0.3276209051444079
  0
LINE
  5
1756
330
1D
100
AcDbEntity
  8
L-ZISSEN
  6
Continuous
 62
     7
100
AcDbLine
 10
544.5951076455319
 20
83.66875678252819
 30
0.3276209051444079
 11
544.5951076455319
 21
95.66875678252819
 31
0.3276209051444079
  0
LINE
  5
1757
330
1D
100
AcDbEntity
  8
L-ZISSEN
  6
Continuous
 62
     7
100
AcDbLine
 10
543.2149729685905
 20
95.66875678252819
 30
0.3276209051444079
 11
543.2149729685905
 21
83.66875678252819
 31
0.3276209051444079
  0
LINE
  5
1758
330
1D
100
AcDbEntity
  8
L-ZISSEN
  6
Continuous
 62
     7
100
AcDbLine
 10
539.9066068485251
 20
83.66875678252819
 30
0.3276209051444079
 11
539.9066068485251
 21
95.66875678252819
 31
0.3276209051444079
  0
CIRCLE
  5
1759
330
1D
100
AcDbEntity
  8
L-ZISSEN
  6
Continuous
 62
     7
100
AcDbCircle
 10
800.7253212888834
 20
225.7537567825285
 30
0.0
 40
25.0
  0
CIRCLE
  5
175A
330
1D
100
AcDbEntity
  8
L-ZISSEN
  6
Continuous
 62
     7
100
AcDbCircle
 10
800.7253212888834
 20
225.7537567825285
 30
0.0
 40
26.0
  0
ARC
  5
175B
330
1D
100
AcDbEntity
  8
L-ZISSEN
  6
Continuous
 62
     7
100
AcDbCircle
 10
776.1051274635772
 20
230.0949612242021
 30
0.0
 40
1.015085595428536
100
AcDbArc
 50
78.92289729156165
 51
261.0771027084465
  0
ARC
  5
175C
330
1D
100
AcDbEntity
  8
L-ZISSEN
  6
Continuous
 62
     7
100
AcDbCircle
 10
784.6556310467192
 20
206.6026457045537
 30
0.0
 40
1.015085595428536
100
AcDbArc
 50
138.9228972915482
 51
321.0771027084356
  0
ARC
  5
175D
330
1D
100
AcDbEntity
  8
L-ZISSEN
  6
Continuous
 62
     7
100
AcDbCircle
 10
776.1051274635772
 20
221.4125523408553
 30
0.0
 40
1.015085595428536
100
AcDbArc
 50
98.92289729155351
 51
281.0771027084385
  0
ARC
  5
175E
330
1D
100
AcDbEntity
  8
L-ZISSEN
  6
Continuous
 62
     7
100
AcDbCircle
 10
779.0746861942719
 20
213.2537567825285
 30
0.0
 40
1.015085595428536
100
AcDbArc
 50
118.922897291572
 51
301.0771027084305
  0
LINE
  5
175F
330
1D
100
AcDbEntity
  8
L-ZISSEN
100
AcDbLine
 10
776.2253212888834
 20
243.7537567825285
 30
0.0
 11
776.2253212888834
 21
257.7537567825285
 31
0.0
  0
ARC
  5
1760
330
1D
100
AcDbEntity
  8
L-ZISSEN
100
AcDbCircle
 10
776.7253212888834
 20
239.2537567825285
 30
0.0
 40
0.5
100
AcDbArc
 50
180.0
 51
270.0
  0
LINE
  5
1761
330
1D
100
AcDbEntity
  8
L-ZISSEN
100
AcDbLine
 10
776.7253212888834
 20
238.7537567825285
 30
0.0
 11
778.2086607904882
 21
238.7537567825285
 31
0.0
  0
LINE
  5
1762
330
1D
100
AcDbEntity
  8
L-ZISSEN
100
AcDbLine
 10
776.2253212888834
 20
243.7537567825285
 30
0.0
 11
781.9636582495898
 21
243.7537567825285
 31
0.0
  0
LINE
  5
1763
330
1D
100
AcDbEntity
  8
L-ZISSEN
100
AcDbLine
 10
776.2253212888834
 20
243.7537567825285
 30
0.0
 11
776.2253212888834
 21
239.2537567825285
 31
0.0
  0
ARC
  5
1764
330
1D
100
AcDbEntity
  8
L-ZISSEN
  6
Continuous
 62
     7
100
AcDbCircle
 10
784.6556310467192
 20
244.9048678605032
 30
0.0
 40
1.015085595428536
100
AcDbArc
 50
38.92289729156449
 51
221.0771027084519
  0
LINE
  5
1765
330
1D
100
AcDbEntity
  8
L-ZISSEN
100
AcDbLine
 10
776.2253212888834
 20
243.7537567825285
 30
0.0
 11
781.9636582495893
 21
243.7537567825285
 31
0.0
  0
ARC
  5
1766
330
1D
100
AcDbEntity
  8
L-ZISSEN
  6
Continuous
 62
     7
100
AcDbCircle
 10
779.0746861942719
 20
238.2537567825289
 30
0.0
 40
1.015085595428536
100
AcDbArc
 50
58.92289729156946
 51
241.077102708428
  0
ARC
  5
1767
330
1D
100
AcDbEntity
  8
L-ZISSEN
  6
Continuous
 62
     7
100
AcDbCircle
 10
825.3455151141891
 20
230.0949612242021
 30
0.0
 40
1.015085595428536
100
AcDbArc
 50
278.9228972915536
 51
101.0771027084384
  0
ARC
  5
1768
330
1D
100
AcDbEntity
  8
L-ZISSEN
  6
Continuous
 62
     7
100
AcDbCircle
 10
792.1748177057414
 20
202.2614412628801
 30
0.0
 40
1.015085595428536
100
AcDbArc
 50
158.9228972915544
 51
341.0771027084296
  0
ARC
  5
1769
330
1D
100
AcDbEntity
  8
L-ZISSEN
  6
Continuous
 62
     7
100
AcDbCircle
 10
800.7253212888834
 20
200.753756782528
 30
0.0
 40
1.015085595428536
100
AcDbArc
 50
178.9228972915609
 51
1.077102708439119
  0
ARC
  5
176A
330
1D
100
AcDbEntity
  8
L-ZISSEN
  6
Continuous
 62
     7
100
AcDbCircle
 10
809.2758248720254
 20
202.2614412628801
 30
0.0
 40
1.015085595428536
100
AcDbArc
 50
198.9228972915704
 51
21.0771027084456
  0
ARC
  5
176B
330
1D
100
AcDbEntity
  8
L-ZISSEN
  6
Continuous
 62
     7
100
AcDbCircle
 10
816.7950115310475
 20
206.6026457045537
 30
0.0
 40
1.015085595428536
100
AcDbArc
 50
218.9228972915645
 51
41.07710270845185
  0
ARC
  5
176C
330
1D
100
AcDbEntity
  8
L-ZISSEN
  6
Continuous
 62
     7
100
AcDbCircle
 10
822.3759563834949
 20
213.2537567825285
 30
0.0
 40
1.015085595428536
100
AcDbArc
 50
238.9228972915695
 51
61.07710270842801
  0
ARC
  5
176D
330
1D
100
AcDbEntity
  8
L-ZISSEN
  6
Continuous
 62
     7
100
AcDbCircle
 10
825.3455151141891
 20
221.4125523408553
 30
0.0
 40
1.015085595428536
100
AcDbArc
 50
258.9228972915616
 51
81.0771027084465
  0
ARC
  5
176E
330
1D
100
AcDbEntity
  8
L-ZISSEN
  6
Continuous
 62
     7
100
AcDbCircle
 10
792.1748177057414
 20
249.2460723021769
 30
0.0
 40
1.015085595428536
100
AcDbArc
 50
18.9228972915704
 51
201.0771027084456
  0
ARC
  5
176F
330
1D
100
AcDbEntity
  8
L-ZISSEN
  6
Continuous
 62
     7
100
AcDbCircle
 10
800.7253212888834
 20
250.7537567825294
 30
0.0
 40
1.015085595428536
100
AcDbArc
 50
358.9228972915608
 51
181.0771027084391
  0
ARC
  5
1770
330
1D
100
AcDbEntity
  8
L-ZISSEN
  6
Continuous
 62
     7
100
AcDbCircle
 10
809.2758248720254
 20
249.2460723021769
 30
0.0
 40
1.015085595428536
100
AcDbArc
 50
338.9228972915544
 51
161.0771027084296
  0
LINE
  5
1771
330
1D
100
AcDbEntity
  8
L-ZISSEN
100
AcDbLine
 10
825.2253212888834
 20
243.7537567825285
 30
0.0
 11
825.2253212888834
 21
257.7537567825285
 31
0.0
  0
LINE
  5
1772
330
1D
100
AcDbEntity
  8
L-ZISSEN
100
AcDbLine
 10
819.4869843281774
 20
243.7537567825285
 30
0.0
 11
825.2253212888834
 21
243.7537567825285
 31
0.0
  0
LINE
  5
1773
330
1D
100
AcDbEntity
  8
L-ZISSEN
100
AcDbLine
 10
819.486984328177
 20
243.7537567825285
 30
0.0
 11
825.2253212888834
 21
243.7537567825285
 31
0.0
  0
ARC
  5
1774
330
1D
100
AcDbEntity
  8
L-ZISSEN
  6
Continuous
 62
     7
100
AcDbCircle
 10
822.3759563834949
 20
238.2537567825289
 30
0.0
 40
1.015085595428536
100
AcDbArc
 50
298.922897291572
 51
121.0771027084305
  0
ARC
  5
1775
330
1D
100
AcDbEntity
  8
L-ZISSEN
  6
Continuous
 62
     7
100
AcDbCircle
 10
816.7950115310471
 20
244.9048678605032
 30
0.0
 40
1.015085595428536
100
AcDbArc
 50
318.9228972915747
 51
141.0771027084355
  0
ARC
  5
1776
330
1D
100
AcDbEntity
  8
L-ZISSEN
100
AcDbCircle
 10
824.7253212888834
 20
239.2537567825285
 30
0.0
 40
0.5
100
AcDbArc
 50
270.0
 51
0.0
  0
LINE
  5
1777
330
1D
100
AcDbEntity
  8
L-ZISSEN
100
AcDbLine
 10
823.2419817872785
 20
238.7537567825285
 30
0.0
 11
824.7253212888834
 21
238.7537567825285
 31
0.0
  0
LINE
  5
1778
330
1D
100
AcDbEntity
  8
L-ZISSEN
100
AcDbLine
 10
825.2253212888834
 20
243.7537567825285
 30
0.0
 11
825.2253212888834
 21
239.2537567825285
 31
0.0
  0
LINE
  5
1E37
330
1D
100
AcDbEntity
  8
PV
100
AcDbLine
 10
745.0985457883919
 20
295.4664784344668
 30
0.0
 11
744.919510123674
 21
295.8175637496779
 31
0.0
  0
LINE
  5
1E38
330
1D
100
AcDbEntity
  8
PV
100
AcDbLine
 10
730.6668786343942
 20
295.1583870381994
 30
0.0
 11
742.2499634488429
 21
301.0602635348134
 31
0.0
  0
LINE
  5
1E39
330
1D
100
AcDbEntity
  8
PV
100
AcDbLine
 10
742.2499634488429
 20
301.0602635348134
 30
0.0
 11
745.0985457883919
 21
295.4664784344668
 31
0.0
  0
LINE
  5
1E3A
330
1D
100
AcDbEntity
  8
PV
100
AcDbLine
 10
730.034656144102
 20
319.5274308176085
 30
0.0
 11
740.022447138372
 21
299.9252872854645
 31
0.0
  0
ARC
  5
1E3B
330
1D
100
AcDbEntity
  8
PV
100
AcDbCircle
 10
741.2253212888838
 20
288.7537567825284
 30
0.0
 40
12.5
100
AcDbArc
 50
135.6629248849436
 51
98.33707511505804
  0
CIRCLE
  5
1E3C
330
1D
100
AcDbEntity
  8
PV
100
AcDbCircle
 10
741.2253212888838
 20
288.7537567825284
 30
0.0
 40
7.75
  0
LINE
  5
1E3D
330
1D
100
AcDbEntity
  8
PV
100
AcDbLine
 10
730.6668786343942
 20
295.1583870381994
 30
0.0
 11
733.5177184450422
 21
289.5632988763093
 31
0.0
  0
LINE
  5
1E3E
330
1D
100
AcDbEntity
  8
PV
100
AcDbLine
 10
722.9066039505949
 20
315.8955068196922
 30
0.0
 11
732.8943949448649
 21
296.2933632875481
 31
0.0
  0
LINE
  5
1E3F
330
1D
100
AcDbEntity
  8
PV
100
AcDbLine
 10
722.9066039505949
 20
315.8955068196922
 30
0.0
 11
730.034656144102
 21
319.5274308176085
 31
0.0
  0
LINE
  5
1E40
330
1D
100
AcDbEntity
  8
PV
 62
     7
100
AcDbLine
 10
735.2693545247854
 20
309.2537567825285
 30
0.0
 11
761.7253212888838
 21
309.2537567825285
 31
0.0
  0
LINE
  5
1E42
330
1D
100
AcDbEntity
  8
L-ZISSEN
100
AcDbLine
 10
733.4753212888838
 20
103.6687567825284
 30
0.0
 11
748.9753212888838
 21
103.6687567825284
 31
0.0
  0
LINE
  5
1E43
330
1D
100
AcDbEntity
  8
L-ZISSEN
100
AcDbLine
 10
748.9753212888838
 20
96.66875678252842
 30
0.0
 11
733.4753212888838
 21
96.66875678252842
 31
0.0
  0
LINE
  5
1E44
330
1D
100
AcDbEntity
  8
L-ZISSEN
100
AcDbLine
 10
733.4753212888838
 20
79.16875678252842
 30
0.0
 11
748.9753212888838
 21
79.16875678252842
 31
0.0
  0
LINE
  5
1E45
330
1D
100
AcDbEntity
  8
L-ZISSEN
100
AcDbLine
 10
728.7253212888838
 20
76.16875678252842
 30
0.0
 11
753.7253212888838
 21
76.16875678252842
 31
0.0
  0
LINE
  5
1E47
330
1D
100
AcDbEntity
  8
L-ZISSEN
  6
Continuous
 62
     7
100
AcDbLine
 10
721.7253212888838
 20
68.86875678252824
 30
0.0
 11
760.7253212888838
 21
68.86875678252824
 31
0.0
  0
LINE
  5
1E5E
330
1D
100
AcDbEntity
  8
L-ZISSEN
100
AcDbLine
 10
733.4753212888838
 20
103.6687567825284
 30
0.0
 11
733.4753212888838
 21
96.66875678252842
 31
0.0
  0
LINE
  5
1E5F
330
1D
100
AcDbEntity
  8
L-ZISSEN
100
AcDbLine
 10
734.7253212888838
 20
96.66875678252842
 30
0.0
 11
734.7253212888838
 21
79.16875678252842
 31
0.0
  0
LINE
  5
1E60
330
1D
100
AcDbEntity
  8
L-ZISSEN
100
AcDbLine
 10
733.4753212888838
 20
79.16875678252842
 30
0.0
 11
733.4753212888838
 21
76.16875678252842
 31
0.0
  0
LINE
  5
1E61
330
1D
100
AcDbEntity
  8
L-ZISSEN
100
AcDbLine
 10
728.7253212888838
 20
76.16875678252842
 30
0.0
 11
728.7253212888838
 21
68.86875678252824
 31
0.0
  0
LINE
  5
1E62
330
1D
100
AcDbEntity
  8
L-ZISSEN
  6
Continuous
 62
     7
100
AcDbLine
 10
721.7253212888838
 20
65.66875678252751
 30
0.0
 11
721.7253212888838
 21
68.86875678252824
 31
0.0
  0
LINE
  5
1E7B
330
1D
100
AcDbEntity
  8
L-ZISSEN
100
AcDbLine
 10
748.9753212888838
 20
96.66875678252842
 30
0.0
 11
748.9753212888838
 21
103.6687567825284
 31
0.0
  0
LINE
  5
1E7C
330
1D
100
AcDbEntity
  8
L-ZISSEN
100
AcDbLine
 10
753.7253212888838
 20
68.86875678252824
 30
0.0
 11
753.7253212888838
 21
76.16875678252842
 31
0.0
  0
LINE
  5
1E7D
330
1D
100
AcDbEntity
  8
L-ZISSEN
100
AcDbLine
 10
748.9753212888838
 20
76.16875678252842
 30
0.0
 11
748.9753212888838
 21
79.16875678252842
 31
0.0
  0
LINE
  5
1E7E
330
1D
100
AcDbEntity
  8
L-ZISSEN
100
AcDbLine
 10
747.7253212888838
 20
79.16875678252842
 30
0.0
 11
747.7253212888838
 21
96.66875678252842
 31
0.0
  0
LINE
  5
1E8E
330
1D
100
AcDbEntity
  8
L-ZISSEN
  6
Continuous
 62
     7
100
AcDbLine
 10
760.7253212888838
 20
65.66875678252751
 30
0.0
 11
760.7253212888838
 21
68.86875678252824
 31
0.0
  0
LINE
  5
1EAF
330
1D
100
AcDbEntity
  8
PV
 62
     7
100
AcDbLine
 10
744.9253212888839
 20
116.1687567825284
 30
0.0
 11
737.5253212888838
 21
116.1687567825284
 31
0.0
  0
LINE
  5
1EB0
330
1D
100
AcDbEntity
  8
PV
 62
     7
100
AcDbLine
 10
737.2253212888838
 20
115.8687567825285
 30
0.0
 11
737.5253212888838
 21
116.1687567825284
 31
0.0
  0
LINE
  5
1EB1
330
1D
100
AcDbEntity
  8
PV
 62
     7
100
AcDbLine
 10
737.2253212888838
 20
103.6687567825284
 30
0.0
 11
737.2253212888838
 21
115.8687567825286
 31
0.0
  0
ARC
  5
1EB4
330
1D
100
AcDbEntity
  8
0
100
AcDbCircle
 10
737.4214660207758
 20
88.66875678252751
 30
0.0
 40
6.763741655246543
100
AcDbArc
 50
113.4917703695947
 51
246.5082296304053
  0
ELLIPSE
  5
1EB5
330
1D
100
AcDbEntity
  8
0
100
AcDbEllipse
 10
726.6521488721753
 20
88.66875678253035
 30
0.0
 11
0.0
 21
-4.0
 31
0.0
210
0.0
220
0.0
230
1.0
 40
0.8697085408945213
 41
-3.141592653589793
 42
0.0
  0
LINE
  5
1EB6
330
1D
100
AcDbEntity
  8
0
100
AcDbLine
 10
726.6521488721753
 20
92.66875678253035
 30
0.0
 11
731.967274863611
 21
92.66875678253035
 31
0.0
  0
LINE
  5
1EB7
330
1D
100
AcDbEntity
  8
0
100
AcDbLine
 10
726.6521488721753
 20
84.66875678253035
 30
0.0
 11
731.967274863611
 21
84.66875678253035
 31
0.0
  0
LINE
  5
1ECF
330
1D
100
AcDbEntity
  8
PV
 62
     7
100
AcDbLine
 10
745.2253212888838
 20
103.6687567825284
 30
0.0
 11
745.2253212888838
 21
115.8687567825286
 31
0.0
  0
LINE
  5
1ED0
330
1D
100
AcDbEntity
  8
PV
 62
     7
100
AcDbLine
 10
745.2253212888838
 20
115.8687567825285
 30
0.0
 11
744.9253212888839
 21
116.1687567825284
 31
0.0
  0
LINE
  5
1ED7
330
1D
100
AcDbEntity
  8
0
100
AcDbLine
 10
458.2362431097393
 20
90.66875678253098
 30
0.0
 11
458.2362431097401
 21
86.66875678252848
 31
0.0
  0
LINE
  5
1ED8
330
1D
100
AcDbEntity
  8
0
100
AcDbLine
 10
458.23624310974
 20
90.66875678252836
 30
0.0
 11
451.4177716984999
 21
95.16875678252848
 31
0.0
  0
LINE
  5
1ED9
330
1D
100
AcDbEntity
  8
L-ZISSEN
100
AcDbLine
 10
464.9583212888839
 20
96.66875678252836
 30
0.0
 11
449.4583212888839
 21
96.66875678252836
 31
0.0
  0
LINE
  5
1EDA
330
1D
100
AcDbEntity
  8
L-ZISSEN
100
AcDbLine
 10
449.4583212888839
 20
103.6687567825284
 30
0.0
 11
464.9583212888839
 21
103.6687567825284
 31
0.0
  0
LINE
  5
1EDB
330
1D
100
AcDbEntity
  8
L-ZISSEN
100
AcDbLine
 10
464.9583212888839
 20
96.66875678252836
 30
0.0
 11
464.9583212888839
 21
103.6687567825284
 31
0.0
  0
LINE
  5
1EDC
330
1D
100
AcDbEntity
  8
PV
 62
     7
100
AcDbLine
 10
460.9083212888839
 20
116.1687567825284
 30
0.0
 11
453.5083212888838
 21
116.1687567825284
 31
0.0
  0
LINE
  5
1EDD
330
1D
100
AcDbEntity
  8
PV
 62
     7
100
AcDbLine
 10
461.2083212888839
 20
103.6687567825284
 30
0.0
 11
461.2083212888839
 21
115.8687567825285
 31
0.0
  0
LINE
  5
1EDE
330
1D
100
AcDbEntity
  8
PV
 62
     7
100
AcDbLine
 10
460.9083212888839
 20
116.1687567825284
 30
0.0
 11
461.2083212888839
 21
115.8687567825284
 31
0.0
  0
LINE
  5
1EDF
330
1D
100
AcDbEntity
  8
L-ZISSEN
100
AcDbLine
 10
463.7083212888839
 20
79.16875678252836
 30
0.0
 11
463.7083212888839
 21
96.66875678252836
 31
0.0
  0
SPLINE
  5
1EE0
330
1D
100
AcDbEntity
  8
L-ZISSEN
100
AcDbSpline
210
0.0
220
0.0
230
1.0
 70
     8
 71
     3
 72
    18
 73
    14
 74
     0
 42
0.000000001
 43
0.0000000001
 40
0.0
 40
0.0
 40
0.0
 40
0.0
 40
0.0362989104621415
 40
0.142551031099459
 40
0.248803151736773
 40
0.3550552723740873
 40
0.4613073930114001
 40
0.5675595136487144
 40
0.6738116342860286
 40
0.7800637549233435
 40
0.8326172694966779
 40
0.9388693901339356
 40
1.0
 40
1.0
 40
1.0
 40
1.0
 10
428.0622101749769
 20
87.25038553885497
 30
0.0
 10
428.0864855021729
 20
87.22886249386102
 30
0.0
 10
428.1818181961254
 20
87.14433840712809
 30
0.0
 10
428.367693170033
 20
87.16661612344615
 30
0.0
 10
428.587023715395
 20
87.3238541979481
 30
0.0
 10
428.7706363501976
 20
87.64362666655688
 30
0.0
 10
428.8957412795727
 20
88.07600564369022
 30
0.0
 10
428.9487745555972
 20
88.57618252809698
 30
0.0
 10
428.9236832064427
 20
89.08588674175189
 30
0.0
 10
428.8400037025505
 20
89.47283849942323
 30
0.0
 10
428.7170877310574
 20
89.79189519353349
 30
0.0
 10
428.588238503563
 20
90.01554722703622
 30
0.0
 10
428.4705244237313
 20
90.07645627482634
 30
0.0
 10
428.4275335281465
 20
90.09870114576734
 30
0.0
  0
LWPOLYLINE
  5
1EE1
330
1D
100
AcDbEntity
  8
L-ZISSEN
100
AcDbPolyline
 90
       24
 70
   128
 43
0.0
 10
411.2947272640678
 20
89.78159470795799
 10
412.8105278544036
 20
88.90963940108122
 10
413.9986376326752
 20
88.29108458270093
 10
414.8569215753024
 20
87.909336543471
 10
415.4396630388484
 20
87.69256118381236
 10
416.0408223763308
 20
87.5132102685202
 10
416.7019361543545
 20
87.37732350991428
 10
417.7406815742371
 20
87.3245537363764
 10
418.7284843791577
 20
87.51751347924437
 10
419.618684884642
 20
87.9270684501571
 10
420.4002013266628
 20
88.4580882134942
 10
421.1181472254949
 20
89.0116472487316
 10
421.736768607917
 20
89.46269126423249
 10
422.2799262095006
 20
89.75915707219428
 10
422.5917155009348
 20
89.85017916497054
 10
422.9415152385637
 20
89.8743732354942
 10
423.3275523712374
 20
89.81187260871957
 10
423.7627434977886
 20
89.6758467217478
 10
424.1737365480814
 20
89.51496611717266
 10
424.5242220195552
 20
89.35723219154715
 10
425.0137622553567
 20
89.11012594071508
 10
425.7471002374924
 20
88.69532032150164
 10
426.7591732959382
 20
88.07107864394857
 10
428.0620277345016
 20
87.23053209909085
  0
LWPOLYLINE
  5
1EE2
330
1D
100
AcDbEntity
  8
L-ZISSEN
100
AcDbPolyline
 90
       25
 70
   128
 43
0.0
 10
428.4450447135833
 20
90.10960776040156
 10
427.2824286892293
 20
90.83657240242064
 10
426.2929939599682
 20
91.40191077780219
 10
425.4787330250157
 20
91.80047564346387
 10
424.845800186472
 20
92.05461654557621
 10
424.2336437943569
 20
92.24233446409016
 10
423.6679278741477
 20
92.35207180164252
 10
423.1202985221763
 20
92.38701826472061
 10
422.1998995667647
 20
92.2620506937401
 10
421.2217376246346
 20
91.85773161892394
 10
420.3670361873857
 20
91.28783975291844
 10
419.6339857050635
 20
90.72347881847236
 10
419.1898615101865
 20
90.39039489555034
 10
418.8109429802472
 20
90.14144000394481
 10
418.5102787022962
 20
89.98477797910164
 10
418.3054525112649
 20
89.9068360942747
 10
418.0143643374878
 20
89.83895135307648
 10
417.6313143061644
 20
89.82542357250895
 10
417.1937666300847
 20
89.89402635655824
 10
416.2835538377122
 20
90.16113769178446
 10
415.818760486619
 20
90.34454633540372
 10
415.2697738767248
 20
90.59211427644186
 10
414.3212001602525
 20
91.07650174426999
 10
413.0980605220076
 20
91.76713830889639
 10
411.6014515993785
 20
92.65777877475375
  0
LWPOLYLINE
  5
1EE3
330
1D
100
AcDbEntity
  8
L-ZISSEN
100
AcDbPolyline
 90
       24
 70
   128
 43
0.0
 10
410.9516921405894
 20
92.3905955845621
 10
411.1135381411306
 20
92.60013377987343
 10
411.3000174838536
 20
92.70739691376548
 10
411.4972998489912
 20
92.70442977029052
 10
411.6907537060334
 20
92.59145240890939
 10
411.8660314673917
 20
92.3768438436764
 10
412.0101335833507
 20
92.07652061010776
 10
412.1123726591915
 20
91.71275630855052
 10
412.1651660903709
 20
91.31252967313594
 10
412.164598429613
 20
90.90552368250246
 10
412.110711777722
 20
90.52192410904536
 10
412.0075026611495
 20
90.19018077827604
 10
411.8626256279214
 20
89.93489757541283
 10
411.686825544829
 20
89.77500768776918
 10
411.4931406998013
 20
89.72236941686606
 10
411.2959358117415
 20
89.7808867024487
 10
411.109836665045
 20
89.94621958514654
 10
410.9486453820801
 20
90.20610608139759
 10
410.8243167828997
 20
90.54127159867676
 10
410.7460717509394
 20
90.92685844384687
 10
410.7197133622732
 20
91.33426940454228
 10
410.7471964980078
 20
91.73328867359305
 10
410.8264828596922
 20
92.09432281720365
 10
410.9516921405894
 20
92.3905955845621
  0
LINE
  5
1EE4
330
1D
100
AcDbEntity
  8
L-ZISSEN
100
AcDbLine
 10
451.4177716985006
 20
95.16875678252836
 30
0.0
 11
447.8543565659576
 21
95.16875678252836
 31
0.0
  0
LINE
  5
1EE5
330
1D
100
AcDbEntity
  8
0
100
AcDbLine
 10
428.2526573653914
 20
92.66875678252836
 30
0.0000000000000001
 11
447.8543565659576
 21
92.66875678252836
 31
0.0000000000000001
  0
LINE
  5
1EE6
330
1D
100
AcDbEntity
  8
0
100
AcDbLine
 10
428.2526573653914
 20
84.66875678252836
 30
0.0000000000000001
 11
447.8543565659576
 21
84.66875678252836
 31
0.0000000000000001
  0
ELLIPSE
  5
1EE7
330
1D
100
AcDbEntity
  8
0
100
AcDbEllipse
 10
447.8543565659576
 20
88.66875678252836
 30
0.0000000000000001
 11
0.0
 21
-4.0
 31
0.0
210
0.0
220
0.0
230
1.0
 40
0.4772710474825279
 41
0.0
 42
3.141592653589793
  0
ELLIPSE
  5
1EE8
330
1D
100
AcDbEntity
  8
0
100
AcDbEllipse
 10
447.8543565659576
 20
88.66875678252836
 30
0.0
 11
0.0
 21
-6.5
 31
0.0
210
0.0
220
0.0
230
1.0
 40
0.4542901463517829
 41
-0.9079225031447606
 42
4.049515156734566
  0
LINE
  5
1EE9
330
1D
100
AcDbEntity
  8
0
100
AcDbLine
 10
458.2362431097401
 20
86.66875678252848
 30
0.0
 11
451.4177716984999
 21
82.16875678252836
 31
0.0
  0
ELLIPSE
  5
1EEA
330
1D
100
AcDbEntity
  8
0
100
AcDbEllipse
 10
428.2526573653914
 20
88.66875678252836
 30
0.0000000000000001
 11
0.0
 21
-4.0
 31
0.0
210
0.0
220
0.0
230
1.0
 40
0.4772710474825279
 41
-1.484252079115086
 42
4.046450260716578
  0
LINE
  5
1EEB
330
1D
100
AcDbEntity
  8
L-ZISSEN
100
AcDbLine
 10
449.4583212888839
 20
103.6687567825284
 30
0.0
 11
449.4583212888839
 21
96.66875678252836
 31
0.0
  0
LINE
  5
1EEC
330
1D
100
AcDbEntity
  8
PV
 62
     7
100
AcDbLine
 10
453.2083212888839
 20
115.8687567825284
 30
0.0
 11
453.5083212888838
 21
116.1687567825284
 31
0.0
  0
LINE
  5
1EED
330
1D
100
AcDbEntity
  8
PV
 62
     7
100
AcDbLine
 10
453.2083212888839
 20
103.6687567825284
 30
0.0
 11
453.2083212888839
 21
115.8687567825285
 31
0.0
  0
LINE
  5
1EEE
330
1D
100
AcDbEntity
  8
L-ZISSEN
100
AcDbLine
 10
450.7083212888839
 20
96.66875678252836
 30
0.0
 11
450.7083212888839
 21
95.16875678252836
 31
0.0
  0
LINE
  5
1EEF
330
1D
100
AcDbEntity
  8
PV
 62
     7
100
AcDbLine
 10
453.2083212888839
 20
104.6267567825284
 30
0.0
 11
445.7083212888839
 21
104.6267567825284
 31
0.0
  0
LINE
  5
1EF0
330
1D
100
AcDbEntity
  8
PV
 62
     7
100
AcDbLine
 10
445.7083212888839
 20
104.6267567825284
 30
0.0
 11
445.7083212888839
 21
112.7097567825284
 31
0.0
  0
LINE
  5
1EF1
330
1D
100
AcDbEntity
  8
PV
 62
     7
100
AcDbLine
 10
453.2083212888839
 20
112.7097567825284
 30
0.0
 11
445.7083212888839
 21
112.7097567825284
 31
0.0
  0
LINE
  5
1EF2
330
1D
100
AcDbEntity
  8
L-ZISSEN
100
AcDbLine
 10
449.4583212888839
 20
79.16875678252836
 30
0.0
 11
464.9583212888839
 21
79.16875678252836
 31
0.0
  0
LINE
  5
1EF3
330
1D
100
AcDbEntity
  8
L-ZISSEN
100
AcDbLine
 10
444.7083212888839
 20
76.16875678252836
 30
0.0
 11
469.7083212888839
 21
76.16875678252836
 31
0.0
  0
LINE
  5
1EF4
330
1D
100
AcDbEntity
  8
L-ZISSEN
100
AcDbLine
 10
449.4583212888839
 20
79.16875678252836
 30
0.0
 11
449.4583212888839
 21
76.16875678252836
 31
0.0
  0
LINE
  5
1EF5
330
1D
100
AcDbEntity
  8
L-ZISSEN
100
AcDbLine
 10
444.7083212888839
 20
76.16875678252836
 30
0.0
 11
444.7083212888839
 21
68.86875678252818
 31
0.0
  0
LINE
  5
1EF6
330
1D
100
AcDbEntity
  8
L-ZISSEN
100
AcDbLine
 10
450.7083212888839
 20
82.16875678252836
 30
0.0
 11
450.7083212888839
 21
79.16875678252836
 31
0.0
  0
LINE
  5
1EF7
330
1D
100
AcDbEntity
  8
L-ZISSEN
100
AcDbLine
 10
469.7083212888839
 20
68.86875678252818
 30
0.0
 11
469.7083212888839
 21
76.16875678252836
 31
0.0
  0
LINE
  5
1EF8
330
1D
100
AcDbEntity
  8
L-ZISSEN
100
AcDbLine
 10
464.9583212888839
 20
76.16875678252836
 30
0.0
 11
464.9583212888839
 21
79.16875678252836
 31
0.0
  0
LINE
  5
1EFA
330
1D
100
AcDbEntity
  8
PV
  6
CENTER
 62
     1
100
AcDbLine
 10
457.2083212888839
 20
108.6682567825284
 30
0.0
 11
423.2083212888839
 21
108.6682567825284
 31
0.0
  0
ARC
  5
1EFB
330
1D
100
AcDbEntity
  8
PV
  6
CENTER
 62
     1
100
AcDbCircle
 10
423.2083212888839
 20
98.66825678252843
 30
0.0
 40
10.0
100
AcDbArc
 50
90.0
 51
180.0
  0
LINE
  5
1EFF
330
1D
100
AcDbEntity
  8
PV
  6
CENTER
 62
     1
100
AcDbLine
 10
751.2253212888838
 20
98.20575678252845
 30
0.0
 11
751.2253212888838
 21
85.13075678252847
 31
0.0
  0
ARC
  5
1F00
330
1D
100
AcDbEntity
  8
PV
 62
     7
100
AcDbCircle
 10
751.2253212888838
 20
91.66875678252842
 30
0.0
 40
4.0
100
AcDbArc
 50
90.0
 51
151.0449756281402
  0
ARC
  5
1F01
330
1D
100
AcDbEntity
  8
PV
 62
     7
100
AcDbCircle
 10
751.2253212888838
 20
91.66875678252842
 30
0.0
 40
4.0
100
AcDbArc
 50
208.9550243718598
 51
270.0
  0
LINE
  5
1F03
330
1D
100
AcDbEntity
  8
PV
  6
DASHED
 62
     5
100
AcDbLine
 10
853.2253212888838
 20
87.66875678252842
 30
0.0
 11
871.2253212888838
 21
87.66875678252842
 31
0.0
  0
ENDSEC
  0
SECTION
  2
OBJECTS
  0
DICTIONARY
  5
C
330
0
100
AcDbDictionary
281
     1
  3
ACAD_DETAILVIEWSTYLE
350
177E
  3
ACAD_GROUP
350
D
  3
ACAD_IMAGE_VARS
350
154
  3
ACAD_LAYOUT
350
1A
  3
ACAD_MATERIAL
350
2B
  3
ACAD_MLEADERSTYLE
350
150
  3
ACAD_MLINESTYLE
350
17
  3
ACAD_PLOTSETTINGS
350
19
  3
ACAD_PLOTSTYLENAME
350
E
  3
ACAD_SCALELIST
350
10F
  3
ACAD_SECTIONVIEWSTYLE
350
177F
  3
ACAD_TABLESTYLE
350
14E
  3
ACAD_VISUALSTYLE
350
135
  3
ACDB_RECOMPOSE_DATA
350
1F06
  3
AcDbVariableDictionary
350
1779
  3
APPDATA
350
152
  0
SUN
  5
153
330
34
100
AcDbSun
 90
        1
290
     0
 63
     7
421
 16777215
 40
1.0
291
     1
 91
  2455826
 92
 54000000
292
     0
 70
     2
 71
   256
280
     1
  0
DICTIONARY
  5
1AB1
330
2
100
AcDbDictionary
280
     1
281
     1
  3
ACAD_LAYERSTATES
360
1AB2
  0
DICTIONARY
  5
177E
102
{ACAD_REACTORS
330
C
102
}
330
C
100
AcDbDictionary
281
     1
  0
DICTIONARY
  5
D
102
{ACAD_REACTORS
330
C
102
}
330
C
100
AcDbDictionary
281
     1
  0
RASTERVARIABLES
  5
154
102
{ACAD_REACTORS
330
C
102
}
330
C
100
AcDbRasterVariables
 90
        0
 70
     1
 71
     1
 72
     0
  0
DICTIONARY
  5
1A
102
{ACAD_REACTORS
330
C
102
}
330
C
100
AcDbDictionary
281
     1
  3
Model
350
1E
  3
シート 1
350
1C
  0
DICTIONARY
  5
2B
102
{ACAD_REACTORS
330
C
102
}
330
C
100
AcDbDictionary
281
     1
  3
ByBlock
350
2D
  3
ByLayer
350
2C
  3
Global
350
2E
  0
DICTIONARY
  5
150
102
{ACAD_REACTORS
330
C
102
}
330
C
100
AcDbDictionary
281
     1
  3
Standard
350
151
  0
DICTIONARY
  5
17
102
{ACAD_REACTORS
330
C
102
}
330
C
100
AcDbDictionary
281
     1
  3
Standard
350
18
  0
DICTIONARY
  5
19
102
{ACAD_REACTORS
330
C
102
}
330
C
100
AcDbDictionary
281
     1
  0
ACDBDICTIONARYWDFLT
  5
E
102
{ACAD_REACTORS
330
C
102
}
330
C
100
AcDbDictionary
281
     1
  3
Normal
350
F
100
AcDbDictionaryWithDefault
340
F
  0
DICTIONARY
  5
10F
102
{ACAD_REACTORS
330
C
102
}
330
C
100
AcDbDictionary
281
     1
  3
A0
350
110
  3
A1
350
111
  3
A2
350
112
  3
A3
350
113
  3
A4
350
114
  3
A5
350
115
  3
A6
350
116
  3
A7
350
117
  3
A8
350
118
  3
A9
350
119
  3
B0
350
11A
  3
B1
350
11B
  3
B2
350
11C
  3
B3
350
11D
  3
B4
350
11E
  3
B5
350
11F
  3
B6
350
120
  3
B7
350
121
  3
B8
350
122
  3
B9
350
123
  3
C0
350
124
  3
C1
350
125
  3
C2
350
126
  3
C3
350
127
  3
C4
350
128
  3
C5
350
129
  3
C6
350
12A
  3
C7
350
12B
  3
C8
350
12C
  3
C9
350
12D
  3
D0
350
12E
  3
D1
350
12F
  3
D2
350
130
  0
DICTIONARY
  5
177F
102
{ACAD_REACTORS
330
C
102
}
330
C
100
AcDbDictionary
281
     1
  0
DICTIONARY
  5
14E
102
{ACAD_REACTORS
330
C
102
}
330
C
100
AcDbDictionary
281
     1
  3
Standard
350
14F
  0
DICTIONARY
  5
135
102
{ACAD_REACTORS
330
C
102
}
330
C
100
AcDbDictionary
281
     1
  3
2dWireframe
350
13A
  3
Basic
350
13D
  3
Brighten
350
141
  3
ColorChange
350
145
  3
Conceptual
350
13F
  3
Dim
350
140
  3
EdgeColorOff
350
148
  3
Facepattern
350
144
  3
Flat
350
136
  3
FlatWithEdges
350
137
  3
Gouraud
350
138
  3
GouraudWithEdges
350
139
  3
Hidden
350
13C
  3
JitterOff
350
146
  3
Linepattern
350
143
  3
OverhangOff
350
147
  3
Realistic
350
13E
  3
Shaded
350
14D
  3
Shaded with edges
350
14C
  3
Shades of Gray
350
149
  3
Sketchy
350
14A
  3
Thicken
350
142
  3
Wireframe
350
13B
  3
X-Ray
350
14B
  0
XRECORD
  5
1F06
102
{ACAD_REACTORS
330
C
102
}
330
C
100
AcDbXrecord
280
     1
 90
        1
330
14F
  0
DICTIONARY
  5
1779
102
{ACAD_REACTORS
330
C
102
}
330
C
100
AcDbDictionary
281
     1
  3
CANNOSCALE
350
177A
  3
CMLEADERSTYLE
350
177C
  3
CTABLESTYLE
350
177B
  3
MSLTSCALE
350
177D
  0
DICTIONARY
  5
152
102
{ACAD_REACTORS
330
C
102
}
330
C
100
AcDbDictionary
281
     1
  0
DICTIONARY
  5
1AB2
102
{ACAD_REACTORS
330
1AB1
102
}
330
1AB1
100
AcDbDictionary
281
     1
  0
LAYOUT
  5
1E
102
{ACAD_REACTORS
330
1A
102
}
330
1A
100
AcDbPlotSettings
  1

  2
none_device
  4
Letter_(8.50_x_11.00_Inches)
  6

 40
6.35
 41
6.35
 42
6.35
 43
6.35
 44
215.9
 45
279.4
 46
0.0
 47
0.0
 48
0.0
 49
0.0
140
0.0
141
0.0
142
1.0
143
1.0
 70
  1712
 72
     0
 73
     0
 74
     0
  7

 75
     0
 76
     0
 77
     2
 78
   300
147
1.0
148
0.0
149
0.0
100
AcDbLayout
  1
Model
 70
     1
 71
     0
 10
0.0
 20
0.0
 11
12.0
 21
9.0
 12
0.0
 22
0.0
 32
0.0
 14
344.5183212888838
 24
-139.3312432174716
 34
0.0
 15
913.1583212888839
 25
414.2592773334488
 35
0.3276209051444079
146
0.0
 13
0.0
 23
0.0
 33
0.0
 16
1.0
 26
0.0
 36
0.0
 17
0.0
 27
1.0
 37
0.0
 76
     0
330
1D
331
34
  0
LAYOUT
  5
1C
102
{ACAD_REACTORS
330
1A
102
}
330
1A
100
AcDbPlotSettings
  1

  2
none_device
  4

  6

 40
0.0
 41
0.0
 42
0.0
 43
0.0
 44
0.0
 45
0.0
 46
0.0
 47
0.0
 48
0.0
 49
0.0
140
0.0
141
0.0
142
1.0
143
1.0
 70
   688
 72
     0
 73
     0
 74
     5
  7

 75
    16
 76
     0
 77
     2
 78
   300
147
1.0
148
0.0
149
0.0
100
AcDbLayout
  1
シート 1
 70
     1
 71
     1
 10
0.0
 20
0.0
 11
0.0
 21
0.0
 12
0.0
 22
0.0
 32
0.0
 14
1.000000000000000E+20
 24
1.000000000000000E+20
 34
1.000000000000000E+20
 15
-1.000000000000000E+20
 25
-1.000000000000000E+20
 35
-1.000000000000000E+20
146
0.0
 13
0.0
 23
0.0
 33
0.0
 16
1.0
 26
0.0
 36
0.0
 17
0.0
 27
1.0
 37
0.0
 76
     0
330
1B
  0
MATERIAL
  5
2D
102
{ACAD_REACTORS
330
2B
102
}
330
2B
100
AcDbMaterial
  1
ByBlock
 72
     1
 94
      127
  0
MATERIAL
  5
2C
102
{ACAD_REACTORS
330
2B
102
}
330
2B
100
AcDbMaterial
  1
ByLayer
 72
     1
 94
      127
  0
MATERIAL
  5
2E
102
{ACAD_REACTORS
330
2B
102
}
330
2B
100
AcDbMaterial
  1
Global
 72
     1
 94
      127
  0
MLEADERSTYLE
  5
151
102
{ACAD_REACTORS
330
150
102
}
330
150
100
AcDbMLeaderStyle
179
     2
170
     2
171
     1
172
     0
 90
        2
 40
0.0
 41
0.0
173
     1
 91
-1056964608
340
14
 92
       -2
290
     1
 42
0.09
291
     1
 43
0.36
  3
Standard
341
0
 44
0.18
300

342
11
174
     1
178
     1
175
     1
176
     0
 93
-1056964608
 45
0.18
292
     0
297
     0
 46
0.18
343
0
 94
-1056964608
 47
1.0
 49
1.0
140
1.0
293
     1
141
0.0
294
     1
177
     0
142
1.0
295
     0
296
     0
143
0.125
271
     0
272
     9
273
     9
298
     0
  0
MLINESTYLE
  5
18
102
{ACAD_REACTORS
330
17
102
}
330
17
100
AcDbMlineStyle
  2
Standard
 70
     0
  3

 62
   256
 51
90.0
 52
90.0
 71
     2
 49
0.5
 62
   256
  6
BYLAYER
 49
-0.5
 62
   256
  6
BYLAYER
  0
ACDBPLACEHOLDER
  5
F
102
{ACAD_REACTORS
330
E
102
}
330
E
  0
SCALE
  5
110
102
{ACAD_REACTORS
330
10F
102
}
330
10F
100
AcDbScale
 70
     0
300
1:1
140
1.0
141
1.0
290
     1
  0
SCALE
  5
111
102
{ACAD_REACTORS
330
10F
102
}
330
10F
100
AcDbScale
 70
     0
300
1:2
140
1.0
141
2.0
290
     0
  0
SCALE
  5
112
102
{ACAD_REACTORS
330
10F
102
}
330
10F
100
AcDbScale
 70
     0
300
1:4
140
1.0
141
4.0
290
     0
  0
SCALE
  5
113
102
{ACAD_REACTORS
330
10F
102
}
330
10F
100
AcDbScale
 70
     0
300
1:5
140
1.0
141
5.0
290
     0
  0
SCALE
  5
114
102
{ACAD_REACTORS
330
10F
102
}
330
10F
100
AcDbScale
 70
     0
300
1:8
140
1.0
141
8.0
290
     0
  0
SCALE
  5
115
102
{ACAD_REACTORS
330
10F
102
}
330
10F
100
AcDbScale
 70
     0
300
1:10
140
1.0
141
10.0
290
     0
  0
SCALE
  5
116
102
{ACAD_REACTORS
330
10F
102
}
330
10F
100
AcDbScale
 70
     0
300
1:16
140
1.0
141
16.0
290
     0
  0
SCALE
  5
117
102
{ACAD_REACTORS
330
10F
102
}
330
10F
100
AcDbScale
 70
     0
300
1:20
140
1.0
141
20.0
290
     0
  0
SCALE
  5
118
102
{ACAD_REACTORS
330
10F
102
}
330
10F
100
AcDbScale
 70
     0
300
1:30
140
1.0
141
30.0
290
     0
  0
SCALE
  5
119
102
{ACAD_REACTORS
330
10F
102
}
330
10F
100
AcDbScale
 70
     0
300
1:40
140
1.0
141
40.0
290
     0
  0
SCALE
  5
11A
102
{ACAD_REACTORS
330
10F
102
}
330
10F
100
AcDbScale
 70
     0
300
1:50
140
1.0
141
50.0
290
     0
  0
SCALE
  5
11B
102
{ACAD_REACTORS
330
10F
102
}
330
10F
100
AcDbScale
 70
     0
300
1:100
140
1.0
141
100.0
290
     0
  0
SCALE
  5
11C
102
{ACAD_REACTORS
330
10F
102
}
330
10F
100
AcDbScale
 70
     0
300
2:1
140
2.0
141
1.0
290
     0
  0
SCALE
  5
11D
102
{ACAD_REACTORS
330
10F
102
}
330
10F
100
AcDbScale
 70
     0
300
4:1
140
4.0
141
1.0
290
     0
  0
SCALE
  5
11E
102
{ACAD_REACTORS
330
10F
102
}
330
10F
100
AcDbScale
 70
     0
300
8:1
140
8.0
141
1.0
290
     0
  0
SCALE
  5
11F
102
{ACAD_REACTORS
330
10F
102
}
330
10F
100
AcDbScale
 70
     0
300
10:1
140
10.0
141
1.0
290
     0
  0
SCALE
  5
120
102
{ACAD_REACTORS
330
10F
102
}
330
10F
100
AcDbScale
 70
     0
300
100:1
140
100.0
141
1.0
290
     0
  0
SCALE
  5
121
102
{ACAD_REACTORS
330
10F
102
}
330
10F
100
AcDbScale
 70
     0
300
1/128" = 1'-0"
140
0.0078125
141
12.0
290
     0
  0
SCALE
  5
122
102
{ACAD_REACTORS
330
10F
102
}
330
10F
100
AcDbScale
 70
     0
300
1/64" = 1'-0"
140
0.015625
141
12.0
290
     0
  0
SCALE
  5
123
102
{ACAD_REACTORS
330
10F
102
}
330
10F
100
AcDbScale
 70
     0
300
1/32" = 1'-0"
140
0.03125
141
12.0
290
     0
  0
SCALE
  5
124
102
{ACAD_REACTORS
330
10F
102
}
330
10F
100
AcDbScale
 70
     0
300
1/16" = 1'-0"
140
0.0625
141
12.0
290
     0
  0
SCALE
  5
125
102
{ACAD_REACTORS
330
10F
102
}
330
10F
100
AcDbScale
 70
     0
300
3/32" = 1'-0"
140
0.09375
141
12.0
290
     0
  0
SCALE
  5
126
102
{ACAD_REACTORS
330
10F
102
}
330
10F
100
AcDbScale
 70
     0
300
1/8" = 1'-0"
140
0.125
141
12.0
290
     0
  0
SCALE
  5
127
102
{ACAD_REACTORS
330
10F
102
}
330
10F
100
AcDbScale
 70
     0
300
3/16" = 1'-0"
140
0.1875
141
12.0
290
     0
  0
SCALE
  5
128
102
{ACAD_REACTORS
330
10F
102
}
330
10F
100
AcDbScale
 70
     0
300
1/4" = 1'-0"
140
0.25
141
12.0
290
     0
  0
SCALE
  5
129
102
{ACAD_REACTORS
330
10F
102
}
330
10F
100
AcDbScale
 70
     0
300
3/8" = 1'-0"
140
0.375
141
12.0
290
     0
  0
SCALE
  5
12A
102
{ACAD_REACTORS
330
10F
102
}
330
10F
100
AcDbScale
 70
     0
300
1/2" = 1'-0"
140
0.5
141
12.0
290
     0
  0
SCALE
  5
12B
102
{ACAD_REACTORS
330
10F
102
}
330
10F
100
AcDbScale
 70
     0
300
3/4" = 1'-0"
140
0.75
141
12.0
290
     0
  0
SCALE
  5
12C
102
{ACAD_REACTORS
330
10F
102
}
330
10F
100
AcDbScale
 70
     0
300
1" = 1'-0"
140
1.0
141
12.0
290
     0
  0
SCALE
  5
12D
102
{ACAD_REACTORS
330
10F
102
}
330
10F
100
AcDbScale
 70
     0
300
1-1/2" = 1'-0"
140
1.5
141
12.0
290
     0
  0
SCALE
  5
12E
102
{ACAD_REACTORS
330
10F
102
}
330
10F
100
AcDbScale
 70
     0
300
3" = 1'-0"
140
3.0
141
12.0
290
     0
  0
SCALE
  5
12F
102
{ACAD_REACTORS
330
10F
102
}
330
10F
100
AcDbScale
 70
     0
300
6" = 1'-0"
140
6.0
141
12.0
290
     0
  0
SCALE
  5
130
102
{ACAD_REACTORS
330
10F
102
}
330
10F
100
AcDbScale
 70
     0
300
1'-0" = 1'-0"
140
12.0
141
12.0
290
     0
  0
TABLESTYLE
  5
14F
102
{ACAD_REACTORS
330
14E
102
}
102
{ACAD_XDICTIONARY
360
1F04
102
}
330
14E
100
AcDbTableStyle
  3
Standard
 70
     0
 71
     0
 40
0.06
 41
0.06
280
     0
281
     0
  7
STANDARD
140
0.18
170
     2
 62
     0
 63
   257
283
     0
 90
        4
 91
        0
  1

274
    -2
284
     1
 64
     0
275
    -2
285
     1
 65
     0
276
    -2
286
     1
 66
     0
277
    -2
287
     1
 67
     0
278
    -2
288
     1
 68
     0
279
    -2
289
     1
 69
     0
  7
STANDARD
140
0.25
170
     5
 62
     0
 63
   257
283
     0
 90
        4
 91
        0
  1

274
    -2
284
     1
 64
     0
275
    -2
285
     1
 65
     0
276
    -2
286
     1
 66
     0
277
    -2
287
     1
 67
     0
278
    -2
288
     1
 68
     0
279
    -2
289
     1
 69
     0
  7
STANDARD
140
0.18
170
     5
 62
     0
 63
   257
283
     0
 90
        4
 91
        0
  1

274
    -2
284
     1
 64
     0
275
    -2
285
     1
 65
     0
276
    -2
286
     1
 66
     0
277
    -2
287
     1
 67
     0
278
    -2
288
     1
 68
     0
279
    -2
289
     1
 69
     0
  0
VISUALSTYLE
  5
13A
102
{ACAD_REACTORS
330
135
102
}
330
135
100
AcDbVisualStyle
  2
2dWireframe
 70
     4
177
     3
291
     0
 70
    58
 90
        0
176
     1
 90
        2
176
     1
 90
        0
176
     1
 90
        0
176
     1
 40
0.6
176
     1
 40
30.0
176
     1
 62
     7
420
 16777215
176
     1
 90
        1
176
     1
 90
        4
176
     1
 62
     7
176
     1
 62
   257
176
     1
 90
        1
176
     1
 90
        1
176
     1
 40
1.0
176
     1
 90
        0
176
     1
 62
   257
176
     1
 40
1.0
176
     1
 90
        1
176
     1
 90
        6
176
     1
 90
        2
176
     1
 62
     7
176
     1
 90
        5
176
     1
 90
        0
176
     1
 90
        0
176
     1
290
     0
176
     1
 90
        1
176
     1
 40
0.0
176
     1
 90
        0
176
     1
290
     1
176
     1
290
     1
176
     1
290
     0
176
     1
290
     0
176
     1
290
     0
176
     1
290
     0
176
     1
290
     0
176
     1
290
     0
176
     1
290
     0
176
     1
 90
       50
176
     1
 40
0.0
176
     1
 40
1.0
176
     1
 90
        0
176
     1
 62
    18
420
        0
176
     1
 90
       50
176
     1
 90
        3
176
     1
 62
     5
420
      255
176
     1
290
     0
176
     1
 90
       50
176
     1
 90
       50
176
     1
 90
       50
176
     1
290
     0
176
     1
 90
       50
176
     1
 62
   256
176
     0
 40
1.0
176
     0
 90
        2
176
     1
  1
strokes_ogs.tif
176
     1
290
     0
176
     1
 40
1.0
176
     1
 40
1.0
176
     1
  0
VISUALSTYLE
  5
13D
102
{ACAD_REACTORS
330
135
102
}
330
135
100
AcDbVisualStyle
  2
Basic
 70
     7
177
     3
291
     1
 70
    58
 90
        1
176
     1
 90
        0
176
     1
 90
        1
176
     1
 90
        0
176
     1
 40
0.6
176
     1
 40
30.0
176
     1
 62
     7
420
 16777215
176
     1
 90
        0
176
     1
 90
        4
176
     1
 62
     7
176
     1
 62
   257
176
     1
 90
        1
176
     1
 90
        1
176
     1
 40
1.0
176
     1
 90
        8
176
     1
 62
     7
176
     1
 40
1.0
176
     1
 90
        1
176
     1
 90
        6
176
     1
 90
        2
176
     1
 62
     7
176
     1
 90
        5
176
     1
 90
        0
176
     1
 90
        0
176
     1
290
     0
176
     1
 90
        1
176
     1
 40
0.0
176
     1
 90
        0
176
     1
290
     0
176
     1
290
     1
176
     1
290
     1
176
     1
290
     0
176
     1
290
     0
176
     1
290
     0
176
     1
290
     0
176
     1
290
     0
176
     1
290
     0
176
     1
 90
       50
176
     1
 40
0.0
176
     1
 40
1.0
176
     1
 90
        0
176
     1
 62
    18
420
        0
176
     1
 90
       50
176
     1
 90
        3
176
     1
 62
     5
420
      255
176
     1
290
     0
176
     1
 90
       50
176
     1
 90
       50
176
     1
 90
       50
176
     1
290
     0
176
     1
 90
       50
176
     1
 62
   256
176
     0
 40
1.0
176
     0
 90
        2
176
     1
  1
strokes_ogs.tif
176
     1
290
     0
176
     1
 40
1.0
176
     1
 40
1.0
176
     1
  0
VISUALSTYLE
  5
141
102
{ACAD_REACTORS
330
135
102
}
330
135
100
AcDbVisualStyle
  2
Brighten
 70
    12
177
     3
291
     1
 70
    58
 90
        2
176
     1
 90
        2
176
     1
 90
        0
176
     1
 90
        0
176
     1
 40
0.6
176
     1
 40
30.0
176
     1
 62
     7
420
 16777215
176
     1
 90
        1
176
     1
 90
        4
176
     1
 62
     7
176
     1
 62
   257
176
     1
 90
        1
176
     1
 90
        1
176
     1
 40
1.0
176
     1
 90
        8
176
     1
 62
     7
176
     1
 40
1.0
176
     1
 90
        1
176
     1
 90
        6
176
     1
 90
        2
176
     1
 62
     7
176
     1
 90
        5
176
     1
 90
        0
176
     1
 90
        0
176
     1
290
     0
176
     1
 90
        1
176
     1
 40
50.0
176
     1
 90
        0
176
     1
290
     0
176
     1
290
     1
176
     1
290
     1
176
     1
290
     0
176
     1
290
     0
176
     1
290
     0
176
     1
290
     0
176
     1
290
     0
176
     1
290
     0
176
     1
 90
       50
176
     1
 40
0.0
176
     1
 40
1.0
176
     1
 90
        0
176
     1
 62
    18
420
        0
176
     1
 90
       50
176
     1
 90
        3
176
     1
 62
     5
420
      255
176
     1
290
     0
176
     1
 90
       50
176
     1
 90
       50
176
     1
 90
       50
176
     1
290
     0
176
     1
 90
       50
176
     1
 62
   256
176
     0
 40
1.0
176
     0
 90
        2
176
     1
  1
strokes_ogs.tif
176
     1
290
     0
176
     1
 40
1.0
176
     1
 40
1.0
176
     1
  0
VISUALSTYLE
  5
145
102
{ACAD_REACTORS
330
135
102
}
330
135
100
AcDbVisualStyle
  2
ColorChange
 70
    16
177
     3
291
     1
 70
    58
 90
        2
176
     1
 90
        2
176
     1
 90
        3
176
     1
 90
        0
176
     1
 40
0.6
176
     1
 40
30.0
176
     1
 62
     8
420
  8421504
176
     1
 90
        1
176
     1
 90
        4
176
     1
 62
     7
176
     1
 62
   257
176
     1
 90
        1
176
     1
 90
        1
176
     1
 40
1.0
176
     1
 90
        8
176
     1
 62
     8
420
  8421504
176
     1
 40
1.0
176
     1
 90
        1
176
     1
 90
        6
176
     1
 90
        2
176
     1
 62
     7
176
     1
 90
        5
176
     1
 90
        0
176
     1
 90
        0
176
     1
290
     0
176
     1
 90
        1
176
     1
 40
0.0
176
     1
 90
        0
176
     1
290
     0
176
     1
290
     1
176
     1
290
     1
176
     1
290
     0
176
     1
290
     0
176
     1
290
     0
176
     1
290
     0
176
     1
290
     0
176
     1
290
     0
176
     1
 90
       50
176
     1
 40
0.0
176
     1
 40
1.0
176
     1
 90
        0
176
     1
 62
    18
420
        0
176
     1
 90
       50
176
     1
 90
        3
176
     1
 62
     5
420
      255
176
     1
290
     0
176
     1
 90
       50
176
     1
 90
       50
176
     1
 90
       50
176
     1
290
     0
176
     1
 90
       50
176
     1
 62
   256
176
     0
 40
1.0
176
     0
 90
        2
176
     1
  1
strokes_ogs.tif
176
     1
290
     0
176
     1
 40
1.0
176
     1
 40
1.0
176
     1
  0
VISUALSTYLE
  5
13F
102
{ACAD_REACTORS
330
135
102
}
330
135
100
AcDbVisualStyle
  2
Conceptual
 70
     9
177
     3
291
     0
 70
    58
 90
        3
176
     1
 90
        2
176
     1
 90
        0
176
     1
 90
        0
176
     1
 40
0.6
176
     1
 40
30.0
176
     1
 62
     7
420
 16777215
176
     1
 90
        2
176
     1
 90
        2
176
     1
 62
     7
176
     1
 62
   257
176
     1
 90
        1
176
     1
 90
        1
176
     1
 40
179.0
176
     1
 90
        8
176
     1
 62
     7
176
     1
 40
1.0
176
     1
 90
        1
176
     1
 90
        6
176
     1
 90
        2
176
     1
 62
     7
176
     1
 90
        3
176
     1
 90
        0
176
     1
 90
        0
176
     1
290
     0
176
     1
 90
        1
176
     1
 40
0.0
176
     1
 90
        0
176
     1
290
     0
176
     1
290
     1
176
     1
290
     1
176
     1
290
     0
176
     1
290
     0
176
     1
290
     0
176
     1
290
     0
176
     1
290
     0
176
     1
290
     0
176
     1
 90
       50
176
     1
 40
0.0
176
     1
 40
1.0
176
     1
 90
        0
176
     1
 62
    18
420
        0
176
     1
 90
       50
176
     1
 90
        3
176
     1
 62
     5
420
      255
176
     1
290
     0
176
     1
 90
       50
176
     1
 90
       50
176
     1
 90
       50
176
     1
290
     0
176
     1
 90
       50
176
     1
 62
   256
176
     0
 40
1.0
176
     0
 90
        2
176
     1
  1
strokes_ogs.tif
176
     1
290
     0
176
     1
 40
1.0
176
     1
 40
1.0
176
     1
  0
VISUALSTYLE
  5
140
102
{ACAD_REACTORS
330
135
102
}
330
135
100
AcDbVisualStyle
  2
Dim
 70
    11
177
     3
291
     1
 70
    58
 90
        2
176
     1
 90
        2
176
     1
 90
        0
176
     1
 90
        0
176
     1
 40
0.6
176
     1
 40
30.0
176
     1
 62
     7
420
 16777215
176
     1
 90
        1
176
     1
 90
        4
176
     1
 62
     7
176
     1
 62
   257
176
     1
 90
        1
176
     1
 90
        1
176
     1
 40
1.0
176
     1
 90
        8
176
     1
 62
     7
176
     1
 40
1.0
176
     1
 90
        1
176
     1
 90
        6
176
     1
 90
        2
176
     1
 62
     7
176
     1
 90
        5
176
     1
 90
        0
176
     1
 90
        0
176
     1
290
     0
176
     1
 90
        1
176
     1
 40
-50.0
176
     1
 90
        0
176
     1
290
     0
176
     1
290
     1
176
     1
290
     1
176
     1
290
     0
176
     1
290
     0
176
     1
290
     0
176
     1
290
     0
176
     1
290
     0
176
     1
290
     0
176
     1
 90
       50
176
     1
 40
0.0
176
     1
 40
1.0
176
     1
 90
        0
176
     1
 62
    18
420
        0
176
     1
 90
       50
176
     1
 90
        3
176
     1
 62
     5
420
      255
176
     1
290
     0
176
     1
 90
       50
176
     1
 90
       50
176
     1
 90
       50
176
     1
290
     0
176
     1
 90
       50
176
     1
 62
   256
176
     0
 40
1.0
176
     0
 90
        2
176
     1
  1
strokes_ogs.tif
176
     1
290
     0
176
     1
 40
1.0
176
     1
 40
1.0
176
     1
  0
VISUALSTYLE
  5
148
102
{ACAD_REACTORS
330
135
102
}
330
135
100
AcDbVisualStyle
  2
EdgeColorOff
 70
    22
177
     3
291
     1
 70
    58
 90
        2
176
     0
 90
        2
176
     0
 90
        0
176
     0
 90
        0
176
     0
 40
0.6
176
     0
 40
30.0
176
     0
 62
     7
420
 16777215
176
     0
 90
        1
176
     0
 90
        4
176
     0
 62
     7
176
     0
 62
   257
176
     0
 90
        1
176
     0
 90
        1
176
     0
 40
1.0
176
     0
 90
        8
176
     2
 62
     7
176
     0
 40
1.0
176
     0
 90
        1
176
     0
 90
        6
176
     0
 90
        2
176
     0
 62
     7
176
     0
 90
        5
176
     0
 90
        0
176
     0
 90
        0
176
     0
290
     0
176
     0
 90
        1
176
     0
 40
0.0
176
     0
 90
        0
176
     0
290
     0
176
     1
290
     1
176
     1
290
     1
176
     1
290
     0
176
     1
290
     0
176
     1
290
     0
176
     1
290
     0
176
     1
290
     0
176
     1
290
     0
176
     1
 90
       50
176
     1
 40
0.0
176
     1
 40
1.0
176
     1
 90
        0
176
     1
 62
    18
420
        0
176
     1
 90
       50
176
     1
 90
        3
176
     1
 62
     5
420
      255
176
     1
290
     0
176
     1
 90
       50
176
     1
 90
       50
176
     1
 90
       50
176
     1
290
     0
176
     1
 90
       50
176
     1
 62
   256
176
     0
 40
1.0
176
     0
 90
        2
176
     1
  1
strokes_ogs.tif
176
     1
290
     0
176
     1
 40
1.0
176
     1
 40
1.0
176
     1
  0
VISUALSTYLE
  5
144
102
{ACAD_REACTORS
330
135
102
}
330
135
100
AcDbVisualStyle
  2
Facepattern
 70
    15
177
     3
291
     1
 70
    58
 90
        2
176
     1
 90
        2
176
     1
 90
        0
176
     1
 90
        0
176
     1
 40
0.6
176
     1
 40
30.0
176
     1
 62
     7
420
 16777215
176
     1
 90
        1
176
     1
 90
        4
176
     1
 62
     7
176
     1
 62
   257
176
     1
 90
        1
176
     1
 90
        1
176
     1
 40
1.0
176
     1
 90
        8
176
     1
 62
     7
176
     1
 40
1.0
176
     1
 90
        1
176
     1
 90
        6
176
     1
 90
        2
176
     1
 62
     7
176
     1
 90
        5
176
     1
 90
        0
176
     1
 90
        0
176
     1
290
     0
176
     1
 90
        1
176
     1
 40
0.0
176
     1
 90
        0
176
     1
290
     0
176
     1
290
     1
176
     1
290
     1
176
     1
290
     0
176
     1
290
     0
176
     1
290
     0
176
     1
290
     0
176
     1
290
     0
176
     1
290
     0
176
     1
 90
       50
176
     1
 40
0.0
176
     1
 40
1.0
176
     1
 90
        0
176
     1
 62
    18
420
        0
176
     1
 90
       50
176
     1
 90
        3
176
     1
 62
     5
420
      255
176
     1
290
     0
176
     1
 90
       50
176
     1
 90
       50
176
     1
 90
       50
176
     1
290
     0
176
     1
 90
       50
176
     1
 62
   256
176
     0
 40
1.0
176
     0
 90
        2
176
     1
  1
strokes_ogs.tif
176
     1
290
     0
176
     1
 40
1.0
176
     1
 40
1.0
176
     1
  0
VISUALSTYLE
  5
136
102
{ACAD_REACTORS
330
135
102
}
330
135
100
AcDbVisualStyle
  2
Flat
 70
     0
177
     3
291
     1
 70
    58
 90
        2
176
     1
 90
        1
176
     1
 90
        1
176
     1
 90
        2
176
     1
 40
0.6
176
     1
 40
30.0
176
     1
 62
     7
420
 16777215
176
     1
 90
        0
176
     1
 90
        0
176
     1
 62
     7
176
     1
 62
   257
176
     1
 90
        1
176
     1
 90
        1
176
     1
 40
1.0
176
     1
 90
        8
176
     1
 62
     7
176
     1
 40
1.0
176
     1
 90
        1
176
     1
 90
        6
176
     1
 90
        2
176
     1
 62
     7
176
     1
 90
        5
176
     1
 90
        0
176
     1
 90
        0
176
     1
290
     0
176
     1
 90
       13
176
     1
 40
0.0
176
     1
 90
        0
176
     1
290
     0
176
     1
290
     1
176
     1
290
     1
176
     1
290
     0
176
     1
290
     0
176
     1
290
     0
176
     1
290
     0
176
     1
290
     0
176
     1
290
     0
176
     1
 90
       50
176
     1
 40
0.0
176
     1
 40
1.0
176
     1
 90
        0
176
     1
 62
    18
420
        0
176
     1
 90
       50
176
     1
 90
        3
176
     1
 62
     5
420
      255
176
     1
290
     0
176
     1
 90
       50
176
     1
 90
       50
176
     1
 90
       50
176
     1
290
     0
176
     1
 90
       50
176
     1
 62
   256
176
     0
 40
1.0
176
     0
 90
        2
176
     1
  1
strokes_ogs.tif
176
     1
290
     0
176
     1
 40
1.0
176
     1
 40
1.0
176
     1
  0
VISUALSTYLE
  5
137
102
{ACAD_REACTORS
330
135
102
}
330
135
100
AcDbVisualStyle
  2
FlatWithEdges
 70
     1
177
     3
291
     1
 70
    58
 90
        2
176
     1
 90
        1
176
     1
 90
        1
176
     1
 90
        2
176
     1
 40
0.6
176
     1
 40
30.0
176
     1
 62
     7
420
 16777215
176
     1
 90
        1
176
     1
 90
        0
176
     1
 62
     7
176
     1
 62
   257
176
     1
 90
        1
176
     1
 90
        1
176
     1
 40
1.0
176
     1
 90
        0
176
     1
 62
   257
176
     1
 40
1.0
176
     1
 90
        1
176
     1
 90
        6
176
     1
 90
        2
176
     1
 62
     7
176
     1
 90
        5
176
     1
 90
        0
176
     1
 90
        0
176
     1
290
     0
176
     1
 90
       13
176
     1
 40
0.0
176
     1
 90
        0
176
     1
290
     0
176
     1
290
     1
176
     1
290
     1
176
     1
290
     0
176
     1
290
     0
176
     1
290
     0
176
     1
290
     0
176
     1
290
     0
176
     1
290
     0
176
     1
 90
       50
176
     1
 40
0.0
176
     1
 40
1.0
176
     1
 90
        0
176
     1
 62
    18
420
        0
176
     1
 90
       50
176
     1
 90
        3
176
     1
 62
     5
420
      255
176
     1
290
     0
176
     1
 90
       50
176
     1
 90
       50
176
     1
 90
       50
176
     1
290
     0
176
     1
 90
       50
176
     1
 62
   256
176
     0
 40
1.0
176
     0
 90
        2
176
     1
  1
strokes_ogs.tif
176
     1
290
     0
176
     1
 40
1.0
176
     1
 40
1.0
176
     1
  0
VISUALSTYLE
  5
138
102
{ACAD_REACTORS
330
135
102
}
330
135
100
AcDbVisualStyle
  2
Gouraud
 70
     2
177
     3
291
     1
 70
    58
 90
        2
176
     1
 90
        2
176
     1
 90
        1
176
     1
 90
        2
176
     1
 40
0.6
176
     1
 40
30.0
176
     1
 62
     7
420
 16777215
176
     1
 90
        0
176
     1
 90
        0
176
     1
 62
     7
176
     1
 62
   257
176
     1
 90
        1
176
     1
 90
        1
176
     1
 40
1.0
176
     1
 90
        0
176
     1
 62
     7
176
     1
 40
1.0
176
     1
 90
        1
176
     1
 90
        6
176
     1
 90
        2
176
     1
 62
     7
176
     1
 90
        5
176
     1
 90
        0
176
     1
 90
        0
176
     1
290
     0
176
     1
 90
       13
176
     1
 40
0.0
176
     1
 90
        0
176
     1
290
     0
176
     1
290
     1
176
     1
290
     1
176
     1
290
     0
176
     1
290
     0
176
     1
290
     0
176
     1
290
     0
176
     1
290
     0
176
     1
290
     0
176
     1
 90
       50
176
     1
 40
0.0
176
     1
 40
1.0
176
     1
 90
        0
176
     1
 62
    18
420
        0
176
     1
 90
       50
176
     1
 90
        3
176
     1
 62
     5
420
      255
176
     1
290
     0
176
     1
 90
       50
176
     1
 90
       50
176
     1
 90
       50
176
     1
290
     0
176
     1
 90
       50
176
     1
 62
   256
176
     0
 40
1.0
176
     0
 90
        2
176
     1
  1
strokes_ogs.tif
176
     1
290
     0
176
     1
 40
1.0
176
     1
 40
1.0
176
     1
  0
VISUALSTYLE
  5
139
102
{ACAD_REACTORS
330
135
102
}
330
135
100
AcDbVisualStyle
  2
GouraudWithEdges
 70
     3
177
     3
291
     1
 70
    58
 90
        2
176
     1
 90
        2
176
     1
 90
        1
176
     1
 90
        2
176
     1
 40
0.6
176
     1
 40
30.0
176
     1
 62
     7
420
 16777215
176
     1
 90
        1
176
     1
 90
        0
176
     1
 62
     7
176
     1
 62
   257
176
     1
 90
        1
176
     1
 90
        1
176
     1
 40
1.0
176
     1
 90
        0
176
     1
 62
   257
176
     1
 40
1.0
176
     1
 90
        1
176
     1
 90
        6
176
     1
 90
        2
176
     1
 62
     7
176
     1
 90
        5
176
     1
 90
        0
176
     1
 90
        0
176
     1
290
     0
176
     1
 90
       13
176
     1
 40
0.0
176
     1
 90
        0
176
     1
290
     0
176
     1
290
     1
176
     1
290
     1
176
     1
290
     0
176
     1
290
     0
176
     1
290
     0
176
     1
290
     0
176
     1
290
     0
176
     1
290
     0
176
     1
 90
       50
176
     1
 40
0.0
176
     1
 40
1.0
176
     1
 90
        0
176
     1
 62
    18
420
        0
176
     1
 90
       50
176
     1
 90
        3
176
     1
 62
     5
420
      255
176
     1
290
     0
176
     1
 90
       50
176
     1
 90
       50
176
     1
 90
       50
176
     1
290
     0
176
     1
 90
       50
176
     1
 62
   256
176
     0
 40
1.0
176
     0
 90
        2
176
     1
  1
strokes_ogs.tif
176
     1
290
     0
176
     1
 40
1.0
176
     1
 40
1.0
176
     1
  0
VISUALSTYLE
  5
13C
102
{ACAD_REACTORS
330
135
102
}
330
135
100
AcDbVisualStyle
  2
Hidden
 70
     6
177
     3
291
     0
 70
    58
 90
        1
176
     1
 90
        2
176
     1
 90
        2
176
     1
 90
        0
176
     1
 40
0.6
176
     1
 40
30.0
176
     1
 62
     7
420
 16777215
176
     1
 90
        2
176
     1
 90
        2
176
     1
 62
     7
176
     1
 62
   257
176
     1
 90
        2
176
     1
 90
        1
176
     1
 40
40.0
176
     1
 90
        0
176
     1
 62
   257
176
     1
 40
1.0
176
     1
 90
        1
176
     1
 90
        6
176
     1
 90
        2
176
     1
 62
     7
176
     1
 90
        3
176
     1
 90
        0
176
     1
 90
        0
176
     1
290
     0
176
     1
 90
        1
176
     1
 40
0.0
176
     1
 90
        0
176
     1
290
     0
176
     1
290
     1
176
     1
290
     1
176
     1
290
     0
176
     1
290
     0
176
     1
290
     0
176
     1
290
     0
176
     1
290
     0
176
     1
290
     0
176
     1
 90
       50
176
     1
 40
0.0
176
     1
 40
1.0
176
     1
 90
        0
176
     1
 62
    18
420
        0
176
     1
 90
       50
176
     1
 90
        3
176
     1
 62
     5
420
      255
176
     1
290
     0
176
     1
 90
       50
176
     1
 90
       50
176
     1
 90
       50
176
     1
290
     0
176
     1
 90
       50
176
     1
 62
   256
176
     0
 40
1.0
176
     0
 90
        2
176
     1
  1
strokes_ogs.tif
176
     1
290
     0
176
     1
 40
1.0
176
     1
 40
1.0
176
     1
  0
VISUALSTYLE
  5
146
102
{ACAD_REACTORS
330
135
102
}
330
135
100
AcDbVisualStyle
  2
JitterOff
 70
    20
177
     3
291
     1
 70
    58
 90
        2
176
     0
 90
        2
176
     0
 90
        0
176
     0
 90
        0
176
     0
 40
0.6
176
     0
 40
30.0
176
     0
 62
     7
420
 16777215
176
     0
 90
        1
176
     0
 90
        4
176
     0
 62
     7
176
     0
 62
   257
176
     0
 90
        1
176
     0
 90
        1
176
     0
 40
1.0
176
     0
 90
       10
176
     2
 62
     7
176
     0
 40
1.0
176
     0
 90
        1
176
     0
 90
        6
176
     0
 90
        2
176
     0
 62
     7
176
     0
 90
        5
176
     0
 90
        0
176
     0
 90
        0
176
     0
290
     0
176
     0
 90
        1
176
     0
 40
0.0
176
     0
 90
        0
176
     0
290
     0
176
     1
290
     1
176
     1
290
     1
176
     1
290
     0
176
     1
290
     0
176
     1
290
     0
176
     1
290
     0
176
     1
290
     0
176
     1
290
     0
176
     1
 90
       50
176
     1
 40
0.0
176
     1
 40
1.0
176
     1
 90
        0
176
     1
 62
    18
420
        0
176
     1
 90
       50
176
     1
 90
        3
176
     1
 62
     5
420
      255
176
     1
290
     0
176
     1
 90
       50
176
     1
 90
       50
176
     1
 90
       50
176
     1
290
     0
176
     1
 90
       50
176
     1
 62
   256
176
     0
 40
1.0
176
     0
 90
        2
176
     1
  1
strokes_ogs.tif
176
     1
290
     0
176
     1
 40
1.0
176
     1
 40
1.0
176
     1
  0
VISUALSTYLE
  5
143
102
{ACAD_REACTORS
330
135
102
}
330
135
100
AcDbVisualStyle
  2
Linepattern
 70
    14
177
     3
291
     1
 70
    58
 90
        2
176
     1
 90
        2
176
     1
 90
        0
176
     1
 90
        0
176
     1
 40
0.6
176
     1
 40
30.0
176
     1
 62
     7
420
 16777215
176
     1
 90
        1
176
     1
 90
        4
176
     1
 62
     7
176
     1
 62
   257
176
     1
 90
        7
176
     1
 90
        7
176
     1
 40
1.0
176
     1
 90
        8
176
     1
 62
     7
176
     1
 40
1.0
176
     1
 90
        1
176
     1
 90
        6
176
     1
 90
        2
176
     1
 62
     7
176
     1
 90
        5
176
     1
 90
        0
176
     1
 90
        0
176
     1
290
     0
176
     1
 90
        1
176
     1
 40
0.0
176
     1
 90
        0
176
     1
290
     0
176
     1
290
     1
176
     1
290
     1
176
     1
290
     0
176
     1
290
     0
176
     1
290
     0
176
     1
290
     0
176
     1
290
     0
176
     1
290
     0
176
     1
 90
       50
176
     1
 40
0.0
176
     1
 40
1.0
176
     1
 90
        0
176
     1
 62
    18
420
        0
176
     1
 90
       50
176
     1
 90
        3
176
     1
 62
     5
420
      255
176
     1
290
     0
176
     1
 90
       50
176
     1
 90
       50
176
     1
 90
       50
176
     1
290
     0
176
     1
 90
       50
176
     1
 62
   256
176
     0
 40
1.0
176
     0
 90
        2
176
     1
  1
strokes_ogs.tif
176
     1
290
     0
176
     1
 40
1.0
176
     1
 40
1.0
176
     1
  0
VISUALSTYLE
  5
147
102
{ACAD_REACTORS
330
135
102
}
330
135
100
AcDbVisualStyle
  2
OverhangOff
 70
    21
177
     3
291
     1
 70
    58
 90
        2
176
     0
 90
        2
176
     0
 90
        0
176
     0
 90
        0
176
     0
 40
0.6
176
     0
 40
30.0
176
     0
 62
     7
420
 16777215
176
     0
 90
        1
176
     0
 90
        4
176
     0
 62
     7
176
     0
 62
   257
176
     0
 90
        1
176
     0
 90
        1
176
     0
 40
1.0
176
     0
 90
        9
176
     2
 62
     7
176
     0
 40
1.0
176
     0
 90
        1
176
     0
 90
        6
176
     0
 90
        2
176
     0
 62
     7
176
     0
 90
        5
176
     0
 90
        0
176
     0
 90
        0
176
     0
290
     0
176
     0
 90
        1
176
     0
 40
0.0
176
     0
 90
        0
176
     0
290
     0
176
     1
290
     1
176
     1
290
     1
176
     1
290
     0
176
     1
290
     0
176
     1
290
     0
176
     1
290
     0
176
     1
290
     0
176
     1
290
     0
176
     1
 90
       50
176
     1
 40
0.0
176
     1
 40
1.0
176
     1
 90
        0
176
     1
 62
    18
420
        0
176
     1
 90
       50
176
     1
 90
        3
176
     1
 62
     5
420
      255
176
     1
290
     0
176
     1
 90
       50
176
     1
 90
       50
176
     1
 90
       50
176
     1
290
     0
176
     1
 90
       50
176
     1
 62
   256
176
     0
 40
1.0
176
     0
 90
        2
176
     1
  1
strokes_ogs.tif
176
     1
290
     0
176
     1
 40
1.0
176
     1
 40
1.0
176
     1
  0
VISUALSTYLE
  5
13E
102
{ACAD_REACTORS
330
135
102
}
330
135
100
AcDbVisualStyle
  2
Realistic
 70
     8
177
     3
291
     0
 70
    58
 90
        2
176
     1
 90
        3
176
     1
 90
        0
176
     1
 90
        2
176
     1
 40
0.6
176
     1
 40
30.0
176
     1
 62
     7
420
 16777215
176
     1
 90
        0
176
     1
 90
        0
176
     1
 62
     7
176
     1
 62
   257
176
     1
 90
        1
176
     1
 90
        1
176
     1
 40
1.0
176
     1
 90
        8
176
     1
 62
   257
176
     1
 40
1.0
176
     1
 90
        1
176
     1
 90
        6
176
     1
 90
        2
176
     1
 62
     7
176
     1
 90
        3
176
     1
 90
        0
176
     1
 90
        0
176
     1
290
     0
176
     1
 90
       13
176
     1
 40
0.0
176
     1
 90
        0
176
     1
290
     0
176
     1
290
     1
176
     1
290
     1
176
     1
290
     0
176
     1
290
     0
176
     1
290
     0
176
     1
290
     0
176
     1
290
     0
176
     1
290
     0
176
     1
 90
       50
176
     1
 40
0.0
176
     1
 40
1.0
176
     1
 90
        0
176
     1
 62
    18
420
        0
176
     1
 90
       50
176
     1
 90
        3
176
     1
 62
     5
420
      255
176
     1
290
     0
176
     1
 90
       50
176
     1
 90
       50
176
     1
 90
       50
176
     1
290
     0
176
     1
 90
       50
176
     1
 62
   256
176
     0
 40
1.0
176
     0
 90
        2
176
     1
  1
strokes_ogs.tif
176
     1
290
     0
176
     1
 40
1.0
176
     1
 40
1.0
176
     1
  0
VISUALSTYLE
  5
14D
102
{ACAD_REACTORS
330
135
102
}
330
135
100
AcDbVisualStyle
  2
Shaded
 70
    27
177
     3
291
     0
 70
    58
 90
        2
176
     1
 90
        2
176
     1
 90
        1
176
     1
 90
        2
176
     1
 40
0.6
176
     1
 40
30.0
176
     1
 62
     7
420
 16777215
176
     1
 90
        0
176
     1
 90
        4
176
     1
 62
     7
176
     1
 62
   257
176
     1
 90
        1
176
     1
 90
        1
176
     1
 40
1.0
176
     1
 90
        8
176
     1
 62
   257
176
     1
 40
1.0
176
     1
 90
        1
176
     1
 90
        6
176
     1
 90
        2
176
     1
 62
     8
420
  7895160
176
     1
 90
        3
176
     1
 90
        0
176
     1
 90
        0
176
     1
290
     0
176
     1
 90
        5
176
     1
 40
0.0
176
     1
 90
        0
176
     1
290
     0
176
     1
290
     1
176
     1
290
     1
176
     1
290
     0
176
     1
290
     0
176
     1
290
     0
176
     1
290
     0
176
     1
290
     0
176
     1
290
     0
176
     1
 90
       50
176
     1
 40
0.0
176
     1
 40
1.0
176
     1
 90
        0
176
     1
 62
    18
420
        0
176
     1
 90
       50
176
     1
 90
        3
176
     1
 62
     5
420
      255
176
     1
290
     0
176
     1
 90
       50
176
     1
 90
       50
176
     1
 90
       50
176
     1
290
     0
176
     1
 90
       50
176
     1
 62
   256
176
     0
 40
1.0
176
     0
 90
        2
176
     1
  1
strokes_ogs.tif
176
     1
290
     0
176
     1
 40
1.0
176
     1
 40
1.0
176
     1
  0
VISUALSTYLE
  5
14C
102
{ACAD_REACTORS
330
135
102
}
330
135
100
AcDbVisualStyle
  2
Shaded with edges
 70
    26
177
     3
291
     0
 70
    58
 90
        2
176
     1
 90
        2
176
     1
 90
        1
176
     1
 90
        2
176
     1
 40
0.6
176
     1
 40
30.0
176
     1
 62
     7
420
 16777215
176
     1
 90
        1
176
     1
 90
       10
176
     1
 62
     7
176
     1
 62
   257
176
     1
 90
        2
176
     1
 90
        1
176
     1
 40
1.0
176
     1
 90
        8
176
     1
 62
   257
176
     1
 40
1.0
176
     1
 90
        1
176
     1
 90
        6
176
     1
 90
        2
176
     1
 62
     7
176
     1
 90
        3
176
     1
 90
        0
176
     1
 90
        0
176
     1
290
     0
176
     1
 90
        5
176
     1
 40
0.0
176
     1
 90
        0
176
     1
290
     0
176
     1
290
     1
176
     1
290
     1
176
     1
290
     0
176
     1
290
     0
176
     1
290
     0
176
     1
290
     0
176
     1
290
     0
176
     1
290
     0
176
     1
 90
       50
176
     1
 40
0.0
176
     1
 40
1.0
176
     1
 90
        0
176
     1
 62
    18
420
        0
176
     1
 90
       50
176
     1
 90
        3
176
     1
 62
     5
420
      255
176
     1
290
     0
176
     1
 90
       50
176
     1
 90
       50
176
     1
 90
       50
176
     1
290
     0
176
     1
 90
       50
176
     1
 62
   256
176
     0
 40
1.0
176
     0
 90
        2
176
     1
  1
strokes_ogs.tif
176
     1
290
     0
176
     1
 40
1.0
176
     1
 40
1.0
176
     1
  0
VISUALSTYLE
  5
149
102
{ACAD_REACTORS
330
135
102
}
330
135
100
AcDbVisualStyle
  2
Shades of Gray
 70
    23
177
     3
291
     0
 70
    58
 90
        2
176
     1
 90
        2
176
     1
 90
        3
176
     1
 90
        0
176
     1
 40
0.6
176
     1
 40
30.0
176
     1
 62
     7
420
 16777215
176
     1
 90
        2
176
     1
 90
        2
176
     1
 62
     7
176
     1
 62
     7
176
     1
 90
        1
176
     1
 90
        1
176
     1
 40
40.0
176
     1
 90
        8
176
     1
 62
     7
176
     1
 40
1.0
176
     1
 90
        1
176
     1
 90
        6
176
     1
 90
        2
176
     1
 62
     7
176
     1
 90
        3
176
     1
 90
        0
176
     1
 90
        0
176
     1
290
     0
176
     1
 90
        1
176
     1
 40
0.0
176
     1
 90
        0
176
     1
290
     0
176
     1
290
     1
176
     1
290
     1
176
     1
290
     0
176
     1
290
     0
176
     1
290
     0
176
     1
290
     0
176
     1
290
     0
176
     1
290
     0
176
     1
 90
       50
176
     1
 40
0.0
176
     1
 40
1.0
176
     1
 90
        0
176
     1
 62
    18
420
        0
176
     1
 90
       50
176
     1
 90
        3
176
     1
 62
     5
420
      255
176
     1
290
     0
176
     1
 90
       50
176
     1
 90
       50
176
     1
 90
       50
176
     1
290
     0
176
     1
 90
       50
176
     1
 62
   256
176
     0
 40
1.0
176
     0
 90
        2
176
     1
  1
strokes_ogs.tif
176
     1
290
     0
176
     1
 40
1.0
176
     1
 40
1.0
176
     1
  0
VISUALSTYLE
  5
14A
102
{ACAD_REACTORS
330
135
102
}
330
135
100
AcDbVisualStyle
  2
Sketchy
 70
    24
177
     3
291
     0
 70
    58
 90
        1
176
     1
 90
        2
176
     1
 90
        2
176
     1
 90
        0
176
     1
 40
0.6
176
     1
 40
30.0
176
     1
 62
     7
420
 16777215
176
     1
 90
        2
176
     1
 90
        2
176
     1
 62
     7
176
     1
 62
     7
176
     1
 90
        1
176
     1
 90
        1
176
     1
 40
40.0
176
     1
 90
       11
176
     1
 62
     7
176
     1
 40
1.0
176
     1
 90
        1
176
     1
 90
        6
176
     1
 90
        2
176
     1
 62
     7
176
     1
 90
        6
176
     1
 90
        0
176
     1
 90
        0
176
     1
290
     0
176
     1
 90
        1
176
     1
 40
0.0
176
     1
 90
        0
176
     1
290
     0
176
     1
290
     1
176
     1
290
     1
176
     1
290
     0
176
     1
290
     0
176
     1
290
     0
176
     1
290
     0
176
     1
290
     0
176
     1
290
     0
176
     1
 90
       50
176
     1
 40
0.0
176
     1
 40
1.0
176
     1
 90
        0
176
     1
 62
    18
420
        0
176
     1
 90
       50
176
     1
 90
        3
176
     1
 62
     5
420
      255
176
     1
290
     0
176
     1
 90
       50
176
     1
 90
       50
176
     1
 90
       50
176
     1
290
     0
176
     1
 90
       50
176
     1
 62
   256
176
     0
 40
1.0
176
     0
 90
        2
176
     1
  1
strokes_ogs.tif
176
     1
290
     0
176
     1
 40
1.0
176
     1
 40
1.0
176
     1
  0
VISUALSTYLE
  5
142
102
{ACAD_REACTORS
330
135
102
}
330
135
100
AcDbVisualStyle
  2
Thicken
 70
    13
177
     3
291
     1
 70
    58
 90
        2
176
     1
 90
        2
176
     1
 90
        0
176
     1
 90
        0
176
     1
 40
0.6
176
     1
 40
30.0
176
     1
 62
     7
420
 16777215
176
     1
 90
        1
176
     1
 90
        4
176
     1
 62
     7
176
     1
 62
   257
176
     1
 90
        1
176
     1
 90
        1
176
     1
 40
1.0
176
     1
 90
       12
176
     1
 62
     7
176
     1
 40
1.0
176
     1
 90
        1
176
     1
 90
        6
176
     1
 90
        2
176
     1
 62
     7
176
     1
 90
        5
176
     1
 90
        0
176
     1
 90
        0
176
     1
290
     0
176
     1
 90
        1
176
     1
 40
0.0
176
     1
 90
        0
176
     1
290
     0
176
     1
290
     1
176
     1
290
     1
176
     1
290
     0
176
     1
290
     0
176
     1
290
     0
176
     1
290
     0
176
     1
290
     0
176
     1
290
     0
176
     1
 90
       50
176
     1
 40
0.0
176
     1
 40
1.0
176
     1
 90
        0
176
     1
 62
    18
420
        0
176
     1
 90
       50
176
     1
 90
        3
176
     1
 62
     5
420
      255
176
     1
290
     0
176
     1
 90
       50
176
     1
 90
       50
176
     1
 90
       50
176
     1
290
     0
176
     1
 90
       50
176
     1
 62
   256
176
     0
 40
1.0
176
     0
 90
        2
176
     1
  1
strokes_ogs.tif
176
     1
290
     0
176
     1
 40
1.0
176
     1
 40
1.0
176
     1
  0
VISUALSTYLE
  5
13B
102
{ACAD_REACTORS
330
135
102
}
330
135
100
AcDbVisualStyle
  2
Wireframe
 70
     5
177
     3
291
     0
 70
    58
 90
        0
176
     1
 90
        2
176
     1
 90
        0
176
     1
 90
        0
176
     1
 40
0.6
176
     1
 40
30.0
176
     1
 62
     7
420
 16777215
176
     1
 90
        1
176
     1
 90
        4
176
     1
 62
     7
176
     1
 62
   257
176
     1
 90
        1
176
     1
 90
        1
176
     1
 40
1.0
176
     1
 90
        0
176
     1
 62
   257
176
     1
 40
1.0
176
     1
 90
        1
176
     1
 90
        6
176
     1
 90
        2
176
     1
 62
     7
176
     1
 90
        3
176
     1
 90
        0
176
     1
 90
        0
176
     1
290
     0
176
     1
 90
        1
176
     1
 40
0.0
176
     1
 90
        0
176
     1
290
     0
176
     1
290
     1
176
     1
290
     1
176
     1
290
     0
176
     1
290
     0
176
     1
290
     0
176
     1
290
     0
176
     1
290
     0
176
     1
290
     0
176
     1
 90
       50
176
     1
 40
0.0
176
     1
 40
1.0
176
     1
 90
        0
176
     1
 62
    18
420
        0
176
     1
 90
       50
176
     1
 90
        3
176
     1
 62
     5
420
      255
176
     1
290
     0
176
     1
 90
       50
176
     1
 90
       50
176
     1
 90
       50
176
     1
290
     0
176
     1
 90
       50
176
     1
 62
   256
176
     0
 40
1.0
176
     0
 90
        2
176
     1
  1
strokes_ogs.tif
176
     1
290
     0
176
     1
 40
1.0
176
     1
 40
1.0
176
     1
  0
VISUALSTYLE
  5
14B
102
{ACAD_REACTORS
330
135
102
}
330
135
100
AcDbVisualStyle
  2
X-Ray
 70
    25
177
     3
291
     0
 70
    58
 90
        2
176
     1
 90
        2
176
     1
 90
        1
176
     1
 90
        1
176
     1
 40
0.5
176
     1
 40
30.0
176
     1
 62
     7
420
 16777215
176
     1
 90
        1
176
     1
 90
        0
176
     1
 62
     7
176
     1
 62
   257
176
     1
 90
        1
176
     1
 90
        1
176
     1
 40
1.0
176
     1
 90
        8
176
     1
 62
     7
176
     1
 40
1.0
176
     1
 90
        1
176
     1
 90
        6
176
     1
 90
        2
176
     1
 62
     7
176
     1
 90
        3
176
     1
 90
        0
176
     1
 90
        0
176
     1
290
     0
176
     1
 90
       13
176
     1
 40
0.0
176
     1
 90
        0
176
     1
290
     0
176
     1
290
     1
176
     1
290
     1
176
     1
290
     0
176
     1
290
     0
176
     1
290
     0
176
     1
290
     0
176
     1
290
     0
176
     1
290
     0
176
     1
 90
       50
176
     1
 40
0.0
176
     1
 40
1.0
176
     1
 90
        0
176
     1
 62
    18
420
        0
176
     1
 90
       50
176
     1
 90
        3
176
     1
 62
     5
420
      255
176
     1
290
     0
176
     1
 90
       50
176
     1
 90
       50
176
     1
 90
       50
176
     1
290
     0
176
     1
 90
       50
176
     1
 62
   256
176
     0
 40
1.0
176
     0
 90
        2
176
     1
  1
strokes_ogs.tif
176
     1
290
     0
176
     1
 40
1.0
176
     1
 40
1.0
176
     1
  0
DICTIONARYVAR
  5
177A
102
{ACAD_REACTORS
330
1779
102
}
330
1779
100
DictionaryVariables
280
     0
  1
1:1
  0
DICTIONARYVAR
  5
177C
102
{ACAD_REACTORS
330
1779
102
}
330
1779
100
DictionaryVariables
280
     0
  1
Standard
  0
DICTIONARYVAR
  5
177B
102
{ACAD_REACTORS
330
1779
102
}
330
1779
100
DictionaryVariables
280
     0
  1
Standard
  0
DICTIONARYVAR
  5
177D
102
{ACAD_REACTORS
330
1779
102
}
330
1779
100
DictionaryVariables
280
     0
  1
0
  0
DICTIONARY
  5
1F04
330
14F
100
AcDbDictionary
280
     1
281
     1
  3
ACAD_ROUNDTRIP_2008_TABLESTYLE_CELLSTYLEMAP
360
1F05
  0
CELLSTYLEMAP
  5
1F05
102
{ACAD_REACTORS
330
1F04
102
}
330
1F04
100
AcDbCellStyleMap
 90
        3
300
CELLSTYLE
  1
TABLEFORMAT_BEGIN
 90
        5
170
     1
 91
        0
 92
    32768
 62
   257
 93
        1
300
CONTENTFORMAT
  1
CONTENTFORMAT_BEGIN
 90
        0
 91
        0
 92
        4
 93
        0
300

 40
0.0
140
1.0
 94
        5
 62
     0
340
11
144
0.25
309
CONTENTFORMAT_END
171
     1
301
MARGIN
  1
CELLMARGIN_BEGIN
 40
0.06
 40
0.06
 40
0.06
 40
0.06
 40
0.06
 40
0.06
309
CELLMARGIN_END
 94
        6
 95
        1
302
GRIDFORMAT
  1
GRIDFORMAT_BEGIN
 90
        0
 91
        1
 62
     0
 92
       -2
340
14
 93
        0
 40
0.045
309
GRIDFORMAT_END
 95
        2
302
GRIDFORMAT
  1
GRIDFORMAT_BEGIN
 90
        0
 91
        1
 62
     0
 92
       -2
340
14
 93
        0
 40
0.045
309
GRIDFORMAT_END
 95
        4
302
GRIDFORMAT
  1
GRIDFORMAT_BEGIN
 90
        0
 91
        1
 62
     0
 92
       -2
340
14
 93
        0
 40
0.045
309
GRIDFORMAT_END
 95
        8
302
GRIDFORMAT
  1
GRIDFORMAT_BEGIN
 90
        0
 91
        1
 62
     0
 92
       -2
340
14
 93
        0
 40
0.045
309
GRIDFORMAT_END
 95
       16
302
GRIDFORMAT
  1
GRIDFORMAT_BEGIN
 90
        0
 91
        1
 62
     0
 92
       -2
340
14
 93
        0
 40
0.045
309
GRIDFORMAT_END
 95
       32
302
GRIDFORMAT
  1
GRIDFORMAT_BEGIN
 90
        0
 91
        1
 62
     0
 92
       -2
340
14
 93
        0
 40
0.045
309
GRIDFORMAT_END
309
TABLEFORMAT_END
  1
CELLSTYLE_BEGIN
 90
        1
 91
        1
300
_TITLE
309
CELLSTYLE_END
300
CELLSTYLE
  1
TABLEFORMAT_BEGIN
 90
        5
170
     1
 91
        0
 92
        0
 62
   257
 93
        1
300
CONTENTFORMAT
  1
CONTENTFORMAT_BEGIN
 90
        0
 91
        0
 92
        4
 93
        0
300

 40
0.0
140
1.0
 94
        5
 62
     0
340
11
144
0.18
309
CONTENTFORMAT_END
171
     1
301
MARGIN
  1
CELLMARGIN_BEGIN
 40
0.06
 40
0.06
 40
0.06
 40
0.06
 40
0.06
 40
0.06
309
CELLMARGIN_END
 94
        6
 95
        1
302
GRIDFORMAT
  1
GRIDFORMAT_BEGIN
 90
        0
 91
        1
 62
     0
 92
       -2
340
14
 93
        0
 40
0.045
309
GRIDFORMAT_END
 95
        2
302
GRIDFORMAT
  1
GRIDFORMAT_BEGIN
 90
        0
 91
        1
 62
     0
 92
       -2
340
14
 93
        0
 40
0.045
309
GRIDFORMAT_END
 95
        4
302
GRIDFORMAT
  1
GRIDFORMAT_BEGIN
 90
        0
 91
        1
 62
     0
 92
       -2
340
14
 93
        0
 40
0.045
309
GRIDFORMAT_END
 95
        8
302
GRIDFORMAT
  1
GRIDFORMAT_BEGIN
 90
        0
 91
        1
 62
     0
 92
       -2
340
14
 93
        0
 40
0.045
309
GRIDFORMAT_END
 95
       16
302
GRIDFORMAT
  1
GRIDFORMAT_BEGIN
 90
        0
 91
        1
 62
     0
 92
       -2
340
14
 93
        0
 40
0.045
309
GRIDFORMAT_END
 95
       32
302
GRIDFORMAT
  1
GRIDFORMAT_BEGIN
 90
        0
 91
        1
 62
     0
 92
       -2
340
14
 93
        0
 40
0.045
309
GRIDFORMAT_END
309
TABLEFORMAT_END
  1
CELLSTYLE_BEGIN
 90
        2
 91
        1
300
_HEADER
309
CELLSTYLE_END
300
CELLSTYLE
  1
TABLEFORMAT_BEGIN
 90
        5
170
     1
 91
        0
 92
        0
 62
   257
 93
        1
300
CONTENTFORMAT
  1
CONTENTFORMAT_BEGIN
 90
        0
 91
        0
 92
        4
 93
        0
300

 40
0.0
140
1.0
 94
        2
 62
     0
340
11
144
0.18
309
CONTENTFORMAT_END
171
     1
301
MARGIN
  1
CELLMARGIN_BEGIN
 40
0.06
 40
0.06
 40
0.06
 40
0.06
 40
0.06
 40
0.06
309
CELLMARGIN_END
 94
        6
 95
        1
302
GRIDFORMAT
  1
GRIDFORMAT_BEGIN
 90
        0
 91
        1
 62
     0
 92
       -2
340
14
 93
        0
 40
0.045
309
GRIDFORMAT_END
 95
        2
302
GRIDFORMAT
  1
GRIDFORMAT_BEGIN
 90
        0
 91
        1
 62
     0
 92
       -2
340
14
 93
        0
 40
0.045
309
GRIDFORMAT_END
 95
        4
302
GRIDFORMAT
  1
GRIDFORMAT_BEGIN
 90
        0
 91
        1
 62
     0
 92
       -2
340
14
 93
        0
 40
0.045
309
GRIDFORMAT_END
 95
        8
302
GRIDFORMAT
  1
GRIDFORMAT_BEGIN
 90
        0
 91
        1
 62
     0
 92
       -2
340
14
 93
        0
 40
0.045
309
GRIDFORMAT_END
 95
       16
302
GRIDFORMAT
  1
GRIDFORMAT_BEGIN
 90
        0
 91
        1
 62
     0
 92
       -2
340
14
 93
        0
 40
0.045
309
GRIDFORMAT_END
 95
       32
302
GRIDFORMAT
  1
GRIDFORMAT_BEGIN
 90
        0
 91
        1
 62
     0
 92
       -2
340
14
 93
        0
 40
0.045
309
GRIDFORMAT_END
309
TABLEFORMAT_END
  1
CELLSTYLE_BEGIN
 90
        3
 91
        2
300
_DATA
309
CELLSTYLE_END
  0
ENDSEC
  0
EOF
