  0
SECTION
  2
HEADER
  9
$ACADVER
  1
AC1012
  9
$DWGCODEPAGE
  3
dos932
  9
$INSBASE
 10
0.0
 20
0.0
 30
0.0
  9
$EXTMIN
 10
-9.096629184066841
 20
17.35501037244017
 30
-0.5694010038975306
  9
$EXTMAX
 10
1018.772622477055
 20
642.4103898498069
 30
0.183099690243917
  9
$LIMMIN
 10
0.0
 20
0.0
  9
$LIMMAX
 10
12.0
 20
9.0
  9
$ORTHOMODE
 70
     0
  9
$REGENMODE
 70
     1
  9
$FILLMODE
 70
     1
  9
$QTEXTMODE
 70
     0
  9
$MIRRTEXT
 70
     1
  9
$DRAGMODE
 70
     2
  9
$LTSCALE
 40
1.0
  9
$OSMODE
 70
    37
  9
$ATTMODE
 70
     1
  9
$TEXTSIZE
 40
1.5
  9
$TRACEWID
 40
0.05
  9
$TEXTSTYLE
  7
KANJI
  9
$CLAYER
  8
SUNPOU
  9
$CELTYPE
  6
BYLAYER
  9
$CECOLOR
 62
   256
  9
$CELTSCALE
 40
1.0
  9
$DELOBJ
 70
     1
  9
$DISPSILH
 70
     0
  9
$DIMSCALE
 40
5.0
  9
$DIMASZ
 40
2.0
  9
$DIMEXO
 40
1.0
  9
$DIMDLI
 40
8.0
  9
$DIMRND
 40
0.0
  9
$DIMDLE
 40
0.0
  9
$DIMEXE
 40
1.0
  9
$DIMTP
 40
0.0
  9
$DIMTM
 40
0.0
  9
$DIMTXT
 40
2.799999999999999
  9
$DIMCEN
 40
1.5
  9
$DIMTSZ
 40
0.0
  9
$DIMTOL
 70
     0
  9
$DIMLIM
 70
     0
  9
$DIMTIH
 70
     0
  9
$DIMTOH
 70
     0
  9
$DIMSE1
 70
     0
  9
$DIMSE2
 70
     0
  9
$DIMTAD
 70
     1
  9
$DIMZIN
 70
     8
  9
$DIMBLK
  1

  9
$DIMASO
 70
     1
  9
$DIMSHO
 70
     0
  9
$DIMPOST
  1

  9
$DIMAPOST
  1

  9
$DIMALT
 70
     0
  9
$DIMALTD
 70
     2
  9
$DIMALTF
 40
25.4
  9
$DIMLFAC
 40
1.0
  9
$DIMTOFL
 70
     1
  9
$DIMTVP
 40
0.0
  9
$DIMTIX
 70
     1
  9
$DIMSOXD
 70
     0
  9
$DIMSAH
 70
     0
  9
$DIMBLK1
  1

  9
$DIMBLK2
  1

  9
$DIMSTYLE
  2
STANDARD
  9
$DIMCLRD
 70
     0
  9
$DIMCLRE
 70
     0
  9
$DIMCLRT
 70
     0
  9
$DIMTFAC
 40
1.0
  9
$DIMGAP
 40
1.399999999999999
  9
$DIMJUST
 70
     0
  9
$DIMSD1
 70
     0
  9
$DIMSD2
 70
     0
  9
$DIMTOLJ
 70
     1
  9
$DIMTZIN
 70
     8
  9
$DIMALTZ
 70
     0
  9
$DIMALTTZ
 70
     0
  9
$DIMFIT
 70
     3
  9
$DIMUPT
 70
     0
  9
$DIMUNIT
 70
     2
  9
$DIMDEC
 70
     4
  9
$DIMTDEC
 70
     4
  9
$DIMALTU
 70
     2
  9
$DIMALTTD
 70
     2
  9
$DIMTXSTY
  7
KANJI
  9
$DIMAUNIT
 70
     0
  9
$LUNITS
 70
     2
  9
$LUPREC
 70
     4
  9
$SKETCHINC
 40
0.1
  9
$FILLETRAD
 40
3.0
  9
$AUNITS
 70
     0
  9
$AUPREC
 70
     0
  9
$MENU
  1
acad
  9
$ELEVATION
 40
0.0
  9
$PELEVATION
 40
0.0
  9
$THICKNESS
 40
0.0
  9
$LIMCHECK
 70
     0
  9
$BLIPMODE
 70
     0
  9
$CHAMFERA
 40
0.0
  9
$CHAMFERB
 40
0.0
  9
$CHAMFERC
 40
0.0
  9
$CHAMFERD
 40
0.0
  9
$SKPOLY
 70
     0
  9
$TDCREATE
 40
2450178.569598264
  9
$TDUPDATE
 40
2453166.663400116
  9
$TDINDWG
 40
0.5514867130
  9
$TDUSRTIMER
 40
0.5514867130
  9
$USRTIMER
 70
     1
  9
$ANGBASE
 50
0.0
  9
$ANGDIR
 70
     0
  9
$PDMODE
 70
     0
  9
$PDSIZE
 40
0.0
  9
$PLINEWID
 40
0.0
  9
$COORDS
 70
     1
  9
$SPLFRAME
 70
     0
  9
$SPLINETYPE
 70
     6
  9
$SPLINESEGS
 70
     8
  9
$ATTDIA
 70
     0
  9
$ATTREQ
 70
     1
  9
$HANDLING
 70
-16383
  9
$HANDSEED
  5
60EC
  9
$SURFTAB1
 70
     6
  9
$SURFTAB2
 70
     6
  9
$SURFTYPE
 70
     6
  9
$SURFU
 70
     6
  9
$SURFV
 70
     6
  9
$UCSNAME
  2

  9
$UCSORG
 10
0.0
 20
0.0
 30
0.0
  9
$UCSXDIR
 10
1.0
 20
0.0
 30
0.0
  9
$UCSYDIR
 10
0.0
 20
1.0
 30
0.0
  9
$PUCSNAME
  2

  9
$PUCSORG
 10
0.0
 20
0.0
 30
0.0
  9
$PUCSXDIR
 10
1.0
 20
0.0
 30
0.0
  9
$PUCSYDIR
 10
0.0
 20
1.0
 30
0.0
  9
$USERI1
 70
     0
  9
$USERI2
 70
     0
  9
$USERI3
 70
     0
  9
$USERI4
 70
     0
  9
$USERI5
 70
     0
  9
$USERR1
 40
0.0
  9
$USERR2
 40
0.0
  9
$USERR3
 40
0.0
  9
$USERR4
 40
0.0
  9
$USERR5
 40
0.0
  9
$WORLDVIEW
 70
     1
  9
$SHADEDGE
 70
     3
  9
$SHADEDIF
 70
    70
  9
$TILEMODE
 70
     1
  9
$MAXACTVP
 70
    16
  9
$PINSBASE
 10
0.0
 20
0.0
 30
0.0
  9
$PLIMCHECK
 70
     0
  9
$PEXTMIN
 10
1.000000000000000E+20
 20
1.000000000000000E+20
 30
1.000000000000000E+20
  9
$PEXTMAX
 10
-1.000000000000000E+20
 20
-1.000000000000000E+20
 30
-1.000000000000000E+20
  9
$PLIMMIN
 10
0.0
 20
0.0
  9
$PLIMMAX
 10
12.0
 20
9.0
  9
$UNITMODE
 70
     0
  9
$VISRETAIN
 70
     0
  9
$PLINEGEN
 70
     0
  9
$PSLTSCALE
 70
     0
  9
$TREEDEPTH
 70
  3020
  9
$PICKSTYLE
 70
     3
  9
$CMLSTYLE
  2
STANDARD
  9
$CMLJUST
 70
     0
  9
$CMLSCALE
 40
1.0
  9
$SAVEIMAGES
 70
     1
  0
ENDSEC
  0
SECTION
  2
CLASSES
  0
CLASS
  1
ACDBDICTIONARYWDFLT
  2
AcDbDictionaryWithDefault
  3
AutoCAD 2000
 90
    32768
280
     0
281
     0
  0
CLASS
  1
ACDBPLACEHOLDER
  2
AcDbPlaceHolder
  3
AutoCAD 2000
 90
    32768
280
     0
281
     0
  0
CLASS
  1
LAYOUT
  2
AcDbLayout
  3
AutoCAD 2000
 90
    32768
280
     0
281
     0
  0
CLASS
  1
LONG_TRANSACTION
  2
AcDbLongTransaction
  3
AutoCAD 2000
 90
    32768
280
     0
281
     0
  0
CLASS
  1
LWPOLYLINE
  2
AcDbPolyline
  3
AutoCAD 2000
 90
    32768
280
     0
281
     1
  0
CLASS
  1
HATCH
  2
AcDbHatch
  3
AutoCAD 2000
 90
    32768
280
     0
281
     1
  0
CLASS
  1
XRECORD
  2
AcDbXrecord
  3
AutoCAD 2000
 90
    32768
280
     0
281
     0
  0
CLASS
  1
LONG_TRANSACTION
  2
AcDbLongTransaction
  3
AutoCAD 2000
 90
    32768
280
     0
281
     0
  0
CLASS
  1
LWPOLYLINE
  2
AcDbPolyline
  3
AutoCAD 2000
 90
    32768
280
     0
281
     1
  0
CLASS
  1
HATCH
  2
AcDbHatch
  3
AutoCAD 2000
 90
    32768
280
     0
281
     1
  0
CLASS
  1
XRECORD
  2
AcDbXrecord
  3
AutoCAD 2000
 90
    32768
280
     0
281
     0
  0
CLASS
  1
LONG_TRANSACTION
  2
AcDbLongTransaction
  3
AutoCAD 2000
 90
    32768
280
     0
281
     0
  0
CLASS
  1
LWPOLYLINE
  2
AcDbPolyline
  3
AutoCAD 2000
 90
    32768
280
     0
281
     1
  0
CLASS
  1
HATCH
  2
AcDbHatch
  3
AutoCAD 2000
 90
    32768
280
     0
281
     1
  0
CLASS
  1
XRECORD
  2
AcDbXrecord
  3
AutoCAD 2000
 90
    32768
280
     0
281
     0
  0
CLASS
  1
LONG_TRANSACTION
  2
AcDbLongTransaction
  3
AutoCAD 2000
 90
    32768
280
     0
281
     0
  0
CLASS
  1
LWPOLYLINE
  2
AcDbPolyline
  3
AutoCAD 2000
 90
    32768
280
     0
281
     1
  0
CLASS
  1
HATCH
  2
AcDbHatch
  3
AutoCAD 2000
 90
    32768
280
     0
281
     1
  0
CLASS
  1
XRECORD
  2
AcDbXrecord
  3
AutoCAD 2000
 90
    32768
280
     0
281
     0
  0
CLASS
  1
LONG_TRANSACTION
  2
AcDbLongTransaction
  3
AutoCAD 2000
 90
    32768
280
     0
281
     0
  0
CLASS
  1
LWPOLYLINE
  2
AcDbPolyline
  3
AutoCAD 2000
 90
    32768
280
     0
281
     1
  0
CLASS
  1
HATCH
  2
AcDbHatch
  3
AutoCAD 2000
 90
    32768
280
     0
281
     1
  0
CLASS
  1
XRECORD
  2
AcDbXrecord
  3
AutoCAD 2000
 90
    32768
280
     0
281
     0
  0
CLASS
  1
LONG_TRANSACTION
  2
AcDbLongTransaction
  3
AutoCAD 2000
 90
    32768
280
     0
281
     0
  0
CLASS
  1
LWPOLYLINE
  2
AcDbPolyline
  3
AutoCAD 2000
 90
    32768
280
     0
281
     1
  0
CLASS
  1
HATCH
  2
AcDbHatch
  3
AutoCAD 2000
 90
    32768
280
     0
281
     1
  0
CLASS
  1
XRECORD
  2
AcDbXrecord
  3
AutoCAD 2000
 90
    32768
280
     0
281
     0
  0
CLASS
  1
LONG_TRANSACTION
  2
AcDbLongTransaction
  3
AutoCAD 2000
 90
    32768
280
     0
281
     0
  0
CLASS
  1
LWPOLYLINE
  2
AcDbPolyline
  3
AutoCAD 2000
 90
    32768
280
     0
281
     1
  0
CLASS
  1
HATCH
  2
AcDbHatch
  3
AutoCAD 2000
 90
    32768
280
     0
281
     1
  0
CLASS
  1
XRECORD
  2
AcDbXrecord
  3
AutoCAD 2000
 90
    32768
280
     0
281
     0
  0
CLASS
  1
LONG_TRANSACTION
  2
AcDbLongTransaction
  3
AutoCAD 2000
 90
    32768
280
     0
281
     0
  0
CLASS
  1
LWPOLYLINE
  2
AcDbPolyline
  3
AutoCAD 2000
 90
    32768
280
     0
281
     1
  0
CLASS
  1
HATCH
  2
AcDbHatch
  3
AutoCAD 2000
 90
    32768
280
     0
281
     1
  0
CLASS
  1
XRECORD
  2
AcDbXrecord
  3
AutoCAD 2000
 90
    32768
280
     0
281
     0
  0
CLASS
  1
LONG_TRANSACTION
  2
AcDbLongTransaction
  3
AutoCAD 2000
 90
    32768
280
     0
281
     0
  0
CLASS
  1
LWPOLYLINE
  2
AcDbPolyline
  3
AutoCAD 2000
 90
    32768
280
     0
281
     1
  0
CLASS
  1
HATCH
  2
AcDbHatch
  3
AutoCAD 2000
 90
    32768
280
     0
281
     1
  0
CLASS
  1
XRECORD
  2
AcDbXrecord
  3
AutoCAD 2000
 90
    32768
280
     0
281
     0
  0
CLASS
  1
LONG_TRANSACTION
  2
AcDbLongTransaction
  3
AutoCAD 2000
 90
    32768
280
     0
281
     0
  0
CLASS
  1
LWPOLYLINE
  2
AcDbPolyline
  3
AutoCAD 2000
 90
    32768
280
     0
281
     1
  0
CLASS
  1
HATCH
  2
AcDbHatch
  3
AutoCAD 2000
 90
    32768
280
     0
281
     1
  0
CLASS
  1
XRECORD
  2
AcDbXrecord
  3
AutoCAD 2000
 90
    32768
280
     0
281
     0
  0
CLASS
  1
LONG_TRANSACTION
  2
AcDbLongTransaction
  3
AutoCAD 2000
 90
    32768
280
     0
281
     0
  0
CLASS
  1
LWPOLYLINE
  2
AcDbPolyline
  3
AutoCAD 2000
 90
    32768
280
     0
281
     1
  0
CLASS
  1
HATCH
  2
AcDbHatch
  3
AutoCAD 2000
 90
    32768
280
     0
281
     1
  0
CLASS
  1
XRECORD
  2
AcDbXrecord
  3
AutoCAD 2000
 90
    32768
280
     0
281
     0
  0
CLASS
  1
LONG_TRANSACTION
  2
AcDbLongTransaction
  3
AutoCAD 2000
 90
    32768
280
     0
281
     0
  0
CLASS
  1
LWPOLYLINE
  2
AcDbPolyline
  3
AutoCAD 2000
 90
    32768
280
     0
281
     1
  0
CLASS
  1
HATCH
  2
AcDbHatch
  3
AutoCAD 2000
 90
    32768
280
     0
281
     1
  0
CLASS
  1
XRECORD
  2
AcDbXrecord
  3
AutoCAD 2000
 90
    32768
280
     0
281
     0
  0
CLASS
  1
LONG_TRANSACTION
  2
AcDbLongTransaction
  3
AutoCAD 2000
 90
    32768
280
     0
281
     0
  0
CLASS
  1
LWPOLYLINE
  2
AcDbPolyline
  3
AutoCAD 2000
 90
    32768
280
     0
281
     1
  0
CLASS
  1
HATCH
  2
AcDbHatch
  3
AutoCAD 2000
 90
    32768
280
     0
281
     1
  0
CLASS
  1
XRECORD
  2
AcDbXrecord
  3
AutoCAD 2000
 90
    32768
280
     0
281
     0
  0
CLASS
  1
LONG_TRANSACTION
  2
AcDbLongTransaction
  3
AutoCAD 2000
 90
    32768
280
     0
281
     0
  0
CLASS
  1
LWPOLYLINE
  2
AcDbPolyline
  3
AutoCAD 2000
 90
    32768
280
     0
281
     1
  0
CLASS
  1
HATCH
  2
AcDbHatch
  3
AutoCAD 2000
 90
    32768
280
     0
281
     1
  0
CLASS
  1
XRECORD
  2
AcDbXrecord
  3
AutoCAD 2000
 90
    32768
280
     0
281
     0
  0
CLASS
  1
LONG_TRANSACTION
  2
AcDbLongTransaction
  3
AutoCAD 2000
 90
    32768
280
     0
281
     0
  0
CLASS
  1
LWPOLYLINE
  2
AcDbPolyline
  3
AutoCAD 2000
 90
    32768
280
     0
281
     1
  0
CLASS
  1
HATCH
  2
AcDbHatch
  3
AutoCAD 2000
 90
    32768
280
     0
281
     1
  0
CLASS
  1
XRECORD
  2
AcDbXrecord
  3
AutoCAD 2000
 90
    32768
280
     0
281
     0
  0
CLASS
  1
LONG_TRANSACTION
  2
AcDbLongTransaction
  3
AutoCAD 2000
 90
    32768
280
     0
281
     0
  0
CLASS
  1
LWPOLYLINE
  2
AcDbPolyline
  3
AutoCAD 2000
 90
    32768
280
     0
281
     1
  0
CLASS
  1
HATCH
  2
AcDbHatch
  3
AutoCAD 2000
 90
    32768
280
     0
281
     1
  0
CLASS
  1
XRECORD
  2
AcDbXrecord
  3
AutoCAD 2000
 90
    32768
280
     0
281
     0
  0
CLASS
  1
LONG_TRANSACTION
  2
AcDbLongTransaction
  3
AutoCAD 2000
 90
    32768
280
     0
281
     0
  0
CLASS
  1
LWPOLYLINE
  2
AcDbPolyline
  3
AutoCAD 2000
 90
    32768
280
     0
281
     1
  0
CLASS
  1
HATCH
  2
AcDbHatch
  3
AutoCAD 2000
 90
    32768
280
     0
281
     1
  0
CLASS
  1
XRECORD
  2
AcDbXrecord
  3
AutoCAD 2000
 90
    32768
280
     0
281
     0
  0
CLASS
  1
LONG_TRANSACTION
  2
AcDbLongTransaction
  3
AutoCAD 2000
 90
    32768
280
     0
281
     0
  0
CLASS
  1
LWPOLYLINE
  2
AcDbPolyline
  3
AutoCAD 2000
 90
    32768
280
     0
281
     1
  0
CLASS
  1
HATCH
  2
AcDbHatch
  3
AutoCAD 2000
 90
    32768
280
     0
281
     1
  0
CLASS
  1
XRECORD
  2
AcDbXrecord
  3
AutoCAD 2000
 90
    32768
280
     0
281
     0
  0
CLASS
  1
LONG_TRANSACTION
  2
AcDbLongTransaction
  3
AutoCAD 2000
 90
    32768
280
     0
281
     0
  0
CLASS
  1
LWPOLYLINE
  2
AcDbPolyline
  3
AutoCAD 2000
 90
    32768
280
     0
281
     1
  0
CLASS
  1
HATCH
  2
AcDbHatch
  3
AutoCAD 2000
 90
    32768
280
     0
281
     1
  0
CLASS
  1
XRECORD
  2
AcDbXrecord
  3
AutoCAD 2000
 90
    32768
280
     0
281
     0
  0
CLASS
  1
LONG_TRANSACTION
  2
AcDbLongTransaction
  3
AutoCAD 2000
 90
    32768
280
     0
281
     0
  0
CLASS
  1
LWPOLYLINE
  2
AcDbPolyline
  3
AutoCAD 2000
 90
    32768
280
     0
281
     1
  0
CLASS
  1
HATCH
  2
AcDbHatch
  3
AutoCAD 2000
 90
    32768
280
     0
281
     1
  0
CLASS
  1
XRECORD
  2
AcDbXrecord
  3
AutoCAD 2000
 90
    32768
280
     0
281
     0
  0
CLASS
  1
LONG_TRANSACTION
  2
AcDbLongTransaction
  3
AutoCAD 2000
 90
    32768
280
     0
281
     0
  0
CLASS
  1
LWPOLYLINE
  2
AcDbPolyline
  3
AutoCAD 2000
 90
    32768
280
     0
281
     1
  0
CLASS
  1
HATCH
  2
AcDbHatch
  3
AutoCAD 2000
 90
    32768
280
     0
281
     1
  0
CLASS
  1
XRECORD
  2
AcDbXrecord
  3
AutoCAD 2000
 90
    32768
280
     0
281
     0
  0
CLASS
  1
LONG_TRANSACTION
  2
AcDbLongTransaction
  3
AutoCAD 2000
 90
    32768
280
     0
281
     0
  0
CLASS
  1
LWPOLYLINE
  2
AcDbPolyline
  3
AutoCAD 2000
 90
    32768
280
     0
281
     1
  0
CLASS
  1
HATCH
  2
AcDbHatch
  3
AutoCAD 2000
 90
    32768
280
     0
281
     1
  0
CLASS
  1
XRECORD
  2
AcDbXrecord
  3
AutoCAD 2000
 90
    32768
280
     0
281
     0
  0
CLASS
  1
LONG_TRANSACTION
  2
AcDbLongTransaction
  3
AutoCAD 2000
 90
    32768
280
     0
281
     0
  0
CLASS
  1
LWPOLYLINE
  2
AcDbPolyline
  3
AutoCAD 2000
 90
    32768
280
     0
281
     1
  0
CLASS
  1
HATCH
  2
AcDbHatch
  3
AutoCAD 2000
 90
    32768
280
     0
281
     1
  0
CLASS
  1
XRECORD
  2
AcDbXrecord
  3
AutoCAD 2000
 90
    32768
280
     0
281
     0
  0
CLASS
  1
LONG_TRANSACTION
  2
AcDbLongTransaction
  3
AutoCAD 2000
 90
    32768
280
     0
281
     0
  0
CLASS
  1
LWPOLYLINE
  2
AcDbPolyline
  3
AutoCAD 2000
 90
    32768
280
     0
281
     1
  0
CLASS
  1
HATCH
  2
AcDbHatch
  3
AutoCAD 2000
 90
    32768
280
     0
281
     1
  0
CLASS
  1
XRECORD
  2
AcDbXrecord
  3
AutoCAD 2000
 90
    32768
280
     0
281
     0
  0
CLASS
  1
LONG_TRANSACTION
  2
AcDbLongTransaction
  3
AutoCAD 2000
 90
    32768
280
     0
281
     0
  0
CLASS
  1
LWPOLYLINE
  2
AcDbPolyline
  3
AutoCAD 2000
 90
    32768
280
     0
281
     1
  0
CLASS
  1
HATCH
  2
AcDbHatch
  3
AutoCAD 2000
 90
    32768
280
     0
281
     1
  0
CLASS
  1
XRECORD
  2
AcDbXrecord
  3
AutoCAD 2000
 90
    32768
280
     0
281
     0
  0
CLASS
  1
LONG_TRANSACTION
  2
AcDbLongTransaction
  3
AutoCAD 2000
 90
    32768
280
     0
281
     0
  0
CLASS
  1
LWPOLYLINE
  2
AcDbPolyline
  3
AutoCAD 2000
 90
    32768
280
     0
281
     1
  0
CLASS
  1
HATCH
  2
AcDbHatch
  3
AutoCAD 2000
 90
    32768
280
     0
281
     1
  0
CLASS
  1
XRECORD
  2
AcDbXrecord
  3
AutoCAD 2000
 90
    32768
280
     0
281
     0
  0
CLASS
  1
LONG_TRANSACTION
  2
AcDbLongTransaction
  3
AutoCAD 2000
 90
    32768
280
     0
281
     0
  0
CLASS
  1
LWPOLYLINE
  2
AcDbPolyline
  3
AutoCAD 2000
 90
    32768
280
     0
281
     1
  0
CLASS
  1
HATCH
  2
AcDbHatch
  3
AutoCAD 2000
 90
    32768
280
     0
281
     1
  0
CLASS
  1
XRECORD
  2
AcDbXrecord
  3
AutoCAD 2000
 90
    32768
280
     0
281
     0
  0
CLASS
  1
LONG_TRANSACTION
  2
AcDbLongTransaction
  3
AutoCAD 2000
 90
    32768
280
     0
281
     0
  0
CLASS
  1
LWPOLYLINE
  2
AcDbPolyline
  3
AutoCAD 2000
 90
    32768
280
     0
281
     1
  0
CLASS
  1
HATCH
  2
AcDbHatch
  3
AutoCAD 2000
 90
    32768
280
     0
281
     1
  0
CLASS
  1
XRECORD
  2
AcDbXrecord
  3
AutoCAD 2000
 90
    32768
280
     0
281
     0
  0
CLASS
  1
LONG_TRANSACTION
  2
AcDbLongTransaction
  3
AutoCAD 2000
 90
    32768
280
     0
281
     0
  0
CLASS
  1
LWPOLYLINE
  2
AcDbPolyline
  3
AutoCAD 2000
 90
    32768
280
     0
281
     1
  0
CLASS
  1
HATCH
  2
AcDbHatch
  3
AutoCAD 2000
 90
    32768
280
     0
281
     1
  0
CLASS
  1
XRECORD
  2
AcDbXrecord
  3
AutoCAD 2000
 90
    32768
280
     0
281
     0
  0
CLASS
  1
LONG_TRANSACTION
  2
AcDbLongTransaction
  3
AutoCAD 2000
 90
    32768
280
     0
281
     0
  0
CLASS
  1
LWPOLYLINE
  2
AcDbPolyline
  3
AutoCAD 2000
 90
    32768
280
     0
281
     1
  0
CLASS
  1
HATCH
  2
AcDbHatch
  3
AutoCAD 2000
 90
    32768
280
     0
281
     1
  0
CLASS
  1
XRECORD
  2
AcDbXrecord
  3
AutoCAD 2000
 90
    32768
280
     0
281
     0
  0
CLASS
  1
LONG_TRANSACTION
  2
AcDbLongTransaction
  3
AutoCAD 2000
 90
    32768
280
     0
281
     0
  0
CLASS
  1
LWPOLYLINE
  2
AcDbPolyline
  3
AutoCAD 2000
 90
    32768
280
     0
281
     1
  0
CLASS
  1
HATCH
  2
AcDbHatch
  3
AutoCAD 2000
 90
    32768
280
     0
281
     1
  0
CLASS
  1
XRECORD
  2
AcDbXrecord
  3
AutoCAD 2000
 90
    32768
280
     0
281
     0
  0
CLASS
  1
LONG_TRANSACTION
  2
AcDbLongTransaction
  3
AutoCAD 2000
 90
    32768
280
     0
281
     0
  0
CLASS
  1
LWPOLYLINE
  2
AcDbPolyline
  3
AutoCAD 2000
 90
    32768
280
     0
281
     1
  0
CLASS
  1
HATCH
  2
AcDbHatch
  3
AutoCAD 2000
 90
    32768
280
     0
281
     1
  0
CLASS
  1
XRECORD
  2
AcDbXrecord
  3
AutoCAD 2000
 90
    32768
280
     0
281
     0
  0
CLASS
  1
LONG_TRANSACTION
  2
AcDbLongTransaction
  3
AutoCAD 2000
 90
    32768
280
     0
281
     0
  0
CLASS
  1
LWPOLYLINE
  2
AcDbPolyline
  3
AutoCAD 2000
 90
    32768
280
     0
281
     1
  0
CLASS
  1
HATCH
  2
AcDbHatch
  3
AutoCAD 2000
 90
    32768
280
     0
281
     1
  0
CLASS
  1
XRECORD
  2
AcDbXrecord
  3
AutoCAD 2000
 90
    32768
280
     0
281
     0
  0
CLASS
  1
LONG_TRANSACTION
  2
AcDbLongTransaction
  3
AutoCAD 2000
 90
    32768
280
     0
281
     0
  0
CLASS
  1
LWPOLYLINE
  2
AcDbPolyline
  3
AutoCAD 2000
 90
    32768
280
     0
281
     1
  0
CLASS
  1
HATCH
  2
AcDbHatch
  3
AutoCAD 2000
 90
    32768
280
     0
281
     1
  0
CLASS
  1
XRECORD
  2
AcDbXrecord
  3
AutoCAD 2000
 90
    32768
280
     0
281
     0
  0
CLASS
  1
LONG_TRANSACTION
  2
AcDbLongTransaction
  3
AutoCAD 2000
 90
    32768
280
     0
281
     0
  0
CLASS
  1
LWPOLYLINE
  2
AcDbPolyline
  3
AutoCAD 2000
 90
    32768
280
     0
281
     1
  0
CLASS
  1
HATCH
  2
AcDbHatch
  3
AutoCAD 2000
 90
    32768
280
     0
281
     1
  0
CLASS
  1
XRECORD
  2
AcDbXrecord
  3
AutoCAD 2000
 90
    32768
280
     0
281
     0
  0
CLASS
  1
LONG_TRANSACTION
  2
AcDbLongTransaction
  3
AutoCAD 2000
 90
    32768
280
     0
281
     0
  0
CLASS
  1
LWPOLYLINE
  2
AcDbPolyline
  3
AutoCAD 2000
 90
    32768
280
     0
281
     1
  0
CLASS
  1
HATCH
  2
AcDbHatch
  3
AutoCAD 2000
 90
    32768
280
     0
281
     1
  0
CLASS
  1
XRECORD
  2
AcDbXrecord
  3
AutoCAD 2000
 90
    32768
280
     0
281
     0
  0
CLASS
  1
LONG_TRANSACTION
  2
AcDbLongTransaction
  3
AutoCAD 2000
 90
    32768
280
     0
281
     0
  0
CLASS
  1
LWPOLYLINE
  2
AcDbPolyline
  3
AutoCAD 2000
 90
    32768
280
     0
281
     1
  0
CLASS
  1
HATCH
  2
AcDbHatch
  3
AutoCAD 2000
 90
    32768
280
     0
281
     1
  0
CLASS
  1
XRECORD
  2
AcDbXrecord
  3
AutoCAD 2000
 90
    32768
280
     0
281
     0
  0
CLASS
  1
LONG_TRANSACTION
  2
AcDbLongTransaction
  3
AutoCAD 2000
 90
    32768
280
     0
281
     0
  0
CLASS
  1
LWPOLYLINE
  2
AcDbPolyline
  3
AutoCAD 2000
 90
    32768
280
     0
281
     1
  0
CLASS
  1
HATCH
  2
AcDbHatch
  3
AutoCAD 2000
 90
    32768
280
     0
281
     1
  0
CLASS
  1
XRECORD
  2
AcDbXrecord
  3
AutoCAD 2000
 90
    32768
280
     0
281
     0
  0
CLASS
  1
LONG_TRANSACTION
  2
AcDbLongTransaction
  3
AutoCAD 2000
 90
    32768
280
     0
281
     0
  0
CLASS
  1
LWPOLYLINE
  2
AcDbPolyline
  3
AutoCAD 2000
 90
    32768
280
     0
281
     1
  0
CLASS
  1
HATCH
  2
AcDbHatch
  3
AutoCAD 2000
 90
    32768
280
     0
281
     1
  0
CLASS
  1
XRECORD
  2
AcDbXrecord
  3
AutoCAD 2000
 90
    32768
280
     0
281
     0
  0
CLASS
  1
LONG_TRANSACTION
  2
AcDbLongTransaction
  3
AutoCAD 2000
 90
    32768
280
     0
281
     0
  0
CLASS
  1
LWPOLYLINE
  2
AcDbPolyline
  3
AutoCAD 2000
 90
    32768
280
     0
281
     1
  0
CLASS
  1
HATCH
  2
AcDbHatch
  3
AutoCAD 2000
 90
    32768
280
     0
281
     1
  0
CLASS
  1
XRECORD
  2
AcDbXrecord
  3
AutoCAD 2000
 90
    32768
280
     0
281
     0
  0
CLASS
  1
LONG_TRANSACTION
  2
AcDbLongTransaction
  3
AutoCAD 2000
 90
    32768
280
     0
281
     0
  0
CLASS
  1
LWPOLYLINE
  2
AcDbPolyline
  3
AutoCAD 2000
 90
    32768
280
     0
281
     1
  0
CLASS
  1
HATCH
  2
AcDbHatch
  3
AutoCAD 2000
 90
    32768
280
     0
281
     1
  0
CLASS
  1
XRECORD
  2
AcDbXrecord
  3
AutoCAD 2000
 90
    32768
280
     0
281
     0
  0
CLASS
  1
LONG_TRANSACTION
  2
AcDbLongTransaction
  3
AutoCAD 2000
 90
    32768
280
     0
281
     0
  0
CLASS
  1
LWPOLYLINE
  2
AcDbPolyline
  3
AutoCAD 2000
 90
    32768
280
     0
281
     1
  0
CLASS
  1
HATCH
  2
AcDbHatch
  3
AutoCAD 2000
 90
    32768
280
     0
281
     1
  0
CLASS
  1
XRECORD
  2
AcDbXrecord
  3
AutoCAD 2000
 90
    32768
280
     0
281
     0
  0
CLASS
  1
LONG_TRANSACTION
  2
AcDbLongTransaction
  3
AutoCAD 2000
 90
    32768
280
     0
281
     0
  0
CLASS
  1
LWPOLYLINE
  2
AcDbPolyline
  3
AutoCAD 2000
 90
    32768
280
     0
281
     1
  0
CLASS
  1
HATCH
  2
AcDbHatch
  3
AutoCAD 2000
 90
    32768
280
     0
281
     1
  0
CLASS
  1
XRECORD
  2
AcDbXrecord
  3
AutoCAD 2000
 90
    32768
280
     0
281
     0
  0
CLASS
  1
LONG_TRANSACTION
  2
AcDbLongTransaction
  3
AutoCAD 2000
 90
    32768
280
     0
281
     0
  0
CLASS
  1
LWPOLYLINE
  2
AcDbPolyline
  3
AutoCAD 2000
 90
    32768
280
     0
281
     1
  0
CLASS
  1
HATCH
  2
AcDbHatch
  3
AutoCAD 2000
 90
    32768
280
     0
281
     1
  0
CLASS
  1
XRECORD
  2
AcDbXrecord
  3
AutoCAD 2000
 90
    32768
280
     0
281
     0
  0
CLASS
  1
LONG_TRANSACTION
  2
AcDbLongTransaction
  3
AutoCAD 2000
 90
    32768
280
     0
281
     0
  0
CLASS
  1
LWPOLYLINE
  2
AcDbPolyline
  3
AutoCAD 2000
 90
    32768
280
     0
281
     1
  0
CLASS
  1
HATCH
  2
AcDbHatch
  3
AutoCAD 2000
 90
    32768
280
     0
281
     1
  0
CLASS
  1
XRECORD
  2
AcDbXrecord
  3
AutoCAD 2000
 90
    32768
280
     0
281
     0
  0
CLASS
  1
LONG_TRANSACTION
  2
AcDbLongTransaction
  3
AutoCAD 2000
 90
    32768
280
     0
281
     0
  0
CLASS
  1
LWPOLYLINE
  2
AcDbPolyline
  3
AutoCAD 2000
 90
    32768
280
     0
281
     1
  0
CLASS
  1
HATCH
  2
AcDbHatch
  3
AutoCAD 2000
 90
    32768
280
     0
281
     1
  0
CLASS
  1
XRECORD
  2
AcDbXrecord
  3
AutoCAD 2000
 90
    32768
280
     0
281
     0
  0
CLASS
  1
LONG_TRANSACTION
  2
AcDbLongTransaction
  3
AutoCAD 2000
 90
    32768
280
     0
281
     0
  0
CLASS
  1
LWPOLYLINE
  2
AcDbPolyline
  3
AutoCAD 2000
 90
    32768
280
     0
281
     1
  0
CLASS
  1
HATCH
  2
AcDbHatch
  3
AutoCAD 2000
 90
    32768
280
     0
281
     1
  0
CLASS
  1
XRECORD
  2
AcDbXrecord
  3
AutoCAD 2000
 90
    32768
280
     0
281
     0
  0
CLASS
  1
LONG_TRANSACTION
  2
AcDbLongTransaction
  3
AutoCAD 2000
 90
    32768
280
     0
281
     0
  0
CLASS
  1
LWPOLYLINE
  2
AcDbPolyline
  3
AutoCAD 2000
 90
    32768
280
     0
281
     1
  0
CLASS
  1
HATCH
  2
AcDbHatch
  3
AutoCAD 2000
 90
    32768
280
     0
281
     1
  0
CLASS
  1
XRECORD
  2
AcDbXrecord
  3
AutoCAD 2000
 90
    32768
280
     0
281
     0
  0
CLASS
  1
LONG_TRANSACTION
  2
AcDbLongTransaction
  3
AutoCAD 2000
 90
    32768
280
     0
281
     0
  0
CLASS
  1
LWPOLYLINE
  2
AcDbPolyline
  3
AutoCAD 2000
 90
    32768
280
     0
281
     1
  0
CLASS
  1
HATCH
  2
AcDbHatch
  3
AutoCAD 2000
 90
    32768
280
     0
281
     1
  0
CLASS
  1
XRECORD
  2
AcDbXrecord
  3
AutoCAD 2000
 90
    32768
280
     0
281
     0
  0
CLASS
  1
LONG_TRANSACTION
  2
AcDbLongTransaction
  3
AutoCAD 2000
 90
    32768
280
     0
281
     0
  0
CLASS
  1
LWPOLYLINE
  2
AcDbPolyline
  3
AutoCAD 2000
 90
    32768
280
     0
281
     1
  0
CLASS
  1
HATCH
  2
AcDbHatch
  3
AutoCAD 2000
 90
    32768
280
     0
281
     1
  0
CLASS
  1
XRECORD
  2
AcDbXrecord
  3
AutoCAD 2000
 90
    32768
280
     0
281
     0
  0
CLASS
  1
LONG_TRANSACTION
  2
AcDbLongTransaction
  3
AutoCAD 2000
 90
    32768
280
     0
281
     0
  0
CLASS
  1
LWPOLYLINE
  2
AcDbPolyline
  3
AutoCAD 2000
 90
    32768
280
     0
281
     1
  0
CLASS
  1
HATCH
  2
AcDbHatch
  3
AutoCAD 2000
 90
    32768
280
     0
281
     1
  0
CLASS
  1
XRECORD
  2
AcDbXrecord
  3
AutoCAD 2000
 90
    32768
280
     0
281
     0
  0
CLASS
  1
LONG_TRANSACTION
  2
AcDbLongTransaction
  3
AutoCAD 2000
 90
    32768
280
     0
281
     0
  0
CLASS
  1
LWPOLYLINE
  2
AcDbPolyline
  3
AutoCAD 2000
 90
    32768
280
     0
281
     1
  0
CLASS
  1
HATCH
  2
AcDbHatch
  3
AutoCAD 2000
 90
    32768
280
     0
281
     1
  0
CLASS
  1
XRECORD
  2
AcDbXrecord
  3
AutoCAD 2000
 90
    32768
280
     0
281
     0
  0
CLASS
  1
LONG_TRANSACTION
  2
AcDbLongTransaction
  3
AutoCAD 2000
 90
    32768
280
     0
281
     0
  0
CLASS
  1
LWPOLYLINE
  2
AcDbPolyline
  3
AutoCAD 2000
 90
    32768
280
     0
281
     1
  0
CLASS
  1
HATCH
  2
AcDbHatch
  3
AutoCAD 2000
 90
    32768
280
     0
281
     1
  0
CLASS
  1
XRECORD
  2
AcDbXrecord
  3
AutoCAD 2000
 90
    32768
280
     0
281
     0
  0
CLASS
  1
LONG_TRANSACTION
  2
AcDbLongTransaction
  3
AutoCAD 2000
 90
    32768
280
     0
281
     0
  0
CLASS
  1
LWPOLYLINE
  2
AcDbPolyline
  3
AutoCAD 2000
 90
    32768
280
     0
281
     1
  0
CLASS
  1
HATCH
  2
AcDbHatch
  3
AutoCAD 2000
 90
    32768
280
     0
281
     1
  0
CLASS
  1
XRECORD
  2
AcDbXrecord
  3
AutoCAD 2000
 90
    32768
280
     0
281
     0
  0
CLASS
  1
LONG_TRANSACTION
  2
AcDbLongTransaction
  3
AutoCAD 2000
 90
    32768
280
     0
281
     0
  0
CLASS
  1
LWPOLYLINE
  2
AcDbPolyline
  3
AutoCAD 2000
 90
    32768
280
     0
281
     1
  0
CLASS
  1
HATCH
  2
AcDbHatch
  3
AutoCAD 2000
 90
    32768
280
     0
281
     1
  0
CLASS
  1
XRECORD
  2
AcDbXrecord
  3
AutoCAD 2000
 90
    32768
280
     0
281
     0
  0
CLASS
  1
LONG_TRANSACTION
  2
AcDbLongTransaction
  3
AutoCAD 2000
 90
    32768
280
     0
281
     0
  0
CLASS
  1
LWPOLYLINE
  2
AcDbPolyline
  3
AutoCAD 2000
 90
    32768
280
     0
281
     1
  0
CLASS
  1
HATCH
  2
AcDbHatch
  3
AutoCAD 2000
 90
    32768
280
     0
281
     1
  0
CLASS
  1
XRECORD
  2
AcDbXrecord
  3
AutoCAD 2000
 90
    32768
280
     0
281
     0
  0
CLASS
  1
LONG_TRANSACTION
  2
AcDbLongTransaction
  3
AutoCAD 2000
 90
    32768
280
     0
281
     0
  0
CLASS
  1
LWPOLYLINE
  2
AcDbPolyline
  3
AutoCAD 2000
 90
    32768
280
     0
281
     1
  0
CLASS
  1
HATCH
  2
AcDbHatch
  3
AutoCAD 2000
 90
    32768
280
     0
281
     1
  0
CLASS
  1
XRECORD
  2
AcDbXrecord
  3
AutoCAD 2000
 90
    32768
280
     0
281
     0
  0
CLASS
  1
LONG_TRANSACTION
  2
AcDbLongTransaction
  3
AutoCAD 2000
 90
    32768
280
     0
281
     0
  0
CLASS
  1
LWPOLYLINE
  2
AcDbPolyline
  3
AutoCAD 2000
 90
    32768
280
     0
281
     1
  0
CLASS
  1
HATCH
  2
AcDbHatch
  3
AutoCAD 2000
 90
    32768
280
     0
281
     1
  0
CLASS
  1
XRECORD
  2
AcDbXrecord
  3
AutoCAD 2000
 90
    32768
280
     0
281
     0
  0
CLASS
  1
LONG_TRANSACTION
  2
AcDbLongTransaction
  3
AutoCAD 2000
 90
    32768
280
     0
281
     0
  0
CLASS
  1
LWPOLYLINE
  2
AcDbPolyline
  3
AutoCAD 2000
 90
    32768
280
     0
281
     1
  0
CLASS
  1
HATCH
  2
AcDbHatch
  3
AutoCAD 2000
 90
    32768
280
     0
281
     1
  0
CLASS
  1
XRECORD
  2
AcDbXrecord
  3
AutoCAD 2000
 90
    32768
280
     0
281
     0
  0
ENDSEC
  0
SECTION
  2
TABLES
  0
TABLE
  2
VPORT
  5
C36
330
0
100
AcDbSymbolTable
 70
     2
  0
VPORT
  5
60AB
330
C36
100
AcDbSymbolTableRecord
100
AcDbViewportTableRecord
  2
*ACTIVE
 70
     0
 10
0.0
 20
0.0
 11
1.0
 21
1.0
 12
504.9164510388904
 22
362.2591108004381
 13
0.0
 23
0.0
 14
1.0
 24
1.0
 15
0.0
 25
0.0
 16
0.0
 26
0.0
 36
1.0
 17
0.0
 27
0.0
 37
0.0
 40
734.8296556033409
 41
1.667838312829525
 42
50.0
 43
0.0
 44
0.0
 50
0.0
 51
0.0
 71
     0
 72
   100
 73
     1
 74
     0
 75
     0
 76
     0
 77
     0
 78
     0
  0
ENDTAB
  0
TABLE
  2
LTYPE
  5
C31
330
0
100
AcDbSymbolTable
 70
     2
  0
LTYPE
  5
C32
330
C31
100
AcDbSymbolTableRecord
100
AcDbLinetypeTableRecord
  2
BYBLOCK
 70
     0
  3

 72
    65
 73
     0
 40
0.0
  0
LTYPE
  5
C33
330
C31
100
AcDbSymbolTableRecord
100
AcDbLinetypeTableRecord
  2
BYLAYER
 70
     0
  3

 72
    65
 73
     0
 40
0.0
  0
LTYPE
  5
9
330
C31
100
AcDbSymbolTableRecord
100
AcDbLinetypeTableRecord
  2
CONTINUOUS
 70
     0
  3
Solid line
 72
    65
 73
     0
 40
0.0
  0
LTYPE
  5
16E
330
C31
100
AcDbSymbolTableRecord
100
AcDbLinetypeTableRecord
  2
CENTER
 70
     0
  3
----- - ----- - ----- - ----- - -----
 72
    65
 73
     4
 40
35.0
 49
30.0
 74
     0
 49
-1.5
 74
     0
 49
2.0
 74
     0
 49
-1.5
 74
     0
  0
ENDTAB
  0
TABLE
  2
LAYER
  5
C2E
330
0
100
AcDbSymbolTable
 70
     5
  0
LAYER
  5
12
330
C2E
100
AcDbSymbolTableRecord
100
AcDbLayerTableRecord
  2
0
 70
     0
 62
     7
  6
CONTINUOUS
  0
LAYER
  5
172
330
C2E
100
AcDbSymbolTableRecord
100
AcDbLayerTableRecord
  2
SUNPOU
 70
     0
 62
     3
  6
CONTINUOUS
  0
LAYER
  5
161
330
C2E
100
AcDbSymbolTableRecord
100
AcDbLayerTableRecord
  2
L-ZISSEN
 70
     0
 62
     7
  6
CONTINUOUS
  0
LAYER
  5
16D
330
C2E
100
AcDbSymbolTableRecord
100
AcDbLayerTableRecord
  2
L-TYUSIN
 70
     0
 62
     1
  6
CENTER
  0
LAYER
  5
522
330
C2E
100
AcDbSymbolTableRecord
100
AcDbLayerTableRecord
  2
L-SAISEN
 70
     0
 62
     6
  6
CONTINUOUS
  0
ENDTAB
  0
TABLE
  2
STYLE
  5
C2F
330
0
100
AcDbSymbolTable
 70
     2
  0
STYLE
  5
F
330
C2F
100
AcDbSymbolTableRecord
100
AcDbTextStyleTableRecord
  2
STANDARD
 70
     0
 40
0.0
 41
0.8
 50
0.0
 71
     0
 42
5.0
  3
C:\PROGRAM FILES\AUTOCAD LT\SIMPLEX
  4
BIGFONT.shx
  0
STYLE
  5
173
330
C2F
100
AcDbSymbolTableRecord
100
AcDbTextStyleTableRecord
  2
KANJI
 70
     0
 40
0.0
 41
0.8
 50
0.0
 71
     0
 42
1.5
  3
C:\Program Files\AutoCAD LT\ROMANS
  4
BIGFONT
  0
ENDTAB
  0
TABLE
  2
VIEW
  5
C34
330
0
100
AcDbSymbolTable
 70
     0
  0
ENDTAB
  0
TABLE
  2
UCS
  5
C35
330
0
100
AcDbSymbolTable
 70
     0
  0
ENDTAB
  0
TABLE
  2
APPID
  5
C38
330
0
100
AcDbSymbolTable
 70
     1
  0
APPID
  5
8
330
C38
100
AcDbSymbolTableRecord
100
AcDbRegAppTableRecord
  2
ACAD
 70
     0
  0
ENDTAB
  0
TABLE
  2
DIMSTYLE
  5
C39
330
0
100
AcDbSymbolTable
 70
     1
  0
DIMSTYLE
105
174
330
C39
100
AcDbSymbolTableRecord
100
AcDbDimStyleTableRecord
  2
STANDARD
 70
     0
  3

  4

  5

  6

  7

 40
1.0
 41
0.18
 42
0.0625
 43
0.38
 44
0.18
 45
0.0
 46
0.0
 47
0.0
 48
0.0
140
0.18
141
0.09
142
0.0
143
25.4
144
1.0
145
0.0
146
1.0
147
0.09
 71
     0
 72
     0
 73
     1
 74
     1
 75
     0
 76
     0
 77
     0
 78
     0
170
     0
171
     2
172
     0
173
     0
174
     0
175
     0
176
     0
177
     0
178
     0
270
     2
271
     4
272
     4
273
     2
274
     2
340
F
275
     0
280
     0
281
     0
282
     0
283
     1
284
     0
285
     0
286
     0
287
     3
288
     0
  0
ENDTAB
  0
TABLE
  2
BLOCK_RECORD
  5
1
330
0
100
AcDbSymbolTable
 70
     0
  0
BLOCK_RECORD
  5
2
102
{ACAD_XDICTIONARY
360
C22
102
}
330
1
100
AcDbSymbolTableRecord
100
AcDbBlockTableRecord
  2
*MODEL_SPACE
  0
BLOCK_RECORD
  5
C28
102
{ACAD_XDICTIONARY
360
C29
102
}
330
1
100
AcDbSymbolTableRecord
100
AcDbBlockTableRecord
  2
*PAPER_SPACE
  0
ENDTAB
  0
ENDSEC
  0
SECTION
  2
BLOCKS
  0
BLOCK
  5
C24
330
2
100
AcDbEntity
  8
0
100
AcDbBlockBegin
  2
*MODEL_SPACE
 70
     0
 10
0.0
 20
0.0
 30
0.0
  3
*MODEL_SPACE
  1

  0
ENDBLK
  5
C25
330
2
100
AcDbEntity
  8
0
100
AcDbBlockEnd
  0
BLOCK
  5
C2B
330
C28
100
AcDbEntity
 67
     1
  8
0
100
AcDbBlockBegin
  2
*PAPER_SPACE
 70
     0
 10
0.0
 20
0.0
 30
0.0
  3
*PAPER_SPACE
  1

  0
ENDBLK
  5
C2C
330
C28
100
AcDbEntity
 67
     1
  8
0
100
AcDbBlockEnd
  0
ENDSEC
  0
SECTION
  2
ENTITIES
  0
LINE
  5
3122
330
2
100
AcDbEntity
  8
L-ZISSEN
  6
CONTINUOUS
 62
     7
100
AcDbLine
 10
20.0
 20
153.6356055094875
 30
0.0
 11
30.0
 21
153.6356055094875
 31
0.0
  0
LINE
  5
3123
330
2
100
AcDbEntity
  8
L-ZISSEN
  6
CONTINUOUS
 62
     7
100
AcDbLine
 10
20.0
 20
169.6356055094875
 30
0.0
 11
30.0
 21
169.6356055094875
 31
0.0
  0
LINE
  5
3125
330
2
100
AcDbEntity
  8
L-ZISSEN
  6
CONTINUOUS
 62
     7
100
AcDbLine
 10
20.0
 20
44.6356055094875
 30
0.0
 11
30.0
 21
44.6356055094875
 31
0.0
  0
LINE
  5
3126
330
2
100
AcDbEntity
  8
L-ZISSEN
  6
CONTINUOUS
 62
     7
100
AcDbLine
 10
20.0
 20
28.6356055094875
 30
0.0
 11
30.0
 21
28.6356055094875
 31
0.0
  0
LINE
  5
312A
330
2
100
AcDbEntity
  8
L-ZISSEN
  6
CONTINUOUS
 62
     7
100
AcDbLine
 10
2.300000000001091
 20
24.1356055094875
 30
0.0
 11
2.300000000001091
 21
174.1356055094875
 31
0.0
  0
LINE
  5
312B
330
2
100
AcDbEntity
  8
L-ZISSEN
  6
CONTINUOUS
 62
     7
100
AcDbLine
 10
0.0
 20
174.1356055094875
 30
0.0
 11
0.0
 21
24.1356055094875
 31
0.0
  0
LINE
  5
312C
330
2
100
AcDbEntity
  8
L-ZISSEN
  6
CONTINUOUS
 62
     7
100
AcDbLine
 10
20.0
 20
174.1356055094875
 30
0.0
 11
20.0
 21
24.1356055094875
 31
0.0
  0
LINE
  5
312F
330
2
100
AcDbEntity
  8
L-ZISSEN
  6
CONTINUOUS
 62
     7
100
AcDbLine
 10
20.0
 20
24.1356055094875
 30
0.0
 11
0.0
 21
24.1356055094875
 31
0.0
  0
LINE
  5
3130
330
2
100
AcDbEntity
  8
L-TYUSIN
  6
CENTER
 62
     1
100
AcDbLine
 10
-9.096629184066841
 20
36.6356055094875
 30
0.0
 11
12.29887049199533
 21
36.6356055094875
 31
0.0
  0
LINE
  5
3131
330
2
100
AcDbEntity
  8
L-TYUSIN
  6
CENTER
 62
     1
100
AcDbLine
 10
-9.096629184066841
 20
161.6356055094875
 30
0.0
 11
12.29887049199533
 21
161.6356055094875
 31
0.0
  0
LINE
  5
3132
330
2
100
AcDbEntity
  8
L-ZISSEN
  6
CONTINUOUS
 62
     7
100
AcDbLine
 10
20.0
 20
174.1356055094875
 30
0.0
 11
0.0
 21
174.1356055094875
 31
0.0
  0
LINE
  5
313C
330
2
100
AcDbEntity
  8
L-ZISSEN
100
AcDbLine
 10
129.6174318339562
 20
302.522368520229
 30
0.0
 11
130.9996579454054
 21
270.1008013067385
 31
0.0
  0
ARC
  5
313D
330
2
100
AcDbEntity
  8
L-ZISSEN
100
AcDbCircle
 10
122.1383592451839
 20
286.7792072509655
 30
0.0
 40
12.32672730199301
100
AcDbArc
 50
239.9179892209701
 51
293.3149087369378
  0
ARC
  5
313E
330
2
100
AcDbEntity
  8
L-ZISSEN
100
AcDbCircle
 10
97.86164075481611
 20
286.7792072509655
 30
0.0
 40
12.32672730199301
100
AcDbArc
 50
246.6850912630621
 51
300.0820107790298
  0
LINE
  5
313F
330
2
100
AcDbEntity
  8
L-ZISSEN
100
AcDbLine
 10
89.00034205459268
 20
270.1008013067385
 30
0.0
 11
90.38256816604372
 21
302.5223685202272
 31
0.0
  0
LINE
  5
3140
330
2
100
AcDbEntity
  8
L-ZISSEN
100
AcDbLine
 10
148.6163973025868
 20
249.2322731584499
 30
0.0
 11
140.5860834840823
 21
325.6356055094875
 31
0.0
  0
LINE
  5
3141
330
2
100
AcDbEntity
  8
L-TYUSIN
  6
CENTER
 62
     1
 48
3.0
100
AcDbLine
 10
110.0
 20
309.2934252926334
 30
0.0
 11
110.0
 21
33.55502550948767
 31
0.0
  0
LINE
  5
3142
330
2
100
AcDbEntity
  8
L-ZISSEN
100
AcDbLine
 10
31.38360269741133
 20
249.2322731584499
 30
0.0
 11
39.41391651591766
 21
325.6356055094875
 31
0.0
  0
LINE
  5
3143
330
2
100
AcDbEntity
  8
L-ZISSEN
100
AcDbLine
 10
141.0194120943106
 20
215.8655245555055
 30
0.0
 11
142.5000220074016
 21
218.0799024153093
 31
0.0
  0
LINE
  5
3144
330
2
100
AcDbEntity
  8
L-ZISSEN
100
AcDbLine
 10
141.0194120943106
 20
189.1942584144199
 30
0.0
 11
142.5000220074016
 21
188.0047005066717
 31
0.0
  0
LINE
  5
3145
330
2
100
AcDbEntity
  8
L-ZISSEN
  6
CONTINUOUS
 62
     7
100
AcDbLine
 10
142.5000220074016
 20
228.9613341339354
 30
0.0
 11
139.23120256937
 21
229.6241661318727
 31
0.0
  0
LINE
  5
3146
330
2
100
AcDbEntity
  8
L-ZISSEN
100
AcDbLine
 10
138.0
 20
92.32840266092535
 30
0.0
 11
143.0
 21
96.32840266092536
 31
0.0
  0
ARC
  5
3147
330
2
100
AcDbEntity
  8
L-ZISSEN
100
AcDbCircle
 10
141.6568542494897
 20
102.3284026609253
 30
0.0
 40
1.0
100
AcDbArc
 50
270.0
 51
340.5287793654709
  0
LINE
  5
3148
330
2
100
AcDbEntity
  8
L-ZISSEN
100
AcDbLine
 10
143.0
 20
100.3284026609253
 30
0.0
 11
141.0
 21
100.3284026609253
 31
0.0
  0
ARC
  5
3149
330
2
100
AcDbEntity
  8
L-ZISSEN
100
AcDbCircle
 10
141.6568542494897
 20
106.3284026609253
 30
0.0
 40
1.0
100
AcDbArc
 50
19.47122063452908
 51
90.0
  0
ARC
  5
314A
330
2
100
AcDbEntity
  8
L-ZISSEN
100
AcDbCircle
 10
141.6568542494897
 20
128.3284026609253
 30
0.0
 40
1.0
100
AcDbArc
 50
19.47122063452908
 51
90.0
  0
ARC
  5
314B
330
2
100
AcDbEntity
  8
L-ZISSEN
100
AcDbCircle
 10
141.6568542494897
 20
124.3284026609253
 30
0.0
 40
1.0
100
AcDbArc
 50
270.0
 51
340.5287793654709
  0
LINE
  5
314C
330
2
100
AcDbEntity
  8
L-ZISSEN
100
AcDbLine
 10
143.0
 20
108.3284026609253
 30
0.0
 11
141.0
 21
108.3284026609253
 31
0.0
  0
LINE
  5
314D
330
2
100
AcDbEntity
  8
L-ZISSEN
100
AcDbLine
 10
143.0
 20
122.3284026609253
 30
0.0
 11
141.0
 21
122.3284026609253
 31
0.0
  0
LINE
  5
314E
330
2
100
AcDbEntity
  8
L-ZISSEN
100
AcDbLine
 10
143.0
 20
130.3284026609253
 30
0.0
 11
141.0
 21
130.3284026609253
 31
0.0
  0
LINE
  5
314F
330
2
100
AcDbEntity
  8
L-ZISSEN
100
AcDbLine
 10
143.0
 20
132.3284026609253
 30
0.0
 11
132.5527864044997
 21
137.5520094586754
 31
0.0
  0
LINE
  5
3150
330
2
100
AcDbEntity
  8
L-ZISSEN
100
AcDbLine
 10
140.5000000000018
 20
149.3284026609235
 30
0.0
 11
144.5000000000018
 21
147.3284026609253
 31
0.0
  0
LINE
  5
3151
330
2
100
AcDbEntity
  8
L-ZISSEN
100
AcDbLine
 10
144.5000000000018
 20
140.3284026609253
 30
0.0
 11
140.5000000000018
 21
140.3284026609253
 31
0.0
  0
ARC
  5
3152
330
2
100
AcDbEntity
  8
L-ZISSEN
100
AcDbCircle
 10
140.0
 20
161.6356055094875
 30
0.0
 40
8.750305284678873
100
AcDbArc
 50
276.5620001779598
 51
77.50739551043242
  0
LINE
  5
3153
330
2
100
AcDbEntity
  8
L-ZISSEN
  6
CONTINUOUS
 62
     7
100
AcDbLine
 10
150.1999999999989
 20
229.1356055094875
 30
0.0
 11
141.8928099999993
 21
229.1356055094875
 31
0.0
  0
ARC
  5
3154
330
2
100
AcDbEntity
  8
L-ZISSEN
100
AcDbCircle
 10
140.0
 20
36.6356055094875
 30
0.0
 40
8.750305284678873
100
AcDbArc
 50
270.0
 51
90.0
  0
LINE
  5
3155
330
2
100
AcDbEntity
  8
L-ZISSEN
  6
CONTINUOUS
 62
     7
100
AcDbLine
 10
30.0
 20
18.6356055094875
 30
0.0
 11
150.0
 21
18.6356055094875
 31
0.0
  0
LINE
  5
3156
330
2
100
AcDbEntity
  8
L-ZISSEN
100
AcDbLine
 10
142.5000220073998
 20
178.6655706629881
 30
0.0
 11
78.55471891352135
 21
178.5623378716245
 31
0.0
  0
LINE
  5
3157
330
2
100
AcDbEntity
  8
L-ZISSEN
100
AcDbLine
 10
101.5
 20
37.82840266092534
 30
0.0
 11
101.5
 21
76.32840266092535
 31
0.0
  0
LINE
  5
3158
330
2
100
AcDbEntity
  8
L-ZISSEN
100
AcDbLine
 10
110.0
 20
76.32840266092535
 30
0.0
 11
110.0
 21
37.82840266092534
 31
0.0
  0
LINE
  5
3159
330
2
100
AcDbEntity
  8
L-ZISSEN
100
AcDbLine
 10
118.5
 20
37.82840266092534
 30
0.0
 11
118.5
 21
76.32840266092535
 31
0.0
  0
LINE
  5
315A
330
2
100
AcDbEntity
  8
L-ZISSEN
  6
CONTINUOUS
 62
     7
100
AcDbLine
 10
30.0
 20
224.6356055094874
 30
0.0
 11
30.0
 21
18.6356055094875
 31
0.0
  0
LINE
  5
315B
330
2
100
AcDbEntity
  8
L-ZISSEN
100
AcDbLine
 10
140.0
 20
27.88530022480881
 30
0.0
 11
40.0
 21
27.88530022480881
 31
0.0
  0
LINE
  5
315C
330
2
100
AcDbEntity
  8
L-ZISSEN
100
AcDbLine
 10
101.5
 20
45.38591079416619
 30
0.0
 11
40.0
 21
45.38591079416619
 31
0.0
  0
ARC
  5
315D
330
2
100
AcDbEntity
  8
L-ZISSEN
100
AcDbCircle
 10
40.0
 20
36.6356055094875
 30
0.0
 40
8.750305284678873
100
AcDbArc
 50
90.0
 51
270.0
  0
LINE
  5
315E
330
2
100
AcDbEntity
  8
L-ZISSEN
100
AcDbLine
 10
101.5
 20
37.82840266092534
 30
0.0
 11
118.5
 21
37.82840266092534
 31
0.0
  0
LINE
  5
315F
330
2
100
AcDbEntity
  8
L-TYUSIN
  6
CENTER
 62
     1
100
AcDbLine
 10
110.0
 20
51.4915201504391
 30
0.0
 11
110.0
 21
45.84510784196754
 31
0.0
  0
LINE
  5
3160
330
2
100
AcDbEntity
  8
L-ZISSEN
100
AcDbLine
 10
140.0
 20
45.38591079416619
 30
0.0
 11
118.5
 21
45.38591079416619
 31
0.0
  0
LINE
  5
3161
330
2
100
AcDbEntity
  8
L-ZISSEN
100
AcDbLine
 10
81.48058790568757
 20
215.9959606619995
 30
0.0
 11
79.99997799259836
 21
218.2103385218051
 31
0.0
  0
LINE
  5
3162
330
2
100
AcDbEntity
  8
L-ZISSEN
100
AcDbLine
 10
81.48058790568757
 20
189.3246945209157
 30
0.0
 11
79.99997799259836
 21
188.1351366131675
 31
0.0
  0
LINE
  5
3163
330
2
100
AcDbEntity
  8
L-ZISSEN
  6
CONTINUOUS
 62
     7
100
AcDbLine
 10
79.99997799259836
 20
229.0917702404312
 30
0.0
 11
83.21013118458358
 21
229.7546022383685
 31
0.0
  0
LINE
  5
3164
330
2
100
AcDbEntity
  8
L-ZISSEN
100
AcDbLine
 10
140.5
 20
157.3284026609253
 30
0.0
 11
79.5
 21
157.3284026609253
 31
0.0
  0
LINE
  5
3165
330
2
100
AcDbEntity
  8
L-ZISSEN
100
AcDbLine
 10
140.5
 20
165.3284026609253
 30
0.0
 11
79.5
 21
165.3284026609253
 31
0.0
  0
LINE
  5
3166
330
2
100
AcDbEntity
  8
L-ZISSEN
100
AcDbLine
 10
140.5
 20
161.3284026609253
 30
0.0
 11
79.5
 21
161.3284026609253
 31
0.0
  0
LINE
  5
3167
330
2
100
AcDbEntity
  8
L-ZISSEN
100
AcDbLine
 10
86.60962242964705
 20
152.8853002248088
 30
0.0
 11
40.0
 21
152.8853002248088
 31
0.0
  0
LINE
  5
3168
330
2
100
AcDbEntity
  8
L-ZISSEN
100
AcDbLine
 10
78.5
 20
179.6356055094893
 30
0.0
 11
79.5
 21
165.3284026609253
 31
0.0
  0
ARC
  5
3169
330
2
100
AcDbEntity
  8
L-ZISSEN
100
AcDbCircle
 10
40.0
 20
161.6356055094875
 30
0.0
 40
8.750305284678873
100
AcDbArc
 50
90.0
 51
270.0
  0
LINE
  5
316A
330
2
100
AcDbEntity
  8
L-ZISSEN
100
AcDbLine
 10
79.5
 20
165.3284026609253
 30
0.0
 11
79.5
 21
157.3284026609253
 31
0.0
  0
CIRCLE
  5
316B
330
2
100
AcDbEntity
  8
L-ZISSEN
100
AcDbCircle
 10
60.0
 20
210.6356055094875
 30
0.0
 40
9.314999999999999
  0
LINE
  5
316C
330
2
100
AcDbEntity
  8
L-TYUSIN
  6
CENTER
 62
     1
100
AcDbLine
 10
45.00000000000182
 20
210.6356055094875
 30
0.0
 11
74.99999999999818
 21
210.6356055094875
 31
0.0
  0
LINE
  5
316D
330
2
100
AcDbEntity
  8
L-ZISSEN
  6
CONTINUOUS
 62
     7
100
AcDbLine
 10
78.5
 20
178.6356055094875
 30
0.0
 11
30.0
 21
178.6356055094875
 31
0.0
  0
LINE
  5
316E
330
2
100
AcDbEntity
  8
L-ZISSEN
  6
CONTINUOUS
 62
     7
100
AcDbLine
 10
80.0015133834113
 20
179.6358767577967
 30
0.0
 11
30.0
 21
179.6356055094875
 31
0.0
  0
LINE
  5
316F
330
2
100
AcDbEntity
  8
L-ZISSEN
100
AcDbLine
 10
79.13550703621694
 20
170.4313041538971
 30
0.0
 11
40.0
 21
170.3859107941662
 31
0.0
  0
CIRCLE
  5
3170
330
2
100
AcDbEntity
  8
L-SAISEN
 62
     6
100
AcDbCircle
 10
60.0
 20
210.6356055094875
 30
0.0
 40
10.48
  0
LINE
  5
3171
330
2
100
AcDbEntity
  8
L-ZISSEN
  6
CONTINUOUS
 62
     7
100
AcDbLine
 10
30.0
 20
224.6356055094874
 30
0.0
 11
78.5
 21
224.6356055094874
 31
0.0
  0
LINE
  5
3172
330
2
100
AcDbEntity
  8
L-ZISSEN
  6
CONTINUOUS
 62
     7
100
AcDbLine
 10
79.99997799259836
 20
229.1356055094875
 30
0.0
 11
29.79999999999927
 21
229.1356055094875
 31
0.0
  0
LINE
  5
3173
330
2
100
AcDbEntity
  8
L-ZISSEN
  6
CONTINUOUS
 62
     7
100
AcDbLine
 10
29.79999999999927
 20
229.0356055094871
 30
0.0
 11
29.79999999999927
 21
224.6356055094874
 31
0.0
  0
LINE
  5
3174
330
2
100
AcDbEntity
  8
L-ZISSEN
  6
CONTINUOUS
 62
     7
100
AcDbLine
 10
29.79999999999927
 20
229.1356055094875
 30
0.0
 11
29.79999999999927
 21
224.6356055094874
 31
0.0
  0
LINE
  5
3175
330
2
100
AcDbEntity
  8
L-ZISSEN
  6
CONTINUOUS
 62
     7
100
AcDbLine
 10
31.3840114284194
 20
249.2356055094878
 30
0.0
 11
31.03316462336261
 21
229.1356055094875
 31
0.0
  0
LINE
  5
3176
330
2
100
AcDbEntity
  8
L-ZISSEN
100
AcDbLine
 10
79.99997799259836
 20
229.0917702404312
 30
0.0
 11
79.99997799259836
 21
218.2103385218051
 31
0.0
  0
LINE
  5
3177
330
2
100
AcDbEntity
  8
L-TYUSIN
  6
CENTER
 62
     1
100
AcDbLine
 10
60.0
 20
195.6356055094893
 30
0.0
 11
60.0
 21
225.6356055094856
 31
0.0
  0
LINE
  5
3178
330
2
100
AcDbEntity
  8
L-ZISSEN
100
AcDbLine
 10
79.99997799259836
 20
188.1351366131675
 30
0.0
 11
80.00170689615151
 21
178.5646738775758
 31
0.0
  0
LINE
  5
3179
330
2
100
AcDbEntity
  8
L-ZISSEN
  6
CONTINUOUS
 62
     7
100
AcDbLine
 10
79.99997799259836
 20
218.2103385218051
 30
0.0
 11
79.99997799259836
 21
188.1351366131675
 31
0.0
  0
LINE
  5
317A
330
2
100
AcDbEntity
  8
L-ZISSEN
100
AcDbLine
 10
124.0
 20
165.3284026609253
 30
0.0
 11
124.0
 21
178.3284026609253
 31
0.0
  0
LINE
  5
317B
330
2
100
AcDbEntity
  8
L-ZISSEN
100
AcDbLine
 10
141.5010726742566
 20
178.6639579670882
 30
0.0
 11
140.5
 21
165.3284026609253
 31
0.0
  0
LINE
  5
317C
330
2
100
AcDbEntity
  8
L-ZISSEN
100
AcDbLine
 10
96.0
 20
165.3284026609253
 30
0.0
 11
96.0
 21
178.3284026609253
 31
0.0
  0
LINE
  5
317D
330
2
100
AcDbEntity
  8
L-ZISSEN
100
AcDbLine
 10
92.40651481909845
 20
83.32840266092535
 30
0.0
 11
127.5934851809015
 21
83.32840266092535
 31
0.0
  0
LINE
  5
317E
330
2
100
AcDbEntity
  8
L-ZISSEN
100
AcDbLine
 10
88.0
 20
92.32840266092535
 30
0.0
 11
138.0
 21
92.32840266092535
 31
0.0
  0
LINE
  5
317F
330
2
100
AcDbEntity
  8
L-ZISSEN
100
AcDbLine
 10
100.8198039027174
 20
78.32840266092535
 30
0.0
 11
119.1801960972807
 21
78.32840266092535
 31
0.0
  0
LINE
  5
3180
330
2
100
AcDbEntity
  8
L-ZISSEN
100
AcDbLine
 10
118.5
 20
76.32840266092535
 30
0.0
 11
101.5
 21
76.32840266092535
 31
0.0
  0
LINE
  5
3181
330
2
100
AcDbEntity
  8
L-ZISSEN
100
AcDbLine
 10
88.0
 20
92.32840266092535
 30
0.0
 11
86.54508904088652
 21
155.3745442225008
 31
0.0
  0
LINE
  5
3182
330
2
100
AcDbEntity
  8
L-ZISSEN
100
AcDbLine
 10
89.47795363854494
 20
85.67761128747042
 30
0.0
 11
88.0
 21
92.32840266092535
 31
0.0
  0
ARC
  5
3183
330
2
100
AcDbEntity
  8
L-ZISSEN
100
AcDbCircle
 10
92.40651481909845
 20
86.32840266092534
 30
0.0
 40
3.0
100
AcDbArc
 50
192.5288077091317
 51
270.0
  0
LINE
  5
3184
330
2
100
AcDbEntity
  8
L-ZISSEN
100
AcDbLine
 10
99.16077677297289
 20
82.52451879606452
 30
0.0
 11
99.8392232270271
 21
79.132286525788
 31
0.0
  0
ARC
  5
3185
330
2
100
AcDbEntity
  8
L-ZISSEN
100
AcDbCircle
 10
98.18019609728253
 20
82.32840266092535
 30
0.0
 40
1.0
100
AcDbArc
 50
11.30993247402532
 51
90.0
  0
ARC
  5
3186
330
2
100
AcDbEntity
  8
L-ZISSEN
100
AcDbCircle
 10
100.8198039027174
 20
79.32840266092535
 30
0.0
 40
1.0
100
AcDbArc
 50
191.3099324740253
 51
270.0
  0
LINE
  5
3187
330
2
100
AcDbEntity
  8
L-ZISSEN
100
AcDbLine
 10
104.0
 20
78.32840266092535
 30
0.0
 11
104.0
 21
76.32840266092535
 31
0.0
  0
LINE
  5
3188
330
2
100
AcDbEntity
  8
L-ZISSEN
100
AcDbLine
 10
82.0
 20
157.3284026609253
 30
0.0
 11
82.0
 21
161.3284026609253
 31
0.0
  0
ARC
  5
3189
330
2
100
AcDbEntity
  8
L-ZISSEN
100
AcDbCircle
 10
84.54562137265748
 20
155.3284026609253
 30
0.0
 40
2.0
100
AcDbArc
 50
1.321975659564734
 51
90.0
  0
LINE
  5
318A
330
2
100
AcDbEntity
  8
L-ZISSEN
100
AcDbLine
 10
132.0
 20
157.3284026609253
 30
0.0
 11
132.0
 21
92.32840266092535
 31
0.0
  0
LINE
  5
318B
330
2
100
AcDbEntity
  8
L-ZISSEN
100
AcDbLine
 10
130.0
 20
157.3284026609253
 30
0.0
 11
130.0
 21
92.32840266092535
 31
0.0
  0
LINE
  5
318C
330
2
100
AcDbEntity
  8
L-ZISSEN
100
AcDbLine
 10
123.0
 20
157.3284026609253
 30
0.0
 11
120.0
 21
92.32840266092535
 31
0.0
  0
LINE
  5
318D
330
2
100
AcDbEntity
  8
L-ZISSEN
100
AcDbLine
 10
141.5
 20
95.12840266092643
 30
0.0
 11
141.5
 21
100.3284026609253
 31
0.0
  0
LINE
  5
318E
330
2
100
AcDbEntity
  8
L-ZISSEN
100
AcDbLine
 10
116.0
 20
78.32840266092535
 30
0.0
 11
116.0
 21
76.32840266092535
 31
0.0
  0
LINE
  5
318F
330
2
100
AcDbEntity
  8
L-ZISSEN
100
AcDbLine
 10
130.522046361455
 20
85.67761128747042
 30
0.0
 11
132.0
 21
92.32840266092535
 31
0.0
  0
ARC
  5
3190
330
2
100
AcDbEntity
  8
L-ZISSEN
100
AcDbCircle
 10
127.5934851809015
 20
86.32840266092534
 30
0.0
 40
3.0
100
AcDbArc
 50
270.0
 51
347.4711922908682
  0
ARC
  5
3191
330
2
100
AcDbEntity
  8
L-ZISSEN
100
AcDbCircle
 10
121.8198039027174
 20
82.32840266092535
 30
0.0
 40
1.0
100
AcDbArc
 50
90.0
 51
168.6900675259746
  0
LINE
  5
3192
330
2
100
AcDbEntity
  8
L-ZISSEN
100
AcDbLine
 10
120.8392232270271
 20
82.52451879606452
 30
0.0
 11
120.160776772971
 21
79.132286525788
 31
0.0
  0
ARC
  5
3193
330
2
100
AcDbEntity
  8
L-ZISSEN
100
AcDbCircle
 10
119.1801960972807
 20
79.32840266092535
 30
0.0
 40
1.0
100
AcDbArc
 50
270.0
 51
348.6900675259746
  0
LINE
  5
3194
330
2
100
AcDbEntity
  8
L-ZISSEN
100
AcDbLine
 10
141.0
 20
100.3284026609253
 30
0.0
 11
141.0
 21
108.3284026609253
 31
0.0
  0
LINE
  5
3195
330
2
100
AcDbEntity
  8
L-ZISSEN
100
AcDbLine
 10
141.6568542494897
 20
101.3284026609253
 30
0.0
 11
141.0
 21
101.3284026609253
 31
0.0
  0
LINE
  5
3196
330
2
100
AcDbEntity
  8
L-ZISSEN
100
AcDbLine
 10
141.5
 20
130.3284026609253
 30
0.0
 11
141.5
 21
133.0784026609253
 31
0.0
  0
LINE
  5
3197
330
2
100
AcDbEntity
  8
L-ZISSEN
100
AcDbLine
 10
141.6568542494897
 20
107.3284026609253
 30
0.0
 11
141.0
 21
107.3284026609253
 31
0.0
  0
LINE
  5
3198
330
2
100
AcDbEntity
  8
L-ZISSEN
100
AcDbLine
 10
141.6568542494897
 20
123.3284026609253
 30
0.0
 11
141.0
 21
123.3284026609253
 31
0.0
  0
LINE
  5
3199
330
2
100
AcDbEntity
  8
L-ZISSEN
100
AcDbLine
 10
141.6568542494897
 20
129.3284026609253
 30
0.0
 11
141.0
 21
129.3284026609253
 31
0.0
  0
LINE
  5
319A
330
2
100
AcDbEntity
  8
L-ZISSEN
100
AcDbLine
 10
141.0
 20
122.3284026609253
 30
0.0
 11
141.0
 21
130.3284026609253
 31
0.0
  0
LINE
  5
319B
330
2
100
AcDbEntity
  8
L-ZISSEN
100
AcDbLine
 10
141.5
 20
108.3284026609253
 30
0.0
 11
141.5
 21
122.3284026609253
 31
0.0
  0
LINE
  5
319C
330
2
100
AcDbEntity
  8
L-ZISSEN
100
AcDbLine
 10
137.0
 20
146.3284026609253
 30
0.0
 11
140.5000000000018
 21
140.3284026609253
 31
0.0
  0
LINE
  5
319D
330
2
100
AcDbEntity
  8
L-ZISSEN
100
AcDbLine
 10
137.0
 20
146.3284026609253
 30
0.0
 11
140.5
 21
152.3284026609253
 31
0.0
  0
LINE
  5
319E
330
2
100
AcDbEntity
  8
L-ZISSEN
100
AcDbLine
 10
137.0
 20
135.3284026609253
 30
0.0
 11
137.0
 21
146.3284026609253
 31
0.0
  0
LINE
  5
319F
330
2
100
AcDbEntity
  8
L-ZISSEN
100
AcDbLine
 10
138.0
 20
157.3284026609253
 30
0.0
 11
138.0
 21
161.3284026609253
 31
0.0
  0
LINE
  5
31A0
330
2
100
AcDbEntity
  8
L-ZISSEN
100
AcDbLine
 10
140.5
 20
165.3284026609253
 30
0.0
 11
140.5
 21
149.3284026609235
 31
0.0
  0
LINE
  5
31A1
330
2
100
AcDbEntity
  8
L-ZISSEN
100
AcDbLine
 10
130.9996579454054
 20
270.1008013067385
 30
0.0
 11
110.4374069505484
 21
270.0991974048775
 31
0.0
  0
LINE
  5
31A2
330
2
100
AcDbEntity
  8
L-ZISSEN
100
AcDbLine
 10
110.0
 20
215.732494545613
 30
0.0
 11
128.0
 21
215.732494545613
 31
0.0
  0
LINE
  5
31A3
330
2
100
AcDbEntity
  8
L-ZISSEN
100
AcDbLine
 10
110.0
 20
220.5941033949275
 30
0.0
 11
128.0
 21
220.5941033949275
 31
0.0
  0
LINE
  5
31A4
330
2
100
AcDbEntity
  8
L-TYUSIN
  6
CENTER
 62
     1
100
AcDbLine
 10
123.0300379833006
 20
202.1356055094875
 30
0.0
 11
96.96996201669936
 21
202.1356055094875
 31
0.0
  0
LINE
  5
31A5
330
2
100
AcDbEntity
  8
L-ZISSEN
100
AcDbLine
 10
110.0
 20
183.0627019269249
 30
0.0
 11
128.0
 21
183.0627019269249
 31
0.0
  0
LINE
  5
31A6
330
2
100
AcDbEntity
  8
L-ZISSEN
100
AcDbLine
 10
110.0
 20
187.9243107762395
 30
0.0
 11
128.0
 21
187.9243107762395
 31
0.0
  0
CIRCLE
  5
31A7
330
2
100
AcDbEntity
  8
L-ZISSEN
100
AcDbCircle
 10
110.0
 20
202.1356055094875
 30
0.0
 40
7.474999999999999
  0
CIRCLE
  5
31A8
330
2
100
AcDbEntity
  8
L-SAISEN
 62
     6
100
AcDbCircle
 10
110.0
 20
202.1356055094875
 30
0.0
 40
8.33
  0
LINE
  5
31A9
330
2
100
AcDbEntity
  8
L-ZISSEN
100
AcDbLine
 10
128.470469222806
 20
255.0233333500673
 30
0.0
 11
93.97086453114752
 21
255.0233333500673
 31
0.0
  0
LINE
  5
31AA
330
2
100
AcDbEntity
  8
L-ZISSEN
100
AcDbLine
 10
117.5609096401949
 20
249.4481625313983
 30
0.0
 11
89.87624562457313
 21
249.4481625313983
 31
0.0
  0
LINE
  5
31AB
330
2
100
AcDbEntity
  8
L-ZISSEN
100
AcDbLine
 10
127.0476646664792
 20
263.9897952555311
 30
0.0
 11
110.0
 21
263.9897952555311
 31
0.0
  0
LINE
  5
31AC
330
2
100
AcDbEntity
  8
L-ZISSEN
100
AcDbLine
 10
124.2377237710079
 20
266.8512421035829
 30
0.0
 11
110.0
 21
266.8512421035829
 31
0.0
  0
LINE
  5
31AD
330
2
100
AcDbEntity
  8
L-ZISSEN
100
AcDbLine
 10
123.1439324395978
 20
268.0186271817747
 30
0.0
 11
110.7924626875155
 21
268.0186271817747
 31
0.0
  0
LINE
  5
31AE
330
2
100
AcDbEntity
  8
L-ZISSEN
100
AcDbLine
 10
110.0
 20
224.6356055094874
 30
0.0
 11
127.0
 21
224.6356055094874
 31
0.0
  0
LINE
  5
31AF
330
2
100
AcDbEntity
  8
L-ZISSEN
  6
CONTINUOUS
 62
     7
100
AcDbLine
 10
83.21013118458358
 20
237.9706996684017
 30
0.0
 11
139.23120256937
 21
237.9706996684017
 31
0.0
  0
LINE
  5
31B0
330
2
100
AcDbEntity
  8
L-ZISSEN
100
AcDbLine
 10
84.51338525694518
 20
229.6241661318727
 30
0.0
 11
139.23120256937
 21
229.6241661318727
 31
0.0
  0
LINE
  5
31B1
330
2
100
AcDbEntity
  8
L-ZISSEN
100
AcDbLine
 10
89.00034205459268
 20
270.1008013067385
 30
0.0
 11
109.5625930494516
 21
270.0991974048775
 31
0.0
  0
LINE
  5
31B2
330
2
100
AcDbEntity
  8
L-ZISSEN
100
AcDbLine
 10
110.4374069505484
 20
270.0991974048775
 30
0.0
 11
110.0
 21
270.0991974048775
 31
0.0
  0
LINE
  5
31B3
330
2
100
AcDbEntity
  8
L-ZISSEN
100
AcDbLine
 10
109.5625930494516
 20
270.0991974048775
 30
0.0
 11
110.0
 21
270.0991974048775
 31
0.0
  0
LINE
  5
31B4
330
2
100
AcDbEntity
  8
L-ZISSEN
100
AcDbLine
 10
92.0
 20
223.6356055094875
 30
0.0
 11
92.0
 21
212.1998832943445
 31
0.0
  0
LINE
  5
31B5
330
2
100
AcDbEntity
  8
L-ZISSEN
100
AcDbLine
 10
110.0
 20
187.9243107762395
 30
0.0
 11
92.0
 21
187.9243107762395
 31
0.0
  0
LINE
  5
31B6
330
2
100
AcDbEntity
  8
L-ZISSEN
100
AcDbLine
 10
110.0
 20
183.0627019269249
 30
0.0
 11
92.0
 21
183.0627019269249
 31
0.0
  0
LINE
  5
31B7
330
2
100
AcDbEntity
  8
L-ZISSEN
100
AcDbLine
 10
110.0
 20
215.732494545613
 30
0.0
 11
92.0
 21
215.732494545613
 31
0.0
  0
LINE
  5
31B8
330
2
100
AcDbEntity
  8
L-ZISSEN
100
AcDbLine
 10
110.0
 20
220.5941033949275
 30
0.0
 11
92.0
 21
220.5941033949275
 31
0.0
  0
ARC
  5
31B9
330
2
100
AcDbEntity
  8
L-ZISSEN
100
AcDbCircle
 10
88.66987298107778
 20
209.1225330251545
 30
0.0
 40
1.0
100
AcDbArc
 50
120.0000000000103
 51
180.0
  0
LINE
  5
31BA
330
2
100
AcDbEntity
  8
L-ZISSEN
100
AcDbLine
 10
87.66987298107778
 20
209.1225330251545
 30
0.0
 11
87.66987298107778
 21
201.8284026609253
 31
0.0
  0
LINE
  5
31BB
330
2
100
AcDbEntity
  8
L-ZISSEN
100
AcDbLine
 10
92.0
 20
212.1998832943445
 30
0.0
 11
88.16987298107779
 21
209.9885584289404
 31
0.0
  0
LINE
  5
31BC
330
2
100
AcDbEntity
  8
L-ZISSEN
100
AcDbLine
 10
92.0
 20
179.0211998123631
 30
0.0
 11
92.0
 21
191.4569220275061
 31
0.0
  0
LINE
  5
31BD
330
2
100
AcDbEntity
  8
L-ZISSEN
100
AcDbLine
 10
92.0
 20
179.0211998123631
 30
0.0
 11
92.0
 21
178.6655706629881
 31
0.0
  0
ARC
  5
31BE
330
2
100
AcDbEntity
  8
L-ZISSEN
100
AcDbCircle
 10
88.66987298107778
 20
194.5342722966961
 30
0.0
 40
1.0
100
AcDbArc
 50
180.0
 51
239.9999999999896
  0
LINE
  5
31BF
330
2
100
AcDbEntity
  8
L-ZISSEN
100
AcDbLine
 10
88.16987298107779
 20
193.668246892912
 30
0.0
 11
92.0
 21
191.4569220275061
 31
0.0
  0
LINE
  5
31C0
330
2
100
AcDbEntity
  8
L-ZISSEN
100
AcDbLine
 10
87.66987298107778
 20
194.5342722966961
 30
0.0
 11
87.66987298107778
 21
201.8284026609253
 31
0.0
  0
LINE
  5
31C1
330
2
100
AcDbEntity
  8
L-ZISSEN
100
AcDbLine
 10
95.39366908747433
 20
263.9897952555311
 30
0.0
 11
109.9413337539535
 21
263.9897952555311
 31
0.0
  0
LINE
  5
31C2
330
2
100
AcDbEntity
  8
L-ZISSEN
100
AcDbLine
 10
93.97086453114752
 20
262.7843996123865
 30
0.0
 11
93.97086453114752
 21
255.0233333500673
 31
0.0
  0
LINE
  5
31C3
330
2
100
AcDbEntity
  8
L-ZISSEN
100
AcDbLine
 10
95.39366908747433
 20
263.9897952555311
 30
0.0
 11
93.97086453114752
 21
262.7843996123865
 31
0.0
  0
LINE
  5
31C4
330
2
100
AcDbEntity
  8
L-ZISSEN
100
AcDbLine
 10
98.26227622899205
 20
266.8512421035829
 30
0.0
 11
110.0
 21
266.8512421035829
 31
0.0
  0
LINE
  5
31C5
330
2
100
AcDbEntity
  8
L-ZISSEN
100
AcDbLine
 10
99.35606756040215
 20
268.0186271817747
 30
0.0
 11
109.2075373124844
 21
268.0186271817747
 31
0.0
  0
LINE
  5
31C6
330
2
100
AcDbEntity
  8
L-ZISSEN
100
AcDbLine
 10
109.2075373124844
 20
268.0186271817747
 30
0.0
 11
110.7924626875155
 21
268.0186271817747
 31
0.0
  0
LINE
  5
31C7
330
2
100
AcDbEntity
  8
L-ZISSEN
100
AcDbLine
 10
99.35606756040215
 20
265.8644749184695
 30
0.0
 11
99.35606756040215
 21
263.9897952555311
 31
0.0
  0
LINE
  5
31C8
330
2
100
AcDbEntity
  8
L-ZISSEN
100
AcDbLine
 10
98.26227622899205
 20
266.8512421035829
 30
0.0
 11
98.26227622899205
 21
263.9897952555311
 31
0.0
  0
LINE
  5
31C9
330
2
100
AcDbEntity
  8
L-ZISSEN
100
AcDbLine
 10
99.35606756040215
 20
268.0186271817747
 30
0.0
 11
98.26227622899205
 21
266.8512421035829
 31
0.0
  0
LINE
  5
31CA
330
2
100
AcDbEntity
  8
L-ZISSEN
100
AcDbLine
 10
110.0
 20
224.6356055094874
 30
0.0
 11
93.0
 21
224.6356055094874
 31
0.0
  0
ARC
  5
31CB
330
2
100
AcDbEntity
  8
L-ZISSEN
100
AcDbCircle
 10
93.0
 20
223.6356055094875
 30
0.0
 40
1.0
100
AcDbArc
 50
90.0
 51
180.0
  0
LINE
  5
31CC
330
2
100
AcDbEntity
  8
L-ZISSEN
100
AcDbLine
 10
99.35606756040215
 20
270.0921532112042
 30
0.0
 11
99.35606756040215
 21
265.8644749184695
 31
0.0
  0
LINE
  5
31CD
330
2
100
AcDbEntity
  8
L-ZISSEN
100
AcDbLine
 10
81.48058790568757
 20
215.9959606619995
 30
0.0
 11
81.48058790568757
 21
189.3246945209157
 31
0.0
  0
LINE
  5
31CE
330
2
100
AcDbEntity
  8
L-ZISSEN
100
AcDbLine
 10
83.21013118458358
 20
252.0257040594715
 30
0.0
 11
83.21013118458358
 21
237.9706996684017
 31
0.0
  0
ARC
  5
31CF
330
2
100
AcDbEntity
  8
L-ZISSEN
100
AcDbCircle
 10
84.21013118458359
 20
252.0256529513499
 30
0.0
 40
1.0
100
AcDbArc
 50
101.4522094010447
 51
180.0
  0
LINE
  5
31D0
330
2
100
AcDbEntity
  8
L-ZISSEN
100
AcDbLine
 10
83.23946430760589
 20
247.2940102680913
 30
0.0
 11
83.23946430760589
 21
249.8715006880429
 31
0.0
  0
ARC
  5
31D1
330
2
100
AcDbEntity
  8
L-ZISSEN
100
AcDbCircle
 10
84.21006868458244
 20
252.0257040594715
 30
0.0
 40
0.9999375
100
AcDbArc
 50
101.4522094010447
 51
180.0
  0
LINE
  5
31D2
330
2
100
AcDbEntity
  8
L-ZISSEN
100
AcDbLine
 10
83.21013118458358
 20
229.7546022383685
 30
0.0
 11
84.51338525694518
 21
229.6241661318727
 31
0.0
  0
LINE
  5
31D3
330
2
100
AcDbEntity
  8
L-ZISSEN
100
AcDbLine
 10
83.21013118458358
 20
237.9706996684017
 30
0.0
 11
83.21013118458358
 21
229.7546022383685
 31
0.0
  0
LINE
  5
31D4
330
2
100
AcDbEntity
  8
L-ZISSEN
100
AcDbLine
 10
83.21013118458358
 20
237.9706996684017
 30
0.0
 11
89.60432644169122
 21
237.9706996684017
 31
0.0
  0
LINE
  5
31D5
330
2
100
AcDbEntity
  8
L-ZISSEN
100
AcDbLine
 10
83.23946430760589
 20
249.4481625313983
 30
0.0
 11
89.87624562457313
 21
249.4481625313983
 31
0.0
  0
LINE
  5
31D6
330
2
100
AcDbEntity
  8
L-ZISSEN
100
AcDbLine
 10
93.97086453114752
 20
255.0233333500673
 30
0.0
 11
84.01158067785763
 21
253.0057436085225
 31
0.0
  0
LINE
  5
31D7
330
2
100
AcDbEntity
  8
L-ZISSEN
100
AcDbLine
 10
128.0
 20
223.6356055094875
 30
0.0
 11
128.0
 21
212.1998832943445
 31
0.0
  0
ARC
  5
31D8
330
2
100
AcDbEntity
  8
L-ZISSEN
100
AcDbCircle
 10
131.3301270189222
 20
209.1225330251545
 30
0.0
 40
1.0
100
AcDbArc
 50
0.0
 51
59.99999999998969
  0
LINE
  5
31D9
330
2
100
AcDbEntity
  8
L-ZISSEN
100
AcDbLine
 10
132.3301270189222
 20
209.1225330251545
 30
0.0
 11
132.3301270189222
 21
201.8284026609253
 31
0.0
  0
LINE
  5
31DA
330
2
100
AcDbEntity
  8
L-ZISSEN
100
AcDbLine
 10
128.0
 20
212.1998832943445
 30
0.0
 11
131.8301270189222
 21
209.9885584289404
 31
0.0
  0
LINE
  5
31DB
330
2
100
AcDbEntity
  8
L-ZISSEN
100
AcDbLine
 10
128.0
 20
179.0211998123631
 30
0.0
 11
128.0
 21
191.4569220275061
 31
0.0
  0
LINE
  5
31DC
330
2
100
AcDbEntity
  8
L-ZISSEN
100
AcDbLine
 10
128.0
 20
179.0211998123631
 30
0.0
 11
128.0
 21
178.6655706629881
 31
0.0
  0
ARC
  5
31DD
330
2
100
AcDbEntity
  8
L-ZISSEN
100
AcDbCircle
 10
131.3301270189222
 20
194.5342722966961
 30
0.0
 40
1.0
100
AcDbArc
 50
300.0000000000103
 51
0.0
  0
LINE
  5
31DE
330
2
100
AcDbEntity
  8
L-ZISSEN
100
AcDbLine
 10
131.8301270189222
 20
193.668246892912
 30
0.0
 11
128.0
 21
191.4569220275061
 31
0.0
  0
LINE
  5
31DF
330
2
100
AcDbEntity
  8
L-ZISSEN
100
AcDbLine
 10
141.0194120943106
 20
215.8655245555055
 30
0.0
 11
141.0194120943106
 21
189.1942584144199
 31
0.0
  0
LINE
  5
31E0
330
2
100
AcDbEntity
  8
L-ZISSEN
100
AcDbLine
 10
132.3301270189222
 20
194.5342722966961
 30
0.0
 11
132.3301270189222
 21
201.8284026609253
 31
0.0
  0
LINE
  5
31E1
330
2
100
AcDbEntity
  8
L-ZISSEN
100
AcDbLine
 10
139.23120256937
 20
249.4481625313983
 30
0.0
 11
139.23120256937
 21
237.9706996684017
 31
0.0
  0
LINE
  5
31E2
330
2
100
AcDbEntity
  8
L-ZISSEN
100
AcDbLine
 10
139.23120256937
 20
249.4481625313983
 30
0.0
 11
117.5609096401949
 21
249.4481625313983
 31
0.0
  0
LINE
  5
31E3
330
2
100
AcDbEntity
  8
L-ZISSEN
100
AcDbLine
 10
128.470469222806
 20
255.0233333500673
 30
0.0
 11
138.4298031666894
 21
253.0057334609791
 31
0.0
  0
LINE
  5
31E4
330
2
100
AcDbEntity
  8
L-ZISSEN
100
AcDbLine
 10
123.1439324395978
 20
268.0186271817747
 30
0.0
 11
124.2377237710079
 21
266.8512421035829
 31
0.0
  0
LINE
  5
31E5
330
2
100
AcDbEntity
  8
L-ZISSEN
100
AcDbLine
 10
124.2377237710079
 20
266.8512421035829
 30
0.0
 11
124.2377237710079
 21
263.9897952555311
 31
0.0
  0
LINE
  5
31E6
330
2
100
AcDbEntity
  8
L-ZISSEN
100
AcDbLine
 10
123.1439324395978
 20
265.8644749184695
 30
0.0
 11
123.1439324395978
 21
263.9897952555311
 31
0.0
  0
LINE
  5
31E7
330
2
100
AcDbEntity
  8
L-ZISSEN
100
AcDbLine
 10
124.2083906479838
 20
263.9897952555311
 30
0.0
 11
127.0476646664792
 21
263.9897952555311
 31
0.0
  0
LINE
  5
31E8
330
2
100
AcDbEntity
  8
L-ZISSEN
100
AcDbLine
 10
127.0476646664792
 20
263.9897952555311
 30
0.0
 11
128.470469222806
 21
262.7843996123865
 31
0.0
  0
LINE
  5
31E9
330
2
100
AcDbEntity
  8
L-ZISSEN
100
AcDbLine
 10
128.470469222806
 20
262.7843996123865
 30
0.0
 11
128.470469222806
 21
255.0233333500673
 31
0.0
  0
LINE
  5
31EA
330
2
100
AcDbEntity
  8
L-ZISSEN
100
AcDbLine
 10
139.23120256937
 20
252.0257040594715
 30
0.0
 11
139.23120256937
 21
249.4481625313983
 31
0.0
  0
ARC
  5
31EB
330
2
100
AcDbEntity
  8
L-ZISSEN
100
AcDbCircle
 10
138.2312650693693
 20
252.0257040594715
 30
0.0
 40
0.9999375
100
AcDbArc
 50
0.0
 51
78.54779059895526
  0
ARC
  5
31EC
330
2
100
AcDbEntity
  8
L-ZISSEN
100
AcDbCircle
 10
127.0
 20
223.6356055094875
 30
0.0
 40
1.0
100
AcDbArc
 50
0.0
 51
90.0
  0
LINE
  5
31ED
330
2
100
AcDbEntity
  8
L-ZISSEN
100
AcDbLine
 10
139.23120256937
 20
229.7546022383685
 30
0.0
 11
139.23120256937
 21
229.6241661318727
 31
0.0
  0
LINE
  5
31EE
330
2
100
AcDbEntity
  8
L-ZISSEN
100
AcDbLine
 10
139.23120256937
 20
237.9706996684017
 30
0.0
 11
139.23120256937
 21
229.7546022383685
 31
0.0
  0
LINE
  5
31EF
330
2
100
AcDbEntity
  8
L-ZISSEN
100
AcDbLine
 10
123.1439324395978
 20
270.0921532112042
 30
0.0
 11
123.1439324395978
 21
265.8644749184695
 31
0.0
  0
LINE
  5
31F0
330
2
100
AcDbEntity
  8
L-ZISSEN
100
AcDbLine
 10
169.9641016151379
 20
61.13560550948932
 30
0.0
 11
169.9641016151379
 21
52.13560550948932
 31
0.0
  0
LINE
  5
31F1
330
2
100
AcDbEntity
  8
L-ZISSEN
100
AcDbLine
 10
173.4282032302755
 20
61.13560550948932
 30
0.0
 11
173.4282032302755
 21
52.13560550948932
 31
0.0
  0
LINE
  5
31F2
330
2
100
AcDbEntity
  8
L-ZISSEN
100
AcDbLine
 10
163.0358983848623
 20
61.13560550948932
 30
0.0
 11
163.0358983848623
 21
52.13560550948932
 31
0.0
  0
LINE
  5
31F3
330
2
100
AcDbEntity
  8
L-ZISSEN
100
AcDbLine
 10
159.5717967697246
 20
61.13560550948932
 30
0.0
 11
159.5717967697246
 21
52.13560550948932
 31
0.0
  0
LINE
  5
31F4
330
2
100
AcDbEntity
  8
L-ZISSEN
  6
CONTINUOUS
 62
     7
100
AcDbLine
 10
150.0
 20
18.6356055094875
 30
0.0
 11
150.0
 21
194.8284026609253
 31
0.0
  0
LINE
  5
31F5
330
2
100
AcDbEntity
  8
L-ZISSEN
100
AcDbLine
 10
159.5717967697246
 20
52.13560550948932
 30
0.0
 11
173.4282032302755
 21
52.13560550948932
 31
0.0
  0
POLYLINE
  5
31F6
330
2
100
AcDbEntity
  8
L-ZISSEN
100
AcDb2dPolyline
 66
     1
 10
0.0
 20
0.0
 30
0.0
 70
     1
  0
VERTEX
  5
60AE
330
31F6
100
AcDbEntity
  8
L-ZISSEN
100
AcDbVertex
100
AcDb2dVertex
 10
162.9927391525689
 20
36.11945855338035
 30
0.0
  0
VERTEX
  5
60AF
330
31F6
100
AcDbEntity
  8
L-ZISSEN
100
AcDbVertex
100
AcDb2dVertex
 10
169.0624122143099
 20
36.11945855338035
 30
0.0
  0
VERTEX
  5
60B0
330
31F6
100
AcDbEntity
  8
L-ZISSEN
100
AcDbVertex
100
AcDb2dVertex
 10
169.0624122143099
 20
42.34294081478402
 30
0.0
  0
VERTEX
  5
60B1
330
31F6
100
AcDbEntity
  8
L-ZISSEN
100
AcDbVertex
100
AcDb2dVertex
 10
162.9927391525689
 20
42.34294081478402
 30
0.0
  0
SEQEND
  5
60B2
330
31F6
100
AcDbEntity
  8
L-ZISSEN
  0
ARC
  5
31F7
330
2
100
AcDbEntity
  8
L-ZISSEN
100
AcDbCircle
 10
160.25
 20
44.88560550948841
 30
0.0
 40
2.0
100
AcDbArc
 50
270.0
 51
0.0
  0
ARC
  5
31F8
330
2
100
AcDbEntity
  8
L-ZISSEN
100
AcDbCircle
 10
168.75
 20
36.3856055094875
 30
0.0
 40
2.0
100
AcDbArc
 50
270.0
 51
0.0
  0
LINE
  5
31F9
330
2
100
AcDbEntity
  8
L-ZISSEN
100
AcDbLine
 10
150.0
 20
42.88560550948841
 30
0.0
 11
160.25
 21
42.88560550948841
 31
0.0
  0
LINE
  5
31FA
330
2
100
AcDbEntity
  8
L-ZISSEN
100
AcDbLine
 10
150.0
 20
34.38560550948841
 30
0.0
 11
168.75
 21
34.3856055094875
 31
0.0
  0
LINE
  5
31FB
330
2
100
AcDbEntity
  8
L-ZISSEN
100
AcDbLine
 10
162.25
 20
52.13560550948932
 30
0.0
 11
162.25
 21
44.88560550948841
 31
0.0
  0
LINE
  5
31FC
330
2
100
AcDbEntity
  8
L-ZISSEN
100
AcDbLine
 10
170.75
 20
52.13560550948932
 30
0.0
 11
170.75
 21
36.3856055094875
 31
0.0
  0
ARC
  5
31FD
330
2
100
AcDbEntity
  8
L-ZISSEN
100
AcDbCircle
 10
196.8254096681191
 20
164.5891113835296
 30
0.0
 40
3.0
100
AcDbArc
 50
345.0000000000055
 51
75.00000000000555
  0
LINE
  5
31FE
330
2
100
AcDbEntity
  8
L-ZISSEN
100
AcDbLine
 10
155.3233126277969
 20
160.3856055094884
 30
0.0
 11
159.4611976534015
 21
175.8284026609253
 31
0.0
  0
LINE
  5
31FF
330
2
100
AcDbEntity
  8
L-ZISSEN
100
AcDbLine
 10
169.5
 20
93.63560550948751
 30
0.0
 11
174.8336124878971
 21
93.63560550948751
 31
0.0
  0
LINE
  5
3200
330
2
100
AcDbEntity
  8
L-ZISSEN
100
AcDbLine
 10
159.5717967697246
 20
61.13560550948932
 30
0.0
 11
173.4282032302755
 21
61.13560550948932
 31
0.0
  0
LINE
  5
3201
330
2
100
AcDbEntity
  8
L-ZISSEN
100
AcDbLine
 10
159.5717967697246
 20
142.6356055094875
 30
0.0
 11
173.4282032302755
 21
142.6356055094875
 31
0.0
  0
LINE
  5
3202
330
2
100
AcDbEntity
  8
L-ZISSEN
100
AcDbLine
 10
159.5717967697246
 20
133.6356055094874
 30
0.0
 11
173.4282032302755
 21
133.6356055094874
 31
0.0
  0
LINE
  5
3203
330
2
100
AcDbEntity
  8
L-ZISSEN
100
AcDbLine
 10
170.75
 20
148.7999203773924
 30
0.0
 11
194.0291681547314
 21
142.562286069864
 31
0.0
  0
LINE
  5
3204
330
2
100
AcDbEntity
  8
L-ZISSEN
100
AcDbLine
 10
170.5771241597324
 20
159.199004123282
 30
0.0
 11
196.6173586057575
 21
152.221544332755
 31
0.0
  0
LINE
  5
3205
330
2
100
AcDbEntity
  8
L-ZISSEN
100
AcDbLine
 10
170.75
 20
157.0821298206719
 30
0.0
 11
196.0997205155526
 21
150.2896926801768
 31
0.0
  0
LINE
  5
3206
330
2
100
AcDbEntity
  8
L-ZISSEN
  6
CONTINUOUS
 62
     7
100
AcDbLine
 10
152.0
 20
61.6356055094875
 30
0.0
 11
152.0
 21
146.6356055094875
 31
0.0
  0
LINE
  5
3207
330
2
100
AcDbEntity
  8
L-ZISSEN
100
AcDbLine
 10
150.0
 20
61.6356055094875
 30
0.0
 11
152.0
 21
61.6356055094875
 31
0.0
  0
LINE
  5
3208
330
2
100
AcDbEntity
  8
L-ZISSEN
100
AcDbLine
 10
152.0
 20
93.63560550948751
 30
0.0
 11
163.4999999999999
 21
93.63560550948751
 31
0.0
  0
LINE
  5
3209
330
2
100
AcDbEntity
  8
L-ZISSEN
100
AcDbLine
 10
153.5310597710576
 20
146.6356055094875
 30
0.0
 11
150.0
 21
146.6356055094875
 31
0.0
  0
LINE
  5
320A
330
2
100
AcDbEntity
  8
L-ZISSEN
100
AcDbLine
 10
153.5310597710576
 20
146.6356055094875
 30
0.0
 11
154.93779303132
 21
151.8856055094884
 31
0.0
  0
LINE
  5
320B
330
2
100
AcDbEntity
  8
L-ZISSEN
100
AcDbLine
 10
170.0
 20
128.6356055094875
 30
0.0
 11
170.0
 21
133.6356055094874
 31
0.0
  0
LINE
  5
320C
330
2
100
AcDbEntity
  8
L-ZISSEN
100
AcDbLine
 10
163.0
 20
128.6356055094875
 30
0.0
 11
163.0
 21
133.6356055094874
 31
0.0
  0
LINE
  5
320D
330
2
100
AcDbEntity
  8
L-ZISSEN
100
AcDbLine
 10
163.0
 20
66.13560550948932
 30
0.0
 11
170.0
 21
66.13560550948932
 31
0.0
  0
LINE
  5
320E
330
2
100
AcDbEntity
  8
L-ZISSEN
100
AcDbLine
 10
170.0
 20
66.13560550948932
 30
0.0
 11
170.0
 21
61.13560550948932
 31
0.0
  0
LINE
  5
320F
330
2
100
AcDbEntity
  8
L-ZISSEN
100
AcDbLine
 10
163.0
 20
66.13560550948932
 30
0.0
 11
163.0
 21
61.13560550948932
 31
0.0
  0
LINE
  5
3210
330
2
100
AcDbEntity
  8
L-ZISSEN
100
AcDbLine
 10
163.0
 20
128.6356055094875
 30
0.0
 11
170.0
 21
128.6356055094875
 31
0.0
  0
LINE
  5
3211
330
2
100
AcDbEntity
  8
L-ZISSEN
  6
CONTINUOUS
 62
     7
 48
3.0
100
AcDbLine
 10
163.4999999999999
 20
128.6356055094875
 30
0.0
 11
163.4999999999999
 21
66.13560550948932
 31
0.0
  0
LINE
  5
3212
330
2
100
AcDbEntity
  8
L-ZISSEN
  6
CONTINUOUS
 62
     7
 48
3.0
100
AcDbLine
 10
169.5
 20
128.6356055094875
 30
0.0
 11
169.5
 21
66.13560550948932
 31
0.0
  0
POLYLINE
  5
3213
330
2
100
AcDbEntity
  8
L-ZISSEN
100
AcDb2dPolyline
 66
     1
 10
0.0
 20
0.0
 30
0.0
 70
     1
  0
VERTEX
  5
60B3
330
3213
100
AcDbEntity
  8
L-ZISSEN
100
AcDbVertex
100
AcDb2dVertex
 10
162.9927391525689
 20
158.6517524655964
 30
0.0
  0
VERTEX
  5
60B4
330
3213
100
AcDbEntity
  8
L-ZISSEN
100
AcDbVertex
100
AcDb2dVertex
 10
169.0624122143099
 20
158.6517524655964
 30
0.0
  0
VERTEX
  5
60B5
330
3213
100
AcDbEntity
  8
L-ZISSEN
100
AcDbVertex
100
AcDb2dVertex
 10
169.0624122143099
 20
152.4282702041928
 30
0.0
  0
VERTEX
  5
60B6
330
3213
100
AcDbEntity
  8
L-ZISSEN
100
AcDbVertex
100
AcDb2dVertex
 10
162.9927391525689
 20
152.4282702041928
 30
0.0
  0
SEQEND
  5
60B7
330
3213
100
AcDbEntity
  8
L-ZISSEN
  0
ARC
  5
3214
330
2
100
AcDbEntity
  8
L-ZISSEN
100
AcDbCircle
 10
160.25
 20
149.8856055094884
 30
0.0
 40
2.0
100
AcDbArc
 50
0.0
 51
90.0
  0
LINE
  5
3215
330
2
100
AcDbEntity
  8
L-ZISSEN
100
AcDbLine
 10
150.0
 20
160.3856055094884
 30
0.0
 11
168.75
 21
160.3856055094893
 31
0.0
  0
LINE
  5
3216
330
2
100
AcDbEntity
  8
L-ZISSEN
100
AcDbLine
 10
150.0
 20
151.8856055094884
 30
0.0
 11
160.25
 21
151.8856055094884
 31
0.0
  0
LINE
  5
3217
330
2
100
AcDbEntity
  8
L-ZISSEN
100
AcDbLine
 10
169.9641016151379
 20
133.6356055094874
 30
0.0
 11
169.9641016151379
 21
142.6356055094875
 31
0.0
  0
LINE
  5
3218
330
2
100
AcDbEntity
  8
L-ZISSEN
100
AcDbLine
 10
170.75
 20
142.6356055094875
 30
0.0
 11
170.75
 21
158.3856055094893
 31
0.0
  0
LINE
  5
3219
330
2
100
AcDbEntity
  8
L-ZISSEN
100
AcDbLine
 10
163.0358983848623
 20
133.6356055094874
 30
0.0
 11
163.0358983848623
 21
142.6356055094875
 31
0.0
  0
LINE
  5
321A
330
2
100
AcDbEntity
  8
L-ZISSEN
100
AcDbLine
 10
159.5717967697246
 20
133.6356055094874
 30
0.0
 11
159.5717967697246
 21
142.6356055094875
 31
0.0
  0
LINE
  5
321B
330
2
100
AcDbEntity
  8
L-ZISSEN
100
AcDbLine
 10
162.25
 20
142.6356055094875
 30
0.0
 11
162.25
 21
149.8856055094884
 31
0.0
  0
ARC
  5
321C
330
2
100
AcDbEntity
  8
L-ZISSEN
100
AcDbCircle
 10
168.75
 20
158.3856055094893
 30
0.0
 40
2.0
100
AcDbArc
 50
0.0
 51
90.0
  0
LINE
  5
321D
330
2
100
AcDbEntity
  8
L-ZISSEN
100
AcDbLine
 10
143.0
 20
100.3284026609253
 30
0.0
 11
143.0
 21
96.32840266092536
 31
0.0
  0
ARC
  5
321E
330
2
100
AcDbEntity
  8
L-ZISSEN
100
AcDbCircle
 10
136.0
 20
104.3284026609253
 30
0.0
 40
7.0
100
AcDbArc
 50
340.5287793654709
 51
19.47122063452908
  0
LINE
  5
321F
330
2
100
AcDbEntity
  8
L-ZISSEN
100
AcDbLine
 10
143.0
 20
132.3284026609253
 30
0.0
 11
143.0
 21
130.3284026609253
 31
0.0
  0
ARC
  5
3220
330
2
100
AcDbEntity
  8
L-ZISSEN
100
AcDbCircle
 10
136.0
 20
126.3284026609253
 30
0.0
 40
7.0
100
AcDbArc
 50
340.5287793654709
 51
19.47122063452908
  0
LINE
  5
3221
330
2
100
AcDbEntity
  8
L-ZISSEN
100
AcDbLine
 10
143.0
 20
122.3284026609253
 30
0.0
 11
143.0
 21
108.3284026609253
 31
0.0
  0
LINE
  5
3222
330
2
100
AcDbEntity
  8
L-ZISSEN
100
AcDbLine
 10
144.5000000000018
 20
140.3284026609253
 30
0.0
 11
144.5000000000018
 21
147.3284026609253
 31
0.0
  0
LINE
  5
3223
330
2
100
AcDbEntity
  8
L-ZISSEN
100
AcDbLine
 10
179.6632416193426
 20
97.34151028397537
 30
0.0
 11
191.9307701692341
 21
143.1245501154771
 31
0.0
  0
LINE
  5
3224
330
2
100
AcDbEntity
  8
L-ZISSEN
100
AcDbLine
 10
173.4282032302755
 20
133.6356055094874
 30
0.0
 11
173.4282032302755
 21
142.6356055094875
 31
0.0
  0
ARC
  5
3225
330
2
100
AcDbEntity
  8
L-ZISSEN
100
AcDbCircle
 10
174.8336124878971
 20
98.63560550948751
 30
0.0
 40
5.0
100
AcDbArc
 50
270.0
 51
345.0000000000055
  0
LINE
  5
3226
330
2
100
AcDbEntity
  8
L-ZISSEN
100
AcDbLine
 10
194.0291681547314
 20
142.562286069864
 30
0.0
 11
199.7231871469864
 21
163.8126542482223
 31
0.0
  0
LINE
  5
3227
330
2
100
AcDbEntity
  8
L-ZISSEN
  6
CONTINUOUS
 62
     7
100
AcDbLine
 10
174.5000220073998
 20
175.8284026609253
 30
0.0
 11
156.5000220073998
 21
175.8284026609253
 31
0.0
  0
LINE
  5
3228
330
2
100
AcDbEntity
  8
L-ZISSEN
  6
CONTINUOUS
 62
     7
100
AcDbLine
 10
174.5000220073998
 20
227.8284026609253
 30
0.0
 11
156.5000220073998
 21
227.8284026609253
 31
0.0
  0
LINE
  5
3229
330
2
100
AcDbEntity
  8
L-ZISSEN
100
AcDbLine
 10
166.4709134952809
 20
175.8284026609253
 30
0.0
 11
197.6018668034266
 21
167.4868888623968
 31
0.0
  0
LINE
  5
322A
330
2
100
AcDbEntity
  8
L-ZISSEN
  6
CONTINUOUS
 62
     7
100
AcDbLine
 10
150.0
 20
208.8284026609253
 30
0.0
 11
150.0
 21
224.6356055094874
 31
0.0
  0
LINE
  5
322B
330
2
100
AcDbEntity
  8
L-ZISSEN
  6
CONTINUOUS
 62
     7
100
AcDbLine
 10
156.5000220073998
 20
175.8284026609253
 30
0.0
 11
156.5000220073998
 21
227.8284026609253
 31
0.0
  0
LINE
  5
322C
330
2
100
AcDbEntity
  8
L-ZISSEN
  6
CONTINUOUS
 62
     7
100
AcDbLine
 10
150.1999999999989
 20
229.1356055094875
 30
0.0
 11
150.1999999999989
 21
224.6356055094874
 31
0.0
  0
LINE
  5
322D
330
2
100
AcDbEntity
  8
L-ZISSEN
  6
CONTINUOUS
 62
     7
100
AcDbLine
 10
150.1999999999989
 20
229.0356055094871
 30
0.0
 11
150.1999999999989
 21
224.6356055094874
 31
0.0
  0
LINE
  5
322E
330
2
100
AcDbEntity
  8
L-ZISSEN
  6
CONTINUOUS
 62
     7
100
AcDbLine
 10
148.6159885715787
 20
249.2356055094878
 30
0.0
 11
148.9668353766373
 21
229.1356055094875
 31
0.0
  0
LINE
  5
322F
330
2
100
AcDbEntity
  8
L-ZISSEN
100
AcDbLine
 10
142.5000220074016
 20
228.9613341339354
 30
0.0
 11
142.5000220074016
 21
218.0799024153093
 31
0.0
  0
LINE
  5
3230
330
2
100
AcDbEntity
  8
L-ZISSEN
100
AcDbLine
 10
142.5000220074016
 20
188.0047005066717
 30
0.0
 11
142.5000220074016
 21
178.6356055094875
 31
0.0
  0
LINE
  5
3231
330
2
100
AcDbEntity
  8
L-ZISSEN
  6
CONTINUOUS
 62
     7
100
AcDbLine
 10
142.5000220074016
 20
218.0799024153093
 30
0.0
 11
142.5000220074016
 21
188.0047005066717
 31
0.0
  0
LINE
  5
3232
330
2
100
AcDbEntity
  8
L-ZISSEN
  6
CONTINUOUS
 62
     7
100
AcDbLine
 10
142.5000220074016
 20
208.8284026609253
 30
0.0
 11
156.5000220073998
 21
208.8284026609253
 31
0.0
  0
LINE
  5
3233
330
2
100
AcDbEntity
  8
L-ZISSEN
  6
CONTINUOUS
 62
     7
100
AcDbLine
 10
142.5000220074016
 20
194.8284026609253
 30
0.0
 11
156.5000220073998
 21
194.8284026609253
 31
0.0
  0
LINE
  5
3234
330
2
100
AcDbEntity
  8
L-ZISSEN
  6
CONTINUOUS
 62
     7
100
AcDbLine
 10
150.0
 20
178.6356055094875
 30
0.0
 11
142.5000220074016
 21
178.6356055094875
 31
0.0
  0
LINE
  5
3235
330
2
100
AcDbEntity
  8
L-ZISSEN
  6
CONTINUOUS
 62
     7
100
AcDbLine
 10
150.0
 20
179.6356055094875
 30
0.0
 11
142.5000220074016
 21
179.6356055094875
 31
0.0
  0
LINE
  5
3236
330
2
100
AcDbEntity
  8
L-ZISSEN
  6
CONTINUOUS
 62
     7
100
AcDbLine
 10
142.5000220073998
 20
224.6356055094874
 30
0.0
 11
150.1999999999989
 21
224.6356055094874
 31
0.0
  0
LINE
  5
3237
330
2
100
AcDbEntity
  8
L-ZISSEN
  6
CONTINUOUS
 62
     7
100
AcDbLine
 10
180.5000220073998
 20
174.8284026609253
 30
0.0
 11
180.5000220073998
 21
228.8284026609253
 31
0.0
  0
LINE
  5
3238
330
2
100
AcDbEntity
  8
L-ZISSEN
  6
CONTINUOUS
 62
     7
100
AcDbLine
 10
174.5000220073998
 20
174.8284026609253
 30
0.0
 11
174.5000220073998
 21
228.8284026609253
 31
0.0
  0
LINE
  5
3239
330
2
100
AcDbEntity
  8
L-ZISSEN
  6
CONTINUOUS
 62
     7
100
AcDbLine
 10
180.5000220073998
 20
174.8284026609253
 30
0.0
 11
174.5000220073998
 21
174.8284026609253
 31
0.0
  0
LINE
  5
323A
330
2
100
AcDbEntity
  8
L-ZISSEN
  6
CONTINUOUS
 62
     7
100
AcDbLine
 10
180.5000220073998
 20
228.8284026609253
 30
0.0
 11
174.5000220073998
 21
228.8284026609253
 31
0.0
  0
LINE
  5
3240
330
2
100
AcDbEntity
  8
L-ZISSEN
  6
CONTINUOUS
 62
     7
100
AcDbLine
 10
39.41391651591766
 20
325.6356055094875
 30
0.0
 11
140.5860834840823
 21
325.6356055094875
 31
0.0
  0
LINE
  5
3241
330
2
100
AcDbEntity
  8
L-ZISSEN
100
AcDbLine
 10
110.0
 20
302.5223685202272
 30
0.0
 11
114.0000945729516
 21
302.522368520229
 31
0.0
  0
LINE
  5
3242
330
2
100
AcDbEntity
  8
L-ZISSEN
100
AcDbLine
 10
95.67829516250094
 20
305.8284026609253
 30
0.0
 11
124.321704837499
 21
305.8284026609253
 31
0.0
  0
LINE
  5
3243
330
2
100
AcDbEntity
  8
L-ZISSEN
100
AcDbLine
 10
94.93798374996003
 20
276.1127811751466
 30
0.0
 11
104.0402782054807
 21
276.1127811751466
 31
0.0
  0
LINE
  5
3244
330
2
100
AcDbEntity
  8
L-ZISSEN
100
AcDbLine
 10
95.40380171225297
 20
303.9078667926296
 30
0.0
 11
105.5786941697933
 21
303.9435509834838
 31
0.0
  0
LINE
  5
3245
330
2
100
AcDbEntity
  8
L-ZISSEN
100
AcDbLine
 10
92.98291346197947
 20
275.4590382601854
 30
0.0
 11
92.98291346197947
 21
302.5223685202272
 31
0.0
  0
LINE
  5
3246
330
2
100
AcDbEntity
  8
L-ZISSEN
100
AcDbLine
 10
94.93798374996003
 20
276.1127811751466
 30
0.0
 11
95.40380171225297
 21
303.9078667926296
 31
0.0
  0
LINE
  5
3247
330
2
100
AcDbEntity
  8
L-ZISSEN
100
AcDbLine
 10
94.93798374996003
 20
276.1127811751466
 30
0.0
 11
92.98291346197947
 21
275.4590382601854
 31
0.0
  0
LINE
  5
3248
330
2
100
AcDbEntity
  8
L-ZISSEN
100
AcDbLine
 10
95.67829516250094
 20
305.8284026609253
 30
0.0
 11
90.38256816604372
 21
302.5223685202272
 31
0.0
  0
LINE
  5
3249
330
2
100
AcDbEntity
  8
L-ZISSEN
100
AcDbLine
 10
95.40380171225297
 20
303.9078667926296
 30
0.0
 11
92.98291346197947
 21
302.5223685202272
 31
0.0
  0
LINE
  5
324A
330
2
100
AcDbEntity
  8
L-ZISSEN
100
AcDbLine
 10
105.5786941697933
 20
303.9435509834838
 30
0.0
 11
104.0402782054807
 21
276.1127811751466
 31
0.0
  0
LINE
  5
324B
330
2
100
AcDbEntity
  8
L-ZISSEN
100
AcDbLine
 10
104.0402782054807
 20
276.1127811751466
 30
0.0
 11
105.9999054270483
 21
302.522368520229
 31
0.0
  0
LINE
  5
324C
330
2
100
AcDbEntity
  8
L-ZISSEN
100
AcDbLine
 10
105.9999054270483
 20
302.522368520229
 30
0.0
 11
105.5786941697933
 21
303.9435509834838
 31
0.0
  0
LINE
  5
324D
330
2
100
AcDbEntity
  8
L-ZISSEN
100
AcDbLine
 10
110.0
 20
302.5223685202272
 30
0.0
 11
105.9999054270483
 21
302.522368520229
 31
0.0
  0
LINE
  5
324E
330
2
100
AcDbEntity
  8
L-ZISSEN
100
AcDbLine
 10
125.0620162500381
 20
276.1127811751466
 30
0.0
 11
124.596198287747
 21
303.9078667926296
 31
0.0
  0
LINE
  5
324F
330
2
100
AcDbEntity
  8
L-ZISSEN
100
AcDbLine
 10
127.0170865380205
 20
275.4590382601854
 30
0.0
 11
127.0170865380205
 21
302.5223685202272
 31
0.0
  0
LINE
  5
3250
330
2
100
AcDbEntity
  8
L-ZISSEN
100
AcDbLine
 10
125.0620162500381
 20
276.1127811751466
 30
0.0
 11
115.9597217945192
 21
276.1127811751466
 31
0.0
  0
LINE
  5
3251
330
2
100
AcDbEntity
  8
L-ZISSEN
100
AcDbLine
 10
125.0620162500381
 20
276.1127811751466
 30
0.0
 11
127.0170865380205
 21
275.4590382601854
 31
0.0
  0
LINE
  5
3252
330
2
100
AcDbEntity
  8
L-ZISSEN
100
AcDbLine
 10
124.321704837499
 20
305.8284026609253
 30
0.0
 11
129.6174318339562
 21
302.522368520229
 31
0.0
  0
LINE
  5
3253
330
2
100
AcDbEntity
  8
L-ZISSEN
100
AcDbLine
 10
124.596198287747
 20
303.9078667926296
 30
0.0
 11
127.0170865380205
 21
302.5223685202272
 31
0.0
  0
LINE
  5
3254
330
2
100
AcDbEntity
  8
L-ZISSEN
100
AcDbLine
 10
114.0000945729516
 20
302.522368520229
 30
0.0
 11
114.4213058302066
 21
303.9435509834838
 31
0.0
  0
LINE
  5
3255
330
2
100
AcDbEntity
  8
L-ZISSEN
100
AcDbLine
 10
115.9597217945192
 20
276.1127811751466
 30
0.0
 11
114.0000945729516
 21
302.522368520229
 31
0.0
  0
LINE
  5
3256
330
2
100
AcDbEntity
  8
L-ZISSEN
100
AcDbLine
 10
114.4213058302066
 20
303.9435509834838
 30
0.0
 11
115.9597217945192
 21
276.1127811751466
 31
0.0
  0
LINE
  5
3257
330
2
100
AcDbEntity
  8
L-ZISSEN
100
AcDbLine
 10
124.596198287747
 20
303.9078667926296
 30
0.0
 11
114.4213058302066
 21
303.9435509834838
 31
0.0
  0
SPLINE
  5
34D0
330
2
100
AcDbEntity
  8
L-ZISSEN
100
AcDbSpline
 70
     0
 71
     3
 72
    13
 73
     9
 74
     0
 42
0.0000000001
 43
0.0000000001
 40
0.0
 40
0.0
 40
0.0
 40
0.0
 40
9.928572615188244
 40
38.56275744996336
 40
50.85496204100572
 40
59.39476674951374
 40
77.18282380266227
 40
86.76701447599922
 40
86.76701447599922
 40
86.76701447599922
 40
86.76701447599922
 10
554.9742318292283
 20
135.1739032513342
 30
-0.5694010038975306
 10
553.5514572995798
 20
132.149982705243
 30
-0.3513163572839789
 10
548.0253750298142
 20
120.4050200518486
 30
0.4957283949550536
 10
546.4127205139848
 20
104.8169007502983
 30
-0.0753105264970312
 10
549.0032611120077
 20
84.36871743982919
 30
0.008280117130178
 10
564.845684379914
 20
85.99090547807282
 30
-0.0043088276563323
 10
570.2145625090106
 20
98.11842380706549
 30
0.0007635655181909
 10
570.820468920725
 20
108.5051192263253
 30
0.0000778889607859
 10
573.3726591906106
 20
110.3796703771531
 30
0.0
  0
SPLINE
  5
34D1
330
2
100
AcDbEntity
  8
L-ZISSEN
100
AcDbSpline
 70
     0
 71
     3
 72
    13
 73
     9
 74
     0
 42
0.0000000001
 43
0.0000000001
 40
0.0
 40
0.0
 40
0.0
 40
0.0
 40
9.928572615188244
 40
38.56275744996336
 40
50.85496204100572
 40
59.39476674951374
 40
77.18282380266227
 40
86.76701447599922
 40
86.76701447599922
 40
86.76701447599922
 40
86.76701447599922
 10
556.4986369314338
 20
134.7930647389548
 30
-0.5694010038975306
 10
555.0758624017853
 20
131.7691441928636
 30
-0.3513163572839789
 10
549.5497801320198
 20
120.0241815394692
 30
0.4957283949550536
 10
547.9371256161903
 20
104.436062237919
 30
-0.0753105264970312
 10
550.5276662142132
 20
83.98787892744985
 30
0.008280117130178
 10
566.3700894821195
 20
85.61006696569348
 30
-0.0043088276563323
 10
571.7389676112161
 20
97.73758529468615
 30
0.0007635655181909
 10
572.3448740229305
 20
108.124280713946
 30
0.0000778889607859
 10
574.8970642928161
 20
109.9988318647738
 30
0.0
  0
SPLINE
  5
34D2
330
2
100
AcDbEntity
  8
L-ZISSEN
100
AcDbSpline
 70
     0
 71
     3
 72
    13
 73
     9
 74
     0
 42
0.0000000001
 43
0.0000000001
 40
0.0
 40
0.0
 40
0.0
 40
0.0
 40
9.928572615188244
 40
38.56275744996336
 40
50.85496204100572
 40
59.39476674951374
 40
77.18282380266227
 40
86.76701447599922
 40
86.76701447599922
 40
86.76701447599922
 40
86.76701447599922
 10
555.864264730093
 20
135.2156916317326
 30
-0.5694010038975306
 10
554.4414902004445
 20
132.1917710856414
 30
-0.3513163572839789
 10
548.915407930679
 20
120.446808432247
 30
0.4957283949550536
 10
547.3027534148496
 20
104.8586891306968
 30
-0.0753105264970312
 10
549.8932940128725
 20
84.41050582022763
 30
0.008280117130178
 10
565.7357172807787
 20
86.03269385847125
 30
-0.0043088276563323
 10
571.1045954098754
 20
98.16021218746392
 30
0.0007635655181909
 10
571.7105018215898
 20
108.5469076067238
 30
0.0000778889607859
 10
574.2626920914753
 20
110.4214587575515
 30
0.0
  0
SPLINE
  5
34D3
330
2
100
AcDbEntity
  8
L-ZISSEN
100
AcDbSpline
210
0.0
220
0.0
230
1.0
 70
     8
 71
     3
 72
    10
 73
     6
 74
     0
 42
0.0000000001
 43
0.0000000001
 40
24.66373336901028
 40
24.66373336901028
 40
24.66373336901028
 40
24.66373336901028
 40
25.33818239653314
 40
25.33818239653314
 40
30.17207221915925
 40
30.17207221915925
 40
30.17207221915925
 40
30.17207221915925
 10
560.3437825472719
 20
147.9429157411668
 30
-0.5694010038975306
 10
560.255577903672
 20
147.7377177463422
 30
-0.5694010038975306
 10
560.1678513964507
 20
147.5313910322911
 30
-0.5694010038975306
 10
559.454794798592
 20
145.8431711934627
 30
-0.5694010038975306
 10
558.8505642133295
 20
144.3420894761948
 30
-0.5694010038975306
 10
558.2454604988797
 20
142.8353344737333
 30
-0.5694010038975306
  0
LINE
  5
34D4
330
2
100
AcDbEntity
  8
L-ZISSEN
100
AcDbLine
 10
560.1365929634994
 20
142.5018767961282
 30
-0.5694010038975306
 11
554.3416115098097
 21
143.5236883791185
 31
-0.5694010038975306
  0
LINE
  5
34D5
330
2
100
AcDbEntity
  8
L-ZISSEN
100
AcDbLine
 10
560.1365929634994
 20
142.5018767961282
 30
-0.5694010038975306
 11
558.7617554569387
 21
134.7047858402383
 31
-0.5694010038975306
  0
SPLINE
  5
34D6
330
2
100
AcDbEntity
  8
L-ZISSEN
100
AcDbSpline
210
0.0
220
0.0
230
1.0
 70
     8
 71
     3
 72
    10
 73
     6
 74
     0
 42
0.0000000001
 43
0.0000000001
 40
23.95395712898136
 40
23.95395712898136
 40
23.95395712898136
 40
23.95395712898136
 40
25.33818239653314
 40
25.33818239653314
 40
30.40581887583977
 40
30.40581887583977
 40
30.40581887583977
 40
30.40581887583977
 10
559.6959337602875
 20
148.9587610144608
 30
-0.5694010038975306
 10
559.5127041052474
 20
148.544191395702
 30
-0.5694010038975306
 10
559.3317514317168
 20
148.121554442152
 30
-0.5694010038975306
 10
558.4965554293976
 20
146.1441595696251
 30
-0.5694010038975306
 10
557.8641976368799
 20
144.5694997483387
 30
-0.5694010038975306
 10
557.2296902279595
 20
142.9893432492135
 30
-0.5694010038975306
  0
LINE
  5
34D7
330
2
100
AcDbEntity
  8
L-ZISSEN
100
AcDbLine
 10
554.3416115098097
 20
143.5236883791185
 30
-0.5694010038975306
 11
552.9667740032473
 21
135.7265974232286
 31
-0.5694010038975306
  0
LINE
  5
34D8
330
2
100
AcDbEntity
  8
L-ZISSEN
100
AcDbLine
 10
552.9667740032473
 20
135.7265974232286
 30
-0.5694010038975306
 11
558.7617554569387
 21
134.7047858402383
 31
-0.5694010038975306
  0
SPLINE
  5
34D9
330
2
100
AcDbEntity
  8
L-ZISSEN
100
AcDbSpline
210
0.0
220
0.0
230
1.0
 70
     8
 71
     3
 72
    10
 73
     6
 74
     0
 42
0.0000000001
 43
0.0000000001
 40
23.95395712898301
 40
23.95395712898301
 40
23.95395712898301
 40
23.95395712898301
 40
25.33818239653314
 40
25.33818239653314
 40
30.40581887583977
 40
30.40581887583977
 40
30.40581887583977
 40
30.40581887583977
 10
554.7634466956314
 20
148.958761014459
 30
-0.5694010038975306
 10
554.9466763506716
 20
148.5441913957001
 30
-0.5694010038975306
 10
555.1276290242022
 20
148.121554442152
 30
-0.5694010038975306
 10
555.9628250265213
 20
146.1441595696251
 30
-0.5694010038975306
 10
556.5951828190391
 20
144.5694997483387
 30
-0.5694010038975306
 10
557.2296902279595
 20
142.9893432492135
 30
-0.5694010038975306
  0
SPLINE
  5
34DA
330
2
100
AcDbEntity
  8
L-ZISSEN
100
AcDbSpline
210
0.0
220
0.0
230
1.0
 70
     8
 71
     3
 72
    10
 73
     6
 74
     0
 42
0.0000000001
 43
0.0000000001
 40
24.66031702805377
 40
24.66031702805377
 40
24.66031702805377
 40
24.66031702805377
 40
25.33818239653314
 40
25.33818239653314
 40
29.75965861449189
 40
29.75965861449189
 40
29.75965861449189
 40
29.75965861449189
 10
554.1142575015892
 20
147.9460338719563
 30
-0.5694010038975306
 10
554.2029138052221
 20
147.7398079831855
 30
-0.5694010038975306
 10
554.2910868128074
 20
147.5324380874444
 30
-0.5694010038975306
 10
554.9511985564513
 20
145.9695695230038
 30
-0.5694010038975306
 10
555.5055571720804
 20
144.5980829930613
 30
-0.5694010038975306
 10
556.0590479817983
 20
143.2208579914531
 30
-0.5694010038975306
  0
LINE
  5
3528
330
2
100
AcDbEntity
  8
L-ZISSEN
  6
CONTINUOUS
 62
     7
100
AcDbLine
 10
497.3621747992528
 20
624.4983283739402
 30
0.0
 11
508.8621747992529
 21
624.4983283739402
 31
0.0
  0
LINE
  5
3529
330
2
100
AcDbEntity
  8
L-ZISSEN
  6
CONTINUOUS
 62
     7
100
AcDbLine
 10
518.1121747992529
 20
616.9983283739384
 30
0.0
 11
477.1121747992529
 21
616.9983283739384
 31
0.0
  0
LINE
  5
352A
330
2
100
AcDbEntity
  8
L-ZISSEN
  6
CONTINUOUS
 62
     7
100
AcDbLine
 10
479.1121747992528
 20
618.9983283739384
 30
0.0
 11
518.1121747992529
 21
618.9983283739384
 31
0.0
  0
ARC
  5
352B
330
2
100
AcDbEntity
  8
L-ZISSEN
  6
CONTINUOUS
 62
     7
 48
3.0
100
AcDbCircle
 10
508.7854670073429
 20
470.4983283739384
 30
0.0
 40
6.999999999997839
100
AcDbArc
 50
180.0
 51
0.0
  0
LINE
  5
352C
330
2
100
AcDbEntity
  8
L-ZISSEN
100
AcDbLine
 10
506.1446840098933
 20
152.6356055094875
 30
0.0
 11
503.6121527918512
 21
152.6356055094875
 31
0.0
  0
LINE
  5
352D
330
2
100
AcDbEntity
  8
L-ZISSEN
100
AcDbLine
 10
501.1839495615759
 20
142.6356055094875
 30
0.0
 11
515.0403560221266
 21
142.6356055094875
 31
0.0
  0
LINE
  5
352E
330
2
100
AcDbEntity
  8
L-ZISSEN
100
AcDbLine
 10
501.1839495615759
 20
133.6356055094874
 30
0.0
 11
515.0403560221266
 21
133.6356055094874
 31
0.0
  0
LINE
  5
352F
330
2
100
AcDbEntity
  8
L-ZISSEN
100
AcDbLine
 10
501.1839495615759
 20
52.1356055094875
 30
0.0
 11
515.0403560221266
 21
52.1356055094875
 31
0.0
  0
LINE
  5
3530
330
2
100
AcDbEntity
  8
L-ZISSEN
100
AcDbLine
 10
501.1839495615759
 20
61.13560550948751
 30
0.0
 11
515.0403560221266
 21
61.13560550948751
 31
0.0
  0
LINE
  5
3531
330
2
100
AcDbEntity
  8
L-ZISSEN
100
AcDbLine
 10
504.6121527918512
 20
66.13560550948751
 30
0.0
 11
511.6121527918513
 21
66.13560550948751
 31
0.0
  0
LINE
  5
3532
330
2
100
AcDbEntity
  8
L-ZISSEN
100
AcDbLine
 10
503.8621527918512
 20
147.6780004505981
 30
0.0
 11
512.3621527918512
 21
147.6780004505981
 31
0.0
  0
LINE
  5
3533
330
2
100
AcDbEntity
  8
L-ZISSEN
100
AcDbLine
 10
503.6121527918512
 20
159.6356055094874
 30
0.0
 11
512.6121527918512
 21
159.6356055094874
 31
0.0
  0
ARC
  5
3534
330
2
100
AcDbEntity
  8
L-ZISSEN
100
AcDbCircle
 10
508.1121527918512
 20
156.1356055094875
 30
0.0
 40
5.0
100
AcDbArc
 50
44.42700400079078
 51
135.5729959992092
  0
LINE
  5
3535
330
2
100
AcDbEntity
  8
L-ZISSEN
100
AcDbLine
 10
518.5389171902393
 20
128.6356055094875
 30
0.0
 11
496.5389171902393
 21
128.6356055094875
 31
0.0
  0
LINE
  5
3537
330
2
100
AcDbEntity
  8
L-ZISSEN
100
AcDbLine
 10
506.1446840098933
 20
42.1356055094875
 30
0.0
 11
503.6121527918512
 21
42.1356055094875
 31
0.0
  0
LINE
  5
3538
330
2
100
AcDbEntity
  8
L-ZISSEN
  6
CONTINUOUS
 62
     7
100
AcDbLine
 10
492.112152791853
 20
28.6356055094875
 30
0.0
 11
566.6230274987774
 21
28.6356055094875
 31
0.0
  0
LINE
  5
3539
330
2
100
AcDbEntity
  8
L-ZISSEN
  6
CONTINUOUS
 62
     7
100
AcDbLine
 10
518.1121527918512
 20
24.1356055094875
 30
0.0
 11
492.112152791853
 21
24.1356055094875
 31
0.0
  0
LINE
  5
353A
330
2
100
AcDbEntity
  8
L-ZISSEN
100
AcDbLine
 10
503.8621527918512
 20
47.09321056837689
 30
0.0
 11
512.3621527918512
 21
47.09321056837689
 31
0.0
  0
LINE
  5
353B
330
2
100
AcDbEntity
  8
L-ZISSEN
100
AcDbLine
 10
503.6121527918512
 20
35.1356055094875
 30
0.0
 11
512.6121527918512
 21
35.1356055094875
 31
0.0
  0
ARC
  5
353C
330
2
100
AcDbEntity
  8
L-ZISSEN
100
AcDbCircle
 10
508.1121527918512
 20
38.6356055094875
 30
0.0
 40
5.0
100
AcDbArc
 50
224.4270040007907
 51
315.5729959992092
  0
LINE
  5
3541
330
2
100
AcDbEntity
  8
L-ZISSEN
  6
CONTINUOUS
 62
     7
100
AcDbLine
 10
619.8174169915437
 20
178.6356055094875
 30
0.0
 11
478.1121527918513
 21
178.6356055094875
 31
0.0
  0
LINE
  5
3542
330
2
100
AcDbEntity
  8
L-ZISSEN
  6
CONTINUOUS
 62
     7
100
AcDbLine
 10
618.1873412352524
 20
179.6356055094875
 30
0.0
 11
463.1121527918512
 21
179.6356055094875
 31
0.0
  0
LINE
  5
3543
330
2
100
AcDbEntity
  8
L-ZISSEN
  6
CONTINUOUS
 62
     7
100
AcDbLine
 10
463.1121527918512
 20
224.6356055094874
 30
0.0
 11
618.1873412352524
 21
224.6356055094874
 31
0.0
  0
LINE
  5
3544
330
2
100
AcDbEntity
  8
L-ZISSEN
  6
CONTINUOUS
 62
     7
100
AcDbLine
 10
588.4121527918523
 20
229.1356055094875
 30
0.0
 11
467.8121527918501
 21
229.1356055094875
 31
0.0
  0
LINE
  5
3545
330
2
100
AcDbEntity
  8
L-ZISSEN
  6
CONTINUOUS
 62
     7
100
AcDbLine
 10
477.5260693077707
 20
325.6356055094875
 30
0.0
 11
578.6982362759336
 21
325.6356055094875
 31
0.0
  0
LINE
  5
3546
330
2
100
AcDbEntity
  8
L-ZISSEN
  6
CONTINUOUS
 62
     7
100
AcDbLine
 10
477.5260693077707
 20
496.4122448898579
 30
0.0
 11
578.6982362759336
 21
496.4122448898579
 31
0.0
  0
LINE
  5
3547
330
2
100
AcDbEntity
  8
L-ZISSEN
  6
CONTINUOUS
 62
     7
100
AcDbLine
 10
464.1121747992529
 20
606.9983283739384
 30
0.0
 11
680.6121747992529
 21
606.9983283739384
 31
0.0
  0
LINE
  5
3548
330
2
100
AcDbEntity
  8
L-ZISSEN
  6
CONTINUOUS
 62
     7
100
AcDbLine
 10
578.6982362759336
 20
597.5844118580207
 30
0.0
 11
477.5260693077707
 21
597.5844118580207
 31
0.0
  0
LINE
  5
354B
330
2
100
AcDbEntity
  8
L-ZISSEN
  6
CONTINUOUS
 62
     7
100
AcDbLine
 10
613.1435478326562
 20
486.9983283739402
 30
0.0
 11
464.1121747992529
 21
486.9983283739384
 31
0.0
  0
LINE
  5
354C
330
2
100
AcDbEntity
  8
L-ZISSEN
100
AcDbLine
 10
469.4957554892644
 20
249.2322731584499
 30
0.0
 11
477.5260693077707
 21
325.6356055094875
 31
0.0
  0
LINE
  5
354D
330
2
100
AcDbEntity
  8
L-ZISSEN
100
AcDbLine
 10
438.499482282572
 20
270.1008013067385
 30
0.0
 11
437.1172561711228
 21
302.522368520229
 31
0.0
  0
LINE
  5
354E
330
2
100
AcDbEntity
  8
L-ZISSEN
100
AcDbLine
 10
397.8823925032102
 20
302.522368520229
 30
0.0
 11
396.5001663917592
 21
270.1008013067385
 31
0.0
  0
LINE
  5
3550
330
2
100
AcDbEntity
  8
L-TYUSIN
 48
3.0
100
AcDbLine
 10
379.2429809165241
 20
202.6356055094875
 30
0.0
 11
454.3004736986495
 21
202.6356055094875
 31
0.0
  0
LINE
  5
3553
330
2
100
AcDbEntity
  8
L-ZISSEN
100
AcDbLine
 10
504.6480511767136
 20
61.13560550948751
 30
0.0
 11
504.6480511767136
 21
52.1356055094875
 31
0.0
  0
LINE
  5
3554
330
2
100
AcDbEntity
  8
L-ZISSEN
100
AcDbLine
 10
501.1839495615759
 20
61.13560550948751
 30
0.0
 11
501.1839495615759
 21
52.1356055094875
 31
0.0
  0
LINE
  5
3556
330
2
100
AcDbEntity
  8
L-ZISSEN
  6
CONTINUOUS
 62
     7
100
AcDbLine
 10
478.1121527918513
 20
179.6356055094875
 30
0.0
 11
478.112152791853
 21
18.6356055094875
 31
0.0
  0
LINE
  5
3557
330
2
100
AcDbEntity
  8
L-ZISSEN
100
AcDbLine
 10
408.3735367588069
 20
76.32840266092535
 30
0.0
 11
408.3735367588069
 21
37.82840266092534
 31
0.0
  0
LINE
  5
3558
330
2
100
AcDbEntity
  8
L-ZISSEN
100
AcDbLine
 10
413.2810140469191
 20
76.32840266092535
 30
0.0
 11
413.2810140469173
 21
37.82840266092534
 31
0.0
  0
LINE
  5
3559
330
2
100
AcDbEntity
  8
L-ZISSEN
100
AcDbLine
 10
423.0959686231417
 20
76.32840266092535
 30
0.0
 11
423.0959686231417
 21
37.82840266092534
 31
0.0
  0
LINE
  5
355A
330
2
100
AcDbEntity
  8
L-ZISSEN
100
AcDbLine
 10
428.0034459112539
 20
76.32840266092535
 30
0.0
 11
428.0034459112539
 21
37.82840266092534
 31
0.0
  0
LINE
  5
355B
330
2
100
AcDbEntity
  8
L-ZISSEN
  6
CONTINUOUS
 62
     7
100
AcDbLine
 10
438.1121527918512
 20
24.1356055094875
 30
0.0
 11
438.1121527918512
 21
83.63560550948751
 31
0.0
  0
LINE
  5
355C
330
2
100
AcDbEntity
  8
L-ZISSEN
  6
CONTINUOUS
 62
     7
100
AcDbLine
 10
478.1121527918513
 20
24.1356055094875
 30
0.0
 11
438.1121527918512
 21
24.1356055094875
 31
0.0
  0
LINE
  5
355D
330
2
100
AcDbEntity
  8
L-ZISSEN
100
AcDbLine
 10
428.0034459112539
 20
37.82840266092534
 30
0.0
 11
408.3735367588069
 21
37.82840266092534
 31
0.0
  0
LINE
  5
355E
330
2
100
AcDbEntity
  8
L-ZISSEN
100
AcDbLine
 10
478.112152791853
 20
27.88530022480881
 30
0.0
 11
468.1121527918512
 21
27.88530022480881
 31
0.0
  0
LINE
  5
355F
330
2
100
AcDbEntity
  8
L-ZISSEN
100
AcDbLine
 10
478.112152791853
 20
45.38591079416619
 30
0.0
 11
468.1121527918512
 21
45.38591079416619
 31
0.0
  0
CIRCLE
  5
3560
330
2
100
AcDbEntity
  8
L-ZISSEN
  6
CONTINUOUS
 62
     7
100
AcDbCircle
 10
453.1121527918513
 20
36.6356055094875
 30
0.0
 40
3.5
  0
LINE
  5
3561
330
2
100
AcDbEntity
  8
L-ZISSEN
  6
CONTINUOUS
 62
     7
100
AcDbLine
 10
468.1121527918512
 20
45.38591079416619
 30
0.0
 11
468.1121527918512
 21
27.88530022480881
 31
0.0
  0
LINE
  5
3562
330
2
100
AcDbEntity
  8
L-TYUSIN
  6
CENTER
 62
     1
100
AcDbLine
 10
453.1121527918513
 20
29.72354403362078
 30
0.0
 11
453.1121527918513
 21
43.54766698535605
 31
0.0
  0
LINE
  5
3563
330
2
100
AcDbEntity
  8
L-TYUSIN
  6
CENTER
 62
     1
100
AcDbLine
 10
446.2000913159808
 20
36.6356055094875
 30
0.0
 11
460.0242142677216
 21
36.6356055094875
 31
0.0
  0
LINE
  5
3564
330
2
100
AcDbEntity
  8
L-ZISSEN
  6
CONTINUOUS
 62
     7
100
AcDbLine
 10
492.112152791853
 20
18.6356055094875
 30
0.0
 11
492.112152791853
 21
28.6356055094875
 31
0.0
  0
LINE
  5
3565
330
2
100
AcDbEntity
  8
L-ZISSEN
100
AcDbLine
 10
503.6121527918512
 20
42.1356055094875
 30
0.0
 11
503.6121527918512
 21
35.1356055094875
 31
0.0
  0
ARC
  5
3566
330
2
100
AcDbEntity
  8
L-ZISSEN
100
AcDbCircle
 10
508.1121527918512
 20
38.6356055094875
 30
0.0
 40
5.0
100
AcDbArc
 50
154.1580672367989
 51
205.841932763201
  0
LINE
  5
3567
330
2
100
AcDbEntity
  8
L-ZISSEN
  6
CONTINUOUS
 62
     7
100
AcDbLine
 10
478.112152791853
 20
18.6356055094875
 30
0.0
 11
492.112152791853
 21
18.6356055094875
 31
0.0
  0
LINE
  5
3568
330
2
100
AcDbEntity
  8
L-ZISSEN
100
AcDbLine
 10
503.8621527918512
 20
52.1356055094875
 30
0.0
 11
503.8621527918512
 21
42.1356055094875
 31
0.0
  0
LINE
  5
3569
330
2
100
AcDbEntity
  8
L-ZISSEN
100
AcDbLine
 10
448.6884913350295
 20
161.3284026609253
 30
0.0
 11
424.6884913350295
 21
161.3284026609253
 31
0.0
  0
LINE
  5
356A
330
2
100
AcDbEntity
  8
L-ZISSEN
  6
CONTINUOUS
 62
     7
100
AcDbLine
 10
417.8090416288013
 20
229.6241661318745
 30
0.0
 11
445.7284963160982
 21
229.6241661318745
 31
0.0
  0
LINE
  5
356B
330
2
100
AcDbEntity
  8
L-ZISSEN
100
AcDbLine
 10
424.6884913350295
 20
157.3284026609253
 30
0.0
 11
448.6884913350295
 21
157.3284026609253
 31
0.0
  0
LINE
  5
356C
330
2
100
AcDbEntity
  8
L-ZISSEN
100
AcDbLine
 10
448.6884913350295
 20
165.3284026609253
 30
0.0
 11
386.1121087770498
 21
165.3284026609253
 31
0.0
  0
LINE
  5
356D
330
2
100
AcDbEntity
  8
L-ZISSEN
100
AcDbLine
 10
463.1121527918512
 20
224.6356055094874
 30
0.0
 11
432.2415467410955
 21
224.6356055094874
 31
0.0
  0
LINE
  5
356E
330
2
100
AcDbEntity
  8
L-ZISSEN
100
AcDbLine
 10
434.2755902670524
 20
180.4451562039921
 30
0.0
 11
463.1121527918494
 21
180.4451562039921
 31
0.0
  0
LINE
  5
356F
330
2
100
AcDbEntity
  8
L-ZISSEN
  6
CONTINUOUS
 62
     7
100
AcDbLine
 10
437.1121527918494
 20
178.6655706629881
 30
0.0
 11
449.1121527918494
 21
178.6655706629881
 31
0.0
  0
LINE
  5
3570
330
2
100
AcDbEntity
  8
L-ZISSEN
100
AcDbLine
 10
424.6884913350295
 20
165.3284026609253
 30
0.0
 11
424.6884913350295
 21
168.3284026609253
 31
0.0
  0
LINE
  5
3571
330
2
100
AcDbEntity
  8
L-ZISSEN
100
AcDbLine
 10
418.1884913350295
 20
165.3284026609253
 30
0.0
 11
416.4564405274614
 21
168.3284026609253
 31
0.0
  0
LINE
  5
3572
330
2
100
AcDbEntity
  8
L-ZISSEN
100
AcDbLine
 10
418.1884913350295
 20
165.3284026609253
 30
0.0
 11
419.9205421425995
 21
168.3284026609253
 31
0.0
  0
LINE
  5
3573
330
2
100
AcDbEntity
  8
L-ZISSEN
100
AcDbLine
 10
411.6884913350295
 20
168.3284026609253
 30
0.0
 11
411.6884913350295
 21
140.3284026609253
 31
0.0
  0
LINE
  5
3574
330
2
100
AcDbEntity
  8
L-ZISSEN
100
AcDbLine
 10
386.1121087770498
 20
165.3284026609253
 30
0.0
 11
386.1121087770498
 21
183.8554525732652
 31
0.0
  0
LINE
  5
3575
330
2
100
AcDbEntity
  8
L-ZISSEN
100
AcDbLine
 10
427.3686874323121
 20
78.32840266092535
 30
0.0
 11
409.0082952377488
 21
78.32840266092535
 31
0.0
  0
LINE
  5
3576
330
2
100
AcDbEntity
  8
L-ZISSEN
100
AcDbLine
 10
408.3735367588069
 20
76.32840266092535
 30
0.0
 11
428.0034459112539
 21
76.32840266092535
 31
0.0
  0
LINE
  5
3577
330
2
100
AcDbEntity
  8
L-ZISSEN
100
AcDbLine
 10
436.1884913350295
 20
96.32840266092536
 30
0.0
 11
400.1884913350295
 21
96.32840266092536
 31
0.0
  0
LINE
  5
3578
330
2
100
AcDbEntity
  8
L-ZISSEN
100
AcDbLine
 10
435.7819765159328
 20
83.32840266092535
 30
0.0
 11
400.5950061541279
 21
83.32840266092535
 31
0.0
  0
LINE
  5
3579
330
2
100
AcDbEntity
  8
L-ZISSEN
100
AcDbLine
 10
440.1884913350295
 20
92.32840266092535
 30
0.0
 11
396.1884913350295
 21
92.32840266092535
 31
0.0
  0
LINE
  5
357A
330
2
100
AcDbEntity
  8
L-ZISSEN
100
AcDbLine
 10
403.1884913350295
 20
135.3284026609253
 30
0.0
 11
433.1884913350295
 21
135.3284026609253
 31
0.0
  0
CIRCLE
  5
357B
330
2
100
AcDbEntity
  8
L-ZISSEN
100
AcDbCircle
 10
418.1884913350295
 20
116.3284026609253
 30
0.0
 40
11.0
  0
CIRCLE
  5
357C
330
2
100
AcDbEntity
  8
L-ZISSEN
100
AcDbCircle
 10
418.1884913350295
 20
116.3284026609253
 30
0.0
 40
9.0
  0
LINE
  5
357D
330
2
100
AcDbEntity
  8
L-ZISSEN
100
AcDbLine
 10
424.1884913350295
 20
136.3284026609253
 30
0.0
 11
412.1884913350295
 21
136.3284026609253
 31
0.0
  0
LINE
  5
357E
330
2
100
AcDbEntity
  8
L-ZISSEN
100
AcDbLine
 10
424.6884913350295
 20
149.3284026609253
 30
0.0
 11
411.6884913350295
 21
149.3284026609253
 31
0.0
  0
LINE
  5
357F
330
2
100
AcDbEntity
  8
L-ZISSEN
100
AcDbLine
 10
411.6884913350295
 20
147.3284026609253
 30
0.0
 11
424.6884913350295
 21
147.3284026609253
 31
0.0
  0
LINE
  5
3580
330
2
100
AcDbEntity
  8
L-ZISSEN
100
AcDbLine
 10
424.6884913350295
 20
140.3284026609253
 30
0.0
 11
411.6884913350295
 21
140.3284026609253
 31
0.0
  0
LINE
  5
3581
330
2
100
AcDbEntity
  8
L-ZISSEN
100
AcDbLine
 10
437.6884913350295
 20
132.3284026609253
 30
0.0
 11
398.6884913350295
 21
132.3284026609253
 31
0.0
  0
LINE
  5
3582
330
2
100
AcDbEntity
  8
L-ZISSEN
100
AcDbLine
 10
408.6884913350295
 20
165.3284026609253
 30
0.0
 11
408.6884913350295
 21
161.3284026609253
 31
0.0
  0
LINE
  5
3583
330
2
100
AcDbEntity
  8
L-ZISSEN
100
AcDbLine
 10
407.6884913350295
 20
161.3284026609253
 30
0.0
 11
407.6884913350295
 21
165.3284026609253
 31
0.0
  0
LINE
  5
3584
330
2
100
AcDbEntity
  8
L-ZISSEN
100
AcDbLine
 10
400.1884913350295
 20
96.32840266092536
 30
0.0
 11
400.1884913350295
 21
132.3284026609253
 31
0.0
  0
LINE
  5
3585
330
2
100
AcDbEntity
  8
L-ZISSEN
100
AcDbLine
 10
396.1884913350295
 20
92.32840266092535
 30
0.0
 11
394.733580375916
 21
155.3745442225008
 31
0.0
  0
LINE
  5
3586
330
2
100
AcDbEntity
  8
L-ZISSEN
100
AcDbLine
 10
398.6884913350295
 20
92.32840266092535
 30
0.0
 11
398.6884913350295
 21
157.3284026609253
 31
0.0
  0
ARC
  5
3587
330
2
100
AcDbEntity
  8
L-ZISSEN
100
AcDbCircle
 10
409.0082952377488
 20
79.32840266092535
 30
0.0
 40
1.0
100
AcDbArc
 50
191.3099324740253
 51
270.0
  0
LINE
  5
3588
330
2
100
AcDbEntity
  8
L-ZISSEN
100
AcDbLine
 10
407.3492681080024
 20
82.52451879606452
 30
0.0
 11
408.0277145620584
 21
79.132286525788
 31
0.0
  0
ARC
  5
3589
330
2
100
AcDbEntity
  8
L-ZISSEN
100
AcDbCircle
 10
406.3686874323121
 20
82.32840266092535
 30
0.0
 40
1.0
100
AcDbArc
 50
11.30993247402532
 51
90.0
  0
LINE
  5
358A
330
2
100
AcDbEntity
  8
L-ZISSEN
100
AcDbLine
 10
412.1884913350295
 20
78.32840266092535
 30
0.0
 11
412.1884913350295
 21
76.32840266092535
 31
0.0
  0
LINE
  5
358B
330
2
100
AcDbEntity
  8
L-ZISSEN
100
AcDbLine
 10
400.1884913350295
 20
96.32840266092536
 30
0.0
 11
398.7742777726562
 21
94.91418909855202
 31
0.0
  0
ARC
  5
358C
330
2
100
AcDbEntity
  8
L-ZISSEN
100
AcDbCircle
 10
400.5950061541279
 20
86.32840266092534
 30
0.0
 40
3.0
100
AcDbArc
 50
192.5288077091317
 51
270.0
  0
LINE
  5
358D
330
2
100
AcDbEntity
  8
L-ZISSEN
100
AcDbLine
 10
397.6664449735762
 20
85.67761128747042
 30
0.0
 11
396.1884913350295
 21
92.32840266092535
 31
0.0
  0
ARC
  5
358E
330
2
100
AcDbEntity
  8
L-ZISSEN
100
AcDbCircle
 10
405.6884913350295
 20
104.3284026609253
 30
0.0
 40
4.0
100
AcDbArc
 50
270.0
 51
90.0
  0
CIRCLE
  5
358F
330
2
100
AcDbEntity
  8
L-ZISSEN
100
AcDbCircle
 10
405.6884913350295
 20
104.3284026609253
 30
0.0
 40
3.0
  0
ARC
  5
3590
330
2
100
AcDbEntity
  8
L-ZISSEN
100
AcDbCircle
 10
405.6884913350295
 20
126.3284026609253
 30
0.0
 40
4.0
100
AcDbArc
 50
270.0
 51
90.0
  0
CIRCLE
  5
3591
330
2
100
AcDbEntity
  8
L-ZISSEN
100
AcDbCircle
 10
405.6884913350295
 20
126.3284026609253
 30
0.0
 40
3.0
  0
ARC
  5
3592
330
2
100
AcDbEntity
  8
L-ZISSEN
100
AcDbCircle
 10
412.1884913350295
 20
137.3284026609253
 30
0.0
 40
1.0
100
AcDbArc
 50
180.0
 51
270.0
  0
LINE
  5
3593
330
2
100
AcDbEntity
  8
L-ZISSEN
100
AcDbLine
 10
403.1884913350295
 20
135.3284026609253
 30
0.0
 11
403.1884913350295
 21
146.3284026609253
 31
0.0
  0
LINE
  5
3594
330
2
100
AcDbEntity
  8
L-ZISSEN
100
AcDbLine
 10
405.6884913350295
 20
152.3284026609253
 30
0.0
 11
403.1884913350295
 21
146.3284026609253
 31
0.0
  0
LINE
  5
3595
330
2
100
AcDbEntity
  8
L-ZISSEN
100
AcDbLine
 10
411.1884913350295
 20
146.3284026609253
 30
0.0
 11
403.1884913350295
 21
146.3284026609253
 31
0.0
  0
LINE
  5
3596
330
2
100
AcDbEntity
  8
L-ZISSEN
100
AcDbLine
 10
411.1884913350295
 20
152.3284026609253
 30
0.0
 11
405.6884913350295
 21
152.3284026609253
 31
0.0
  0
LINE
  5
3597
330
2
100
AcDbEntity
  8
L-ZISSEN
100
AcDbLine
 10
405.6884913350295
 20
157.3284026609253
 30
0.0
 11
405.6884913350295
 21
152.3284026609253
 31
0.0
  0
LINE
  5
3598
330
2
100
AcDbEntity
  8
L-ZISSEN
100
AcDbLine
 10
411.1884913350295
 20
137.3284026609253
 30
0.0
 11
411.1884913350295
 21
157.3284026609253
 31
0.0
  0
ARC
  5
3599
330
2
100
AcDbEntity
  8
L-ZISSEN
100
AcDbCircle
 10
392.734112707687
 20
155.3284026609253
 30
0.0
 40
2.0
100
AcDbArc
 50
1.321975659564734
 51
90.0
  0
LINE
  5
359A
330
2
100
AcDbEntity
  8
L-ZISSEN
100
AcDbLine
 10
405.6884913350295
 20
100.3284026609253
 30
0.0
 11
400.1884913350295
 21
100.3284026609253
 31
0.0
  0
LINE
  5
359B
330
2
100
AcDbEntity
  8
L-ZISSEN
100
AcDbLine
 10
400.1884913350295
 20
130.3284026609253
 30
0.0
 11
405.6884913350295
 21
130.3284026609253
 31
0.0
  0
LINE
  5
359C
330
2
100
AcDbEntity
  8
L-ZISSEN
100
AcDbLine
 10
405.6884913350295
 20
122.3284026609253
 30
0.0
 11
400.1884913350295
 21
122.3284026609253
 31
0.0
  0
LINE
  5
359D
330
2
100
AcDbEntity
  8
L-ZISSEN
100
AcDbLine
 10
400.1884913350295
 20
108.3284026609253
 30
0.0
 11
405.6884913350295
 21
108.3284026609253
 31
0.0
  0
LINE
  5
359E
330
2
100
AcDbEntity
  8
L-ZISSEN
100
AcDbLine
 10
398.6884913350295
 20
138.4464366496758
 30
0.0
 11
403.1884913350295
 21
135.3284026609253
 31
0.0
  0
LINE
  5
359F
330
2
100
AcDbEntity
  8
L-ZISSEN
100
AcDbLine
 10
387.6884913350295
 20
165.3284026609253
 30
0.0
 11
387.6884913350295
 21
157.3284026609253
 31
0.0
  0
LINE
  5
35A0
330
2
100
AcDbEntity
  8
L-ZISSEN
100
AcDbLine
 10
387.6884913350295
 20
157.3284026609253
 30
0.0
 11
411.6884913350295
 21
157.3284026609253
 31
0.0
  0
LINE
  5
35A1
330
2
100
AcDbEntity
  8
L-ZISSEN
100
AcDbLine
 10
411.6884913350295
 20
161.3284026609253
 30
0.0
 11
387.6884913350295
 21
161.3284026609253
 31
0.0
  0
LINE
  5
35A2
330
2
100
AcDbEntity
  8
L-ZISSEN
100
AcDbLine
 10
428.6884913350295
 20
161.3284026609253
 30
0.0
 11
428.6884913350295
 21
165.3284026609253
 31
0.0
  0
LINE
  5
35A3
330
2
100
AcDbEntity
  8
L-ZISSEN
100
AcDbLine
 10
427.6884913350295
 20
165.3284026609253
 30
0.0
 11
427.6884913350295
 21
161.3284026609253
 31
0.0
  0
LINE
  5
35A4
330
2
100
AcDbEntity
  8
L-ZISSEN
100
AcDbLine
 10
418.1884913350295
 20
165.3284026609253
 30
0.0
 11
416.4564405274614
 21
162.3284026609253
 31
0.0
  0
LINE
  5
35A5
330
2
100
AcDbEntity
  8
L-ZISSEN
100
AcDbLine
 10
419.9205421425995
 20
162.3284026609253
 30
0.0
 11
416.4564405274614
 21
162.3284026609253
 31
0.0
  0
LINE
  5
35A6
330
2
100
AcDbEntity
  8
L-ZISSEN
100
AcDbLine
 10
418.1884913350295
 20
165.3284026609253
 30
0.0
 11
419.9205421425995
 21
162.3284026609253
 31
0.0
  0
LINE
  5
35A7
330
2
100
AcDbEntity
  8
L-ZISSEN
100
AcDbLine
 10
440.1884913350295
 20
92.32840266092535
 30
0.0
 11
441.6434022941429
 21
155.3745442225008
 31
0.0
  0
LINE
  5
35A8
330
2
100
AcDbEntity
  8
L-ZISSEN
100
AcDbLine
 10
436.1884913350295
 20
96.32840266092536
 30
0.0
 11
436.1884913350295
 21
132.3284026609253
 31
0.0
  0
LINE
  5
35A9
330
2
100
AcDbEntity
  8
L-ZISSEN
100
AcDbLine
 10
437.6884913350295
 20
92.32840266092535
 30
0.0
 11
437.6884913350295
 21
157.3284026609253
 31
0.0
  0
LINE
  5
35AA
330
2
100
AcDbEntity
  8
L-ZISSEN
100
AcDbLine
 10
438.7105376964846
 20
85.67761128747042
 30
0.0
 11
440.1884913350295
 21
92.32840266092535
 31
0.0
  0
ARC
  5
35AB
330
2
100
AcDbEntity
  8
L-ZISSEN
100
AcDbCircle
 10
427.3686874323121
 20
79.32840266092535
 30
0.0
 40
1.0
100
AcDbArc
 50
270.0
 51
348.6900675259746
  0
ARC
  5
35AC
330
2
100
AcDbEntity
  8
L-ZISSEN
100
AcDbCircle
 10
430.0082952377488
 20
82.32840266092535
 30
0.0
 40
1.0
100
AcDbArc
 50
90.0
 51
168.6900675259746
  0
LINE
  5
35AD
330
2
100
AcDbEntity
  8
L-ZISSEN
100
AcDbLine
 10
429.0277145620584
 20
82.52451879606452
 30
0.0
 11
428.3492681080024
 21
79.132286525788
 31
0.0
  0
LINE
  5
35AE
330
2
100
AcDbEntity
  8
L-ZISSEN
100
AcDbLine
 10
424.1884913350295
 20
78.32840266092535
 30
0.0
 11
424.1884913350295
 21
76.32840266092535
 31
0.0
  0
LINE
  5
35AF
330
2
100
AcDbEntity
  8
L-ZISSEN
100
AcDbLine
 10
436.1884913350295
 20
96.32840266092536
 30
0.0
 11
437.6027048974028
 21
94.91418909855202
 31
0.0
  0
ARC
  5
35B0
330
2
100
AcDbEntity
  8
L-ZISSEN
100
AcDbCircle
 10
435.7819765159328
 20
86.32840266092534
 30
0.0
 40
3.0
100
AcDbArc
 50
270.0
 51
347.4711922908682
  0
CIRCLE
  5
35B1
330
2
100
AcDbEntity
  8
L-ZISSEN
100
AcDbCircle
 10
430.6884913350295
 20
104.3284026609253
 30
0.0
 40
3.0
  0
ARC
  5
35B2
330
2
100
AcDbEntity
  8
L-ZISSEN
100
AcDbCircle
 10
430.6884913350295
 20
104.3284026609253
 30
0.0
 40
4.0
100
AcDbArc
 50
90.0
 51
270.0
  0
LINE
  5
35B3
330
2
100
AcDbEntity
  8
L-ZISSEN
100
AcDbLine
 10
430.6884913350295
 20
100.3284026609253
 30
0.0
 11
436.1884913350295
 21
100.3284026609253
 31
0.0
  0
CIRCLE
  5
35B4
330
2
100
AcDbEntity
  8
L-ZISSEN
100
AcDbCircle
 10
430.6884913350295
 20
126.3284026609253
 30
0.0
 40
3.0
  0
LINE
  5
35B5
330
2
100
AcDbEntity
  8
L-ZISSEN
100
AcDbLine
 10
436.1884913350295
 20
108.3284026609253
 30
0.0
 11
430.6884913350295
 21
108.3284026609253
 31
0.0
  0
LINE
  5
35B6
330
2
100
AcDbEntity
  8
L-ZISSEN
100
AcDbLine
 10
430.6884913350295
 20
122.3284026609253
 30
0.0
 11
436.1884913350295
 21
122.3284026609253
 31
0.0
  0
LINE
  5
35B7
330
2
100
AcDbEntity
  8
L-ZISSEN
100
AcDbLine
 10
436.1884913350295
 20
130.3284026609253
 30
0.0
 11
430.6884913350295
 21
130.3284026609253
 31
0.0
  0
LINE
  5
35B8
330
2
100
AcDbEntity
  8
L-ZISSEN
100
AcDbLine
 10
430.6884913350295
 20
152.3284026609253
 30
0.0
 11
433.1884913350295
 21
146.3284026609253
 31
0.0
  0
LINE
  5
35B9
330
2
100
AcDbEntity
  8
L-ZISSEN
100
AcDbLine
 10
433.1884913350295
 20
146.3284026609253
 30
0.0
 11
425.1884913350295
 21
146.3284026609253
 31
0.0
  0
LINE
  5
35BA
330
2
100
AcDbEntity
  8
L-ZISSEN
100
AcDbLine
 10
419.1884913350295
 20
107.3841307509264
 30
0.0
 11
419.1884913350295
 21
125.2726745709242
 31
0.0
  0
ARC
  5
35BB
330
2
100
AcDbEntity
  8
L-ZISSEN
100
AcDbCircle
 10
430.6884913350295
 20
126.3284026609253
 30
0.0
 40
4.0
100
AcDbArc
 50
90.0
 51
270.0
  0
LINE
  5
35BC
330
2
100
AcDbEntity
  8
L-ZISSEN
100
AcDbLine
 10
430.6884913350295
 20
152.3284026609253
 30
0.0
 11
425.1884913350295
 21
152.3284026609253
 31
0.0
  0
ARC
  5
35BD
330
2
100
AcDbEntity
  8
L-ZISSEN
100
AcDbCircle
 10
424.1884913350295
 20
137.3284026609253
 30
0.0
 40
1.0
100
AcDbArc
 50
270.0
 51
0.0
  0
LINE
  5
35BE
330
2
100
AcDbEntity
  8
L-ZISSEN
100
AcDbLine
 10
433.1884913350295
 20
135.3284026609253
 30
0.0
 11
433.1884913350295
 21
146.3284026609253
 31
0.0
  0
LINE
  5
35BF
330
2
100
AcDbEntity
  8
L-ZISSEN
100
AcDbLine
 10
437.6884913350295
 20
138.4464366496758
 30
0.0
 11
433.1884913350295
 21
135.3284026609253
 31
0.0
  0
LINE
  5
35C0
330
2
100
AcDbEntity
  8
L-ZISSEN
100
AcDbLine
 10
430.6884913350295
 20
157.3284026609253
 30
0.0
 11
430.6884913350295
 21
152.3284026609253
 31
0.0
  0
LINE
  5
35C1
330
2
100
AcDbEntity
  8
L-ZISSEN
100
AcDbLine
 10
425.1884913350295
 20
137.3284026609253
 30
0.0
 11
425.1884913350295
 21
157.3284026609253
 31
0.0
  0
ARC
  5
35C2
330
2
100
AcDbEntity
  8
L-ZISSEN
100
AcDbCircle
 10
443.6428699623738
 20
155.3284026609253
 30
0.0
 40
2.0
100
AcDbArc
 50
90.0
 51
178.6780243404352
  0
LINE
  5
35C3
330
2
100
AcDbEntity
  8
L-ZISSEN
100
AcDbLine
 10
417.1884913350295
 20
107.3841307509264
 30
0.0
 11
417.1884913350295
 21
125.2726745709242
 31
0.0
  0
LINE
  5
35C4
330
2
100
AcDbEntity
  8
L-ZISSEN
100
AcDbLine
 10
424.6884913350295
 20
140.3284026609253
 30
0.0
 11
424.6884913350295
 21
165.3284026609253
 31
0.0
  0
LINE
  5
35C5
330
2
100
AcDbEntity
  8
L-ZISSEN
100
AcDbLine
 10
396.5001663917592
 20
270.1008013067385
 30
0.0
 11
417.0624173866181
 21
270.0991974048775
 31
0.0
  0
LINE
  5
35C6
330
2
100
AcDbEntity
  8
L-ZISSEN
  6
CONTINUOUS
 62
     7
100
AcDbLine
 10
402.0716644365784
 20
186.473014120238
 30
0.0
 11
415.2905433771575
 21
201.8284026609253
 31
0.0
  0
LINE
  5
35C7
330
2
100
AcDbEntity
  8
L-ZISSEN
  6
CONTINUOUS
 62
     7
100
AcDbLine
 10
402.0716644365784
 20
186.473014120238
 30
0.0
 11
417.7905433771575
 21
199.3284026609089
 31
0.0
  0
LINE
  5
35C8
330
2
100
AcDbEntity
  8
L-ZISSEN
100
AcDbLine
 10
401.39232843862
 20
255.0233333500673
 30
0.0
 11
415.6802584038668
 21
255.0233333500673
 31
0.0
  0
LINE
  5
35C9
330
2
100
AcDbEntity
  8
L-ZISSEN
100
AcDbLine
 10
414.4002584038662
 20
268.0186271817747
 30
0.0
 11
416.8196680969358
 21
268.0186271817747
 31
0.0
  0
LINE
  5
35CA
330
2
100
AcDbEntity
  8
L-ZISSEN
100
AcDbLine
 10
414.4002584038662
 20
266.8512421035829
 30
0.0
 11
417.6121307844495
 21
266.8512421035829
 31
0.0
  0
LINE
  5
35CB
330
2
100
AcDbEntity
  8
L-ZISSEN
100
AcDbLine
 10
414.4002584038662
 20
263.9897952555329
 30
0.0
 11
417.5827976614255
 21
263.9897952555329
 31
0.0
  0
LINE
  5
35CC
330
2
100
AcDbEntity
  8
L-ZISSEN
100
AcDbLine
 10
414.4002584038662
 20
255.0233333500673
 30
0.0
 11
417.6121307844495
 21
255.0233333500673
 31
0.0
  0
LINE
  5
35CD
330
2
100
AcDbEntity
  8
L-ZISSEN
100
AcDbLine
 10
414.4002584038662
 20
249.4481625313983
 30
0.0
 11
417.6121307844495
 21
249.4481625313983
 31
0.0
  0
LINE
  5
35CE
330
2
100
AcDbEntity
  8
L-ZISSEN
100
AcDbLine
 10
390.6315950920561
 20
249.4481625313983
 30
0.0
 11
415.6802584038668
 21
249.4481625313983
 31
0.0
  0
LINE
  5
35CF
330
2
100
AcDbEntity
  8
L-ZISSEN
100
AcDbLine
 10
417.8090416288013
 20
229.6241661318745
 30
0.0
 11
398.1121087770497
 21
229.6241661318745
 31
0.0
  0
LINE
  5
35D0
330
2
100
AcDbEntity
  8
L-ZISSEN
100
AcDbLine
 10
398.1121087770497
 20
237.9706996684017
 30
0.0
 11
417.6121307844495
 21
237.9706996684017
 31
0.0
  0
CIRCLE
  5
35D1
330
2
100
AcDbEntity
  8
L-ZISSEN
  6
CONTINUOUS
 62
     7
100
AcDbCircle
 10
417.7905433771575
 20
201.8284026609253
 30
0.0
 40
27.0
  0
LINE
  5
35D2
330
2
100
AcDbEntity
  8
L-ZISSEN
100
AcDbLine
 10
424.6884913350295
 20
168.3284026609253
 30
0.0
 11
411.6884913350295
 21
168.3284026609253
 31
0.0
  0
LINE
  5
35D3
330
2
100
AcDbEntity
  8
L-ZISSEN
100
AcDbLine
 10
390.4061003106889
 20
215.1868125714699
 30
0.0
 11
390.4061003106889
 21
180.4451562039921
 31
0.0
  0
LINE
  5
35D4
330
2
100
AcDbEntity
  8
L-ZISSEN
100
AcDbLine
 10
388.5482404399754
 20
192.068066178379
 30
0.0
 11
388.5482404399754
 21
211.9780873799809
 31
0.0
  0
LINE
  5
35D5
330
2
100
AcDbEntity
  8
L-ZISSEN
100
AcDbLine
 10
390.4061003106889
 20
180.4451562039921
 30
0.0
 11
398.1121087770497
 21
180.4451562039921
 31
0.0
  0
LINE
  5
35D6
330
2
100
AcDbEntity
  8
L-ZISSEN
100
AcDbLine
 10
390.4061003106889
 20
220.5941033949275
 30
0.0
 11
390.4061003106889
 21
215.1868125714699
 31
0.0
  0
LINE
  5
35D7
330
2
100
AcDbEntity
  8
L-ZISSEN
100
AcDbLine
 10
398.1121087770497
 20
178.6655706629881
 30
0.0
 11
403.9167113962212
 21
178.6655706629881
 31
0.0
  0
LINE
  5
35D8
330
2
100
AcDbEntity
  8
L-ZISSEN
100
AcDbLine
 10
398.1121087770497
 20
180.4451562039921
 30
0.0
 11
401.3054964872626
 21
180.4451562039921
 31
0.0
  0
LINE
  5
35D9
330
2
100
AcDbEntity
  8
L-ZISSEN
100
AcDbLine
 10
404.3744070134416
 20
266.8512421035829
 30
0.0
 11
414.4002584038662
 21
266.8512421035829
 31
0.0
  0
LINE
  5
35DA
330
2
100
AcDbEntity
  8
L-ZISSEN
100
AcDbLine
 10
404.3744070134416
 20
263.9897952555329
 30
0.0
 11
414.4002584038662
 21
263.9897952555329
 31
0.0
  0
LINE
  5
35DB
330
2
100
AcDbEntity
  8
L-ZISSEN
100
AcDbLine
 10
405.4681983448517
 20
268.0186271817747
 30
0.0
 11
414.4002584038662
 21
268.0186271817747
 31
0.0
  0
LINE
  5
35DC
330
2
100
AcDbEntity
  8
L-ZISSEN
100
AcDbLine
 10
401.39232843862
 20
262.7843996123865
 30
0.0
 11
401.39232843862
 21
255.0233333500673
 31
0.0
  0
LINE
  5
35DD
330
2
100
AcDbEntity
  8
L-ZISSEN
100
AcDbLine
 10
402.8151329949468
 20
263.9897952555329
 30
0.0
 11
401.39232843862
 21
262.7843996123865
 31
0.0
  0
LINE
  5
35DE
330
2
100
AcDbEntity
  8
L-ZISSEN
100
AcDbLine
 10
405.6544070134423
 20
263.9897952555329
 30
0.0
 11
402.8151329949468
 21
263.9897952555329
 31
0.0
  0
LINE
  5
35DF
330
2
100
AcDbEntity
  8
L-ZISSEN
100
AcDbLine
 10
405.4681983448517
 20
268.0186271817747
 30
0.0
 11
405.4681983448517
 21
263.9897952555329
 31
0.0
  0
LINE
  5
35E0
330
2
100
AcDbEntity
  8
L-ZISSEN
100
AcDbLine
 10
404.3744070134416
 20
266.8512421035829
 30
0.0
 11
404.3744070134416
 21
263.9897952555329
 31
0.0
  0
LINE
  5
35E1
330
2
100
AcDbEntity
  8
L-ZISSEN
100
AcDbLine
 10
405.4681983448517
 20
268.0186271817747
 30
0.0
 11
404.3744070134416
 21
266.8512421035829
 31
0.0
  0
ARC
  5
35E2
330
2
100
AcDbEntity
  8
L-ZISSEN
100
AcDbCircle
 10
391.6315325920568
 20
252.0257040594733
 30
0.0
 40
0.9999375
100
AcDbArc
 50
101.4522094010447
 51
180.0
  0
LINE
  5
35E3
330
2
100
AcDbEntity
  8
L-ZISSEN
100
AcDbLine
 10
390.6315950920561
 20
237.9706996684017
 30
0.0
 11
399.3921087770486
 21
237.9706996684017
 31
0.0
  0
LINE
  5
35E4
330
2
100
AcDbEntity
  8
L-ZISSEN
100
AcDbLine
 10
398.1121087770497
 20
229.6241661318745
 30
0.0
 11
390.6255160413948
 21
229.6241661318745
 31
0.0
  0
LINE
  5
35E5
330
2
100
AcDbEntity
  8
L-ZISSEN
100
AcDbLine
 10
390.6315950920561
 20
249.4481625313983
 30
0.0
 11
390.6315950920561
 21
237.9706996684017
 31
0.0
  0
LINE
  5
35E6
330
2
100
AcDbEntity
  8
L-ZISSEN
100
AcDbLine
 10
389.7183077637492
 20
224.6356055094874
 30
0.0
 11
390.4061003106889
 21
224.6356055094874
 31
0.0
  0
LINE
  5
35E7
330
2
100
AcDbEntity
  8
L-ZISSEN
100
AcDbLine
 10
389.7183077637492
 20
229.6241661318745
 30
0.0
 11
389.7183077637492
 21
224.6356055094874
 31
0.0
  0
LINE
  5
35E8
330
2
100
AcDbEntity
  8
L-ZISSEN
100
AcDbLine
 10
390.6255160413948
 20
229.6241661318745
 30
0.0
 11
389.7183077637492
 21
229.6241661318745
 31
0.0
  0
LINE
  5
35E9
330
2
100
AcDbEntity
  8
L-ZISSEN
100
AcDbLine
 10
390.6255160413948
 20
229.6241661318745
 30
0.0
 11
390.6255160413948
 21
237.9706996684017
 31
0.0
  0
LINE
  5
35EA
330
2
100
AcDbEntity
  8
L-ZISSEN
100
AcDbLine
 10
390.6315950920561
 20
252.0257040594733
 30
0.0
 11
390.6315950920561
 21
249.4481625313983
 31
0.0
  0
LINE
  5
35EB
330
2
100
AcDbEntity
  8
L-ZISSEN
100
AcDbLine
 10
390.4061003106889
 20
224.6356055094874
 30
0.0
 11
403.3395400132212
 21
224.6356055094874
 31
0.0
  0
LINE
  5
35EC
330
2
100
AcDbEntity
  8
L-ZISSEN
100
AcDbLine
 10
401.39232843862
 20
255.0233333500673
 30
0.0
 11
391.4329944947366
 21
253.0057334609809
 31
0.0
  0
LINE
  5
35ED
330
2
100
AcDbEntity
  8
L-ZISSEN
100
AcDbLine
 10
386.1121087770498
 20
224.6356055094874
 30
0.0
 11
386.1121087770498
 21
220.5941033949275
 31
0.0
  0
LINE
  5
35EE
330
2
100
AcDbEntity
  8
L-ZISSEN
100
AcDbLine
 10
387.4902812157943
 20
209.9937631141128
 30
0.0
 11
387.4902812157943
 21
193.8237745142178
 31
0.0
  0
LINE
  5
35EF
330
2
100
AcDbEntity
  8
L-ZISSEN
100
AcDbLine
 10
386.1121087770498
 20
193.7621279482373
 30
0.0
 11
386.1121087770498
 21
209.9937631141128
 31
0.0
  0
LINE
  5
35F0
330
2
100
AcDbEntity
  8
L-ZISSEN
100
AcDbLine
 10
386.1121087770498
 20
192.068066178379
 30
0.0
 11
386.1121087770498
 21
188.4267989265717
 31
0.0
  0
LINE
  5
35F1
330
2
100
AcDbEntity
  8
L-ZISSEN
100
AcDbLine
 10
386.1121087770498
 20
183.8554525732652
 30
0.0
 11
388.1661190786635
 21
183.8554525732652
 31
0.0
  0
LINE
  5
35F2
330
2
100
AcDbEntity
  8
L-ZISSEN
100
AcDbLine
 10
388.1661190786635
 20
188.4267989265717
 30
0.0
 11
388.1661190786635
 21
183.8554525732652
 31
0.0
  0
LINE
  5
35F3
330
2
100
AcDbEntity
  8
L-ZISSEN
100
AcDbLine
 10
386.1121087770498
 20
188.4267989265717
 30
0.0
 11
388.1661190786635
 21
188.4267989265717
 31
0.0
  0
LINE
  5
35F4
330
2
100
AcDbEntity
  8
L-ZISSEN
100
AcDbLine
 10
387.4902812157943
 20
193.8237745142178
 30
0.0
 11
386.1121087770498
 21
193.8237745142178
 31
0.0
  0
LINE
  5
35F5
330
2
100
AcDbEntity
  8
L-ZISSEN
100
AcDbLine
 10
386.1121087770498
 20
193.7621279482373
 30
0.0
 11
386.1121087770498
 21
192.068066178379
 31
0.0
  0
LINE
  5
35F6
330
2
100
AcDbEntity
  8
L-ZISSEN
100
AcDbLine
 10
388.1661190786635
 20
215.732494545613
 30
0.0
 11
388.1661190786635
 21
220.5941033949275
 31
0.0
  0
LINE
  5
35F7
330
2
100
AcDbEntity
  8
L-ZISSEN
100
AcDbLine
 10
386.9826587770494
 20
215.732494545613
 30
0.0
 11
386.1121087770498
 21
215.732494545613
 31
0.0
  0
LINE
  5
35F8
330
2
100
AcDbEntity
  8
L-ZISSEN
100
AcDbLine
 10
386.1121087770498
 20
209.9937631141128
 30
0.0
 11
387.4902812157943
 21
209.9937631141128
 31
0.0
  0
LINE
  5
35F9
330
2
100
AcDbEntity
  8
L-ZISSEN
100
AcDbLine
 10
386.1121087770498
 20
211.9780873799809
 30
0.0
 11
386.1121087770498
 21
209.9937631141128
 31
0.0
  0
LINE
  5
35FA
330
2
100
AcDbEntity
  8
L-ZISSEN
100
AcDbLine
 10
386.1121087770498
 20
215.732494545613
 30
0.0
 11
386.1121087770498
 21
211.9780873799809
 31
0.0
  0
LINE
  5
35FB
330
2
100
AcDbEntity
  8
L-ZISSEN
100
AcDbLine
 10
387.1378685839427
 20
209.9937631141128
 30
0.0
 11
386.9826587770494
 21
209.9937631141128
 31
0.0
  0
LINE
  5
35FC
330
2
100
AcDbEntity
  8
L-ZISSEN
100
AcDbLine
 10
387.3647801383613
 20
211.9780873799809
 30
0.0
 11
386.9826587770494
 21
211.9780873799809
 31
0.0
  0
LINE
  5
35FD
330
2
100
AcDbEntity
  8
L-ZISSEN
100
AcDbLine
 10
387.3647801383613
 20
215.732494545613
 30
0.0
 11
386.9826587770494
 21
215.732494545613
 31
0.0
  0
LINE
  5
35FE
330
2
100
AcDbEntity
  8
L-ZISSEN
100
AcDbLine
 10
388.1661190786635
 20
215.732494545613
 30
0.0
 11
386.4942301383616
 21
215.732494545613
 31
0.0
  0
LINE
  5
35FF
330
2
100
AcDbEntity
  8
L-ZISSEN
100
AcDbLine
 10
386.1121087770498
 20
220.5941033949275
 30
0.0
 11
387.2955690786639
 21
220.5941033949275
 31
0.0
  0
LINE
  5
3600
330
2
100
AcDbEntity
  8
L-ZISSEN
100
AcDbLine
 10
386.1121087770498
 20
178.6655706629881
 30
0.0
 11
398.1121087770497
 21
178.6655706629881
 31
0.0
  0
LINE
  5
3601
330
2
100
AcDbEntity
  8
L-ZISSEN
100
AcDbLine
 10
387.8030902887203
 20
178.6655706629881
 30
0.0
 11
390.4061003106889
 21
180.4451562039921
 31
0.0
  0
LINE
  5
3602
330
2
100
AcDbEntity
  8
L-ZISSEN
100
AcDbLine
 10
388.5482404399754
 20
192.068066178379
 30
0.0
 11
387.4902812157943
 21
193.8237745142178
 31
0.0
  0
LINE
  5
3603
330
2
100
AcDbEntity
  8
L-ZISSEN
100
AcDbLine
 10
388.5482404399754
 20
192.068066178379
 30
0.0
 11
386.1121087770498
 21
192.068066178379
 31
0.0
  0
LINE
  5
3604
330
2
100
AcDbEntity
  8
L-ZISSEN
100
AcDbLine
 10
387.4902812157943
 20
209.9937631141128
 30
0.0
 11
388.5482404399754
 21
211.9780873799809
 31
0.0
  0
LINE
  5
3605
330
2
100
AcDbEntity
  8
L-ZISSEN
100
AcDbLine
 10
388.5482404399754
 20
211.9780873799809
 30
0.0
 11
386.1121087770498
 21
211.9780873799809
 31
0.0
  0
LINE
  5
3606
330
2
100
AcDbEntity
  8
L-ZISSEN
100
AcDbLine
 10
387.2955690786639
 20
220.5941033949275
 30
0.0
 11
390.4061003106889
 21
220.5941033949275
 31
0.0
  0
LINE
  5
3607
330
2
100
AcDbEntity
  8
L-ZISSEN
100
AcDbLine
 10
389.7183077637492
 20
224.6356055094874
 30
0.0
 11
386.1121087770498
 21
224.6356055094874
 31
0.0
  0
LINE
  5
3608
330
2
100
AcDbEntity
  8
L-ZISSEN
100
AcDbLine
 10
405.4681983448517
 20
268.0186271817747
 30
0.0
 11
405.4683607045554
 21
270.1001017673952
 31
0.0
  0
LINE
  5
3609
330
2
100
AcDbEntity
  8
L-ZISSEN
100
AcDbLine
 10
417.9372312877148
 20
270.0991974048775
 30
0.0
 11
417.4998243371665
 21
270.0991974048775
 31
0.0
  0
LINE
  5
360A
330
2
100
AcDbEntity
  8
L-ZISSEN
100
AcDbLine
 10
417.0624173866181
 20
270.0991974048775
 30
0.0
 11
417.4998243371665
 21
270.0991974048775
 31
0.0
  0
LINE
  5
360B
330
2
100
AcDbEntity
  8
L-ZISSEN
100
AcDbLine
 10
438.499482282572
 20
270.1008013067385
 30
0.0
 11
417.9372312877148
 21
270.0991974048775
 31
0.0
  0
LINE
  5
360C
330
2
100
AcDbEntity
  8
L-ZISSEN
  6
CONTINUOUS
 62
     7
100
AcDbLine
 10
442.1121527918512
 20
224.6356055094874
 30
0.0
 11
442.1121527918512
 21
213.5527071383366
 31
0.0
  0
LINE
  5
360D
330
2
100
AcDbEntity
  8
L-ZISSEN
  6
CONTINUOUS
 62
     7
100
AcDbLine
 10
442.1121527918512
 20
190.1040981835139
 30
0.0
 11
442.1121527918512
 21
180.4451562039921
 31
0.0
  0
LINE
  5
360E
330
2
100
AcDbEntity
  8
L-ZISSEN
100
AcDbLine
 10
437.1121527918494
 20
178.6655706629881
 30
0.0
 11
431.6643753580956
 21
178.6655706629881
 31
0.0
  0
LINE
  5
360F
330
2
100
AcDbEntity
  8
L-ZISSEN
  6
CONTINUOUS
 62
     7
100
AcDbLine
 10
420.2813734976407
 20
202.0976123420768
 30
0.0
 11
424.921321996564
 21
206.4756469737803
 31
0.0
  0
LINE
  5
3610
330
2
100
AcDbEntity
  8
L-ZISSEN
  6
CONTINUOUS
 62
     7
100
AcDbLine
 10
424.921321996564
 20
206.4756469737803
 30
0.0
 11
422.9062586484596
 21
208.7934300140932
 31
0.0
  0
LINE
  5
3611
330
2
100
AcDbEntity
  8
L-ZISSEN
100
AcDbLine
 10
444.592666476843
 20
249.4481625313983
 30
0.0
 11
444.592666476843
 21
245.0257040594733
 31
0.0
  0
LINE
  5
3612
330
2
100
AcDbEntity
  8
L-ZISSEN
100
AcDbLine
 10
444.592666476843
 20
245.0257040594733
 30
0.0
 11
444.592666476843
 21
237.9706996684017
 31
0.0
  0
LINE
  5
3613
330
2
100
AcDbEntity
  8
L-ZISSEN
100
AcDbLine
 10
444.5987455275044
 20
229.6241661318745
 30
0.0
 11
444.5987455275044
 21
237.9706996684017
 31
0.0
  0
ARC
  5
3614
330
2
100
AcDbEntity
  8
L-ZISSEN
100
AcDbCircle
 10
443.5927289768423
 20
252.0257040594733
 30
0.0
 40
0.9999375
100
AcDbArc
 50
0.0
 51
78.54779059895526
  0
LINE
  5
3615
330
2
100
AcDbEntity
  8
L-ZISSEN
100
AcDbLine
 10
444.592666476843
 20
252.0257040594733
 30
0.0
 11
444.592666476843
 21
249.4481625313983
 31
0.0
  0
LINE
  5
3616
330
2
100
AcDbEntity
  8
L-ZISSEN
100
AcDbLine
 10
430.8498545554575
 20
263.9897952555329
 30
0.0
 11
433.689128573953
 21
263.9897952555329
 31
0.0
  0
LINE
  5
3617
330
2
100
AcDbEntity
  8
L-ZISSEN
100
AcDbLine
 10
433.8319331302791
 20
255.0233333500673
 30
0.0
 11
419.5440031650341
 21
255.0233333500673
 31
0.0
  0
LINE
  5
3618
330
2
100
AcDbEntity
  8
L-ZISSEN
100
AcDbLine
 10
429.7560632240474
 20
268.0186271817747
 30
0.0
 11
420.824003165033
 21
268.0186271817747
 31
0.0
  0
LINE
  5
3619
330
2
100
AcDbEntity
  8
L-ZISSEN
100
AcDbLine
 10
429.7560632240474
 20
268.0186271817747
 30
0.0
 11
430.8498545554575
 21
266.8512421035829
 31
0.0
  0
LINE
  5
361A
330
2
100
AcDbEntity
  8
L-ZISSEN
100
AcDbLine
 10
430.8498545554575
 20
266.8512421035829
 30
0.0
 11
430.8498545554575
 21
263.9897952555329
 31
0.0
  0
LINE
  5
361B
330
2
100
AcDbEntity
  8
L-ZISSEN
100
AcDbLine
 10
430.8498545554575
 20
263.9897952555329
 30
0.0
 11
420.824003165033
 21
263.9897952555329
 31
0.0
  0
LINE
  5
361C
330
2
100
AcDbEntity
  8
L-ZISSEN
100
AcDbLine
 10
430.8498545554575
 20
266.8512421035829
 30
0.0
 11
420.824003165033
 21
266.8512421035829
 31
0.0
  0
LINE
  5
361D
330
2
100
AcDbEntity
  8
L-ZISSEN
100
AcDbLine
 10
429.7560632240474
 20
268.0186271817747
 30
0.0
 11
429.7560632240474
 21
263.9897952555329
 31
0.0
  0
LINE
  5
361E
330
2
100
AcDbEntity
  8
L-ZISSEN
100
AcDbLine
 10
433.689128573953
 20
263.9897952555329
 30
0.0
 11
435.1119331302779
 21
262.7843996123865
 31
0.0
  0
LINE
  5
361F
330
2
100
AcDbEntity
  8
L-ZISSEN
100
AcDbLine
 10
435.1119331302779
 20
262.7843996123865
 30
0.0
 11
435.1119331302779
 21
255.0233333500673
 31
0.0
  0
LINE
  5
3620
330
2
100
AcDbEntity
  8
L-ZISSEN
100
AcDbLine
 10
444.592666476843
 20
249.4481625313983
 30
0.0
 11
419.5440031650341
 21
249.4481625313983
 31
0.0
  0
LINE
  5
3621
330
2
100
AcDbEntity
  8
L-ZISSEN
100
AcDbLine
 10
444.592666476843
 20
237.9706996684017
 30
0.0
 11
435.8321527918506
 21
237.9706996684017
 31
0.0
  0
LINE
  5
3622
330
2
100
AcDbEntity
  8
L-ZISSEN
100
AcDbLine
 10
433.8319331302791
 20
255.0233333500673
 30
0.0
 11
443.7912670741625
 21
253.0057334609809
 31
0.0
  0
LINE
  5
3623
330
2
100
AcDbEntity
  8
L-TYUSIN
  6
CENTER
 62
     1
 48
3.0
100
AcDbLine
 10
417.7905433771575
 20
232.3299695555742
 30
0.0
 11
417.7905433771575
 21
173.2522551724741
 31
0.0
  0
LINE
  5
3624
330
2
100
AcDbEntity
  8
L-ZISSEN
100
AcDbLine
 10
418.4045934719652
 20
268.0186271817747
 30
0.0
 11
417.6121307844495
 21
268.0186271817747
 31
0.0
  0
LINE
  5
3625
330
2
100
AcDbEntity
  8
L-ZISSEN
100
AcDbLine
 10
416.8196680969358
 20
268.0186271817747
 30
0.0
 11
417.6121307844495
 21
268.0186271817747
 31
0.0
  0
LINE
  5
3626
330
2
100
AcDbEntity
  8
L-ZISSEN
  6
CONTINUOUS
 62
     7
100
AcDbLine
 10
422.9062586484596
 20
208.7934300140932
 30
0.0
 11
418.292824140959
 21
204.2866296579286
 31
0.0
  0
CIRCLE
  5
3627
330
2
100
AcDbEntity
  8
L-ZISSEN
  6
CONTINUOUS
 62
     7
100
AcDbCircle
 10
417.7905433771575
 20
201.8284026609253
 30
0.0
 40
2.5
  0
LINE
  5
3628
330
2
100
AcDbEntity
  8
L-ZISSEN
100
AcDbLine
 10
420.824003165033
 20
268.0186271817747
 30
0.0
 11
418.4045934719652
 21
268.0186271817747
 31
0.0
  0
LINE
  5
3629
330
2
100
AcDbEntity
  8
L-ZISSEN
100
AcDbLine
 10
420.824003165033
 20
266.8512421035829
 30
0.0
 11
417.6121307844495
 21
266.8512421035829
 31
0.0
  0
LINE
  5
362A
330
2
100
AcDbEntity
  8
L-ZISSEN
100
AcDbLine
 10
420.824003165033
 20
263.9897952555329
 30
0.0
 11
417.6414639074737
 21
263.9897952555329
 31
0.0
  0
LINE
  5
362B
330
2
100
AcDbEntity
  8
L-ZISSEN
100
AcDbLine
 10
420.824003165033
 20
255.0233333500673
 30
0.0
 11
417.6121307844495
 21
255.0233333500673
 31
0.0
  0
LINE
  5
362C
330
2
100
AcDbEntity
  8
L-ZISSEN
100
AcDbLine
 10
420.824003165033
 20
249.4481625313983
 30
0.0
 11
417.6121307844495
 21
249.4481625313983
 31
0.0
  0
LINE
  5
362D
330
2
100
AcDbEntity
  8
L-ZISSEN
100
AcDbLine
 10
437.1121527918494
 20
237.9706996684017
 30
0.0
 11
417.6121307844495
 21
237.9706996684017
 31
0.0
  0
LINE
  5
362E
330
2
100
AcDbEntity
  8
L-ZISSEN
100
AcDbLine
 10
429.7560632240474
 20
268.0186271817747
 30
0.0
 11
429.7559008629778
 21
270.1001192877065
 31
0.0
  0
LINE
  5
362F
330
2
100
AcDbEntity
  8
L-ZISSEN
  6
CONTINUOUS
 62
     7
100
AcDbLine
 10
449.1121527918494
 20
161.4462088214131
 30
0.0
 11
449.1121527918494
 21
180.6356055094875
 31
0.0
  0
LINE
  5
3630
330
2
100
AcDbEntity
  8
L-ZISSEN
100
AcDbLine
 10
449.1121527918494
 20
180.4451562039921
 30
0.0
 11
449.1121527918494
 21
161.4462088214131
 31
0.0
  0
LINE
  5
3631
330
2
100
AcDbEntity
  8
L-ZISSEN
  6
CONTINUOUS
 62
     7
100
AcDbLine
 10
468.1121527918512
 20
170.3859107941662
 30
0.0
 11
468.1121527918512
 21
152.8853002248088
 31
0.0
  0
LINE
  5
3632
330
2
100
AcDbEntity
  8
L-TYUSIN
  6
CENTER
 62
     1
100
AcDbLine
 10
453.1121527918513
 20
154.7235440336207
 30
0.0
 11
453.1121527918513
 21
168.547666985356
 31
0.0
  0
LINE
  5
3633
330
2
100
AcDbEntity
  8
L-ZISSEN
100
AcDbLine
 10
478.112152791853
 20
152.8853002248088
 30
0.0
 11
468.1121527918512
 21
152.8853002248088
 31
0.0
  0
CIRCLE
  5
3634
330
2
100
AcDbEntity
  8
L-ZISSEN
  6
CONTINUOUS
 62
     7
100
AcDbCircle
 10
453.1121527918513
 20
161.6356055094875
 30
0.0
 40
3.5
  0
LINE
  5
3635
330
2
100
AcDbEntity
  8
L-ZISSEN
100
AcDbLine
 10
448.6884913350295
 20
165.3284026609253
 30
0.0
 11
448.6884913350295
 21
157.3284026609253
 31
0.0
  0
LINE
  5
3636
330
2
100
AcDbEntity
  8
L-TYUSIN
  6
CENTER
 62
     1
100
AcDbLine
 10
446.2000913159808
 20
161.6356055094875
 30
0.0
 11
460.0242142677216
 21
161.6356055094875
 31
0.0
  0
LINE
  5
3637
330
2
100
AcDbEntity
  8
L-ZISSEN
  6
CONTINUOUS
 62
     7
100
AcDbLine
 10
496.1121527918512
 20
143.6356055094875
 30
0.0
 11
496.1121527918512
 21
64.6356055094875
 31
0.0
  0
LINE
  5
3638
330
2
100
AcDbEntity
  8
L-ZISSEN
  6
CONTINUOUS
 62
     7
100
AcDbLine
 10
499.1121527918513
 20
61.6356055094875
 30
0.0
 11
504.6121527918512
 21
61.6356055094875
 31
0.0
  0
LINE
  5
3639
330
2
100
AcDbEntity
  8
L-ZISSEN
  6
CONTINUOUS
 62
     7
100
AcDbLine
 10
503.8621527918512
 20
146.6356055094884
 30
0.0
 11
499.1121527918513
 21
146.6356055094875
 31
0.0
  0
LINE
  5
363A
330
2
100
AcDbEntity
  8
L-ZISSEN
100
AcDbLine
 10
496.5389171902393
 20
110.6356055094875
 30
0.0
 11
505.1121527918512
 21
110.6356055094875
 31
0.0
  0
LINE
  5
363B
330
2
100
AcDbEntity
  8
L-ZISSEN
100
AcDbLine
 10
496.5389171902393
 20
71.13560550948751
 30
0.0
 11
505.1121527918512
 21
71.13560550948841
 31
0.0
  0
LINE
  5
363C
330
2
100
AcDbEntity
  8
L-ZISSEN
100
AcDbLine
 10
500.0389171902392
 20
117.1356055094875
 30
0.0
 11
500.0389171902392
 21
122.1356055094874
 31
0.0
  0
LINE
  5
363D
330
2
100
AcDbEntity
  8
L-ZISSEN
100
AcDbLine
 10
496.5389171902393
 20
128.6356055094875
 30
0.0
 11
496.5389171902393
 21
110.6356055094875
 31
0.0
  0
LINE
  5
363E
330
2
100
AcDbEntity
  8
L-ZISSEN
100
AcDbLine
 10
497.5389171902393
 20
122.1356055094874
 30
0.0
 11
497.5389171902393
 21
117.1356055094875
 31
0.0
  0
LINE
  5
363F
330
2
100
AcDbEntity
  8
L-ZISSEN
100
AcDbLine
 10
497.5389171902393
 20
117.1356055094875
 30
0.0
 11
500.0389171902392
 21
117.1356055094875
 31
0.0
  0
LINE
  5
3640
330
2
100
AcDbEntity
  8
L-ZISSEN
100
AcDbLine
 10
500.0389171902392
 20
77.6356055094875
 30
0.0
 11
500.0389171902392
 21
82.63560550948751
 31
0.0
  0
LINE
  5
3641
330
2
100
AcDbEntity
  8
L-ZISSEN
100
AcDbLine
 10
496.5389171902393
 20
89.1356055094875
 30
0.0
 11
496.5389171902393
 21
71.13560550948751
 31
0.0
  0
LINE
  5
3642
330
2
100
AcDbEntity
  8
L-ZISSEN
100
AcDbLine
 10
497.5389171902393
 20
82.63560550948751
 30
0.0
 11
497.5389171902393
 21
77.6356055094875
 31
0.0
  0
LINE
  5
3643
330
2
100
AcDbEntity
  8
L-ZISSEN
100
AcDbLine
 10
497.5389171902393
 20
77.6356055094875
 30
0.0
 11
500.0389171902392
 21
77.6356055094875
 31
0.0
  0
LINE
  5
3644
330
2
100
AcDbEntity
  8
L-ZISSEN
100
AcDbLine
 10
500.0389171902392
 20
82.63560550948751
 30
0.0
 11
497.5389171902393
 21
82.63560550948751
 31
0.0
  0
LINE
  5
3645
330
2
100
AcDbEntity
  8
L-ZISSEN
100
AcDbLine
 10
500.0389171902392
 20
122.1356055094874
 30
0.0
 11
497.5389171902393
 21
122.1356055094874
 31
0.0
  0
LINE
  5
3646
330
2
100
AcDbEntity
  8
L-ZISSEN
100
AcDbLine
 10
505.1121527918512
 20
128.6356055094875
 30
0.0
 11
505.1121527918512
 21
66.13560550948751
 31
0.0
  0
LINE
  5
3647
330
2
100
AcDbEntity
  8
L-ZISSEN
100
AcDbLine
 10
504.6121527918512
 20
66.13560550948751
 30
0.0
 11
504.6121527918512
 21
61.13560550948751
 31
0.0
  0
LINE
  5
3648
330
2
100
AcDbEntity
  8
L-ZISSEN
100
AcDbLine
 10
504.6121527918512
 20
128.6356055094875
 30
0.0
 11
504.6121527918512
 21
133.6356055094874
 31
0.0
  0
LINE
  5
3649
330
2
100
AcDbEntity
  8
L-ZISSEN
100
AcDbLine
 10
504.6480511767136
 20
133.6356055094874
 30
0.0
 11
504.6480511767136
 21
142.6356055094875
 31
0.0
  0
LINE
  5
364A
330
2
100
AcDbEntity
  8
L-ZISSEN
100
AcDbLine
 10
501.1839495615759
 20
133.6356055094874
 30
0.0
 11
501.1839495615759
 21
142.6356055094875
 31
0.0
  0
LINE
  5
364B
330
2
100
AcDbEntity
  8
L-ZISSEN
100
AcDbLine
 10
503.8621527918512
 20
142.6356055094875
 30
0.0
 11
503.8621527918512
 21
152.6356055094875
 31
0.0
  0
LINE
  5
364C
330
2
100
AcDbEntity
  8
L-ZISSEN
100
AcDbLine
 10
503.6121527918512
 20
152.6356055094875
 30
0.0
 11
503.6121527918512
 21
159.6356055094874
 31
0.0
  0
ARC
  5
364D
330
2
100
AcDbEntity
  8
L-ZISSEN
100
AcDbCircle
 10
508.1121527918512
 20
156.1356055094875
 30
0.0
 40
5.0
100
AcDbArc
 50
154.1580672367989
 51
205.841932763201
  0
ARC
  5
364E
330
2
100
AcDbEntity
  8
L-ZISSEN
  6
CONTINUOUS
 62
     7
100
AcDbCircle
 10
499.1121527918513
 20
143.6356055094875
 30
0.0
 40
3.0
100
AcDbArc
 50
90.0
 51
180.0
  0
ARC
  5
364F
330
2
100
AcDbEntity
  8
L-ZISSEN
  6
CONTINUOUS
 62
     7
100
AcDbCircle
 10
499.1121527918513
 20
64.6356055094875
 30
0.0
 40
3.0
100
AcDbArc
 50
180.0
 51
270.0
  0
LINE
  5
3650
330
2
100
AcDbEntity
  8
L-ZISSEN
100
AcDbLine
 10
505.1121527918512
 20
89.13560550948842
 30
0.0
 11
496.5389171902393
 21
89.1356055094875
 31
0.0
  0
LINE
  5
3651
330
2
100
AcDbEntity
  8
L-ZISSEN
  6
CONTINUOUS
 62
     7
100
AcDbLine
 10
478.1121527918513
 20
174.1356055094875
 30
0.0
 11
449.2905433771593
 21
174.1356055094875
 31
0.0
  0
LINE
  5
3652
330
2
100
AcDbEntity
  8
L-ZISSEN
100
AcDbLine
 10
478.1121527918513
 20
170.3859107941662
 30
0.0
 11
468.1121527918512
 21
170.3859107941662
 31
0.0
  0
LINE
  5
3653
330
2
100
AcDbEntity
  8
L-ZISSEN
  6
CONTINUOUS
 62
     7
100
AcDbLine
 10
478.1121527918513
 20
202.1356055094875
 30
0.0
 11
464.1121527918512
 21
202.1356055094875
 31
0.0
  0
LINE
  5
3654
330
2
100
AcDbEntity
  8
L-ZISSEN
100
AcDbLine
 10
449.1121527918494
 20
178.6655706629881
 30
0.0
 11
449.1121527918494
 21
171.3521552714919
 31
0.0
  0
LINE
  5
3655
330
2
100
AcDbEntity
  8
L-ZISSEN
  6
CONTINUOUS
 62
     7
100
AcDbLine
 10
463.1121527918512
 20
224.6356055094874
 30
0.0
 11
463.1121527918512
 21
179.6356055094875
 31
0.0
  0
LINE
  5
3656
330
2
100
AcDbEntity
  8
L-ZISSEN
  6
CONTINUOUS
 62
     7
100
AcDbLine
 10
464.1121527918512
 20
202.1356055094875
 30
0.0
 11
464.1121527918512
 21
224.6356055094874
 31
0.0
  0
LINE
  5
3657
330
2
100
AcDbEntity
  8
L-ZISSEN
  6
CONTINUOUS
 62
     7
100
AcDbLine
 10
469.4961642202724
 20
249.2356055094878
 30
0.0
 11
469.1453174152139
 21
229.1356055094875
 31
0.0
  0
LINE
  5
3658
330
2
100
AcDbEntity
  8
L-ZISSEN
  6
CONTINUOUS
 62
     7
100
AcDbLine
 10
467.8121527918501
 20
224.6356055094874
 30
0.0
 11
467.8121527918501
 21
229.1356055094875
 31
0.0
  0
LINE
  5
3659
330
2
100
AcDbEntity
  8
L-ZISSEN
  6
CONTINUOUS
 62
     7
100
AcDbLine
 10
445.7284963160982
 20
229.6241661318745
 30
0.0
 11
445.7284963160982
 21
224.6356055094874
 31
0.0
  0
CIRCLE
  5
365A
330
2
100
AcDbEntity
  8
L-ZISSEN
100
AcDbCircle
 10
449.1121527918494
 20
186.2705253650219
 30
0.0
 40
3.5
  0
CIRCLE
  5
365B
330
2
100
AcDbEntity
  8
L-ZISSEN
100
AcDbCircle
 10
449.1121527918494
 20
217.9997307985922
 30
0.0
 40
3.5
  0
POLYLINE
  5
365C
330
2
100
AcDbEntity
  8
L-ZISSEN
100
AcDb2dPolyline
 66
     1
 10
0.0
 20
0.0
 30
0.0
 70
     1
  0
VERTEX
  5
60B8
330
365C
100
AcDbEntity
  8
L-ZISSEN
100
AcDbVertex
100
AcDb2dVertex
 10
448.2461273880653
 20
187.7705253650219
 30
0.0
  0
VERTEX
  5
60B9
330
365C
100
AcDbEntity
  8
L-ZISSEN
100
AcDbVertex
100
AcDb2dVertex
 10
447.3801019842812
 20
186.2705253650219
 30
0.0
  0
VERTEX
  5
60BA
330
365C
100
AcDbEntity
  8
L-ZISSEN
100
AcDbVertex
100
AcDb2dVertex
 10
448.2461273880653
 20
184.7705253650219
 30
0.0
  0
VERTEX
  5
60BB
330
365C
100
AcDbEntity
  8
L-ZISSEN
100
AcDbVertex
100
AcDb2dVertex
 10
449.9781781956353
 20
184.7705253650219
 30
0.0
  0
VERTEX
  5
60BC
330
365C
100
AcDbEntity
  8
L-ZISSEN
100
AcDbVertex
100
AcDb2dVertex
 10
450.8442035994193
 20
186.2705253650219
 30
0.0
  0
VERTEX
  5
60BD
330
365C
100
AcDbEntity
  8
L-ZISSEN
100
AcDbVertex
100
AcDb2dVertex
 10
449.9781781956353
 20
187.7705253650219
 30
0.0
  0
SEQEND
  5
60BE
330
365C
100
AcDbEntity
  8
L-ZISSEN
  0
POLYLINE
  5
365D
330
2
100
AcDbEntity
  8
L-ZISSEN
100
AcDb2dPolyline
 66
     1
 10
0.0
 20
0.0
 30
0.0
 70
     1
  0
VERTEX
  5
60BF
330
365D
100
AcDbEntity
  8
L-ZISSEN
100
AcDbVertex
100
AcDb2dVertex
 10
448.2461273880653
 20
219.4997307985922
 30
0.0
  0
VERTEX
  5
60C0
330
365D
100
AcDbEntity
  8
L-ZISSEN
100
AcDbVertex
100
AcDb2dVertex
 10
447.3801019842812
 20
217.9997307985922
 30
0.0
  0
VERTEX
  5
60C1
330
365D
100
AcDbEntity
  8
L-ZISSEN
100
AcDbVertex
100
AcDb2dVertex
 10
448.2461273880653
 20
216.4997307985923
 30
0.0
  0
VERTEX
  5
60C2
330
365D
100
AcDbEntity
  8
L-ZISSEN
100
AcDbVertex
100
AcDb2dVertex
 10
449.9781781956353
 20
216.4997307985923
 30
0.0
  0
VERTEX
  5
60C3
330
365D
100
AcDbEntity
  8
L-ZISSEN
100
AcDbVertex
100
AcDb2dVertex
 10
450.8442035994193
 20
217.9997307985922
 30
0.0
  0
VERTEX
  5
60C4
330
365D
100
AcDbEntity
  8
L-ZISSEN
100
AcDbVertex
100
AcDb2dVertex
 10
449.9781781956353
 20
219.4997307985922
 30
0.0
  0
SEQEND
  5
60C5
330
365D
100
AcDbEntity
  8
L-ZISSEN
  0
LINE
  5
365E
330
2
100
AcDbEntity
  8
L-ZISSEN
  6
CONTINUOUS
 62
     7
100
AcDbLine
 10
503.1121527918513
 20
179.6356055094875
 30
0.0
 11
503.1121527918513
 21
224.6356055094874
 31
0.0
  0
LINE
  5
365F
330
2
100
AcDbEntity
  8
L-ZISSEN
  6
CONTINUOUS
 62
     7
100
AcDbLine
 10
478.1121527918513
 20
202.1356055094875
 30
0.0
 11
478.1121527918513
 21
178.6356055094875
 31
0.0
  0
LINE
  5
3660
330
2
100
AcDbEntity
  8
L-ZISSEN
  6
CONTINUOUS
 62
     7
100
AcDbLine
 10
478.1121527918513
 20
178.6356055094875
 30
0.0
 11
478.1121527918513
 21
179.6356055094875
 31
0.0
  0
LINE
  5
3662
330
2
100
AcDbEntity
  8
L-TYUSIN
 48
3.0
100
AcDbLine
 10
370.8915496389072
 20
526.9983283739402
 30
0.0
 11
472.6416885805974
 21
526.9983283739402
 31
0.0
  0
LINE
  5
3664
330
2
100
AcDbEntity
  8
L-ZISSEN
  6
CONTINUOUS
 62
     7
100
AcDbLine
 10
468.1121747992529
 20
606.9983283739384
 30
0.0
 11
468.1121747992529
 21
486.9983283739384
 31
0.0
  0
LINE
  5
3665
330
2
100
AcDbEntity
  8
L-TYUSIN
  6
CENTER
 62
     1
 48
3.0
100
AcDbLine
 10
417.6121527918512
 20
444.6147402073438
 30
0.0
 11
417.6121527918512
 21
575.6854047789784
 31
0.0
  0
LINE
  5
3666
330
2
100
AcDbEntity
  8
L-ZISSEN
  6
CONTINUOUS
 62
     7
100
AcDbLine
 10
424.6121635814433
 20
495.4983283739402
 30
0.0
 11
424.6121635814433
 21
481.4983283739402
 31
0.0
  0
LINE
  5
3667
330
2
100
AcDbEntity
  8
L-ZISSEN
  6
CONTINUOUS
 62
     7
100
AcDbLine
 10
410.6121635814433
 20
495.4983283739402
 30
0.0
 11
410.6121635814433
 21
481.4983283739402
 31
0.0
  0
LINE
  5
3668
330
2
100
AcDbEntity
  8
L-ZISSEN
  6
CONTINUOUS
 62
     7
100
AcDbLine
 10
464.1121747992529
 20
486.9983283739384
 30
0.0
 11
464.1121747992529
 21
501.9983283739384
 31
0.0
  0
LINE
  5
3669
330
2
100
AcDbEntity
  8
L-ZISSEN
100
AcDbLine
 10
477.5260693077707
 20
496.4122448898579
 30
0.0
 11
468.1121747992529
 21
486.9983283739384
 31
0.0
  0
LINE
  5
366B
330
2
100
AcDbEntity
  8
L-ZISSEN
100
AcDbLine
 10
412.8058909747051
 20
303.8656850399729
 30
0.0
 11
422.1937576996278
 21
303.8656850399729
 31
0.0
  0
LINE
  5
366C
330
2
100
AcDbEntity
  8
L-ZISSEN
100
AcDbLine
 10
431.8215291746655
 20
305.8284026609253
 30
0.0
 11
403.1781194996656
 21
305.8284026609253
 31
0.0
  0
ARC
  5
366D
330
2
100
AcDbEntity
  8
L-ZISSEN
100
AcDbCircle
 10
417.5179575584643
 20
297.2290988269124
 30
0.0
 40
22.12957785094127
100
AcDbArc
 50
253.2706224782763
 51
286.7293775217236
  0
LINE
  5
366E
330
2
100
AcDbEntity
  8
L-ZISSEN
100
AcDbLine
 10
422.1937576996278
 20
276.0361547100965
 30
0.0
 11
412.8058909747051
 21
276.0361547100965
 31
0.0
  0
LINE
  5
366F
330
2
100
AcDbEntity
  8
L-ZISSEN
100
AcDbLine
 10
412.8058909747051
 20
303.8656850399729
 30
0.0
 11
409.3918712978193
 21
302.6856715274916
 31
0.0
  0
LINE
  5
3670
330
2
100
AcDbEntity
  8
L-ZISSEN
100
AcDbLine
 10
405.9622674031507
 20
303.8904013604315
 30
0.0
 11
405.2580425183387
 21
302.584551831147
 31
0.0
  0
LINE
  5
3671
330
2
100
AcDbEntity
  8
L-ZISSEN
100
AcDbLine
 10
409.3918712978193
 20
302.6856715274916
 30
0.0
 11
405.2580425183387
 21
302.584551831147
 31
0.0
  0
LINE
  5
3672
330
2
100
AcDbEntity
  8
L-ZISSEN
100
AcDbLine
 10
405.2580425183387
 20
302.584551831147
 30
0.0
 11
405.2824455995014
 21
276.0361547100965
 31
0.0
  0
LINE
  5
3673
330
2
100
AcDbEntity
  8
L-ZISSEN
100
AcDbLine
 10
409.3918712978193
 20
302.6856715274916
 30
0.0
 11
411.1479233731261
 21
276.0361547100965
 31
0.0
  0
LINE
  5
3674
330
2
100
AcDbEntity
  8
L-ZISSEN
100
AcDbLine
 10
412.8058909747051
 20
276.0361547100965
 30
0.0
 11
412.8058909747051
 21
303.8656850399729
 31
0.0
  0
LINE
  5
3675
330
2
100
AcDbEntity
  8
L-ZISSEN
100
AcDbLine
 10
398.7279572228144
 20
276.0361547100965
 30
0.0
 11
400.0341662767532
 21
303.8656850399729
 31
0.0
  0
LINE
  5
3676
330
2
100
AcDbEntity
  8
L-ZISSEN
100
AcDbLine
 10
403.1781194996656
 20
305.8284026609253
 30
0.0
 11
397.8823925032102
 21
302.522368520229
 31
0.0
  0
LINE
  5
3677
330
2
100
AcDbEntity
  8
L-ZISSEN
100
AcDbLine
 10
400.0341662767532
 20
303.8656850399729
 30
0.0
 11
405.9622674031507
 21
303.8904013604315
 31
0.0
  0
ARC
  5
3678
330
2
100
AcDbEntity
  8
L-ZISSEN
100
AcDbCircle
 10
401.0178267217997
 20
285.0229247006282
 30
0.0
 40
9.947311648618514
100
AcDbArc
 50
244.6135971230278
 51
295.3864028769721
  0
LINE
  5
3679
330
2
100
AcDbEntity
  8
L-ZISSEN
100
AcDbLine
 10
405.2824455995014
 20
276.0361547100965
 30
0.0
 11
398.7279572228144
 21
276.0361547100965
 31
0.0
  0
LINE
  5
367A
330
2
100
AcDbEntity
  8
L-ZISSEN
100
AcDbLine
 10
434.9654823975779
 20
303.8656850399729
 30
0.0
 11
428.7535454934113
 21
303.8656850399729
 31
0.0
  0
LINE
  5
367B
330
2
100
AcDbEntity
  8
L-ZISSEN
100
AcDbLine
 10
428.7535454934113
 20
303.8656850399729
 30
0.0
 11
429.7172030748315
 21
302.522368520229
 31
0.0
  0
LINE
  5
367C
330
2
100
AcDbEntity
  8
L-ZISSEN
100
AcDbLine
 10
425.5972388677819
 20
302.522368520229
 30
0.0
 11
429.7172030748315
 21
302.522368520229
 31
0.0
  0
LINE
  5
367D
330
2
100
AcDbEntity
  8
L-ZISSEN
100
AcDbLine
 10
422.1937576996278
 20
303.8656850399729
 30
0.0
 11
425.6077773765118
 21
302.6856715274916
 31
0.0
  0
LINE
  5
367E
330
2
100
AcDbEntity
  8
L-ZISSEN
100
AcDbLine
 10
437.1172561711228
 20
302.522368520229
 30
0.0
 11
431.8215291746655
 21
305.8284026609253
 31
0.0
  0
LINE
  5
367F
330
2
100
AcDbEntity
  8
L-ZISSEN
100
AcDbLine
 10
429.7172030748315
 20
276.0361547100965
 30
0.0
 11
436.2439374500427
 21
276.0361547100965
 31
0.0
  0
ARC
  5
3680
330
2
100
AcDbEntity
  8
L-ZISSEN
100
AcDbCircle
 10
433.9818219525313
 20
285.2705382412023
 30
0.0
 40
10.17156887464149
100
AcDbArc
 50
245.211583738209
 51
294.788416261791
  0
LINE
  5
3681
330
2
100
AcDbEntity
  8
L-ZISSEN
100
AcDbLine
 10
436.2439374500427
 20
276.0361547100965
 30
0.0
 11
434.9654823975779
 21
303.8656850399729
 31
0.0
  0
LINE
  5
3682
330
2
100
AcDbEntity
  8
L-ZISSEN
100
AcDbLine
 10
429.7172030748315
 20
302.522368520229
 30
0.0
 11
429.7172030748315
 21
276.0361547100965
 31
0.0
  0
LINE
  5
3683
330
2
100
AcDbEntity
  8
L-ZISSEN
100
AcDbLine
 10
425.6077773765118
 20
302.6856715274916
 30
0.0
 11
423.8879917438062
 21
276.0361547100965
 31
0.0
  0
LINE
  5
3684
330
2
100
AcDbEntity
  8
L-ZISSEN
100
AcDbLine
 10
422.1937576996278
 20
303.8656850399729
 30
0.0
 11
422.1937576996278
 21
276.0361547100965
 31
0.0
  0
LINE
  5
3685
330
2
100
AcDbEntity
  8
L-ZISSEN
  6
CONTINUOUS
 62
     7
100
AcDbLine
 10
390.6121527918512
 20
457.4983283739402
 30
0.0
 11
444.6121527918513
 21
457.4983283739402
 31
0.0
  0
LINE
  5
3686
330
2
100
AcDbEntity
  8
L-ZISSEN
  6
CONTINUOUS
 62
     7
100
AcDbLine
 10
390.6121527918512
 20
463.4983283739402
 30
0.0
 11
444.6121527918513
 21
463.4983283739402
 31
0.0
  0
LINE
  5
3687
330
2
100
AcDbEntity
  8
L-ZISSEN
  6
CONTINUOUS
 62
     7
100
AcDbLine
 10
391.6121527918512
 20
481.4983283739402
 30
0.0
 11
443.6121527918512
 21
481.4983283739402
 31
0.0
  0
LINE
  5
3688
330
2
100
AcDbEntity
  8
L-ZISSEN
  6
CONTINUOUS
 62
     7
100
AcDbLine
 10
391.6121527918512
 20
463.4983283739402
 30
0.0
 11
391.6121527918512
 21
481.4983283739402
 31
0.0
  0
LINE
  5
3689
330
2
100
AcDbEntity
  8
L-ZISSEN
  6
CONTINUOUS
 62
     7
100
AcDbLine
 10
390.6121527918512
 20
457.4983283739402
 30
0.0
 11
390.6121527918512
 21
463.4983283739402
 31
0.0
  0
LINE
  5
368A
330
2
100
AcDbEntity
  8
L-ZISSEN
  6
CONTINUOUS
 62
     7
100
AcDbLine
 10
443.6121527918512
 20
463.4983283739402
 30
0.0
 11
443.6121527918512
 21
481.4983283739402
 31
0.0
  0
LINE
  5
368B
330
2
100
AcDbEntity
  8
L-ZISSEN
  6
CONTINUOUS
 62
     7
100
AcDbLine
 10
444.6121527918513
 20
457.4983283739402
 30
0.0
 11
444.6121527918513
 21
463.4983283739402
 31
0.0
  0
LINE
  5
368C
330
2
100
AcDbEntity
  8
L-ZISSEN
  6
CONTINUOUS
 62
     7
100
AcDbLine
 10
496.1121747992528
 20
486.9983283739384
 30
0.0
 11
496.1121747992528
 21
484.9983283739383
 31
0.0
  0
LINE
  5
368D
330
2
100
AcDbEntity
  8
L-ZISSEN
  6
CONTINUOUS
 62
     7
100
AcDbLine
 10
501.7854670073448
 20
484.9983283739383
 30
0.0
 11
496.1121747992528
 21
484.9983283739383
 31
0.0
  0
LINE
  5
368E
330
2
100
AcDbEntity
  8
L-ZISSEN
  6
CONTINUOUS
 62
     7
 48
3.0
100
AcDbLine
 10
501.7854670073448
 20
470.4983283739384
 30
0.0
 11
501.7854670073448
 21
486.9983283739384
 31
0.0
  0
LINE
  5
368F
330
2
100
AcDbEntity
  8
L-ZISSEN
  6
CONTINUOUS
 62
     7
100
AcDbLine
 10
463.1121747992529
 20
551.9983391635324
 30
0.0
 11
437.15986921701
 21
551.9983391635324
 31
0.0
  0
LINE
  5
3690
330
2
100
AcDbEntity
  8
L-ZISSEN
  6
CONTINUOUS
 62
     7
100
AcDbLine
 10
463.1121747992529
 20
501.9983175843463
 30
0.0
 11
437.15986921701
 21
501.9983175843463
 31
0.0
  0
CIRCLE
  5
3691
330
2
100
AcDbEntity
  8
L-ZISSEN
  6
CONTINUOUS
 62
     7
100
AcDbCircle
 10
417.6121527918512
 20
526.9983283739402
 30
0.0
 40
31.5
  0
POLYLINE
  5
3692
330
2
100
AcDbEntity
  8
L-ZISSEN
  6
CONTINUOUS
 62
     7
100
AcDb2dPolyline
 66
     1
 10
0.0
 20
0.0
 30
0.0
 70
     1
  0
VERTEX
  5
60C6
330
3692
100
AcDbEntity
  8
L-ZISSEN
  6
CONTINUOUS
 62
     7
100
AcDbVertex
100
AcDb2dVertex
 10
404.5644255770985
 20
558.4983283739402
 30
0.0
  0
VERTEX
  5
60C7
330
3692
100
AcDbEntity
  8
L-ZISSEN
  6
CONTINUOUS
 62
     7
100
AcDbVertex
100
AcDb2dVertex
 10
386.1121527918512
 20
540.046055588693
 30
0.0
  0
VERTEX
  5
60C8
330
3692
100
AcDbEntity
  8
L-ZISSEN
  6
CONTINUOUS
 62
     7
100
AcDbVertex
100
AcDb2dVertex
 10
386.1121527918512
 20
513.9506011591874
 30
0.0
  0
VERTEX
  5
60C9
330
3692
100
AcDbEntity
  8
L-ZISSEN
  6
CONTINUOUS
 62
     7
100
AcDbVertex
100
AcDb2dVertex
 10
404.5644255770985
 20
495.4983283739402
 30
0.0
  0
VERTEX
  5
60CA
330
3692
100
AcDbEntity
  8
L-ZISSEN
  6
CONTINUOUS
 62
     7
100
AcDbVertex
100
AcDb2dVertex
 10
430.659880006604
 20
495.4983283739402
 30
0.0
  0
VERTEX
  5
60CB
330
3692
100
AcDbEntity
  8
L-ZISSEN
  6
CONTINUOUS
 62
     7
100
AcDbVertex
100
AcDb2dVertex
 10
449.1121527918513
 20
513.9506011591874
 30
0.0
  0
VERTEX
  5
60CC
330
3692
100
AcDbEntity
  8
L-ZISSEN
  6
CONTINUOUS
 62
     7
100
AcDbVertex
100
AcDb2dVertex
 10
449.1121527918513
 20
540.046055588693
 30
0.0
  0
VERTEX
  5
60CD
330
3692
100
AcDbEntity
  8
L-ZISSEN
  6
CONTINUOUS
 62
     7
100
AcDbVertex
100
AcDb2dVertex
 10
430.659880006604
 20
558.4983283739402
 30
0.0
  0
SEQEND
  5
60CE
330
3692
100
AcDbEntity
  8
L-ZISSEN
  6
CONTINUOUS
 62
     7
  0
LINE
  5
3693
330
2
100
AcDbEntity
  8
L-ZISSEN
  6
CONTINUOUS
 62
     7
100
AcDbLine
 10
477.1121747992529
 20
634.9983283739383
 30
0.0
 11
438.1121527918512
 21
634.9983283739383
 31
0.0
  0
LINE
  5
3694
330
2
100
AcDbEntity
  8
L-ZISSEN
  6
CONTINUOUS
 62
     7
100
AcDbLine
 10
438.1121527918512
 20
636.9983283739384
 30
0.0
 11
479.1121747992528
 21
636.9983283739384
 31
0.0
  0
CIRCLE
  5
3695
330
2
100
AcDbEntity
  8
L-ZISSEN
  6
CONTINUOUS
 62
     7
100
AcDbCircle
 10
417.6121527918512
 20
526.9983283739402
 30
0.0
 40
13.0
  0
CIRCLE
  5
3696
330
2
100
AcDbEntity
  8
L-ZISSEN
  6
CONTINUOUS
 62
     7
100
AcDbCircle
 10
417.6121527918512
 20
526.9983283739402
 30
0.0
 40
20.0
  0
LINE
  5
3697
330
2
100
AcDbEntity
  8
L-ZISSEN
  6
CONTINUOUS
 62
     7
100
AcDbLine
 10
413.8621525212311
 20
507.3530334560364
 30
0.0
 11
413.8621501835441
 21
510.4170861141228
 31
0.0
  0
LINE
  5
3698
330
2
100
AcDbEntity
  8
L-ZISSEN
  6
CONTINUOUS
 62
     7
100
AcDbLine
 10
402.4738255188458
 20
513.9280755316831
 30
0.0
 11
405.1273717904386
 21
515.4601038852215
 31
0.0
  0
ARC
  5
3699
330
2
100
AcDbEntity
  8
L-ZISSEN
  6
CONTINUOUS
 62
     7
100
AcDbCircle
 10
417.6121375330621
 20
526.9983283739348
 30
0.0
 40
17.0
100
AcDbArc
 50
222.7436289354225
 51
257.2564584909699
  0
LINE
  5
369A
330
2
100
AcDbEntity
  8
L-ZISSEN
  6
CONTINUOUS
 62
     7
100
AcDbLine
 10
413.8621525212311
 20
546.6436232918422
 30
0.0
 11
413.8621501835441
 21
543.5795706337576
 31
0.0
  0
LINE
  5
369B
330
2
100
AcDbEntity
  8
L-ZISSEN
  6
CONTINUOUS
 62
     7
100
AcDbLine
 10
402.4738255188458
 20
540.0685812161973
 30
0.0
 11
405.1273717904386
 21
538.5365528626571
 31
0.0
  0
ARC
  5
369C
330
2
100
AcDbEntity
  8
L-ZISSEN
  6
CONTINUOUS
 62
     7
100
AcDbCircle
 10
417.6121375330621
 20
526.9983283739456
 30
0.0
 40
17.0
100
AcDbArc
 50
102.74354150903
 51
137.2563710645774
  0
LINE
  5
369D
330
2
100
AcDbEntity
  8
L-ZISSEN
  6
CONTINUOUS
 62
     7
100
AcDbLine
 10
398.7238510809875
 20
533.573393548826
 30
0.0
 11
401.3773973525803
 21
532.0413651952876
 31
0.0
  0
LINE
  5
369E
330
2
100
AcDbEntity
  8
L-ZISSEN
  6
CONTINUOUS
 62
     7
100
AcDbLine
 10
398.7238410482568
 20
520.4232920203339
 30
0.0
 11
401.3773896575348
 21
521.9553163248802
 31
0.0
  0
ARC
  5
369F
330
2
100
AcDbEntity
  8
L-ZISSEN
  6
CONTINUOUS
 62
     7
100
AcDbCircle
 10
417.6121680506403
 20
526.9983283739348
 30
0.0
 40
17.0
100
AcDbArc
 50
162.7435415089534
 51
197.2563710645668
  0
LINE
  5
36A0
330
2
100
AcDbEntity
  8
L-ZISSEN
  6
CONTINUOUS
 62
     7
100
AcDbLine
 10
436.500474777873
 20
533.5733791381881
 30
0.0
 11
433.8469273374376
 21
532.0413528091449
 31
0.0
  0
LINE
  5
36A1
330
2
100
AcDbEntity
  8
L-ZISSEN
  6
CONTINUOUS
 62
     7
100
AcDbLine
 10
436.500474777873
 20
520.4232776096923
 30
0.0
 11
433.8469273374376
 21
521.9553039387355
 31
0.0
  0
ARC
  5
36A2
330
2
100
AcDbEntity
  8
L-ZISSEN
  6
CONTINUOUS
 62
     7
100
AcDbCircle
 10
417.6121527918512
 20
526.9983283739402
 30
0.0
 40
17.0
100
AcDbArc
 50
342.7435852222239
 51
17.25641477777605
  0
LINE
  5
36A3
330
2
100
AcDbEntity
  8
L-ZISSEN
  6
CONTINUOUS
 62
     7
100
AcDbLine
 10
421.3621527918512
 20
507.3530363170593
 30
0.0
 11
421.3621527918512
 21
510.4170889751458
 31
0.0
  0
ARC
  5
36A4
330
2
100
AcDbEntity
  8
L-ZISSEN
  6
CONTINUOUS
 62
     7
100
AcDbCircle
 10
417.6121527918512
 20
526.9983283739402
 30
0.0
 40
17.0
100
AcDbArc
 50
282.7435852221722
 51
317.2564147778149
  0
LINE
  5
36A5
330
2
100
AcDbEntity
  8
L-ZISSEN
  6
CONTINUOUS
 62
     7
100
AcDbLine
 10
432.750474777873
 20
513.928087081309
 30
0.0
 11
430.0969273374375
 21
515.4601134103522
 31
0.0
  0
LINE
  5
36A6
330
2
100
AcDbEntity
  8
L-ZISSEN
  6
CONTINUOUS
 62
     7
100
AcDbLine
 10
421.3621527918512
 20
546.6436204308193
 30
0.0
 11
421.3621527918512
 21
543.5795677727328
 31
0.0
  0
ARC
  5
36A7
330
2
100
AcDbEntity
  8
L-ZISSEN
  6
CONTINUOUS
 62
     7
100
AcDbCircle
 10
417.6121527918512
 20
526.9983283739402
 30
0.0
 40
17.0
100
AcDbArc
 50
42.74358522218503
 51
77.25641477782779
  0
LINE
  5
36A8
330
2
100
AcDbEntity
  8
L-ZISSEN
  6
CONTINUOUS
 62
     7
100
AcDbLine
 10
432.750474777873
 20
540.0685696665714
 30
0.0
 11
430.0969273374375
 21
538.5365433375282
 31
0.0
  0
LINE
  5
36A9
330
2
100
AcDbEntity
  8
L-ZISSEN
  6
CONTINUOUS
 62
     7
100
AcDbLine
 10
438.1121527918512
 20
634.9983283739383
 30
0.0
 11
438.1121527918512
 21
636.9983283739384
 31
0.0
  0
LINE
  5
36AA
330
2
100
AcDbEntity
  8
L-ZISSEN
  6
CONTINUOUS
 62
     7
100
AcDbLine
 10
464.1121747992529
 20
593.9983283739402
 30
0.0
 11
464.1121747992529
 21
606.9983283739384
 31
0.0
  0
LINE
  5
36AB
330
2
100
AcDbEntity
  8
L-ZISSEN
100
AcDbLine
 10
468.1121747992529
 20
606.9983283739384
 30
0.0
 11
477.5260693077707
 21
597.5844118580207
 31
0.0
  0
LINE
  5
36AC
330
2
100
AcDbEntity
  8
L-ZISSEN
  6
CONTINUOUS
 62
     7
100
AcDbLine
 10
463.1121747992529
 20
501.9983283739384
 30
0.0
 11
463.1121747992529
 21
593.9983283739384
 31
0.0
  0
LINE
  5
36AD
330
2
100
AcDbEntity
  8
L-TYUSIN
  6
CENTER
 62
     1
100
AcDbLine
 10
472.3950537314776
 20
576.9983283739402
 30
0.0
 11
453.8292958670263
 21
576.9983283739384
 31
0.0
  0
LINE
  5
36AE
330
2
100
AcDbEntity
  8
L-ZISSEN
  6
CONTINUOUS
 62
     7
100
AcDbLine
 10
463.1121747992529
 20
501.9983283739384
 30
0.0
 11
464.1121747992529
 21
501.9983283739384
 31
0.0
  0
LINE
  5
36AF
330
2
100
AcDbEntity
  8
L-ZISSEN
  6
CONTINUOUS
 62
     7
100
AcDbLine
 10
463.1121747992529
 20
593.9983283739384
 30
0.0
 11
464.1121747992529
 21
593.9983283739402
 31
0.0
  0
LINE
  5
36B0
330
2
100
AcDbEntity
  8
L-ZISSEN
  6
CONTINUOUS
 62
     7
100
AcDbLine
 10
477.5260693077707
 20
496.4122448898579
 30
0.0
 11
477.5260693077707
 21
597.5844118580207
 31
0.0
  0
LINE
  5
36B1
330
2
100
AcDbEntity
  8
L-TYUSIN
  6
CENTER
 62
     1
100
AcDbLine
 10
453.1121527918513
 20
628.5862668980735
 30
0.0
 11
453.1121527918513
 21
642.4103898498069
 31
0.0
  0
LINE
  5
36B2
330
2
100
AcDbEntity
  8
L-ZISSEN
  6
CONTINUOUS
 62
     7
100
AcDbLine
 10
497.3621747992528
 20
624.4983283739402
 30
0.0
 11
497.3621747992528
 21
618.9983283739402
 31
0.0
  0
LINE
  5
36B3
330
2
100
AcDbEntity
  8
L-ZISSEN
  6
CONTINUOUS
 62
     7
100
AcDbLine
 10
495.1121747992528
 20
616.9983283739384
 30
0.0
 11
495.1121747992528
 21
606.9983283739384
 31
0.0
  0
LINE
  5
36B4
330
2
100
AcDbEntity
  8
L-ZISSEN
  6
CONTINUOUS
 62
     7
100
AcDbLine
 10
477.1121747992529
 20
616.9983283739384
 30
0.0
 11
477.1121747992529
 21
634.9983283739383
 31
0.0
  0
LINE
  5
36B5
330
2
100
AcDbEntity
  8
L-ZISSEN
  6
CONTINUOUS
 62
     7
100
AcDbLine
 10
479.1121747992528
 20
636.9983283739384
 30
0.0
 11
479.1121747992528
 21
618.9983283739384
 31
0.0
  0
LINE
  5
36B6
330
2
100
AcDbEntity
  8
L-TYUSIN
 48
3.0
100
AcDbLine
 10
633.112152791853
 20
276.0975992399635
 30
0.0
 11
633.112152791853
 21
168.3738202283384
 31
0.0
  0
LINE
  5
36B7
330
2
100
AcDbEntity
  8
L-ZISSEN
100
AcDbLine
 10
586.7285500944399
 20
249.2322731584499
 30
0.0
 11
578.6982362759336
 21
325.6356055094875
 31
0.0
  0
LINE
  5
36B8
330
2
100
AcDbEntity
  8
L-ZISSEN
  6
CONTINUOUS
 62
     7
 48
3.0
100
AcDbLine
 10
607.8796209961733
 20
224.6356055094874
 30
0.0
 11
607.8796209961729
 21
293.6356055094875
 31
0.0
  0
LINE
  5
36B9
330
2
100
AcDbEntity
  8
L-ZISSEN
  6
CONTINUOUS
 62
     7
 48
3.0
100
AcDbLine
 10
588.4121747992521
 20
224.6356055094874
 30
0.0
 11
588.4121747992521
 21
293.6356055094875
 31
0.0
  0
LINE
  5
36BA
330
2
100
AcDbEntity
  8
L-ZISSEN
 48
0.5
100
AcDbLine
 10
656.903372894214
 20
258.8094285611805
 30
-0.0000000000002847
 11
655.9834383017159
 21
293.940313302719
 31
-0.0000000000002824
  0
LINE
  5
36BB
330
2
100
AcDbEntity
  8
L-ZISSEN
 48
0.5
100
AcDbLine
 10
667.0336170345449
 20
250.8356055094882
 30
-0.0000000000000444
 11
665.9048805370084
 21
293.940313302719
 31
-0.0000000000000444
  0
LINE
  5
36BC
330
2
100
AcDbEntity
  8
L-ZISSEN
 48
0.5
100
AcDbLine
 10
612.1907325639599
 20
250.8356055094882
 30
-0.0000000000000444
 11
613.3194690614963
 21
293.940313302719
 31
-0.0000000000000444
  0
LINE
  5
36BD
330
2
100
AcDbEntity
  8
L-TYUSIN
100
AcDbLine
 10
639.6121747992524
 20
241.6356055094875
 30
-0.0000000000000391
 11
639.6121747992524
 21
306.8356055094882
 31
-0.0000000000000417
  0
LINE
  5
36BE
330
2
100
AcDbEntity
  8
L-ZISSEN
  6
CONTINUOUS
 62
     7
100
AcDbLine
 10
617.3932738512721
 20
186.780216968802
 30
0.0
 11
630.6121527918512
 21
202.1356055094875
 31
0.0
  0
LINE
  5
36BF
330
2
100
AcDbEntity
  8
L-ZISSEN
100
AcDbLine
 10
628.811455289499
 20
229.754153625161
 30
-0.0000000000000391
 11
621.9366700718382
 21
229.754153625161
 31
-0.0000000000000391
  0
LINE
  5
36C0
330
2
100
AcDbEntity
  8
L-ZISSEN
100
AcDbLine
 10
628.811455289499
 20
237.8370573938155
 30
-0.0000000000000391
 11
621.9366700718382
 21
237.8370573938155
 31
-0.0000000000000391
  0
CIRCLE
  5
36C1
330
2
100
AcDbEntity
  8
L-ZISSEN
  6
CONTINUOUS
 62
     7
100
AcDbCircle
 10
633.1121527918512
 20
202.1356055094875
 30
0.0
 40
27.0
  0
LINE
  5
36C2
330
2
100
AcDbEntity
  8
L-ZISSEN
  6
CONTINUOUS
 62
     7
100
AcDbLine
 10
617.3932738512721
 20
186.780216968802
 30
0.0
 11
633.1121527918512
 21
199.6356055094711
 31
0.0
  0
LINE
  5
36C3
330
2
100
AcDbEntity
  8
L-ZISSEN
  6
CONTINUOUS
 62
     7
100
AcDbLine
 10
653.112152791853
 20
242.6356055094875
 30
0.0
 11
613.112152791853
 21
242.6356055094875
 31
0.0
  0
LINE
  5
36C4
330
2
100
AcDbEntity
  8
L-ZISSEN
 48
0.5
100
AcDbLine
 10
611.1121747992524
 20
250.8356055094882
 30
-0.0000000000000404
 11
668.1121747992524
 21
250.8356055094882
 31
-0.0000000000000391
  0
LINE
  5
36C5
330
2
100
AcDbEntity
  8
L-ZISSEN
 48
0.5
100
AcDbLine
 10
611.6121747992524
 20
246.3356055094882
 30
-0.0000000000000386
 11
667.6121747992525
 21
246.3356055094882
 31
-0.0000000000000386
  0
LINE
  5
36C6
330
2
100
AcDbEntity
  8
L-ZISSEN
 48
0.5
100
AcDbLine
 10
613.1121747992524
 20
245.8356055094882
 30
-0.0000000000000391
 11
666.1121747992524
 21
245.8356055094882
 31
-0.0000000000000391
  0
LINE
  5
36C7
330
2
100
AcDbEntity
  8
L-ZISSEN
100
AcDbLine
 10
668.1121747992524
 20
245.8356055094882
 30
-0.0000000000000799
 11
611.1121747992524
 21
245.8356055094882
 31
0.0000000000000013
  0
LINE
  5
36C8
330
2
100
AcDbEntity
  8
L-ZISSEN
100
AcDbLine
 10
668.1121747992524
 20
242.6356055094875
 30
-0.0000000000000799
 11
611.1121747992524
 21
242.6356055094875
 31
0.0000000000000013
  0
LINE
  5
36C9
330
2
100
AcDbEntity
  8
L-ZISSEN
100
AcDbLine
 10
660.1250967992523
 20
242.6356055094875
 30
-0.0000000000000391
 11
619.0992527992521
 21
242.6356055094875
 31
-0.0000000000000391
  0
LINE
  5
36CA
330
2
100
AcDbEntity
  8
L-ZISSEN
100
AcDbLine
 10
640.1240626806693
 20
241.7956055094891
 30
-0.0000000000000391
 11
626.1240626806693
 21
241.7956055094891
 31
-0.0000000000000391
  0
LINE
  5
36CB
330
2
100
AcDbEntity
  8
L-ZISSEN
100
AcDbLine
 10
625.3740626806693
 20
241.7956055094891
 30
-0.0000000000000391
 11
640.8740626806693
 21
241.7956055094891
 31
-0.0000000000000391
  0
LINE
  5
36CC
330
2
100
AcDbEntity
  8
L-ZISSEN
100
AcDbLine
 10
640.1240626806693
 20
238.7956055094891
 30
-0.0000000000000391
 11
626.1240626806693
 21
238.7956055094891
 31
-0.0000000000000391
  0
LINE
  5
36CD
330
2
100
AcDbEntity
  8
L-ZISSEN
  6
CONTINUOUS
 62
     7
100
AcDbLine
 10
664.1121527918512
 20
28.6356055094875
 30
0.0
 11
589.6012780849287
 21
28.6356055094875
 31
0.0
  0
LINE
  5
36CE
330
2
100
AcDbEntity
  8
L-ZISSEN
100
AcDbLine
 10
511.5762544069894
 20
61.13560550948751
 30
0.0
 11
511.5762544069894
 21
52.1356055094875
 31
0.0
  0
LINE
  5
36CF
330
2
100
AcDbEntity
  8
L-ZISSEN
100
AcDbLine
 10
515.0403560221266
 20
61.13560550948751
 30
0.0
 11
515.0403560221266
 21
52.1356055094875
 31
0.0
  0
LINE
  5
36D0
330
2
100
AcDbEntity
  8
L-TYUSIN
100
AcDbLine
 10
508.1121527918512
 20
27.32119896393851
 30
0.0
 11
508.1121527918512
 21
167.5742420907972
 31
0.0
  0
LINE
  5
36D1
330
2
100
AcDbEntity
  8
L-ZISSEN
  6
CONTINUOUS
 62
     7
100
AcDbLine
 10
618.1121527918531
 20
18.6356055094875
 30
0.0
 11
538.112152791853
 21
18.6356055094875
 31
0.0
  0
LINE
  5
36D2
330
2
100
AcDbEntity
  8
L-ZISSEN
  6
CENTER
 62
     1
100
AcDbLine
 10
560.0021275058589
 20
36.6356055094875
 30
0.0
 11
596.2221780778436
 21
36.6356055094875
 31
0.0
  0
CIRCLE
  5
36D3
330
2
100
AcDbEntity
  8
L-ZISSEN
  6
CONTINUOUS
 62
     7
100
AcDbCircle
 10
578.112152791853
 20
36.6356055094875
 30
0.0
 40
14.0
  0
LINE
  5
36D4
330
2
100
AcDbEntity
  8
L-ZISSEN
  6
CONTINUOUS
 62
     7
100
AcDbLine
 10
518.1121527918512
 20
24.1356055094875
 30
0.0
 11
518.1121527918512
 21
28.6356055094875
 31
0.0
  0
LINE
  5
36D5
330
2
100
AcDbEntity
  8
L-ZISSEN
100
AcDbLine
 10
510.0796215738092
 20
47.09321056837689
 30
0.0
 11
510.0796215738092
 21
35.1356055094875
 31
0.0
  0
LINE
  5
36D6
330
2
100
AcDbEntity
  8
L-ZISSEN
100
AcDbLine
 10
512.6121527918512
 20
35.1356055094875
 30
0.0
 11
512.6121527918512
 21
42.1356055094875
 31
0.0
  0
ARC
  5
36D7
330
2
100
AcDbEntity
  8
L-ZISSEN
100
AcDbCircle
 10
508.1121527918512
 20
38.6356055094875
 30
0.0
 40
5.0
100
AcDbArc
 50
334.1580672367989
 51
25.84193276320105
  0
LINE
  5
36D8
330
2
100
AcDbEntity
  8
L-ZISSEN
100
AcDbLine
 10
512.6121527918512
 20
42.1356055094875
 30
0.0
 11
510.0796215738092
 21
42.1356055094875
 31
0.0
  0
LINE
  5
36D9
330
2
100
AcDbEntity
  8
L-ZISSEN
100
AcDbLine
 10
506.1446840098933
 20
47.09321056837689
 30
0.0
 11
506.1446840098933
 21
35.1356055094875
 31
0.0
  0
LINE
  5
36DA
330
2
100
AcDbEntity
  8
L-ZISSEN
100
AcDbLine
 10
512.3621527918512
 20
52.1356055094875
 30
0.0
 11
512.3621527918512
 21
42.1356055094875
 31
0.0
  0
LINE
  5
36DB
330
2
100
AcDbEntity
  8
L-ZISSEN
  6
CONTINUOUS
 62
     7
100
AcDbLine
 10
538.112152791853
 20
18.6356055094875
 30
0.0
 11
538.112152791853
 21
28.6356055094875
 31
0.0
  0
POLYLINE
  5
36DC
330
2
100
AcDbEntity
  8
L-ZISSEN
  6
CONTINUOUS
 62
     7
100
AcDb2dPolyline
 66
     1
 10
0.0
 20
0.0
 30
0.0
 70
     1
  0
VERTEX
  5
60CF
330
36DC
100
AcDbEntity
  8
L-ZISSEN
  6
CONTINUOUS
 62
     7
100
AcDbVertex
100
AcDb2dVertex
 10
575.2254014459049
 20
41.6356055094875
 30
0.0
  0
VERTEX
  5
60D0
330
36DC
100
AcDbEntity
  8
L-ZISSEN
  6
CONTINUOUS
 62
     7
100
AcDbVertex
100
AcDb2dVertex
 10
572.3386500999567
 20
36.6356055094875
 30
0.0
  0
VERTEX
  5
60D1
330
36DC
100
AcDbEntity
  8
L-ZISSEN
  6
CONTINUOUS
 62
     7
100
AcDbVertex
100
AcDb2dVertex
 10
575.2254014459049
 20
31.6356055094875
 30
0.0
  0
VERTEX
  5
60D2
330
36DC
100
AcDbEntity
  8
L-ZISSEN
  6
CONTINUOUS
 62
     7
100
AcDbVertex
100
AcDb2dVertex
 10
580.9989041378011
 20
31.6356055094875
 30
0.0
  0
VERTEX
  5
60D3
330
36DC
100
AcDbEntity
  8
L-ZISSEN
  6
CONTINUOUS
 62
     7
100
AcDbVertex
100
AcDb2dVertex
 10
583.8856554837493
 20
36.6356055094875
 30
0.0
  0
VERTEX
  5
60D4
330
36DC
100
AcDbEntity
  8
L-ZISSEN
  6
CONTINUOUS
 62
     7
100
AcDbVertex
100
AcDb2dVertex
 10
580.9989041378011
 20
41.6356055094875
 30
0.0
  0
SEQEND
  5
60D5
330
36DC
100
AcDbEntity
  8
L-ZISSEN
  6
CONTINUOUS
 62
     7
  0
LINE
  5
36DD
330
2
100
AcDbEntity
  8
L-ZISSEN
  6
CENTER
 62
     1
100
AcDbLine
 10
578.112152791853
 20
18.52558022349512
 30
0.0
 11
578.112152791853
 21
54.74563079547806
 31
0.0
  0
CIRCLE
  5
36DE
330
2
100
AcDbEntity
  8
L-ZISSEN
  6
CONTINUOUS
 62
     7
100
AcDbCircle
 10
578.112152791853
 20
36.6356055094875
 30
0.0
 40
10.47000000000049
  0
LINE
  5
36DF
330
2
100
AcDbEntity
  8
L-ZISSEN
  6
CONTINUOUS
 62
     7
100
AcDbLine
 10
618.1121527918531
 20
18.6356055094875
 30
0.0
 11
618.1121527918531
 21
28.6356055094875
 31
0.0
  0
ELLIPSE
  5
36E0
330
2
100
AcDbEntity
  8
L-ZISSEN
100
AcDbEllipse
 10
552.1121527918512
 20
145.7656801284701
 30
0.0
 11
16.00227773913866
 21
0.0
 31
0.0
210
0.0
220
0.0
230
1.0
 40
0.414525016603819
 41
5.205106417565791
 42
6.224386411260038
  0
ARC
  5
36E1
330
2
100
AcDbEntity
  8
L-ZISSEN
100
AcDbCircle
 10
552.1121527918512
 20
112.6356055094875
 30
0.0
 40
19.0
100
AcDbArc
 50
180.0
 51
0.0
  0
LINE
  5
36E2
330
2
100
AcDbEntity
  8
L-ZISSEN
  6
CONTINUOUS
 62
     7
100
AcDbLine
 10
522.1121527918521
 20
93.63560550948841
 30
0.0
 11
583.112152791853
 21
93.63560550948751
 31
0.0
  0
ELLIPSE
  5
36E3
330
2
100
AcDbEntity
  8
L-ZISSEN
100
AcDbEllipse
 10
552.1121527918512
 20
147.2726672504541
 30
0.0
 11
-18.99999999999818
 21
0.0
 31
0.0
210
0.0
220
0.0
230
1.0
 40
0.4820533241013897
 41
8.25275003315704
 42
9.467225083610181
  0
ELLIPSE
  5
36E4
330
2
100
AcDbEntity
  8
L-ZISSEN
100
AcDbEllipse
 10
552.1121527918512
 20
151.6782043016846
 30
0.0
 11
20.50671678483195
 21
0.0
 31
0.0
210
0.0
220
0.0
230
1.0
 40
0.4901358968224257
 41
5.113730725765182
 42
6.283185307179586
  0
ELLIPSE
  5
36E5
330
2
100
AcDbEntity
  8
L-ZISSEN
100
AcDbEllipse
 10
552.1121527918512
 20
113.5733163362565
 30
0.0
 11
-18.99999999999818
 21
0.0
 31
0.0
210
0.0
220
0.0
230
1.0
 40
0.4820533241013897
 41
6.240738184338784
 42
9.467225083610181
  0
ELLIPSE
  5
36E6
330
2
100
AcDbEntity
  8
L-ZISSEN
100
AcDbEllipse
 10
552.1121527918512
 20
158.4393618411431
 30
0.0
 11
20.50671678483195
 21
0.0
 31
0.0
210
0.0
220
0.0
230
1.0
 40
0.4901358968224257
 41
3.141592653589793
 42
6.283185307179586
  0
ELLIPSE
  5
36E7
330
2
100
AcDbEntity
  8
L-ZISSEN
100
AcDbEllipse
 10
552.1121527918512
 20
156.7490743783528
 30
0.0
 11
20.50671678483195
 21
0.0
 31
0.0
210
0.0
220
0.0
230
1.0
 40
0.4901358968224257
 41
3.141592653589793
 42
6.283185307179586
  0
ELLIPSE
  5
36E8
330
2
100
AcDbEntity
  8
L-ZISSEN
100
AcDbEllipse
 10
552.1121527918512
 20
167.8107414756177
 30
0.0
 11
20.50671678483195
 21
0.0
 31
0.0
210
0.0
220
0.0
230
1.0
 40
0.4901358968224257
 41
0.0
 42
6.283185307179586
  0
LINE
  5
36E9
330
2
100
AcDbEntity
  8
L-ZISSEN
100
AcDbLine
 10
531.6054360070193
 20
167.8107414756177
 30
0.0
 11
531.6054360070193
 21
151.6782043016846
 31
0.0
  0
ELLIPSE
  5
36EA
330
2
100
AcDbEntity
  8
L-ZISSEN
100
AcDbEllipse
 10
552.1121527918512
 20
147.2726672504541
 30
0.0
 11
-18.99999999999818
 21
0.0
 31
0.0
210
0.0
220
0.0
230
1.0
 40
0.4820533241013897
 41
6.240738184338784
 42
7.921358284719362
  0
ELLIPSE
  5
36EB
330
2
100
AcDbEntity
  8
L-ZISSEN
100
AcDbEllipse
 10
552.1121527918512
 20
145.7656801284701
 30
0.0
 11
16.00227773913866
 21
0.0
 31
0.0
210
0.0
220
0.0
230
1.0
 40
0.414525016603819
 41
3.20039154950934
 42
4.803754505256934
  0
ELLIPSE
  5
36EC
330
2
100
AcDbEntity
  8
L-ZISSEN
100
AcDbEllipse
 10
552.1121527918512
 20
151.6782043016846
 30
0.0
 11
20.50671678483195
 21
0.0
 31
0.0
210
0.0
220
0.0
230
1.0
 40
0.4901358968224257
 41
3.141592653589793
 42
4.805306309231852
  0
LINE
  5
36ED
330
2
100
AcDbEntity
  8
L-ZISSEN
  6
CONTINUOUS
 62
     7
100
AcDbLine
 10
519.1121527918526
 20
143.6356055094875
 30
0.0
 11
519.1121527918522
 21
96.63560550948842
 31
0.0
  0
CIRCLE
  5
36EE
330
2
100
AcDbEntity
  8
L-ZISSEN
100
AcDbCircle
 10
524.6121527918512
 20
99.6356055094875
 30
0.0
 40
5.0
  0
LINE
  5
36EF
330
2
100
AcDbEntity
  8
L-ZISSEN
100
AcDbLine
 10
533.112152791853
 20
112.6356055094875
 30
0.0
 11
533.1121527918512
 21
146.6356055094875
 31
0.0
  0
CIRCLE
  5
36F0
330
2
100
AcDbEntity
  8
L-ZISSEN
100
AcDbCircle
 10
524.6121527918512
 20
140.6356055094875
 30
0.0
 40
5.0
  0
LINE
  5
36F1
330
2
100
AcDbEntity
  8
L-ZISSEN
  6
CONTINUOUS
 62
     7
100
AcDbLine
 10
533.1292669252489
 20
146.6356055094875
 30
0.0
 11
512.3621527918512
 21
146.6356055094884
 31
0.0
  0
LINE
  5
36F2
330
2
100
AcDbEntity
  8
L-ZISSEN
100
AcDbLine
 10
517.5389171902393
 20
117.1356055094875
 30
0.0
 11
515.0389171902393
 21
117.1356055094875
 31
0.0
  0
LINE
  5
36F3
330
2
100
AcDbEntity
  8
L-ZISSEN
100
AcDbLine
 10
515.0389171902393
 20
122.1356055094874
 30
0.0
 11
517.5389171902393
 21
122.1356055094874
 31
0.0
  0
LINE
  5
36F4
330
2
100
AcDbEntity
  8
L-ZISSEN
100
AcDbLine
 10
515.0389171902393
 20
82.63560550948751
 30
0.0
 11
517.5389171902393
 21
82.63560550948751
 31
0.0
  0
LINE
  5
36F5
330
2
100
AcDbEntity
  8
L-ZISSEN
100
AcDbLine
 10
517.5389171902393
 20
77.6356055094875
 30
0.0
 11
515.0389171902393
 21
77.6356055094875
 31
0.0
  0
LINE
  5
36F6
330
2
100
AcDbEntity
  8
L-ZISSEN
100
AcDbLine
 10
518.5389171902393
 20
89.1356055094875
 30
0.0
 11
511.1121527918512
 21
89.13560550948842
 31
0.0
  0
LINE
  5
36F7
330
2
100
AcDbEntity
  8
L-ZISSEN
100
AcDbLine
 10
515.0389171902393
 20
117.1356055094875
 30
0.0
 11
515.0389171902393
 21
122.1356055094874
 31
0.0
  0
LINE
  5
36F8
330
2
100
AcDbEntity
  8
L-ZISSEN
100
AcDbLine
 10
515.0389171902393
 20
77.6356055094875
 30
0.0
 11
515.0389171902393
 21
82.63560550948751
 31
0.0
  0
LINE
  5
36F9
330
2
100
AcDbEntity
  8
L-ZISSEN
100
AcDbLine
 10
518.5389171902393
 20
110.6356055094875
 30
0.0
 11
518.5389171902393
 21
128.6356055094875
 31
0.0
  0
LINE
  5
36FA
330
2
100
AcDbEntity
  8
L-ZISSEN
100
AcDbLine
 10
517.5389171902393
 20
122.1356055094874
 30
0.0
 11
517.5389171902393
 21
117.1356055094875
 31
0.0
  0
LINE
  5
36FB
330
2
100
AcDbEntity
  8
L-ZISSEN
100
AcDbLine
 10
518.5389171902393
 20
71.13560550948751
 30
0.0
 11
518.5389171902393
 21
89.1356055094875
 31
0.0
  0
LINE
  5
36FC
330
2
100
AcDbEntity
  8
L-ZISSEN
100
AcDbLine
 10
517.5389171902393
 20
82.63560550948751
 30
0.0
 11
517.5389171902393
 21
77.6356055094875
 31
0.0
  0
LINE
  5
36FD
330
2
100
AcDbEntity
  8
L-ZISSEN
100
AcDbLine
 10
511.1121527918512
 20
128.6356055094875
 30
0.0
 11
511.1121527918512
 21
66.13560550948751
 31
0.0
  0
LINE
  5
36FE
330
2
100
AcDbEntity
  8
L-ZISSEN
100
AcDbLine
 10
511.6121527918513
 20
66.13560550948751
 30
0.0
 11
511.6121527918513
 21
61.13560550948751
 31
0.0
  0
LINE
  5
36FF
330
2
100
AcDbEntity
  8
L-ZISSEN
100
AcDbLine
 10
511.5762544069894
 20
133.6356055094874
 30
0.0
 11
511.5762544069894
 21
142.6356055094875
 31
0.0
  0
LINE
  5
3700
330
2
100
AcDbEntity
  8
L-ZISSEN
100
AcDbLine
 10
512.3621527918512
 20
142.6356055094875
 30
0.0
 11
512.3621527918512
 21
152.6356055094875
 31
0.0
  0
LINE
  5
3701
330
2
100
AcDbEntity
  8
L-ZISSEN
100
AcDbLine
 10
510.0796215738092
 20
147.6780004505981
 30
0.0
 11
510.0796215738092
 21
159.6356055094874
 31
0.0
  0
LINE
  5
3702
330
2
100
AcDbEntity
  8
L-ZISSEN
100
AcDbLine
 10
512.6121527918512
 20
159.6356055094874
 30
0.0
 11
512.6121527918512
 21
152.6356055094875
 31
0.0
  0
ARC
  5
3703
330
2
100
AcDbEntity
  8
L-ZISSEN
100
AcDbCircle
 10
508.1121527918512
 20
156.1356055094875
 30
0.0
 40
5.0
100
AcDbArc
 50
334.1580672367989
 51
25.84193276320105
  0
LINE
  5
3704
330
2
100
AcDbEntity
  8
L-ZISSEN
100
AcDbLine
 10
512.6121527918512
 20
152.6356055094875
 30
0.0
 11
510.0796215738092
 21
152.6356055094875
 31
0.0
  0
LINE
  5
3705
330
2
100
AcDbEntity
  8
L-ZISSEN
100
AcDbLine
 10
511.6121527918513
 20
128.6356055094875
 30
0.0
 11
511.6121527918513
 21
133.6356055094874
 31
0.0
  0
LINE
  5
3706
330
2
100
AcDbEntity
  8
L-ZISSEN
100
AcDbLine
 10
515.0403560221266
 20
133.6356055094874
 30
0.0
 11
515.0403560221266
 21
142.6356055094875
 31
0.0
  0
LINE
  5
3707
330
2
100
AcDbEntity
  8
L-ZISSEN
  6
CONTINUOUS
 62
     7
100
AcDbLine
 10
511.6121527918513
 20
61.6356055094875
 30
0.0
 11
516.1121527918512
 21
61.63560550948841
 31
0.0
  0
ARC
  5
3708
330
2
100
AcDbEntity
  8
L-ZISSEN
  6
CONTINUOUS
 62
     7
100
AcDbCircle
 10
522.1121527918512
 20
90.6356055094875
 30
0.0
 40
3.0
100
AcDbArc
 50
90.0
 51
180.0
  0
ARC
  5
3709
330
2
100
AcDbEntity
  8
L-ZISSEN
  6
CONTINUOUS
 62
     7
100
AcDbCircle
 10
516.1121527918512
 20
64.63560550948841
 30
0.0
 40
3.0
100
AcDbArc
 50
270.0
 51
0.0
  0
ARC
  5
370A
330
2
100
AcDbEntity
  8
L-ZISSEN
  6
CONTINUOUS
 62
     7
100
AcDbCircle
 10
522.1121527918525
 20
143.6356055094875
 30
0.0
 40
3.0
100
AcDbArc
 50
90.0
 51
180.0
  0
ARC
  5
370B
330
2
100
AcDbEntity
  8
L-ZISSEN
  6
CONTINUOUS
 62
     7
100
AcDbCircle
 10
522.1121527918521
 20
96.63560550948842
 30
0.0
 40
3.0
100
AcDbArc
 50
180.0
 51
270.0
  0
LINE
  5
370C
330
2
100
AcDbEntity
  8
L-ZISSEN
100
AcDbLine
 10
519.1121527918512
 20
90.6356055094875
 30
0.0
 11
519.1121527918512
 21
64.63560550948841
 31
0.0
  0
LINE
  5
370D
330
2
100
AcDbEntity
  8
L-ZISSEN
100
AcDbLine
 10
511.1121527918512
 20
71.13560550948841
 30
0.0
 11
518.5389171902393
 21
71.13560550948751
 31
0.0
  0
LINE
  5
370E
330
2
100
AcDbEntity
  8
L-ZISSEN
100
AcDbLine
 10
511.1121527918512
 20
110.6356055094875
 30
0.0
 11
518.5389171902393
 21
110.6356055094875
 31
0.0
  0
LINE
  5
370F
330
2
100
AcDbEntity
  8
L-ZISSEN
100
AcDbLine
 10
506.1446840098933
 20
147.6780004505981
 30
0.0
 11
506.1446840098933
 21
159.6356055094874
 31
0.0
  0
LINE
  5
3710
330
2
100
AcDbEntity
  8
L-ZISSEN
100
AcDbLine
 10
536.1574859402517
 20
142.2991334873204
 30
0.0
 11
536.1574859402517
 21
145.3637388410006
 31
0.0
  0
LINE
  5
3711
330
2
100
AcDbEntity
  8
L-ZISSEN
  6
CONTINUOUS
 62
     7
100
AcDbLine
 10
553.1121527918513
 20
224.6356055094874
 30
0.0
 11
553.1121527918513
 21
179.6356055094875
 31
0.0
  0
LINE
  5
3712
330
2
100
AcDbEntity
  8
L-ZISSEN
100
AcDbLine
 10
572.6188695766832
 20
167.8107414756177
 30
0.0
 11
572.6188695766832
 21
151.6782043016846
 31
0.0
  0
LINE
  5
3713
330
2
100
AcDbEntity
  8
L-ZISSEN
  6
CONTINUOUS
 62
     7
100
AcDbLine
 10
586.112152791853
 20
96.63560550948751
 30
0.0
 11
586.112152791853
 21
143.6356055094875
 31
0.0
  0
CIRCLE
  5
3714
330
2
100
AcDbEntity
  8
L-ZISSEN
100
AcDbCircle
 10
579.6121527918512
 20
99.6356055094875
 30
0.0
 40
5.0
  0
CIRCLE
  5
3715
330
2
100
AcDbEntity
  8
L-ZISSEN
100
AcDbCircle
 10
579.6121527918512
 20
119.0874186314413
 30
0.0
 40
4.5
  0
LINE
  5
3716
330
2
100
AcDbEntity
  8
L-ZISSEN
100
AcDbLine
 10
575.7124879482999
 20
116.5776013788308
 30
0.0
 11
576.0049269955215
 21
116.3970799809558
 31
0.0
  0
LINE
  5
3717
330
2
100
AcDbEntity
  8
L-ZISSEN
100
AcDbLine
 10
579.1162143497039
 20
114.4764953404792
 30
0.0
 11
578.8237753024804
 21
114.6570167383561
 31
0.0
  0
LINE
  5
3718
330
2
100
AcDbEntity
  8
L-ZISSEN
100
AcDbLine
 10
575.9645552921774
 20
109.3709057383748
 30
0.0
 11
579.1162143497039
 21
114.4764953404792
 31
0.0
  0
LINE
  5
3719
330
2
100
AcDbEntity
  8
L-ZISSEN
100
AcDbLine
 10
572.5608288907733
 20
111.4720117767264
 30
0.0
 11
575.9645552921774
 21
109.3709057383748
 31
0.0
  0
LINE
  5
371A
330
2
100
AcDbEntity
  8
L-ZISSEN
100
AcDbLine
 10
572.5608288907733
 20
111.4720117767264
 30
0.0
 11
575.7124879482999
 21
116.5776013788308
 31
0.0
  0
LINE
  5
371B
330
2
100
AcDbEntity
  8
L-TYUSIN
100
AcDbLine
 10
574.1302241251232
 20
119.0874186314413
 30
0.0
 11
586.5399443295591
 21
119.0874186314413
 31
0.0
  0
CIRCLE
  5
371C
330
2
100
AcDbEntity
  8
L-ZISSEN
100
AcDbCircle
 10
579.6121527918512
 20
119.0874186314413
 30
0.0
 40
2.5
  0
LINE
  5
371D
330
2
100
AcDbEntity
  8
L-TYUSIN
100
AcDbLine
 10
579.6121527918512
 20
113.1054899647133
 30
0.0
 11
579.6121527918512
 21
125.0693472981692
 31
0.0
  0
LINE
  5
371E
330
2
100
AcDbEntity
  8
L-ZISSEN
100
AcDbLine
 10
571.1121527918494
 20
112.6356055094875
 30
0.0
 11
571.112152791853
 21
146.6356055094875
 31
0.0
  0
CIRCLE
  5
371F
330
2
100
AcDbEntity
  8
L-ZISSEN
100
AcDbCircle
 10
579.6121527918512
 20
140.6356055094875
 30
0.0
 40
5.0
  0
LINE
  5
3720
330
2
100
AcDbEntity
  8
L-ZISSEN
  6
CONTINUOUS
 62
     7
100
AcDbLine
 10
583.112152791853
 20
146.6356055094875
 30
0.0
 11
571.112152791853
 21
146.6356055094875
 31
0.0
  0
ARC
  5
3721
330
2
100
AcDbEntity
  8
L-ZISSEN
  6
CONTINUOUS
 62
     7
100
AcDbCircle
 10
583.112152791853
 20
143.6356055094875
 30
0.0
 40
3.0
100
AcDbArc
 50
0.0
 51
90.0
  0
ARC
  5
3722
330
2
100
AcDbEntity
  8
L-ZISSEN
  6
CONTINUOUS
 62
     7
100
AcDbCircle
 10
583.112152791853
 20
96.63560550948751
 30
0.0
 40
3.0
100
AcDbArc
 50
270.0
 51
0.0
  0
LINE
  5
3723
330
2
100
AcDbEntity
  8
L-ZISSEN
100
AcDbLine
 10
568.0668196434508
 20
142.2991334873204
 30
0.0
 11
568.0668196434508
 21
145.3637388410006
 31
0.0
  0
ARC
  5
3724
330
2
100
AcDbEntity
  8
L-ZISSEN
100
AcDbCircle
 10
598.1121527918531
 20
207.6356055094874
 30
0.0
 40
11.03999999999999
100
AcDbArc
 50
25.12118552165006
 51
317.015637190149
  0
LINE
  5
3725
330
2
100
AcDbEntity
  8
L-ZISSEN
  6
CONTINUOUS
 62
     7
100
AcDbLine
 10
591.7612998307649
 20
196.6356055094893
 30
0.0
 11
604.4630057529375
 21
196.6356055094893
 31
0.0
  0
LINE
  5
3726
330
2
100
AcDbEntity
  8
L-ZISSEN
  6
CONTINUOUS
 62
     7
100
AcDbLine
 10
603.0555827751722
 20
206.8856055094875
 30
0.0
 11
593.1687228085301
 21
206.8856055094875
 31
0.0
  0
LINE
  5
3727
330
2
100
AcDbEntity
  8
L-ZISSEN
  6
CONTINUOUS
 62
     7
100
AcDbLine
 10
602.7785181548916
 20
208.3856055094875
 30
0.0
 11
593.1687228085301
 21
208.3856055094875
 31
0.0
  0
CIRCLE
  5
3728
330
2
100
AcDbEntity
  8
L-ZISSEN
  6
CONTINUOUS
 62
     7
100
AcDbCircle
 10
598.1121527918531
 20
207.6356055094874
 30
0.0
 40
5.0
  0
CIRCLE
  5
3729
330
2
100
AcDbEntity
  8
L-ZISSEN
  6
CONTINUOUS
 62
     7
100
AcDbCircle
 10
598.1121527918531
 20
207.6356055094874
 30
0.0
 40
6.0
  0
LINE
  5
372A
330
2
100
AcDbEntity
  8
L-ZISSEN
  6
CONTINUOUS
 62
     7
100
AcDbLine
 10
604.4630057529375
 20
218.6356055094875
 30
0.0
 11
591.7612998307649
 21
218.6356055094875
 31
0.0
  0
LINE
  5
372B
330
2
100
AcDbEntity
  8
L-TYUSIN
  6
CENTER
 62
     1
100
AcDbLine
 10
615.3278300606343
 20
207.6356055094874
 30
0.0
 11
580.8964755230682
 21
207.6356055094874
 31
0.0
  0
LINE
  5
372C
330
2
100
AcDbEntity
  8
L-ZISSEN
  6
CONTINUOUS
 62
     7
100
AcDbLine
 10
585.4104468696805
 20
207.6356055094874
 30
0.0
 11
591.7612998307649
 21
196.6356055094875
 31
0.0
  0
LINE
  5
372D
330
2
100
AcDbEntity
  8
L-ZISSEN
  6
CONTINUOUS
 62
     7
100
AcDbLine
 10
591.7612998307649
 20
218.6356055094875
 30
0.0
 11
585.4104468696805
 21
207.6356055094874
 31
0.0
  0
LINE
  5
372E
330
2
100
AcDbEntity
  8
L-ZISSEN
  6
CONTINUOUS
 62
     7
100
AcDbLine
 10
586.7281413634318
 20
249.2356055094878
 30
0.0
 11
587.0789881684886
 21
229.1356055094875
 31
0.0
  0
LINE
  5
372F
330
2
100
AcDbEntity
  8
L-ZISSEN
  6
CONTINUOUS
 62
     7
100
AcDbLine
 10
588.4121527918523
 20
224.6356055094874
 30
0.0
 11
588.4121527918523
 21
229.1356055094875
 31
0.0
  0
LINE
  5
3730
330
2
100
AcDbEntity
  8
L-ZISSEN
  6
CONTINUOUS
 62
     7
100
AcDbLine
 10
604.4630057529375
 20
196.6356055094893
 30
0.0
 11
606.2235923230637
 21
199.6850309000692
 31
0.0
  0
LINE
  5
3731
330
2
100
AcDbEntity
  8
L-ZISSEN
  6
CONTINUOUS
 62
     7
100
AcDbLine
 10
608.1077210159183
 20
212.322773494885
 30
0.0
 11
604.4630057529375
 21
218.6356055094875
 31
0.0
  0
LINE
  5
3732
330
2
100
AcDbEntity
  8
L-ZISSEN
  6
CONTINUOUS
 62
     7
100
AcDbLine
 10
603.0555827751722
 20
208.3856055094875
 30
0.0
 11
602.7785181548916
 21
208.3856055094875
 31
0.0
  0
LINE
  5
3733
330
2
100
AcDbEntity
  8
L-ZISSEN
  6
CONTINUOUS
 62
     7
100
AcDbLine
 10
613.112152791853
 20
242.6356055094875
 30
0.0
 11
613.112152791853
 21
224.6356055094874
 31
0.0
  0
LINE
  5
3734
330
2
100
AcDbEntity
  8
L-ZISSEN
 48
0.5
100
AcDbLine
 10
611.1121747992524
 20
246.8356055094882
 30
-0.0000000000000386
 11
611.6121747992524
 21
246.3356055094882
 31
-0.0000000000000386
  0
LINE
  5
3735
330
2
100
AcDbEntity
  8
L-ZISSEN
 48
0.5
100
AcDbLine
 10
611.1121747992524
 20
250.8356055094882
 30
-0.0000000000000404
 11
611.1121747992524
 21
246.8356055094882
 31
-0.0000000000000386
  0
LINE
  5
3736
330
2
100
AcDbEntity
  8
L-ZISSEN
 48
0.5
100
AcDbLine
 10
611.1121747992524
 20
250.8356055094882
 30
-0.0000000000000391
 11
611.1121747992524
 21
246.8356055094882
 31
-0.0000000000000391
  0
LINE
  5
3737
330
2
100
AcDbEntity
  8
L-ZISSEN
100
AcDbLine
 10
611.1121747992524
 20
245.8356055094882
 30
0.0000000000000013
 11
611.1121747992524
 21
242.6356055094875
 31
0.0000000000000013
  0
ARC
  5
3738
330
2
100
AcDbEntity
  8
L-ZISSEN
 48
0.5
100
AcDbCircle
 10
613.1121747992524
 20
246.3356055094882
 30
-0.0000000000000386
 40
0.5
100
AcDbArc
 50
180.0
 51
270.0
  0
LINE
  5
3739
330
2
100
AcDbEntity
  8
L-ZISSEN
100
AcDbLine
 10
625.3740626806693
 20
242.6356055094875
 30
-0.0000000000000391
 11
625.3740626806693
 21
241.7956055094891
 31
-0.0000000000000391
  0
LINE
  5
373A
330
2
100
AcDbEntity
  8
L-ZISSEN
100
AcDbLine
 10
626.1240626806693
 20
241.7956055094891
 30
-0.0000000000000391
 11
626.1240626806693
 21
238.7956055094891
 31
-0.0000000000000391
  0
LINE
  5
373B
330
2
100
AcDbEntity
  8
L-ZISSEN
100
AcDbLine
 10
621.6240626806684
 20
237.2956055094892
 30
-0.0000000000000391
 11
621.6240626806684
 21
230.2956055094891
 31
-0.0000000000000391
  0
LINE
  5
373C
330
2
100
AcDbEntity
  8
L-ZISSEN
100
AcDbLine
 10
621.6240626806684
 20
230.2956055094891
 30
-0.0000000000000391
 11
621.9366700718382
 21
229.754153625161
 31
-0.0000000000000391
  0
LINE
  5
373D
330
2
100
AcDbEntity
  8
L-ZISSEN
100
AcDbLine
 10
621.6240626806684
 20
237.2956055094892
 30
-0.0000000000000391
 11
621.9366700718382
 21
237.8370573938155
 31
-0.0000000000000391
  0
LINE
  5
373E
330
2
100
AcDbEntity
  8
L-TYUSIN
  6
CENTER
 62
     1
100
AcDbLine
 10
598.1121527918531
 20
222.0917599255826
 30
0.0
 11
598.1121527918531
 21
193.1794510933923
 31
0.0
  0
LINE
  5
373F
330
2
100
AcDbEntity
  8
L-ZISSEN
  6
CONTINUOUS
 62
     7
100
AcDbLine
 10
678.1121527918513
 20
224.6356055094874
 30
0.0
 11
678.1121527918513
 21
54.63560550944385
 31
0.0
  0
LINE
  5
3740
330
2
100
AcDbEntity
  8
L-ZISSEN
  6
CONTINUOUS
 62
     7
100
AcDbLine
 10
718.1121527918512
 20
24.1356055094875
 30
0.0
 11
718.1121527918512
 21
174.1356055094875
 31
0.0
  0
LINE
  5
3741
330
2
100
AcDbEntity
  8
L-ZISSEN
  6
CONTINUOUS
 62
     7
100
AcDbLine
 10
680.1121527918512
 20
146.6356055094875
 30
0.0
 11
680.1121527918512
 21
22.6356055094875
 31
0.0
  0
LINE
  5
3742
330
2
100
AcDbEntity
  8
L-ZISSEN
  6
CONTINUOUS
 62
     7
100
AcDbLine
 10
680.6121527918512
 20
84.6356055094875
 30
0.0
 11
680.6121527918512
 21
24.6356055094875
 31
0.0
  0
LINE
  5
3743
330
2
100
AcDbEntity
  8
L-ZISSEN
  6
CONTINUOUS
 62
     7
100
AcDbLine
 10
718.1121527918512
 20
24.1356055094875
 30
0.0
 11
680.1121527918512
 21
24.1356055094875
 31
0.0
  0
LINE
  5
3744
330
2
100
AcDbEntity
  8
L-ZISSEN
  6
CONTINUOUS
 62
     7
100
AcDbLine
 10
664.1121527918512
 20
24.1356055094875
 30
0.0
 11
638.1121527918512
 21
24.1356055094875
 31
0.0
  0
LINE
  5
3745
330
2
100
AcDbEntity
  8
L-ZISSEN
  6
CONTINUOUS
 62
     7
100
AcDbLine
 10
638.1121527918512
 20
24.1356055094875
 30
0.0
 11
638.1121527918512
 21
28.6356055094875
 31
0.0
  0
LINE
  5
3746
330
2
100
AcDbEntity
  8
L-ZISSEN
  6
CONTINUOUS
 62
     7
100
AcDbLine
 10
678.1121527918513
 20
18.6356055094875
 30
0.0
 11
664.1121527918512
 21
18.6356055094875
 31
0.0
  0
LINE
  5
3747
330
2
100
AcDbEntity
  8
L-ZISSEN
  6
CONTINUOUS
 62
     7
100
AcDbLine
 10
664.1121527918512
 20
18.6356055094875
 30
0.0
 11
664.1121527918512
 21
28.6356055094875
 31
0.0
  0
LINE
  5
3748
330
2
100
AcDbEntity
  8
L-ZISSEN
  6
CONTINUOUS
 62
     7
100
AcDbLine
 10
680.6121527918512
 20
24.6356055094875
 30
0.0
 11
680.1121527918512
 21
24.6356055094875
 31
0.0
  0
LINE
  5
3749
330
2
100
AcDbEntity
  8
L-ZISSEN
  6
CONTINUOUS
 62
     7
100
AcDbLine
 10
680.1121527918512
 20
22.6356055094875
 30
0.0
 11
678.1121527918513
 21
22.6356055094875
 31
0.0
  0
LINE
  5
374A
330
2
100
AcDbEntity
  8
L-ZISSEN
  6
CONTINUOUS
 62
     7
100
AcDbLine
 10
678.1121527918513
 20
54.63560550944385
 30
0.0
 11
678.1121527918513
 21
18.6356055094875
 31
0.0
  0
LINE
  5
374B
330
2
100
AcDbEntity
  8
L-TYUSIN
  6
CENTER
 62
     1
100
AcDbLine
 10
696.2000913159808
 20
36.6356055094875
 30
0.0
 11
710.0242142677216
 21
36.6356055094875
 31
0.0
  0
CIRCLE
  5
374C
330
2
100
AcDbEntity
  8
L-ZISSEN
  6
CONTINUOUS
 62
     7
100
AcDbCircle
 10
703.1121527918513
 20
36.6356055094875
 30
0.0
 40
3.5
  0
LINE
  5
374D
330
2
100
AcDbEntity
  8
L-TYUSIN
  6
CENTER
 62
     1
100
AcDbLine
 10
703.1121527918513
 20
29.72354403362078
 30
0.0
 11
703.1121527918513
 21
43.54766698535605
 31
0.0
  0
LINE
  5
374E
330
2
100
AcDbEntity
  8
L-ZISSEN
  6
CONTINUOUS
 62
     7
100
AcDbLine
 10
718.1121527918512
 20
174.1356055094875
 30
0.0
 11
678.1121527918513
 21
174.1356055094875
 31
0.0
  0
LINE
  5
374F
330
2
100
AcDbEntity
  8
L-ZISSEN
  6
CONTINUOUS
 62
     7
100
AcDbLine
 10
680.6121527918512
 20
84.6356055094875
 30
0.0
 11
680.1121527918512
 21
84.6356055094875
 31
0.0
  0
LINE
  5
3750
330
2
100
AcDbEntity
  8
L-ZISSEN
  6
CONTINUOUS
 62
     7
100
AcDbLine
 10
680.1121527918512
 20
146.6356055094875
 30
0.0
 11
678.1121527918513
 21
146.6356055094875
 31
0.0
  0
ARC
  5
3751
330
2
100
AcDbEntity
  8
L-ZISSEN
 48
0.5
100
AcDbCircle
 10
657.9030302191895
 20
258.8356055094882
 30
-0.0000000000038214
 40
1.0
100
AcDbArc
 50
181.4999999999898
 51
270.0
  0
LINE
  5
3752
330
2
100
AcDbEntity
  8
L-ZISSEN
  6
CONTINUOUS
 62
     7
100
AcDbLine
 10
648.03696434845
 20
224.6356055094874
 30
0.0
 11
678.112152791853
 21
224.6356055094874
 31
0.0
  0
LINE
  5
3753
330
2
100
AcDbEntity
  8
L-ZISSEN
  6
CONTINUOUS
 62
     7
100
AcDbLine
 10
678.1121527918513
 20
178.6356055094875
 30
0.0
 11
646.4068885921587
 21
178.6356055094875
 31
0.0
  0
LINE
  5
3754
330
2
100
AcDbEntity
  8
L-ZISSEN
  6
CONTINUOUS
 62
     7
100
AcDbLine
 10
678.1121527918513
 20
179.6356055094875
 30
0.0
 11
648.03696434845
 21
179.6356055094875
 31
0.0
  0
LINE
  5
3755
330
2
100
AcDbEntity
  8
L-ZISSEN
  6
CONTINUOUS
 62
     7
100
AcDbLine
 10
635.6029829123344
 20
202.404815190639
 30
0.0
 11
640.2429314112578
 21
206.7828498223425
 31
0.0
  0
LINE
  5
3756
330
2
100
AcDbEntity
  8
L-ZISSEN
  6
CONTINUOUS
 62
     7
100
AcDbLine
 10
638.2278680631534
 20
209.1006328626554
 30
0.0
 11
633.6144335556528
 21
204.5938325064907
 31
0.0
  0
LINE
  5
3757
330
2
100
AcDbEntity
  8
L-ZISSEN
  6
CONTINUOUS
 62
     7
100
AcDbLine
 10
640.2429314112578
 20
206.7828498223425
 30
0.0
 11
638.2278680631534
 21
209.1006328626554
 31
0.0
  0
LINE
  5
3758
330
2
100
AcDbEntity
  8
L-ZISSEN
  6
CONTINUOUS
 62
     7
100
AcDbLine
 10
653.112152791853
 20
242.6356055094875
 30
0.0
 11
653.1121527918535
 21
224.6356055094874
 31
0.0
  0
LINE
  5
3759
330
2
100
AcDbEntity
  8
L-ZISSEN
100
AcDbLine
 10
645.6240626806689
 20
242.6356055094875
 30
-0.0000000000000391
 11
647.8740626806689
 21
242.6356055094875
 31
-0.0000000000000391
  0
LINE
  5
375A
330
2
100
AcDbEntity
  8
L-ZISSEN
100
AcDbLine
 10
640.8740626806693
 20
242.6356055094875
 30
-0.0000000000000391
 11
640.8740626806693
 21
241.7956055094891
 31
-0.0000000000000391
  0
LINE
  5
375B
330
2
100
AcDbEntity
  8
L-ZISSEN
100
AcDbLine
 10
648.8621747992525
 20
242.6356055094893
 30
-0.0000000000000391
 11
642.3621747992524
 21
242.6356055094875
 31
-0.0000000000000391
  0
LINE
  5
375C
330
2
100
AcDbEntity
  8
L-ZISSEN
100
AcDbLine
 10
648.8621747992533
 20
237.0356055094889
 30
-0.0000000000000391
 11
648.8621747992533
 21
233.0356055094889
 31
-0.0000000000000391
  0
LINE
  5
375D
330
2
100
AcDbEntity
  8
L-ZISSEN
100
AcDbLine
 10
642.3621747992529
 20
237.0356055094889
 30
-0.0000000000000391
 11
642.3621747992533
 21
233.0356055094889
 31
-0.0000000000000391
  0
LINE
  5
375E
330
2
100
AcDbEntity
  8
L-TYUSIN
100
AcDbLine
 10
645.6121747992533
 20
218.0356055094889
 30
-0.0000000000000391
 11
645.6121747992533
 21
238.0356055094889
 31
-0.0000000000000391
  0
LINE
  5
375F
330
2
100
AcDbEntity
  8
L-ZISSEN
100
AcDbLine
 10
643.6121747992533
 20
230.5356055094889
 30
-0.0000000000000391
 11
643.6121747992533
 21
218.0356055094889
 31
-0.0000000000000391
  0
LINE
  5
3760
330
2
100
AcDbEntity
  8
L-ZISSEN
100
AcDbLine
 10
641.6121747992534
 20
216.0356055094889
 30
-0.0000000000000391
 11
649.6121747992528
 21
224.0356055094871
 31
-0.0000000000000391
  0
LINE
  5
3761
330
2
100
AcDbEntity
  8
L-ZISSEN
100
AcDbLine
 10
644.1121747992533
 20
230.0356055094889
 30
-0.0000000000000391
 11
643.6121747992533
 21
230.5356055094889
 31
-0.0000000000000391
  0
LINE
  5
3762
330
2
100
AcDbEntity
  8
L-ZISSEN
100
AcDbLine
 10
647.1121747992529
 20
230.0356055094889
 30
-0.0000000000000391
 11
647.6121747992529
 21
230.5356055094889
 31
-0.0000000000000391
  0
LINE
  5
3763
330
2
100
AcDbEntity
  8
L-ZISSEN
100
AcDbLine
 10
647.8621747992534
 20
232.0356055094889
 30
-0.0000000000000391
 11
648.8621747992533
 21
233.0356055094889
 31
-0.0000000000000391
  0
LINE
  5
3764
330
2
100
AcDbEntity
  8
L-ZISSEN
100
AcDbLine
 10
643.6121747992529
 20
232.0356055094889
 30
-0.0000000000000391
 11
643.6121747992533
 21
230.5356055094889
 31
-0.0000000000000391
  0
LINE
  5
3765
330
2
100
AcDbEntity
  8
L-ZISSEN
100
AcDbLine
 10
647.6121747992529
 20
232.0356055094889
 30
-0.0000000000000391
 11
647.6121747992529
 21
230.5356055094889
 31
-0.0000000000000391
  0
LINE
  5
3766
330
2
100
AcDbEntity
  8
L-ZISSEN
100
AcDbLine
 10
647.8621747992534
 20
232.0356055094889
 30
-0.0000000000000391
 11
643.3621747992533
 21
232.0356055094889
 31
-0.0000000000000391
  0
LINE
  5
3767
330
2
100
AcDbEntity
  8
L-ZISSEN
100
AcDbLine
 10
647.1121747992529
 20
230.0356055094889
 30
-0.0000000000000391
 11
644.1121747992533
 21
230.0356055094889
 31
-0.0000000000000391
  0
LINE
  5
3768
330
2
100
AcDbEntity
  8
L-ZISSEN
100
AcDbLine
 10
643.3621747992533
 20
232.0356055094889
 30
-0.0000000000000391
 11
642.3621747992533
 21
233.0356055094889
 31
-0.0000000000000391
  0
LINE
  5
3769
330
2
100
AcDbEntity
  8
L-ZISSEN
100
AcDbLine
 10
647.6121747992529
 20
230.5356055094889
 30
-0.0000000000000391
 11
647.6121747992529
 21
222.0356055094871
 31
-0.0000000000000391
  0
LINE
  5
376A
330
2
100
AcDbEntity
  8
L-ZISSEN
100
AcDbLine
 10
648.8621747992525
 20
242.6356055094893
 30
-0.0000000000000391
 11
648.8621747992529
 21
240.6356055094893
 31
-0.0000000000000391
  0
LINE
  5
376B
330
2
100
AcDbEntity
  8
L-ZISSEN
100
AcDbLine
 10
642.3621747992524
 20
242.6356055094875
 30
-0.0000000000000391
 11
642.3621747992529
 21
240.6356055094875
 31
-0.0000000000000391
  0
LINE
  5
376C
330
2
100
AcDbEntity
  8
L-ZISSEN
100
AcDbLine
 10
648.8621747992525
 20
240.6356055094893
 30
-0.0000000000000391
 11
642.3621747992524
 21
240.6356055094875
 31
-0.0000000000000391
  0
LINE
  5
376D
330
2
100
AcDbEntity
  8
L-ZISSEN
100
AcDbLine
 10
648.8621747992525
 20
237.0356055094889
 30
-0.0000000000000391
 11
642.3621747992524
 21
237.0356055094889
 31
-0.0000000000000391
  0
LINE
  5
376E
330
2
100
AcDbEntity
  8
L-ZISSEN
100
AcDbLine
 10
643.112174799252
 20
240.6356055094875
 30
-0.0000000000000391
 11
643.1121747992524
 21
237.0356055094889
 31
-0.0000000000000391
  0
LINE
  5
376F
330
2
100
AcDbEntity
  8
L-ZISSEN
100
AcDbLine
 10
648.1121747992529
 20
240.6356055094875
 30
-0.0000000000000391
 11
648.1121747992524
 21
237.0356055094889
 31
-0.0000000000000391
  0
LINE
  5
3770
330
2
100
AcDbEntity
  8
L-ZISSEN
100
AcDbLine
 10
635.6240626806693
 20
238.7956055094873
 30
-0.0000000000000391
 11
635.1240626806693
 21
238.7956055094873
 31
-0.0000000000000391
  0
LINE
  5
3771
330
2
100
AcDbEntity
  8
L-ZISSEN
100
AcDbLine
 10
635.6240626806688
 20
238.7956055094891
 30
-0.0000000000000391
 11
635.1240626806688
 21
238.7956055094891
 31
-0.0000000000000391
  0
LINE
  5
3772
330
2
100
AcDbEntity
  8
L-ZISSEN
100
AcDbLine
 10
638.1240626806684
 20
238.7956055094891
 30
-0.0000000000000391
 11
638.1240626806684
 21
238.2956055094891
 31
-0.0000000000000391
  0
LINE
  5
3773
330
2
100
AcDbEntity
  8
L-ZISSEN
100
AcDbLine
 10
640.1240626806693
 20
241.7956055094891
 30
-0.0000000000000391
 11
640.1240626806693
 21
238.7956055094891
 31
-0.0000000000000391
  0
LINE
  5
3774
330
2
100
AcDbEntity
  8
L-ZISSEN
100
AcDbLine
 10
637.1240626806684
 20
238.2956055094891
 30
-0.0000000000000391
 11
637.1240626806684
 21
229.2956055094891
 31
-0.0000000000000391
  0
LINE
  5
3778
330
2
100
AcDbEntity
  8
L-ZISSEN
100
AcDbLine
 10
638.1240626806684
 20
228.7956055094891
 30
-0.0000000000000391
 11
638.1240626806684
 21
229.2956055094891
 31
-0.0000000000000391
  0
LINE
  5
3779
330
2
100
AcDbEntity
  8
L-ZISSEN
100
AcDbLine
 10
628.1240626806684
 20
238.7956055094891
 30
-0.0000000000000391
 11
628.1240626806684
 21
238.2956055094891
 31
-0.0000000000000391
  0
LINE
  5
377A
330
2
100
AcDbEntity
  8
L-ZISSEN
100
AcDbLine
 10
629.1240626806684
 20
237.2956055094892
 30
-0.0000000000000391
 11
628.811455289499
 21
237.8370573938155
 31
-0.0000000000000391
  0
LINE
  5
377B
330
2
100
AcDbEntity
  8
L-ZISSEN
100
AcDbLine
 10
629.1240626806684
 20
238.2956055094891
 30
-0.0000000000000391
 11
629.1240626806684
 21
229.2956055094891
 31
-0.0000000000000391
  0
LINE
  5
377C
330
2
100
AcDbEntity
  8
L-ZISSEN
100
AcDbLine
 10
629.1240626806684
 20
237.2956055094892
 30
-0.0000000000000391
 11
629.1240626806684
 21
230.2956055094891
 31
-0.0000000000000391
  0
LINE
  5
377E
330
2
100
AcDbEntity
  8
L-ZISSEN
100
AcDbLine
 10
628.1240626806684
 20
228.7956055094891
 30
-0.0000000000000391
 11
628.1240626806684
 21
229.2956055094891
 31
-0.0000000000000391
  0
LINE
  5
377F
330
2
100
AcDbEntity
  8
L-ZISSEN
100
AcDbLine
 10
629.1240626806684
 20
230.2956055094891
 30
-0.0000000000000391
 11
628.811455289499
 21
229.754153625161
 31
-0.0000000000000391
  0
CIRCLE
  5
3782
330
2
100
AcDbEntity
  8
L-ZISSEN
  6
CONTINUOUS
 62
     7
100
AcDbCircle
 10
633.1121527918512
 20
202.1356055094875
 30
0.0
 40
2.5
  0
LINE
  5
3783
330
2
100
AcDbEntity
  8
L-ZISSEN
100
AcDbLine
 10
638.1240626806689
 20
238.7956055094891
 30
-0.0000000000000391
 11
628.1240626806688
 21
238.7956055094873
 31
-0.0000000000000391
  0
LINE
  5
3784
330
2
100
AcDbEntity
  8
L-ZISSEN
100
AcDbLine
 10
629.1240626806684
 20
238.2956055094891
 30
-0.0000000000000391
 11
637.1240626806684
 21
238.2956055094891
 31
-0.0000000000000391
  0
LINE
  5
3785
330
2
100
AcDbEntity
  8
L-ZISSEN
100
AcDbLine
 10
638.1240626806684
 20
238.2956055094891
 30
-0.0000000000000391
 11
628.1240626806684
 21
238.2956055094891
 31
-0.0000000000000391
  0
LINE
  5
3786
330
2
100
AcDbEntity
  8
L-ZISSEN
100
AcDbLine
 10
638.1240626806684
 20
238.7956055094891
 30
-0.0000000000000391
 11
628.1240626806684
 21
238.7956055094891
 31
-0.0000000000000391
  0
LINE
  5
3787
330
2
100
AcDbEntity
  8
L-ZISSEN
100
AcDbLine
 10
630.6240626806693
 20
238.7956055094873
 30
-0.0000000000000391
 11
631.1240626806693
 21
238.7956055094873
 31
-0.0000000000000391
  0
LINE
  5
3788
330
2
100
AcDbEntity
  8
L-ZISSEN
100
AcDbLine
 10
631.1240626806693
 20
238.7956055094873
 30
-0.0000000000000391
 11
630.6240626806693
 21
238.7956055094873
 31
-0.0000000000000391
  0
LINE
  5
3789
330
2
100
AcDbEntity
  8
L-ZISSEN
100
AcDbLine
 10
630.6240626806689
 20
238.7956055094891
 30
-0.0000000000000391
 11
631.1240626806688
 21
238.7956055094891
 31
-0.0000000000000391
  0
LINE
  5
378A
330
2
100
AcDbEntity
  8
L-ZISSEN
100
AcDbLine
 10
631.1240626806688
 20
238.7956055094891
 30
-0.0000000000000391
 11
630.6240626806689
 21
238.7956055094891
 31
-0.0000000000000391
  0
LINE
  5
378B
330
2
100
AcDbEntity
  8
L-ZISSEN
100
AcDbLine
 10
629.1240626806684
 20
229.2956055094891
 30
-0.0000000000000391
 11
637.1240626806684
 21
229.2956055094891
 31
-0.0000000000000391
  0
LINE
  5
378D
330
2
100
AcDbEntity
  8
L-ZISSEN
100
AcDbLine
 10
638.1240626806684
 20
229.2956055094891
 30
-0.0000000000000391
 11
628.1240626806684
 21
229.2956055094891
 31
-0.0000000000000391
  0
LINE
  5
378E
330
2
100
AcDbEntity
  8
L-ZISSEN
100
AcDbLine
 10
638.1240626806684
 20
228.7956055094891
 30
-0.0000000000000391
 11
637.3834991837902
 21
228.7956055094891
 31
-0.0000000000000391
  0
LINE
  5
378F
330
2
100
AcDbEntity
  8
L-ZISSEN
  6
CONTINUOUS
 62
     7
100
AcDbLine
 10
678.1121527918513
 20
179.6356055094875
 30
0.0
 11
678.1121527918513
 21
178.6356055094875
 31
0.0
  0
ARC
  5
3790
330
2
100
AcDbEntity
  8
L-ZISSEN
 48
0.5
100
AcDbCircle
 10
665.8761587126386
 20
256.8356055094882
 30
0.0000000000493299
 40
1.0
100
AcDbArc
 50
1.4999999999898
 51
90.0
  0
ARC
  5
3791
330
2
100
AcDbEntity
  8
L-ZISSEN
 48
0.5
100
AcDbCircle
 10
666.1121747992524
 20
246.3356055094882
 30
-0.0000000000000391
 40
0.5
100
AcDbArc
 50
270.0
 51
0.0
  0
LINE
  5
3792
330
2
100
AcDbEntity
  8
L-ZISSEN
 48
0.5
100
AcDbLine
 10
668.1121747992524
 20
250.8356055094882
 30
-0.0000000000000391
 11
668.1121747992524
 21
246.8356055094882
 31
-0.0000000000000391
  0
LINE
  5
3793
330
2
100
AcDbEntity
  8
L-ZISSEN
 48
0.5
100
AcDbLine
 10
667.6121747992525
 20
246.3356055094882
 30
-0.0000000000000391
 11
668.1121747992524
 21
246.8356055094882
 31
-0.0000000000000391
  0
LINE
  5
3794
330
2
100
AcDbEntity
  8
L-ZISSEN
100
AcDbLine
 10
668.1121747992524
 20
245.8356055094882
 30
0.0000000000000013
 11
668.1121747992524
 21
242.6356055094875
 31
0.0000000000000013
  0
LINE
  5
3795
330
2
100
AcDbEntity
  8
L-ZISSEN
 48
0.5
100
AcDbLine
 10
665.8761587126386
 20
257.8356055094882
 30
-0.000000000000699
 11
657.9030302191895
 21
257.8356055094882
 31
-0.0000000000004459
  0
LINE
  5
3796
330
2
100
AcDbEntity
  8
L-TYUSIN
  6
CENTER
 62
     1
100
AcDbLine
 10
703.1121527918513
 20
154.7235440336207
 30
0.0
 11
703.1121527918513
 21
168.547666985356
 31
0.0
  0
LINE
  5
3797
330
2
100
AcDbEntity
  8
L-TYUSIN
  6
CENTER
 62
     1
100
AcDbLine
 10
696.2000913159808
 20
161.6356055094875
 30
0.0
 11
710.0242142677216
 21
161.6356055094875
 31
0.0
  0
CIRCLE
  5
3798
330
2
100
AcDbEntity
  8
L-ZISSEN
  6
CONTINUOUS
 62
     7
100
AcDbCircle
 10
703.1121527918513
 20
161.6356055094875
 30
0.0
 40
3.5
  0
LINE
  5
3799
330
2
100
AcDbEntity
  8
L-ZISSEN
 48
0.5
100
AcDbLine
 10
617.6121747992525
 20
577.4983283739402
 30
0.0000000000000015
 11
661.6121747992524
 21
577.4983283739402
 31
0.0000000000000015
  0
LINE
  5
379A
330
2
100
AcDbEntity
  8
L-ZISSEN
 48
0.5
100
AcDbLine
 10
617.1121747992524
 20
578.4983283739402
 30
0.0000000000000015
 11
662.1121747992524
 21
578.4983283739402
 31
0.0000000000000015
  0
LINE
  5
379B
330
2
100
AcDbEntity
  8
L-ZISSEN
 48
0.5
100
AcDbLine
 10
661.9048805370089
 20
576.2910341116967
 30
-0.0000000000000015
 11
623.1121747992524
 21
576.2910341116967
 31
-0.0000000000004286
  0
LINE
  5
379C
330
2
100
AcDbEntity
  8
L-ZISSEN
  6
CONTINUOUS
 62
     7
100
AcDbLine
 10
606.1121747992529
 20
447.9983283739384
 30
0.0
 11
660.1121747992529
 21
447.9983283739402
 31
0.0
  0
LINE
  5
379D
330
2
100
AcDbEntity
  8
L-ZISSEN
  6
CONTINUOUS
 62
     7
100
AcDbLine
 10
606.1121747992529
 20
453.9983283739402
 30
0.0
 11
660.1121747992529
 21
453.9983283739402
 31
0.0
  0
LINE
  5
379E
330
2
100
AcDbEntity
  8
L-ZISSEN
  6
CONTINUOUS
 62
     7
100
AcDbLine
 10
607.1121747992529
 20
471.9983283739384
 30
0.0
 11
659.1121747992529
 21
471.9983283739384
 31
0.0
  0
LINE
  5
379F
330
2
100
AcDbEntity
  8
L-ZISSEN
 48
0.5
100
AcDbLine
 10
617.3180983613983
 20
297.8356055094882
 30
-0.0000000000000417
 11
661.906251237106
 21
297.8356055094882
 31
-0.0000000000000422
  0
LINE
  5
37A0
330
2
100
AcDbEntity
  8
L-ZISSEN
 48
0.5
100
AcDbLine
 10
617.6121747992525
 20
486.4983283739402
 30
0.0000000000000015
 11
661.6121747992524
 21
486.4983283739402
 31
0.0000000000000015
  0
LINE
  5
37A1
330
2
100
AcDbEntity
  8
L-ZISSEN
 48
0.5
100
AcDbLine
 10
656.1121747992524
 20
487.7056226361837
 30
-0.000000000000428
 11
617.3194690614959
 21
487.7056226361837
 31
0.0000000000000113
  0
LINE
  5
37A2
330
2
100
AcDbEntity
  8
L-ZISSEN
 48
0.5
100
AcDbLine
 10
617.1121747992524
 20
485.4983283739402
 30
0.0000000000000015
 11
662.1121747992524
 21
485.4983283739402
 31
0.0000000000000015
  0
LINE
  5
37A4
330
2
100
AcDbEntity
  8
L-ZISSEN
 48
0.5
100
AcDbLine
 10
611.1121747992524
 20
491.4983283739402
 30
0.0000000000000015
 11
611.1121747992524
 21
572.4983283739402
 31
0.0000000000000015
  0
LINE
  5
37A5
330
2
100
AcDbEntity
  8
L-ZISSEN
 48
0.5
100
AcDbLine
 10
612.1121747992524
 20
571.9983283739402
 30
0.0000000000000015
 11
612.1121747992524
 21
491.9983283739402
 31
0.0000000000000015
  0
LINE
  5
37A6
330
2
100
AcDbEntity
  8
L-ZISSEN
 48
0.5
100
AcDbLine
 10
613.3194690614959
 20
566.4983283739402
 30
0.0000000000040348
 11
613.3194690614959
 21
491.7056226361837
 31
0.0000000000000065
  0
LINE
  5
37A7
330
2
100
AcDbEntity
  8
L-ZISSEN
100
AcDbLine
 10
578.6982362759336
 20
496.4122448898579
 30
0.0
 11
588.1121747992529
 21
486.9983283739402
 31
0.0
  0
LINE
  5
37A8
330
2
100
AcDbEntity
  8
L-ZISSEN
  6
CONTINUOUS
 62
     7
100
AcDbLine
 10
588.1121747992529
 20
486.9983283739402
 30
0.0
 11
588.1121747992529
 21
551.5321143184301
 31
0.0
  0
POLYLINE
  5
37A9
330
2
100
AcDbEntity
  8
L-ZISSEN
100
AcDb2dPolyline
 66
     1
 10
0.0
 20
0.0
 30
0.0
  0
VERTEX
  5
60D6
330
37A9
100
AcDbEntity
  8
L-ZISSEN
100
AcDbVertex
100
AcDb2dVertex
 10
569.8236283999631
 20
465.6747043015257
 30
0.0
 42
0.0386652674096838
  0
VERTEX
  5
60D7
330
37A9
100
AcDbEntity
  8
L-ZISSEN
100
AcDbVertex
100
AcDb2dVertex
 10
568.9868615870673
 20
468.0952411659254
 30
0.0
 42
0.100206694462423
  0
VERTEX
  5
60D8
330
37A9
100
AcDbEntity
  8
L-ZISSEN
100
AcDbVertex
100
AcDb2dVertex
 10
565.0168735559073
 20
473.776963777982
 30
0.0
 42
0.0966285887845977
  0
VERTEX
  5
60D9
330
37A9
100
AcDbEntity
  8
L-ZISSEN
100
AcDbVertex
100
AcDb2dVertex
 10
559.1370659023377
 20
477.5334519053139
 30
0.0
 42
0.094242226624325
  0
VERTEX
  5
60DA
330
37A9
100
AcDbEntity
  8
L-ZISSEN
100
AcDbVertex
100
AcDb2dVertex
 10
552.1121747992529
 20
478.8694000171253
 30
0.0
 42
0.0942422266243152
  0
VERTEX
  5
60DB
330
37A9
100
AcDbEntity
  8
L-ZISSEN
100
AcDbVertex
100
AcDb2dVertex
 10
545.0872836961662
 20
477.5334519053139
 30
0.0
 42
0.0966285887846016
  0
VERTEX
  5
60DC
330
37A9
100
AcDbEntity
  8
L-ZISSEN
100
AcDbVertex
100
AcDb2dVertex
 10
539.2074760425985
 20
473.776963777982
 30
0.0
 42
0.1002066944624107
  0
VERTEX
  5
60DD
330
37A9
100
AcDbEntity
  8
L-ZISSEN
100
AcDbVertex
100
AcDb2dVertex
 10
535.2374880114385
 20
468.0952411659254
 30
0.0
 42
0.0386636130950173
  0
VERTEX
  5
60DE
330
37A9
100
AcDbEntity
  8
L-ZISSEN
100
AcDbVertex
100
AcDb2dVertex
 10
534.4007488968291
 20
465.6748103206609
 30
0.0
  0
SEQEND
  5
60DF
330
37A9
100
AcDbEntity
  8
L-ZISSEN
  0
POLYLINE
  5
37AA
330
2
100
AcDbEntity
  8
L-ZISSEN
100
AcDb2dPolyline
 66
     1
 10
0.0
 20
0.0
 30
0.0
  0
VERTEX
  5
60E0
330
37AA
100
AcDbEntity
  8
L-ZISSEN
100
AcDbVertex
100
AcDb2dVertex
 10
570.9823037096448
 20
463.6255120745972
 30
0.0
 42
0.0711288176611881
  0
VERTEX
  5
60E1
330
37AA
100
AcDbEntity
  8
L-ZISSEN
100
AcDbVertex
100
AcDb2dVertex
 10
569.6761416442296
 20
468.4751711342705
 30
0.0
 42
0.0997343366565479
  0
VERTEX
  5
60E2
330
37AA
100
AcDbEntity
  8
L-ZISSEN
100
AcDbVertex
100
AcDb2dVertex
 10
565.5472036417941
 20
474.4599764798749
 30
0.0
 42
0.0971729588102004
  0
VERTEX
  5
60E3
330
37AA
100
AcDbEntity
  8
L-ZISSEN
100
AcDbVertex
100
AcDb2dVertex
 10
559.4138681826644
 20
478.4288231682621
 30
0.0
 42
0.0954362277442256
  0
VERTEX
  5
60E4
330
37AA
100
AcDbEntity
  8
L-ZISSEN
100
AcDbVertex
100
AcDb2dVertex
 10
552.1121747992529
 20
479.8353258434144
 30
0.0
  0
SEQEND
  5
60E5
330
37AA
100
AcDbEntity
  8
L-ZISSEN
  0
ELLIPSE
  5
37AB
330
2
100
AcDbEntity
  8
L-ZISSEN
100
AcDbEllipse
 10
552.1121527918512
 20
458.1810838444125
 30
0.0
 11
20.08660318889997
 21
0.0
 31
0.0
210
0.0
220
0.0
230
1.0
 40
0.7908850357226514
 41
0.0
 42
6.283185307179586
  0
LINE
  5
37AC
330
2
100
AcDbEntity
  8
L-ZISSEN
  6
CONTINUOUS
 62
     7
100
AcDbLine
 10
585.4104688770803
 20
484.9983283739383
 30
0.0
 11
515.7854670073411
 21
484.9983283739383
 31
0.0
  0
POLYLINE
  5
37AD
330
2
100
AcDbEntity
  8
L-ZISSEN
100
AcDb2dPolyline
 66
     1
 10
0.0
 20
0.0
 30
0.0
  0
VERTEX
  5
60E6
330
37AD
100
AcDbEntity
  8
L-ZISSEN
100
AcDbVertex
100
AcDb2dVertex
 10
552.1121747992529
 20
479.8353258434144
 30
0.0
 42
0.0954362277442254
  0
VERTEX
  5
60E7
330
37AD
100
AcDbEntity
  8
L-ZISSEN
100
AcDbVertex
100
AcDb2dVertex
 10
544.8104814158396
 20
478.4288231682621
 30
0.0
 42
0.0971729588102008
  0
VERTEX
  5
60E8
330
37AD
100
AcDbEntity
  8
L-ZISSEN
100
AcDbVertex
100
AcDb2dVertex
 10
538.6771459567098
 20
474.4599764798749
 30
0.0
 42
0.0997343366565476
  0
VERTEX
  5
60E9
330
37AD
100
AcDbEntity
  8
L-ZISSEN
100
AcDbVertex
100
AcDb2dVertex
 10
534.5482079542744
 20
468.4751711342705
 30
0.0
 42
0.0711269686210237
  0
VERTEX
  5
60EA
330
37AD
100
AcDbEntity
  8
L-ZISSEN
100
AcDbVertex
100
AcDb2dVertex
 10
533.2420616578838
 20
463.6256416813612
 30
0.0
 42
0.0711269686210237
  0
SEQEND
  5
60EB
330
37AD
100
AcDbEntity
  8
L-ZISSEN
  0
LINE
  5
37AE
330
2
100
AcDbEntity
  8
L-ZISSEN
100
AcDbLine
 10
533.1121747992547
 20
463.3353529160086
 30
0.0
 11
533.1121747992547
 21
477.9983283739384
 31
0.0
  0
LINE
  5
37AF
330
2
100
AcDbEntity
  8
L-ZISSEN
  6
CONTINUOUS
 62
     7
 48
3.0
100
AcDbLine
 10
515.7854670073411
 20
470.4983283739384
 30
0.0
 11
515.7854670073411
 21
486.9983283739384
 31
0.0
  0
LINE
  5
37B0
330
2
100
AcDbEntity
  8
L-ZISSEN
100
AcDbLine
 10
529.6121527918494
 20
472.7583283739386
 30
0.0
 11
529.6121527918494
 21
477.9983283739384
 31
0.0
  0
LINE
  5
37B1
330
2
100
AcDbEntity
  8
L-ZISSEN
100
AcDbLine
 10
519.6121527918548
 20
472.7583283739386
 30
0.0
 11
519.6121527918548
 21
477.9983283739384
 31
0.0
  0
LINE
  5
37B2
330
2
100
AcDbEntity
  8
L-ZISSEN
100
AcDbLine
 10
519.6121527918548
 20
472.7583283739386
 30
0.0
 11
529.6121527918494
 21
472.7583283739386
 31
0.0
  0
LINE
  5
37B3
330
2
100
AcDbEntity
  8
L-ZISSEN
100
AcDbLine
 10
519.1121747992529
 20
477.9983283739384
 30
0.0
 11
533.1121747992547
 21
477.9983283739384
 31
0.0
  0
LINE
  5
37B4
330
2
100
AcDbEntity
  8
L-ZISSEN
  6
CONTINUOUS
 62
     7
100
AcDbLine
 10
519.1121747992529
 20
484.9983283739383
 30
0.0
 11
519.1121747992529
 21
477.9983283739384
 31
0.0
  0
LINE
  5
37B5
330
2
100
AcDbEntity
  8
L-ZISSEN
  6
CONTINUOUS
 62
     7
 48
3.0
100
AcDbLine
 10
611.6121747992528
 20
293.6356055094875
 30
0.0
 11
584.6121747992529
 21
293.6356055094875
 31
0.0
  0
LINE
  5
37B6
330
2
100
AcDbEntity
  8
L-ZISSEN
  6
CONTINUOUS
 62
     7
 48
3.0
100
AcDbLine
 10
611.6121747992528
 20
328.6356055094874
 30
0.0
 11
584.6121747992529
 21
328.6356055094874
 31
0.0
  0
LINE
  5
37B7
330
2
100
AcDbEntity
  8
L-ZISSEN
  6
CONTINUOUS
 62
     7
 48
3.0
100
AcDbLine
 10
584.6121747992529
 20
328.6356055094874
 30
0.0
 11
584.6121747992529
 21
293.6356055094875
 31
0.0
  0
LINE
  5
37B8
330
2
100
AcDbEntity
  8
L-ZISSEN
  6
CONTINUOUS
 62
     7
 48
3.0
100
AcDbLine
 10
611.6121747992528
 20
328.6356055094874
 30
0.0
 11
611.6121747992528
 21
293.6356055094875
 31
0.0
  0
ARC
  5
37B9
330
2
100
AcDbEntity
  8
L-ZISSEN
 48
0.5
100
AcDbCircle
 10
617.3180983613983
 20
293.8356055094882
 30
-0.0000000000000333
 40
4.0
100
AcDbArc
 50
90.0
 51
178.5000000000102
  0
LINE
  5
37BA
330
2
100
AcDbEntity
  8
L-TYUSIN
  6
CENTER
 62
     1
100
AcDbLine
 10
598.1121747992529
 20
335.4671040971516
 30
0.0
 11
598.1121747992529
 21
282.1415948799403
 31
0.0
  0
LINE
  5
37BB
330
2
100
AcDbEntity
  8
L-ZISSEN
  6
CONTINUOUS
 62
     7
100
AcDbLine
 10
610.8138807214254
 20
480.9983283739383
 30
0.0
 11
585.4104688770803
 21
480.9983283739402
 31
0.0
  0
LINE
  5
37BC
330
2
100
AcDbEntity
  8
L-ZISSEN
100
AcDbLine
 10
571.1121747992492
 20
463.335251427643
 30
0.0
 11
571.1121747992492
 21
477.9983283739384
 31
0.0
  0
LINE
  5
37BD
330
2
100
AcDbEntity
  8
L-ZISSEN
100
AcDbLine
 10
574.612152791853
 20
472.7583283739386
 30
0.0
 11
584.6121527918494
 21
472.7583283739386
 31
0.0
  0
LINE
  5
37BE
330
2
100
AcDbEntity
  8
L-ZISSEN
100
AcDbLine
 10
571.1121747992492
 20
477.9983283739384
 30
0.0
 11
585.1121747992529
 21
477.9983283739384
 31
0.0
  0
LINE
  5
37BF
330
2
100
AcDbEntity
  8
L-ZISSEN
100
AcDbLine
 10
574.612152791853
 20
472.7583283739386
 30
0.0
 11
574.612152791853
 21
477.9983283739384
 31
0.0
  0
LINE
  5
37C0
330
2
100
AcDbEntity
  8
L-ZISSEN
100
AcDbLine
 10
584.6121527918494
 20
472.7583283739386
 30
0.0
 11
584.6121527918494
 21
477.9983283739384
 31
0.0
  0
LINE
  5
37C1
330
2
100
AcDbEntity
  8
L-ZISSEN
  6
CONTINUOUS
 62
     7
100
AcDbLine
 10
585.1121747992529
 20
484.9983283739383
 30
0.0
 11
585.1121747992529
 21
477.9983283739384
 31
0.0
  0
LINE
  5
37C2
330
2
100
AcDbEntity
  8
L-ZISSEN
  6
CONTINUOUS
 62
     7
100
AcDbLine
 10
585.4104688770803
 20
480.9983283739383
 30
0.0
 11
585.4104688770803
 21
484.9983283739383
 31
0.0
  0
LINE
  5
37C3
330
2
100
AcDbEntity
  8
L-ZISSEN
100
AcDbLine
 10
585.4104688770803
 20
480.9983283739402
 30
0.0
 11
585.4104688770803
 21
486.9983283739384
 31
0.0
  0
LINE
  5
37C4
330
2
100
AcDbEntity
  8
L-ZISSEN
  6
CONTINUOUS
 62
     7
100
AcDbLine
 10
607.1121747992529
 20
453.9983283739402
 30
0.0
 11
607.1121747992529
 21
471.9983283739384
 31
0.0
  0
LINE
  5
37C5
330
2
100
AcDbEntity
  8
L-ZISSEN
  6
CONTINUOUS
 62
     7
100
AcDbLine
 10
606.1121747992529
 20
447.9983283739384
 30
0.0
 11
606.1121747992529
 21
453.9983283739402
 31
0.0
  0
LINE
  5
37C6
330
2
100
AcDbEntity
  8
L-ZISSEN
  6
CONTINUOUS
 62
     7
100
AcDbLine
 10
626.1121747992529
 20
471.9983283739384
 30
0.0
 11
626.1121747992529
 21
485.4983283739402
 31
0.0
  0
LINE
  5
37C7
330
2
100
AcDbEntity
  8
L-ZISSEN
  6
CONTINUOUS
 62
     7
100
AcDbLine
 10
610.8138807214254
 20
480.9983283739383
 30
0.0
 11
610.8138807214254
 21
486.9983283739384
 31
0.0
  0
ARC
  5
37C8
330
2
100
AcDbEntity
  8
L-ZISSEN
 48
0.5
100
AcDbCircle
 10
617.1121747992524
 20
491.4983283739402
 30
0.0000000000000015
 40
6.0
100
AcDbArc
 50
180.0
 51
270.0
  0
ARC
  5
37C9
330
2
100
AcDbEntity
  8
L-ZISSEN
 48
0.5
100
AcDbCircle
 10
617.3194690614969
 20
491.7056226361837
 30
0.00000000000001
 40
4.0
100
AcDbArc
 50
180.0
 51
270.0
  0
ARC
  5
37CA
330
2
100
AcDbEntity
  8
L-ZISSEN
 48
0.5
100
AcDbCircle
 10
617.6121747992525
 20
491.9983283739402
 30
0.0000000000000015
 40
5.5
100
AcDbArc
 50
180.0
 51
270.0
  0
LINE
  5
37CB
330
2
100
AcDbEntity
  8
L-ZISSEN
100
AcDbLine
 10
512.5237175311322
 20
610.7983283739395
 30
0.0
 11
543.7006320673718
 21
610.7983283739395
 31
0.0
  0
LINE
  5
37CC
330
2
100
AcDbEntity
  8
L-ZISSEN
  6
CONTINUOUS
 62
     7
100
AcDbLine
 10
518.1121747992529
 20
616.9983283739384
 30
0.0
 11
518.1121747992529
 21
618.9983283739384
 31
0.0
  0
LINE
  5
37CD
330
2
100
AcDbEntity
  8
L-ZISSEN
  6
CONTINUOUS
 62
     7
100
AcDbLine
 10
512.5237175311322
 20
610.7983283739395
 30
0.0
 11
512.5237175311322
 21
606.9983283739384
 31
0.0
  0
LINE
  5
37CE
330
2
100
AcDbEntity
  8
L-ZISSEN
  6
CONTINUOUS
 62
     7
100
AcDbLine
 10
511.1121747992529
 20
616.9983283739384
 30
0.0
 11
511.1121747992529
 21
606.9983283739384
 31
0.0
  0
LINE
  5
37CF
330
2
100
AcDbEntity
  8
L-ZISSEN
  6
CONTINUOUS
 62
     7
100
AcDbLine
 10
508.8621747992529
 20
624.4983283739402
 30
0.0
 11
508.8621747992529
 21
618.9983283739402
 31
0.0
  0
LINE
  5
37D0
330
2
100
AcDbEntity
  8
L-ZISSEN
  6
CONTINUOUS
 62
     7
100
AcDbLine
 10
543.7006320673718
 20
610.7983283739395
 30
0.0
 11
543.7006320673718
 21
606.9983283739384
 31
0.0
  0
LINE
  5
37D1
330
2
100
AcDbEntity
  8
L-ZISSEN
  6
CONTINUOUS
 62
     7
100
AcDbLine
 10
588.1121747992529
 20
588.4645424294503
 30
0.0
 11
588.1121747992529
 21
606.9983283739384
 31
0.0
  0
LINE
  5
37D2
330
2
100
AcDbEntity
  8
L-ZISSEN
100
AcDbLine
 10
578.6982362759336
 20
597.5844118580207
 30
0.0
 11
588.1121747992529
 21
606.9983283739384
 31
0.0
  0
LINE
  5
37D3
330
2
100
AcDbEntity
  8
L-TYUSIN
  6
CENTER
 62
     1
100
AcDbLine
 10
618.8843202594307
 20
569.9983283739384
 30
0.0
 11
577.3400293390714
 21
569.9983283739402
 31
0.0
  0
CIRCLE
  5
37D4
330
2
100
AcDbEntity
  8
L-SAISEN
100
AcDbCircle
 10
598.1121747992529
 20
569.9983283739384
 30
0.0
 40
10.47749999999999
  0
CIRCLE
  5
37D5
330
2
100
AcDbEntity
  8
L-ZISSEN
  6
CONTINUOUS
 62
     7
100
AcDbCircle
 10
598.1121747992529
 20
569.9983283739384
 30
0.0
 40
9.3155
  0
CIRCLE
  5
37D6
330
2
100
AcDbEntity
  8
L-ZISSEN
100
AcDbCircle
 10
598.1121747992529
 20
569.9983283739402
 30
0.0
 40
13.5
  0
LINE
  5
37D7
330
2
100
AcDbEntity
  8
L-ZISSEN
  6
CONTINUOUS
 62
     7
100
AcDbLine
 10
578.6982362759336
 20
597.5844118580207
 30
0.0
 11
578.6982362759336
 21
578.0045792166747
 31
0.0
  0
ARC
  5
37D8
330
2
100
AcDbEntity
  8
L-ZISSEN
100
AcDbCircle
 10
598.1121747992529
 20
569.9983283739384
 30
0.0
 40
21.00002527484161
100
AcDbArc
 50
118.4368528054443
 51
241.5631471945556
  0
LINE
  5
37D9
330
2
100
AcDbEntity
  8
L-ZISSEN
  6
CONTINUOUS
 62
     7
100
AcDbLine
 10
578.6982362759336
 20
561.9920775312039
 30
0.0
 11
578.6982362759336
 21
496.4122448898579
 31
0.0
  0
LINE
  5
37DA
330
2
100
AcDbEntity
  8
L-ZISSEN
  6
CONTINUOUS
 62
     7
100
AcDbLine
 10
588.1121747992529
 20
589.5942463162082
 30
0.0
 11
588.1121747992529
 21
602.4306466817215
 31
0.0
  0
ARC
  5
37DB
330
2
100
AcDbEntity
  8
L-ZISSEN
 48
0.5
100
AcDbCircle
 10
617.1121747992524
 20
572.4983283739402
 30
0.0000000000000015
 40
6.0
100
AcDbArc
 50
90.0
 51
180.0
  0
ARC
  5
37DC
330
2
100
AcDbEntity
  8
L-ZISSEN
 48
0.5
100
AcDbCircle
 10
617.6121747992525
 20
571.9983283739402
 30
0.0000000000000015
 40
5.5
100
AcDbArc
 50
90.0
 51
180.0
  0
CIRCLE
  5
37DD
330
2
100
AcDbEntity
  8
L-ZISSEN
 48
0.5
100
AcDbCircle
 10
618.1121747992515
 20
571.4983283739402
 30
-0.0000000000026268
 40
2.120409324691834
  0
LINE
  5
37DE
330
2
100
AcDbEntity
  8
L-TYUSIN
 48
0.5
100
AcDbLine
 10
618.1121747992524
 20
575.9983283739402
 30
0.0000000000000015
 11
618.1121747992524
 21
566.9983283739402
 31
0.0000000000000015
  0
LINE
  5
37DF
330
2
100
AcDbEntity
  8
L-ZISSEN
 48
0.5
100
AcDbLine
 10
622.1121747992524
 20
575.2910341116967
 30
-0.0000000000004286
 11
622.1121747992524
 21
569.9983283739402
 31
0.0000000000000539
  0
ARC
  5
37E0
330
2
100
AcDbEntity
  8
L-ZISSEN
 48
0.5
100
AcDbCircle
 10
623.1121747992524
 20
575.2910341116967
 30
-0.0000000000004286
 40
1.0
100
AcDbArc
 50
90.0
 51
180.0
  0
LINE
  5
37E1
330
2
100
AcDbEntity
  8
L-ZISSEN
 48
0.5
100
AcDbLine
 10
619.6121747992524
 20
567.4983283739402
 30
-0.0000000000023336
 11
614.319469061496
 21
567.4983283739402
 31
0.0000000000040348
  0
LINE
  5
37E2
330
2
100
AcDbEntity
  8
L-TYUSIN
 48
0.5
100
AcDbLine
 10
622.6121747992524
 20
571.4983283739402
 30
0.0000000000000015
 11
613.6121747992524
 21
571.4983283739402
 31
0.0000000000000015
  0
ARC
  5
37E3
330
2
100
AcDbEntity
  8
L-ZISSEN
 48
0.5
100
AcDbCircle
 10
614.3194690614969
 20
566.4983283739402
 30
0.0000000000040348
 40
1.0
100
AcDbArc
 50
90.0
 51
180.0
  0
ARC
  5
37E4
330
2
100
AcDbEntity
  8
L-ZISSEN
 48
0.5
100
AcDbCircle
 10
619.6121747992524
 20
569.9983283739402
 30
0.0000000003892322
 40
2.5
210
0.0000000000012032
220
-0.0000000000006305
230
1.0
100
AcDbArc
 50
270.0
 51
0.0
  0
ARC
  5
37E5
330
2
100
AcDbEntity
  8
L-ZISSEN
 48
0.5
100
AcDbCircle
 10
614.3194690614969
 20
566.4983283739402
 30
0.0000000000040348
 40
1.0
100
AcDbArc
 50
90.0
 51
180.0
  0
LINE
  5
37E6
330
2
100
AcDbEntity
  8
L-TYUSIN
  6
CENTER
 62
     1
100
AcDbLine
 10
598.1121747992529
 20
548.7938433694743
 30
0.0
 11
598.1121747992529
 21
591.2028133784042
 31
0.0
  0
ARC
  5
37E7
330
2
100
AcDbEntity
  8
L-ZISSEN
  6
CONTINUOUS
 62
     7
100
AcDbCircle
 10
668.1121747992529
 20
496.9983283739384
 30
0.0
 40
6.5
100
AcDbArc
 50
269.2610502389044
 51
90.0
  0
LINE
  5
37E8
330
2
100
AcDbEntity
  8
L-ZISSEN
 48
0.5
100
AcDbLine
 10
668.1121747992524
 20
491.4983283739402
 30
0.0000000000000015
 11
668.1121747992524
 21
572.4983283739402
 31
0.0000000000000015
  0
LINE
  5
37E9
330
2
100
AcDbEntity
  8
L-ZISSEN
 48
0.5
100
AcDbLine
 10
667.1121747992524
 20
571.9983283739402
 30
0.0000000000000015
 11
667.1121747992524
 21
491.9983283739402
 31
0.0000000000000015
  0
LINE
  5
37EA
330
2
100
AcDbEntity
  8
L-ZISSEN
 48
0.5
100
AcDbLine
 10
657.1121747992524
 20
488.7056226361838
 30
0.0000000000000015
 11
657.1121747992524
 21
493.9983283739402
 31
0.0000000000000004
  0
CIRCLE
  5
37EB
330
2
100
AcDbEntity
  8
L-ZISSEN
 48
0.5
100
AcDbCircle
 10
661.1121747992515
 20
492.4983283739402
 30
-0.0000000000026268
 40
2.120409324691834
  0
LINE
  5
37EC
330
2
100
AcDbEntity
  8
L-ZISSEN
  6
CONTINUOUS
 62
     7
100
AcDbLine
 10
678.1121747992528
 20
606.9983283739384
 30
0.0
 11
678.1121747992528
 21
486.9983283739384
 31
0.0
  0
LINE
  5
37ED
330
2
100
AcDbEntity
  8
L-TYUSIN
 48
0.5
100
AcDbLine
 10
661.1121747992524
 20
487.9983283739402
 30
0.0000000000000015
 11
661.1121747992524
 21
496.9983283739402
 31
0.0000000000000015
  0
ARC
  5
37EE
330
2
100
AcDbEntity
  8
L-ZISSEN
 48
0.5
100
AcDbCircle
 10
651.9852772222589
 20
293.8177248920692
 30
-0.0000000000002824
 40
4.0
100
AcDbArc
 50
1.4999999999898
 51
90.0
  0
ARC
  5
37EF
330
2
100
AcDbEntity
  8
L-ZISSEN
 48
0.5
100
AcDbCircle
 10
661.906251237106
 20
293.8356055094882
 30
-0.0000000000000333
 40
4.0
100
AcDbArc
 50
1.4999999999898
 51
90.0
  0
LINE
  5
37F0
330
2
100
AcDbEntity
  8
L-TYUSIN
 48
0.5
100
AcDbLine
 10
656.6121747992524
 20
492.4983283739402
 30
0.0000000000000015
 11
665.6121747992524
 21
492.4983283739402
 31
0.0000000000000015
  0
LINE
  5
37F1
330
2
100
AcDbEntity
  8
L-ZISSEN
  6
CONTINUOUS
 62
     7
100
AcDbLine
 10
640.1121747992529
 20
471.9983283739384
 30
0.0
 11
640.1121747992529
 21
485.4983283739402
 31
0.0
  0
ARC
  5
37F2
330
2
100
AcDbEntity
  8
L-ZISSEN
 48
0.5
100
AcDbCircle
 10
656.1121747992524
 20
488.7056226361838
 30
-0.000000000000428
 40
1.0
100
AcDbArc
 50
270.0
 51
0.0
  0
LINE
  5
37F3
330
2
100
AcDbEntity
  8
L-ZISSEN
  6
CONTINUOUS
 62
     7
100
AcDbLine
 10
678.1121747992528
 20
486.9983283739384
 30
0.0
 11
666.0808017658482
 21
486.9983283739402
 31
0.0
  0
LINE
  5
37F4
330
2
100
AcDbEntity
  8
L-ZISSEN
  6
CONTINUOUS
 62
     7
100
AcDbLine
 10
659.1121747992529
 20
453.9983283739402
 30
0.0
 11
659.1121747992529
 21
471.9983283739384
 31
0.0
  0
LINE
  5
37F5
330
2
100
AcDbEntity
  8
L-ZISSEN
  6
CONTINUOUS
 62
     7
100
AcDbLine
 10
660.1121747992529
 20
447.9983283739402
 30
0.0
 11
660.1121747992529
 21
453.9983283739402
 31
0.0
  0
ARC
  5
37F6
330
2
100
AcDbEntity
  8
L-ZISSEN
 48
0.5
100
AcDbCircle
 10
662.1121747992524
 20
491.4983283739402
 30
0.0000000000000015
 40
6.0
100
AcDbArc
 50
270.0
 51
0.0
  0
ARC
  5
37F7
330
2
100
AcDbEntity
  8
L-ZISSEN
 48
0.5
100
AcDbCircle
 10
661.6121747992524
 20
491.9983283739402
 30
0.0000000000000015
 40
5.5
100
AcDbArc
 50
270.0
 51
0.0
  0
LINE
  5
37F8
330
2
100
AcDbEntity
  8
L-ZISSEN
  6
CONTINUOUS
 62
     7
100
AcDbLine
 10
718.1121527918512
 20
634.9983283739383
 30
0.0
 11
679.1121747992528
 21
634.9983283739383
 31
0.0
  0
LINE
  5
37F9
330
2
100
AcDbEntity
  8
L-ZISSEN
  6
CONTINUOUS
 62
     7
100
AcDbLine
 10
677.1121747992529
 20
636.9983283739384
 30
0.0
 11
718.1121527918512
 21
636.9983283739384
 31
0.0
  0
LINE
  5
37FA
330
2
100
AcDbEntity
  8
L-ZISSEN
  6
CONTINUOUS
 62
     7
100
AcDbLine
 10
680.6121747992529
 20
606.9983283739384
 30
0.0
 11
680.6121747992529
 21
546.9983283739384
 31
0.0
  0
CIRCLE
  5
37FB
330
2
100
AcDbEntity
  8
L-ZISSEN
  6
CONTINUOUS
 62
     7
100
AcDbCircle
 10
668.1121747992529
 20
596.9983283739402
 30
0.0
 40
6.5
  0
ARC
  5
37FC
330
2
100
AcDbEntity
  8
L-ZISSEN
 48
0.5
100
AcDbCircle
 10
659.6121747992524
 20
493.9983283739402
 30
0.0000000017432113
 40
2.5
210
0.0000000000026216
220
0.0000000000000002
230
1.0
100
AcDbArc
 50
90.0
 51
180.0
  0
LINE
  5
37FD
330
2
100
AcDbEntity
  8
L-ZISSEN
100
AcDbLine
 10
678.1121747992528
 20
600.9983283739384
 30
0.0
 11
680.1121747992529
 21
600.9983283739384
 31
0.0
  0
LINE
  5
37FE
330
2
100
AcDbEntity
  8
L-ZISSEN
  6
CONTINUOUS
 62
     7
100
AcDbLine
 10
684.2121747992514
 20
597.4983283739383
 30
0.0
 11
684.2121747992514
 21
590.4983283739384
 31
0.0
  0
LINE
  5
37FF
330
2
100
AcDbEntity
  8
L-ZISSEN
  6
CONTINUOUS
 62
     7
100
AcDbLine
 10
684.2121747992514
 20
563.4983283739384
 30
0.0
 11
684.2121747992514
 21
556.4983283739384
 31
0.0
  0
LINE
  5
3800
330
2
100
AcDbEntity
  8
L-ZISSEN
  6
CONTINUOUS
 62
     7
100
AcDbLine
 10
684.2121747992514
 20
556.4983283739384
 30
0.0
 11
680.6121747992529
 21
556.4983283739384
 31
0.0
  0
LINE
  5
3801
330
2
100
AcDbEntity
  8
L-ZISSEN
  6
CONTINUOUS
 62
     7
100
AcDbLine
 10
684.2121747992514
 20
563.4983283739384
 30
0.0
 11
680.6121747992529
 21
563.4983283739384
 31
0.0
  0
LINE
  5
3802
330
2
100
AcDbEntity
  8
L-ZISSEN
100
AcDbLine
 10
678.1121747992528
 20
510.9983283739384
 30
0.0
 11
680.1121747992529
 21
510.9983283739384
 31
0.0
  0
LINE
  5
3803
330
2
100
AcDbEntity
  8
L-ZISSEN
100
AcDbLine
 10
678.1121747992528
 20
510.9983283739384
 30
0.0
 11
680.1121747992529
 21
510.9983283739384
 31
0.0
  0
LINE
  5
3804
330
2
100
AcDbEntity
  8
L-ZISSEN
  6
CONTINUOUS
 62
     7
100
AcDbLine
 10
684.2121747992514
 20
590.4983283739384
 30
0.0
 11
680.6121747992529
 21
590.4983283739384
 31
0.0
  0
LINE
  5
3805
330
2
100
AcDbEntity
  8
L-ZISSEN
  6
CONTINUOUS
 62
     7
100
AcDbLine
 10
684.2121747992514
 20
597.4983283739383
 30
0.0
 11
680.6121747992529
 21
597.4983283739383
 31
0.0
  0
ARC
  5
3806
330
2
100
AcDbEntity
  8
L-ZISSEN
 48
0.5
100
AcDbCircle
 10
662.1121747992524
 20
572.4983283739402
 30
0.0000000000000015
 40
6.0
100
AcDbArc
 50
0.0
 51
90.0
  0
ARC
  5
3807
330
2
100
AcDbEntity
  8
L-ZISSEN
 48
0.5
100
AcDbCircle
 10
661.9048805370089
 20
572.2910341116967
 30
0.000000000000052
 40
4.0
100
AcDbArc
 50
0.0
 51
90.0
  0
ARC
  5
3808
330
2
100
AcDbEntity
  8
L-ZISSEN
 48
0.5
100
AcDbCircle
 10
661.6121747992524
 20
571.9983283739402
 30
0.0000000000000015
 40
5.5
100
AcDbArc
 50
0.0
 51
90.0
  0
LINE
  5
3809
330
2
100
AcDbEntity
  8
L-ZISSEN
 48
0.5
100
AcDbLine
 10
665.9048805370089
 20
572.2910341116967
 30
-0.0000000000000013
 11
665.9048805370089
 21
497.4983283739402
 31
0.0000000000000015
  0
ARC
  5
380A
330
2
100
AcDbEntity
  8
L-ZISSEN
 48
0.5
100
AcDbCircle
 10
664.9048805370089
 20
497.4983283739402
 30
0.0000000000000015
 40
1.0
100
AcDbArc
 50
270.0
 51
0.0
  0
LINE
  5
380B
330
2
100
AcDbEntity
  8
L-ZISSEN
 48
0.5
100
AcDbLine
 10
659.6121747992524
 20
496.4983283739402
 30
-0.0000000000065541
 11
664.9048805370089
 21
496.4983283739402
 31
0.0000000000000015
  0
LINE
  5
380C
330
2
100
AcDbEntity
  8
L-ZISSEN
  6
CONTINUOUS
 62
     7
100
AcDbLine
 10
680.1121747992529
 20
600.9983283739384
 30
0.0
 11
680.1121747992529
 21
510.9983283739384
 31
0.0
  0
LINE
  5
380D
330
2
100
AcDbEntity
  8
L-ZISSEN
  6
CONTINUOUS
 62
     7
100
AcDbLine
 10
647.3621747992528
 20
624.4983283739384
 30
0.0
 11
658.8621747992529
 21
624.4983283739384
 31
0.0
  0
LINE
  5
380E
330
2
100
AcDbEntity
  8
L-ZISSEN
  6
CONTINUOUS
 62
     7
100
AcDbLine
 10
638.1121747992529
 20
618.9983283739384
 30
0.0
 11
677.1121747992529
 21
618.9983283739384
 31
0.0
  0
LINE
  5
380F
330
2
100
AcDbEntity
  8
L-ZISSEN
  6
CONTINUOUS
 62
     7
100
AcDbLine
 10
679.1121747992528
 20
616.9983283739384
 30
0.0
 11
638.1121747992529
 21
616.9983283739384
 31
0.0
  0
LINE
  5
3810
330
2
100
AcDbEntity
  8
L-ZISSEN
  6
CONTINUOUS
 62
     7
100
AcDbLine
 10
647.3621747992528
 20
624.4983283739384
 30
0.0
 11
647.3621747992528
 21
618.9983283739384
 31
0.0
  0
LINE
  5
3811
330
2
100
AcDbEntity
  8
L-ZISSEN
  6
CONTINUOUS
 62
     7
100
AcDbLine
 10
645.1121747992528
 20
616.9983283739384
 30
0.0
 11
645.1121747992528
 21
606.9983283739384
 31
0.0
  0
LINE
  5
3812
330
2
100
AcDbEntity
  8
L-ZISSEN
  6
CONTINUOUS
 62
     7
100
AcDbLine
 10
638.1121747992529
 20
618.9983283739384
 30
0.0
 11
638.1121747992529
 21
616.9983283739384
 31
0.0
  0
LINE
  5
3813
330
2
100
AcDbEntity
  8
L-ZISSEN
  6
CONTINUOUS
 62
     7
100
AcDbLine
 10
677.1121747992529
 20
618.9983283739384
 30
0.0
 11
677.1121747992529
 21
636.9983283739384
 31
0.0
  0
LINE
  5
3814
330
2
100
AcDbEntity
  8
L-ZISSEN
  6
CONTINUOUS
 62
     7
100
AcDbLine
 10
679.1121747992528
 20
634.9983283739383
 30
0.0
 11
679.1121747992528
 21
616.9983283739384
 31
0.0
  0
LINE
  5
3815
330
2
100
AcDbEntity
  8
L-ZISSEN
  6
CONTINUOUS
 62
     7
100
AcDbLine
 10
658.8621747992529
 20
624.4983283739384
 30
0.0
 11
658.8621747992529
 21
618.9983283739384
 31
0.0
  0
LINE
  5
3816
330
2
100
AcDbEntity
  8
L-ZISSEN
  6
CONTINUOUS
 62
     7
100
AcDbLine
 10
661.1121747992529
 20
616.9983283739384
 30
0.0
 11
661.1121747992529
 21
606.9983283739384
 31
0.0
  0
LINE
  5
3817
330
2
100
AcDbEntity
  8
L-TYUSIN
  6
CENTER
 62
     1
100
AcDbLine
 10
703.1121527918513
 20
628.5862668980735
 30
0.0
 11
703.1121527918513
 21
642.4103898498069
 31
0.0
  0
LINE
  5
3818
330
2
100
AcDbEntity
  8
L-ZISSEN
  6
CONTINUOUS
 62
     7
100
AcDbLine
 10
718.1121527918512
 20
634.9983283739383
 30
0.0
 11
718.1121527918512
 21
636.9983283739384
 31
0.0
  0
TEXT
  5
3A38
330
2
100
AcDbEntity
  8
L-ZISSEN
100
AcDbText
 10
801.4164321355387
 20
63.49786748670773
 30
0.0
 40
15.99999999008639
  1
MC5-02※※-※F01/11Y
 41
0.8
 72
     4
 11
910.094527306297
 21
70.35501033960191
 31
0.0
100
AcDbText
  0
TEXT
  5
3A39
330
2
100
AcDbEntity
  8
L-ZISSEN
100
AcDbText
 10
858.1021463861306
 20
17.35501037244016
 30
0.0
 40
15.99999999008639
  1
3J-4306 A
 41
0.8
 72
     4
 11
910.094527306297
 21
25.35501036748337
 31
0.0
100
AcDbText
  0
LINE
  5
5231
330
2
100
AcDbEntity
  8
L-ZISSEN
100
AcDbLine
 10
628.8408063999122
 20
228.7956055094891
 30
-0.0000000000000391
 11
628.1240626806684
 21
228.7956055094891
 31
-0.0000000000000391
  0
TEXT
  5
60A4
330
2
100
AcDbEntity
  8
L-ZISSEN
100
AcDbText
 10
798.7538228243399
 20
94.92843622083524
 30
0.0
 40
15.99999999008639
  1
MC5-02※※-※P01/11Y
 41
0.8
 72
     4
 11
908.3462037088175
 21
101.7855790737294
 31
0.0
100
AcDbText
  0
ENDSEC
  0
SECTION
  2
OBJECTS
  0
DICTIONARY
  5
7
330
0
100
AcDbDictionary
  3
ACAD_GROUP
350
C3B
  3
ACAD_LAYOUT
350
C27
  3
ACAD_MLINESTYLE
350
C3C
  3
ACAD_PLOTSETTINGS
350
C3D
  3
ACADDIM
350
3C4E
1001
ACAD
1000
TREAT_AS_HARD
1070
     0
1000
TREAT_AS_HARD
1070
     0
  0
DICTIONARY
  5
C22
330
2
100
AcDbDictionary
  3
ACAD_LAYOUTSELFREF
350
60AC
1001
ACAD
1000
TREAT_AS_HARD
1070
     1
1000
TREAT_AS_HARD
1070
     1
  0
DICTIONARY
  5
C29
330
C28
100
AcDbDictionary
  3
ACAD_LAYOUTSELFREF
350
60AD
1001
ACAD
1000
TREAT_AS_HARD
1070
     1
1000
TREAT_AS_HARD
1070
     1
  0
DICTIONARY
  5
C3B
102
{ACAD_REACTORS
330
7
102
}
330
7
100
AcDbDictionary
1001
ACAD
1000
TREAT_AS_HARD
1070
     0
1000
TREAT_AS_HARD
1070
     0
  0
DICTIONARY
  5
C27
102
{ACAD_REACTORS
330
7
102
}
330
7
100
AcDbDictionary
1001
ACAD
1000
TREAT_AS_HARD
1070
     0
1000
TREAT_AS_HARD
1070
     0
  0
DICTIONARY
  5
C3C
102
{ACAD_REACTORS
330
7
102
}
330
7
100
AcDbDictionary
  3
STANDARD
350
C3E
1001
ACAD
1000
TREAT_AS_HARD
1070
     0
1000
TREAT_AS_HARD
1070
     0
  0
DICTIONARY
  5
C3D
102
{ACAD_REACTORS
330
7
102
}
330
7
100
AcDbDictionary
1001
ACAD
1000
TREAT_AS_HARD
1070
     0
1000
TREAT_AS_HARD
1070
     0
  0
XRECORD
  5
3C4E
102
{ACAD_REACTORS
330
7
102
}
330
7
100
AcDbXrecord
 90
   990106
  3

 60
     0
 61
     0
 62
     1
 63
     3
 64
     0
 65
     0
 66
     0
 67
     3
 68
     1
 69
     0
 70
     0
 71
     0
 72
     0
 40
0.0
170
     0
  0
XRECORD
  5
60AC
102
{ACAD_REACTORS
330
C22
102
}
330
C22
100
AcDbXrecord
340
2
  0
XRECORD
  5
60AD
102
{ACAD_REACTORS
330
C29
102
}
330
C29
100
AcDbXrecord
340
C28
  0
MLINESTYLE
  5
C3E
102
{ACAD_REACTORS
330
C3C
102
}
330
C3C
100
AcDbMlineStyle
  2
STANDARD
 70
     0
  3

 62
     0
 51
90.0
 52
90.0
 71
     2
 49
0.5
 62
   256
  6
BYLAYER
 49
-0.5
 62
   256
  6
BYLAYER
  0
ENDSEC
  0
EOF
