  0
SECTION
  2
HEADER
  9
$ACADVER
  1
AC1012
  9
$DWGCODEPAGE
  3
dos932
  9
$INSBASE
 10
0.0
 20
0.0
 30
0.0
  9
$EXTMIN
 10
117.9606822693317
 20
128.2559836723976
 30
-0.0015258207003583
  9
$EXTMAX
 10
1417.734639141386
 20
807.2256356990202
 30
0.0000000349246037
  9
$LIMMIN
 10
0.0
 20
0.0
  9
$LIMMAX
 10
12.0
 20
9.0
  9
$ORTHOMODE
 70
     0
  9
$REGENMODE
 70
     1
  9
$FILLMODE
 70
     1
  9
$QTEXTMODE
 70
     0
  9
$MIRRTEXT
 70
     1
  9
$DRAGMODE
 70
     2
  9
$LTSCALE
 40
10.0
  9
$OSMODE
 70
    37
  9
$ATTMODE
 70
     1
  9
$TEXTSIZE
 40
10.0
  9
$TRACEWID
 40
0.05
  9
$TEXTSTYLE
  7
STANDARD
  9
$CLAYER
  8
0
  9
$CELTYPE
  6
BYLAYER
  9
$CECOLOR
 62
   256
  9
$CELTSCALE
 40
1.0
  9
$DELOBJ
 70
     1
  9
$DISPSILH
 70
     0
  9
$DIMSCALE
 40
1.0
  9
$DIMASZ
 40
0.18
  9
$DIMEXO
 40
0.0625
  9
$DIMDLI
 40
0.38
  9
$DIMRND
 40
0.0
  9
$DIMDLE
 40
0.0
  9
$DIMEXE
 40
0.18
  9
$DIMTP
 40
0.0
  9
$DIMTM
 40
0.0
  9
$DIMTXT
 40
0.18
  9
$DIMCEN
 40
0.09
  9
$DIMTSZ
 40
0.0
  9
$DIMTOL
 70
     0
  9
$DIMLIM
 70
     0
  9
$DIMTIH
 70
     1
  9
$DIMTOH
 70
     1
  9
$DIMSE1
 70
     0
  9
$DIMSE2
 70
     0
  9
$DIMTAD
 70
     0
  9
$DIMZIN
 70
     0
  9
$DIMBLK
  1

  9
$DIMASO
 70
     1
  9
$DIMSHO
 70
     0
  9
$DIMPOST
  1

  9
$DIMAPOST
  1

  9
$DIMALT
 70
     0
  9
$DIMALTD
 70
     2
  9
$DIMALTF
 40
25.4
  9
$DIMLFAC
 40
1.0
  9
$DIMTOFL
 70
     0
  9
$DIMTVP
 40
0.0
  9
$DIMTIX
 70
     0
  9
$DIMSOXD
 70
     0
  9
$DIMSAH
 70
     0
  9
$DIMBLK1
  1

  9
$DIMBLK2
  1

  9
$DIMSTYLE
  2
STANDARD
  9
$DIMCLRD
 70
     0
  9
$DIMCLRE
 70
     0
  9
$DIMCLRT
 70
     0
  9
$DIMTFAC
 40
1.0
  9
$DIMGAP
 40
0.09
  9
$DIMJUST
 70
     0
  9
$DIMSD1
 70
     0
  9
$DIMSD2
 70
     0
  9
$DIMTOLJ
 70
     1
  9
$DIMTZIN
 70
     0
  9
$DIMALTZ
 70
     0
  9
$DIMALTTZ
 70
     0
  9
$DIMFIT
 70
     3
  9
$DIMUPT
 70
     0
  9
$DIMUNIT
 70
     2
  9
$DIMDEC
 70
     4
  9
$DIMTDEC
 70
     4
  9
$DIMALTU
 70
     2
  9
$DIMALTTD
 70
     2
  9
$DIMTXSTY
  7
STANDARD
  9
$DIMAUNIT
 70
     0
  9
$LUNITS
 70
     2
  9
$LUPREC
 70
     4
  9
$SKETCHINC
 40
0.1
  9
$FILLETRAD
 40
0.0
  9
$AUNITS
 70
     0
  9
$AUPREC
 70
     0
  9
$MENU
  1
acad
  9
$ELEVATION
 40
0.0
  9
$PELEVATION
 40
0.0
  9
$THICKNESS
 40
0.0
  9
$LIMCHECK
 70
     0
  9
$BLIPMODE
 70
     0
  9
$CHAMFERA
 40
0.0
  9
$CHAMFERB
 40
0.0
  9
$CHAMFERC
 40
0.0
  9
$CHAMFERD
 40
0.0
  9
$SKPOLY
 70
     0
  9
$TDCREATE
 40
2448751.590578703
  9
$TDUPDATE
 40
2453235.797578472
  9
$TDINDWG
 40
0.0024787037
  9
$TDUSRTIMER
 40
0.0024787037
  9
$USRTIMER
 70
     1
  9
$ANGBASE
 50
0.0
  9
$ANGDIR
 70
     0
  9
$PDMODE
 70
     0
  9
$PDSIZE
 40
0.0
  9
$PLINEWID
 40
0.0
  9
$COORDS
 70
     0
  9
$SPLFRAME
 70
     0
  9
$SPLINETYPE
 70
     6
  9
$SPLINESEGS
 70
     8
  9
$ATTDIA
 70
     0
  9
$ATTREQ
 70
     1
  9
$HANDLING
 70
-16383
  9
$HANDSEED
  5
35D
  9
$SURFTAB1
 70
     6
  9
$SURFTAB2
 70
     6
  9
$SURFTYPE
 70
     6
  9
$SURFU
 70
     6
  9
$SURFV
 70
     6
  9
$UCSNAME
  2

  9
$UCSORG
 10
0.0
 20
0.0
 30
0.0
  9
$UCSXDIR
 10
1.0
 20
0.0
 30
0.0
  9
$UCSYDIR
 10
0.0
 20
1.0
 30
0.0
  9
$PUCSNAME
  2

  9
$PUCSORG
 10
0.0
 20
0.0
 30
0.0
  9
$PUCSXDIR
 10
1.0
 20
0.0
 30
0.0
  9
$PUCSYDIR
 10
0.0
 20
1.0
 30
0.0
  9
$USERI1
 70
     0
  9
$USERI2
 70
     0
  9
$USERI3
 70
     0
  9
$USERI4
 70
     0
  9
$USERI5
 70
     0
  9
$USERR1
 40
0.0
  9
$USERR2
 40
0.0
  9
$USERR3
 40
0.0
  9
$USERR4
 40
0.0
  9
$USERR5
 40
0.0
  9
$WORLDVIEW
 70
     1
  9
$SHADEDGE
 70
     3
  9
$SHADEDIF
 70
    70
  9
$TILEMODE
 70
     1
  9
$MAXACTVP
 70
    16
  9
$PINSBASE
 10
0.0
 20
0.0
 30
0.0
  9
$PLIMCHECK
 70
     0
  9
$PEXTMIN
 10
1.000000000000000E+20
 20
1.000000000000000E+20
 30
1.000000000000000E+20
  9
$PEXTMAX
 10
-1.000000000000000E+20
 20
-1.000000000000000E+20
 30
-1.000000000000000E+20
  9
$PLIMMIN
 10
0.0
 20
0.0
  9
$PLIMMAX
 10
12.0
 20
9.0
  9
$UNITMODE
 70
     0
  9
$VISRETAIN
 70
     0
  9
$PLINEGEN
 70
     0
  9
$PSLTSCALE
 70
     1
  9
$TREEDEPTH
 70
  3020
  9
$PICKSTYLE
 70
     1
  9
$CMLSTYLE
  2
STANDARD
  9
$CMLJUST
 70
     0
  9
$CMLSCALE
 40
1.0
  9
$SAVEIMAGES
 70
     1
  0
ENDSEC
  0
SECTION
  2
CLASSES
  0
CLASS
  1
ACDBDICTIONARYWDFLT
  2
AcDbDictionaryWithDefault
  3
AutoCAD 2000
 90
    32768
280
     0
281
     0
  0
CLASS
  1
ACDBPLACEHOLDER
  2
AcDbPlaceHolder
  3
AutoCAD 2000
 90
    32768
280
     0
281
     0
  0
CLASS
  1
LAYOUT
  2
AcDbLayout
  3
AutoCAD 2000
 90
    32768
280
     0
281
     0
  0
CLASS
  1
LONG_TRANSACTION
  2
AcDbLongTransaction
  3
AutoCAD 2000
 90
    32768
280
     0
281
     0
  0
CLASS
  1
LWPOLYLINE
  2
AcDbPolyline
  3
AutoCAD 2000
 90
    32768
280
     0
281
     1
  0
CLASS
  1
HATCH
  2
AcDbHatch
  3
AutoCAD 2000
 90
    32768
280
     0
281
     1
  0
CLASS
  1
XRECORD
  2
AcDbXrecord
  3
AutoCAD 2000
 90
    32768
280
     0
281
     0
  0
ENDSEC
  0
SECTION
  2
TABLES
  0
TABLE
  2
VPORT
  5
8
330
0
100
AcDbSymbolTable
 70
     2
  0
VPORT
  5
34E
330
8
100
AcDbSymbolTableRecord
100
AcDbViewportTableRecord
  2
*ACTIVE
 70
     0
 10
0.0
 20
0.0
 11
1.0
 21
1.0
 12
767.8476607053591
 22
467.7408096857089
 13
0.0
 23
0.0
 14
1.0
 24
1.0
 15
0.0
 25
0.0
 16
0.0
 26
0.0
 36
1.0
 17
0.0
 27
0.0
 37
0.0
 40
707.0511520747702
 41
1.84990253411306
 42
50.0
 43
0.0
 44
0.0
 50
0.0
 51
0.0
 71
     0
 72
   100
 73
     1
 74
     1
 75
     0
 76
     0
 77
     0
 78
     0
  0
ENDTAB
  0
TABLE
  2
LTYPE
  5
5
330
0
100
AcDbSymbolTable
 70
     3
  0
LTYPE
  5
13
330
5
100
AcDbSymbolTableRecord
100
AcDbLinetypeTableRecord
  2
BYBLOCK
 70
     0
  3

 72
    65
 73
     0
 40
0.0
  0
LTYPE
  5
14
330
5
100
AcDbSymbolTableRecord
100
AcDbLinetypeTableRecord
  2
BYLAYER
 70
     0
  3

 72
    65
 73
     0
 40
0.0
  0
LTYPE
  5
15
330
5
100
AcDbSymbolTableRecord
100
AcDbLinetypeTableRecord
  2
CONTINUOUS
 70
     0
  3
実線
 72
    65
 73
     0
 40
0.0
  0
LTYPE
  5
1E
330
5
100
AcDbSymbolTableRecord
100
AcDbLinetypeTableRecord
  2
DASHED
 70
     0
  3
__ __ __ __ __ __ __ __ __ __ __ __ __ __ __
 72
    65
 73
     2
 40
0.75
 49
0.5
 74
     0
 49
-0.25
 74
     0
  0
LTYPE
  5
20
330
5
100
AcDbSymbolTableRecord
100
AcDbLinetypeTableRecord
  2
CENTER
 70
     0
  3
____ _ ____ _ ____ _ ____ _ ____ _ ____ _ ____
 72
    65
 73
     4
 40
2.0
 49
1.25
 74
     0
 49
-0.25
 74
     0
 49
0.25
 74
     0
 49
-0.25
 74
     0
  0
ENDTAB
  0
TABLE
  2
LAYER
  5
2
330
0
100
AcDbSymbolTable
 70
     2
  0
LAYER
  5
F
330
2
100
AcDbSymbolTableRecord
100
AcDbLayerTableRecord
  2
0
 70
     0
 62
     7
  6
CONTINUOUS
  0
LAYER
  5
26
330
2
100
AcDbSymbolTableRecord
100
AcDbLayerTableRecord
  2
PV
 70
     0
 62
     7
  6
CONTINUOUS
  0
ENDTAB
  0
TABLE
  2
STYLE
  5
3
330
0
100
AcDbSymbolTable
 70
     2
  0
STYLE
  5
10
330
3
100
AcDbSymbolTableRecord
100
AcDbTextStyleTableRecord
  2
STANDARD
 70
     0
 40
0.0
 41
1.0
 50
0.0
 71
     0
 42
10.0
  3
txt
  4

  0
STYLE
  5
27
330
3
100
AcDbSymbolTableRecord
100
AcDbTextStyleTableRecord
  2
FONT1
 70
     0
 40
0.0
 41
1.0
 50
0.0
 71
     0
 42
0.2
  3
MONOTXT
  4

  0
ENDTAB
  0
TABLE
  2
VIEW
  5
6
330
0
100
AcDbSymbolTable
 70
     0
  0
ENDTAB
  0
TABLE
  2
UCS
  5
7
330
0
100
AcDbSymbolTable
 70
     0
  0
ENDTAB
  0
TABLE
  2
APPID
  5
9
330
0
100
AcDbSymbolTable
 70
     1
  0
APPID
  5
11
330
9
100
AcDbSymbolTableRecord
100
AcDbRegAppTableRecord
  2
ACAD
 70
     0
  0
ENDTAB
  0
TABLE
  2
DIMSTYLE
  5
A
330
0
100
AcDbSymbolTable
 70
     1
  0
DIMSTYLE
105
338
330
A
100
AcDbSymbolTableRecord
100
AcDbDimStyleTableRecord
  2
STANDARD
 70
     0
  3

  4

  5

  6

  7

 40
1.0
 41
0.18
 42
0.0625
 43
0.38
 44
0.18
 45
0.0
 46
0.0
 47
0.0
 48
0.0
140
0.18
141
0.09
142
0.0
143
25.4
144
1.0
145
0.0
146
1.0
147
0.09
 71
     0
 72
     0
 73
     1
 74
     1
 75
     0
 76
     0
 77
     0
 78
     0
170
     0
171
     2
172
     0
173
     0
174
     0
175
     0
176
     0
177
     0
178
     0
270
     2
271
     4
272
     4
273
     2
274
     2
340
10
275
     0
280
     0
281
     0
282
     0
283
     1
284
     0
285
     0
286
     0
287
     3
288
     0
  0
ENDTAB
  0
TABLE
  2
BLOCK_RECORD
  5
1
330
0
100
AcDbSymbolTable
 70
     0
  0
BLOCK_RECORD
  5
19
102
{ACAD_XDICTIONARY
360
351
102
}
330
1
100
AcDbSymbolTableRecord
100
AcDbBlockTableRecord
  2
*MODEL_SPACE
  0
BLOCK_RECORD
  5
16
102
{ACAD_XDICTIONARY
360
34F
102
}
330
1
100
AcDbSymbolTableRecord
100
AcDbBlockTableRecord
  2
*PAPER_SPACE
  0
ENDTAB
  0
ENDSEC
  0
SECTION
  2
BLOCKS
  0
BLOCK
  5
1A
330
19
100
AcDbEntity
  8
0
100
AcDbBlockBegin
  2
*MODEL_SPACE
 70
     0
 10
0.0
 20
0.0
 30
0.0
  3
*MODEL_SPACE
  1

  0
ENDBLK
  5
1B
330
19
100
AcDbEntity
  8
0
100
AcDbBlockEnd
  0
BLOCK
  5
17
330
16
100
AcDbEntity
 67
     1
  8
0
100
AcDbBlockBegin
  2
*PAPER_SPACE
 70
     0
 10
0.0
 20
0.0
 30
0.0
  3
*PAPER_SPACE
  1

  0
ENDBLK
  5
18
330
16
100
AcDbEntity
 67
     1
  8
0
100
AcDbBlockEnd
  0
ENDSEC
  0
SECTION
  2
ENTITIES
  0
LINE
  5
2B
330
19
100
AcDbEntity
  8
PV
 62
     7
100
AcDbLine
 10
1255.65
 20
765.701
 30
0.0
 11
1255.65
 21
760.701
 31
0.0
  0
LINE
  5
2C
330
19
100
AcDbEntity
  8
PV
 62
     7
100
AcDbLine
 10
1245.65
 20
765.701
 30
0.0
 11
1245.65
 21
760.701
 31
0.0
  0
LINE
  5
2D
330
19
100
AcDbEntity
  8
PV
 62
     7
100
AcDbLine
 10
1255.65
 20
775.701
 30
0.0
 11
1255.65
 21
767.701
 31
0.0
  0
LINE
  5
2E
330
19
100
AcDbEntity
  8
PV
 62
     7
100
AcDbLine
 10
1245.65
 20
775.701
 30
0.0
 11
1245.65
 21
767.701
 31
0.0
  0
LINE
  5
2F
330
19
100
AcDbEntity
  8
PV
 62
     7
100
AcDbLine
 10
1256.65
 20
767.701
 30
0.0
 11
1256.65
 21
765.701
 31
0.0
  0
LINE
  5
30
330
19
100
AcDbEntity
  8
PV
 62
     7
100
AcDbLine
 10
1244.65
 20
767.701
 30
0.0
 11
1244.65
 21
765.701
 31
0.0
  0
ARC
  5
31
330
19
100
AcDbEntity
  8
PV
 62
     7
100
AcDbCircle
 10
1252.65
 20
776.7009999999999
 30
0.0
 40
4.0
100
AcDbArc
 50
0.0
 51
90.0
  0
ARC
  5
32
330
19
100
AcDbEntity
  8
PV
 62
     7
100
AcDbCircle
 10
1248.65
 20
776.7009999999999
 30
0.0
 40
4.0
100
AcDbArc
 50
90.0
 51
180.0
  0
LINE
  5
33
330
19
100
AcDbEntity
  8
PV
 62
     7
100
AcDbLine
 10
1256.65
 20
776.7009999999999
 30
0.0
 11
1256.65
 21
775.701
 31
0.0
  0
LINE
  5
34
330
19
100
AcDbEntity
  8
PV
 62
     7
100
AcDbLine
 10
1244.65
 20
776.7009999999999
 30
0.0
 11
1244.65
 21
775.701
 31
0.0
  0
LINE
  5
35
330
19
100
AcDbEntity
  8
PV
 62
     7
100
AcDbLine
 10
1258.9
 20
775.701
 30
0.0
 11
1242.4
 21
775.701
 31
0.0
  0
LINE
  5
36
330
19
100
AcDbEntity
  8
PV
 62
     7
100
AcDbLine
 10
1258.9
 20
765.701
 30
0.0
 11
1258.9
 21
760.701
 31
0.0
  0
LINE
  5
37
330
19
100
AcDbEntity
  8
PV
 62
     7
100
AcDbLine
 10
1242.4
 20
765.701
 30
0.0
 11
1242.4
 21
760.701
 31
0.0
  0
LINE
  5
38
330
19
100
AcDbEntity
  8
PV
 62
     7
100
AcDbLine
 10
1258.9
 20
765.701
 30
0.0
 11
1242.4
 21
765.701
 31
0.0
  0
LINE
  5
39
330
19
100
AcDbEntity
  8
PV
 62
     7
100
AcDbLine
 10
1258.9
 20
775.701
 30
0.0
 11
1258.9
 21
767.701
 31
0.0
  0
LINE
  5
3A
330
19
100
AcDbEntity
  8
PV
 62
     7
100
AcDbLine
 10
1242.4
 20
775.701
 30
0.0
 11
1242.4
 21
767.701
 31
0.0
  0
LINE
  5
3B
330
19
100
AcDbEntity
  8
PV
 62
     7
100
AcDbLine
 10
1258.9
 20
767.701
 30
0.0
 11
1242.4
 21
767.701
 31
0.0
  0
LINE
  5
3C
330
19
100
AcDbEntity
  8
PV
 62
     7
100
AcDbLine
 10
1252.65
 20
780.701
 30
0.0
 11
1248.65
 21
780.701
 31
0.0
  0
LINE
  5
3D
330
19
100
AcDbEntity
  8
PV
 62
     7
100
AcDbLine
 10
747.2869999999999
 20
591.1059999999999
 30
0.0
 11
748.3469999999999
 21
592.1669999999998
 31
0.0
  0
LINE
  5
3E
330
19
100
AcDbEntity
  8
PV
 62
     7
100
AcDbLine
 10
748.3469999999999
 20
592.1669999999998
 30
0.0
 11
751.883
 21
588.6319999999999
 31
0.0
  0
LINE
  5
3F
330
19
100
AcDbEntity
  8
PV
 62
     7
100
AcDbLine
 10
746.2260000000001
 20
590.0459999999999
 30
0.0
 11
742.691
 21
593.581
 31
0.0
  0
LINE
  5
40
330
19
100
AcDbEntity
  8
PV
 62
     7
100
AcDbLine
 10
747.2869999999999
 20
591.1059999999999
 30
0.0
 11
746.2260000000001
 21
590.0459999999999
 31
0.0
  0
LINE
  5
41
330
19
100
AcDbEntity
  8
PV
 62
     7
100
AcDbLine
 10
692.5869999999999
 20
591.1059999999999
 30
0.0
 11
693.6469999999999
 21
592.1669999999998
 31
0.0
  0
LINE
  5
42
330
19
100
AcDbEntity
  8
PV
 62
     7
100
AcDbLine
 10
693.6469999999999
 20
592.1669999999998
 30
0.0
 11
697.1829999999999
 21
588.6319999999999
 31
0.0
  0
LINE
  5
43
330
19
100
AcDbEntity
  8
PV
 62
     7
100
AcDbLine
 10
691.526
 20
590.0459999999999
 30
0.0
 11
687.9910000000001
 21
593.581
 31
0.0
  0
LINE
  5
44
330
19
100
AcDbEntity
  8
PV
 62
     7
100
AcDbLine
 10
692.5869999999999
 20
591.1059999999999
 30
0.0
 11
691.526
 21
590.0459999999999
 31
0.0
  0
LINE
  5
45
330
19
100
AcDbEntity
  8
PV
 62
     7
100
AcDbLine
 10
710.087
 20
640.927
 30
0.0
 11
710.087
 21
700.927
 31
0.0
  0
LINE
  5
46
330
19
100
AcDbEntity
  8
PV
 62
     7
100
AcDbLine
 10
721.0869999999999
 20
668.927
 30
0.0
 11
713.5839999999999
 21
640.927
 31
0.0
  0
LINE
  5
47
330
19
100
AcDbEntity
  8
PV
 62
     7
100
AcDbLine
 10
694.7869999999999
 20
591.028
 30
0.0
 11
694.7869999999999
 21
640.927
 31
0.0
  0
LINE
  5
48
330
19
100
AcDbEntity
  8
PV
 62
     7
100
AcDbLine
 10
690.3869999999999
 20
591.1849999999999
 30
0.0
 11
690.3869999999999
 21
640.927
 31
0.0
  0
LINE
  5
49
330
19
100
AcDbEntity
  8
PV
 62
     7
100
AcDbLine
 10
685.087
 20
705.927
 30
0.0
 11
688.5869999999999
 21
705.927
 31
0.0
  0
LINE
  5
4A
330
19
100
AcDbEntity
  8
PV
 62
     7
100
AcDbLine
 10
688.5869999999999
 20
700.927
 30
0.0
 11
688.5869999999999
 21
705.927
 31
0.0
  0
LINE
  5
4B
330
19
100
AcDbEntity
  8
PV
 62
     7
100
AcDbLine
 10
688.5869999999999
 20
635.927
 30
0.0
 11
688.5869999999999
 21
640.927
 31
0.0
  0
LINE
  5
4C
330
19
100
AcDbEntity
  8
PV
 62
     7
100
AcDbLine
 10
688.5869999999999
 20
635.927
 30
0.0
 11
685.087
 21
635.927
 31
0.0
  0
LINE
  5
4D
330
19
100
AcDbEntity
  8
PV
 62
     7
100
AcDbLine
 10
688.5869999999999
 20
640.927
 30
0.0
 11
713.5839999999999
 21
640.927
 31
0.0
  0
LINE
  5
4E
330
19
100
AcDbEntity
  8
PV
 62
     7
100
AcDbLine
 10
685.087
 20
635.927
 30
0.0
 11
685.087
 21
705.927
 31
0.0
  0
LINE
  5
4F
330
19
100
AcDbEntity
  8
PV
 62
     7
100
AcDbLine
 10
721.0869999999999
 20
700.927
 30
0.0
 11
688.5869999999999
 21
700.927
 31
0.0
  0
LINE
  5
50
330
19
100
AcDbEntity
  8
PV
 62
     7
100
AcDbLine
 10
721.0869999999999
 20
668.927
 30
0.0
 11
721.0869999999999
 21
700.927
 31
0.0
  0
LINE
  5
51
330
19
100
AcDbEntity
  8
PV
 62
     7
100
AcDbLine
 10
743.0869999999999
 20
668.927
 30
0.0
 11
760.087
 21
668.927
 31
0.0
  0
LINE
  5
52
330
19
100
AcDbEntity
  8
PV
 62
     7
100
AcDbLine
 10
743.0869999999999
 20
668.927
 30
0.0
 11
743.0869999999999
 21
698.927
 31
0.0
  0
LINE
  5
53
330
19
100
AcDbEntity
  8
PV
 62
     7
100
AcDbLine
 10
760.087
 20
698.927
 30
0.0
 11
760.087
 21
668.927
 31
0.0
  0
LINE
  5
54
330
19
100
AcDbEntity
  8
PV
 62
     7
100
AcDbLine
 10
743.0869999999999
 20
698.927
 30
0.0
 11
760.087
 21
698.927
 31
0.0
  0
LINE
  5
55
330
19
100
AcDbEntity
  8
PV
 62
     7
100
AcDbLine
 10
751.5869999999999
 20
640.927
 30
0.0
 11
751.5869999999999
 21
635.927
 31
0.0
  0
LINE
  5
56
330
19
100
AcDbEntity
  8
PV
 62
     7
100
AcDbLine
 10
741.087
 20
705.927
 30
0.0
 11
751.5869999999999
 21
705.927
 31
0.0
  0
LINE
  5
57
330
19
100
AcDbEntity
  8
PV
 62
     7
100
AcDbLine
 10
751.5869999999999
 20
705.927
 30
0.0
 11
751.5869999999999
 21
700.927
 31
0.0
  0
LINE
  5
58
330
19
100
AcDbEntity
  8
PV
 62
     7
100
AcDbLine
 10
762.087
 20
635.927
 30
0.0
 11
751.5869999999999
 21
635.927
 31
0.0
  0
LINE
  5
59
330
19
100
AcDbEntity
  8
PV
 62
     7
100
AcDbLine
 10
745.087
 20
591.1849999999999
 30
0.0
 11
745.087
 21
640.927
 31
0.0
  0
LINE
  5
5A
330
19
100
AcDbEntity
  8
PV
 62
     7
100
AcDbLine
 10
749.4869999999999
 20
591.028
 30
0.0
 11
749.4869999999999
 21
640.927
 31
0.0
  0
LINE
  5
5B
330
19
100
AcDbEntity
  8
PV
 62
     7
100
AcDbLine
 10
741.087
 20
640.927
 30
0.0
 11
741.087
 21
705.927
 31
0.0
  0
LINE
  5
5C
330
19
100
AcDbEntity
  8
PV
 62
     7
100
AcDbLine
 10
762.087
 20
640.927
 30
0.0
 11
741.087
 21
640.927
 31
0.0
  0
LINE
  5
5D
330
19
100
AcDbEntity
  8
PV
 62
     7
100
AcDbLine
 10
762.087
 20
700.927
 30
0.0
 11
762.087
 21
635.927
 31
0.0
  0
LINE
  5
5E
330
19
100
AcDbEntity
  8
PV
 62
     7
100
AcDbLine
 10
741.087
 20
700.927
 30
0.0
 11
762.087
 21
700.927
 31
0.0
  0
LINE
  5
5F
330
19
100
AcDbEntity
  8
PV
 62
     7
100
AcDbLine
 10
688.3079999999999
 20
301.179
 30
0.0
 11
688.3079999999999
 21
128.389
 31
0.0
  0
LINE
  5
60
330
19
100
AcDbEntity
  8
PV
 62
     7
100
AcDbLine
 10
698.8919999999999
 20
301.179
 30
0.0
 11
638.359
 21
301.179
 31
0.0
  0
ARC
  5
61
330
19
100
AcDbEntity
  8
PV
 62
     7
100
AcDbCircle
 10
698.8919999999999
 20
314.379
 30
0.0
 40
13.2
100
AcDbArc
 50
270.0
 51
315.0
  0
LINE
  5
62
330
19
100
AcDbEntity
  8
PV
 62
     7
100
AcDbLine
 10
719.4389999999999
 20
316.2579999999999
 30
0.0
 11
708.2260000000001
 21
305.045
 31
0.0
  0
ARC
  5
63
330
19
100
AcDbEntity
  8
PV
 62
     7
100
AcDbCircle
 10
698.8919999999999
 20
314.379
 30
0.0
 40
10.0
100
AcDbArc
 50
270.0
 51
315.0
  0
LINE
  5
64
330
19
100
AcDbEntity
  8
PV
 62
     7
100
AcDbLine
 10
698.8919999999999
 20
304.379
 30
0.0
 11
637.316
 21
304.379
 31
0.0
  0
LINE
  5
65
330
19
100
AcDbEntity
  8
PV
 62
     7
100
AcDbLine
 10
717.177
 20
318.5209999999999
 30
0.0
 11
705.9630000000001
 21
307.308
 31
0.0
  0
ARC
  5
66
330
19
100
AcDbEntity
  8
PV
 62
     7
100
AcDbCircle
 10
718.308
 20
317.389
 30
0.0
 40
1.6
100
AcDbArc
 50
315.0
 51
135.0
  0
LINE
  5
67
330
19
100
AcDbEntity
  8
PV
 62
     7
100
AcDbLine
 10
637.838
 20
302.7789999999999
 30
0.0
 11
636.7769999999999
 21
303.839
 31
0.0
  0
LINE
  5
68
330
19
100
AcDbEntity
  8
PV
 62
     7
100
AcDbLine
 10
636.7769999999999
 20
303.839
 30
0.0
 11
640.3129999999999
 21
307.3749999999999
 31
0.0
  0
LINE
  5
69
330
19
100
AcDbEntity
  8
PV
 62
     7
100
AcDbLine
 10
638.898
 20
301.718
 30
0.0
 11
635.363
 21
298.183
 31
0.0
  0
LINE
  5
6A
330
19
100
AcDbEntity
  8
PV
 62
     7
100
AcDbLine
 10
637.838
 20
302.7789999999999
 30
0.0
 11
638.898
 21
301.718
 31
0.0
  0
LINE
  5
6B
330
19
100
AcDbEntity
  8
PV
 62
     7
100
AcDbLine
 10
808.308
 20
320.389
 30
0.0
 11
808.308
 21
334.389
 31
0.0
  0
LINE
  5
6C
330
19
100
AcDbEntity
  8
PV
 62
     7
100
AcDbLine
 10
842.201
 20
295.389
 30
0.0
 11
842.201
 21
333.389
 31
0.0
  0
LINE
  5
6D
330
19
100
AcDbEntity
  8
PV
 62
     7
100
AcDbLine
 10
839.201
 20
332.889
 30
0.0
 11
818.201
 21
332.889
 31
0.0
  0
LINE
  5
6E
330
19
100
AcDbEntity
  8
PV
 62
     7
100
AcDbLine
 10
818.201
 20
332.889
 30
0.0
 11
818.201
 21
295.889
 31
0.0
  0
LINE
  5
6F
330
19
100
AcDbEntity
  8
PV
 62
     7
100
AcDbLine
 10
818.201
 20
295.889
 30
0.0
 11
839.201
 21
295.889
 31
0.0
  0
LINE
  5
70
330
19
100
AcDbEntity
  8
PV
 62
     7
100
AcDbLine
 10
839.201
 20
295.389
 30
0.0
 11
839.201
 21
333.389
 31
0.0
  0
LINE
  5
71
330
19
100
AcDbEntity
  8
PV
 62
     7
100
AcDbLine
 10
800.201
 20
320.389
 30
0.0
 11
818.201
 21
320.389
 31
0.0
  0
LINE
  5
72
330
19
100
AcDbEntity
  8
PV
 62
     7
100
AcDbLine
 10
800.201
 20
308.389
 30
0.0
 11
818.201
 21
308.389
 31
0.0
  0
LINE
  5
73
330
19
100
AcDbEntity
  8
PV
 62
     7
100
AcDbLine
 10
842.201
 20
333.389
 30
0.0
 11
839.201
 21
333.389
 31
0.0
  0
LINE
  5
74
330
19
100
AcDbEntity
  8
PV
 62
     7
100
AcDbLine
 10
839.201
 20
295.389
 30
0.0
 11
842.201
 21
295.389
 31
0.0
  0
LINE
  5
75
330
19
100
AcDbEntity
  8
PV
 62
     7
100
AcDbLine
 10
1036.75
 20
788.314
 30
0.0
 11
1035.69
 21
787.2539999999998
 31
0.0
  0
LINE
  5
76
330
19
100
AcDbEntity
  8
PV
 62
     7
100
AcDbLine
 10
1035.69
 20
787.2539999999998
 30
0.0
 11
1032.15
 21
790.789
 31
0.0
  0
LINE
  5
77
330
19
100
AcDbEntity
  8
PV
 62
     7
100
AcDbLine
 10
1037.81
 20
789.3749999999999
 30
0.0
 11
1041.349999999999
 21
785.8389999999999
 31
0.0
  0
LINE
  5
78
330
19
100
AcDbEntity
  8
PV
 62
     7
100
AcDbLine
 10
1036.75
 20
788.314
 30
0.0
 11
1037.81
 21
789.3749999999999
 31
0.0
  0
LINE
  5
79
330
19
100
AcDbEntity
  8
PV
 62
     7
100
AcDbLine
 10
1035.15
 20
768.801
 30
0.0
 11
1035.15
 21
787.793
 31
0.0
  0
ARC
  5
7A
330
19
100
AcDbEntity
  8
PV
 62
     7
100
AcDbCircle
 10
1043.349999999999
 20
768.801
 30
0.0
 40
8.199999999999999
100
AcDbArc
 50
180.0
 51
270.0
  0
LINE
  5
7B
330
19
100
AcDbEntity
  8
PV
 62
     7
100
AcDbLine
 10
1080.65
 20
760.6010000000001
 30
0.0
 11
1043.349999999999
 21
760.6010000000001
 31
0.0
  0
ARC
  5
7C
330
19
100
AcDbEntity
  8
PV
 62
     7
100
AcDbCircle
 10
1043.349999999999
 20
768.801
 30
0.0
 40
5.0
100
AcDbArc
 50
180.0
 51
270.0
  0
LINE
  5
7D
330
19
100
AcDbEntity
  8
PV
 62
     7
100
AcDbLine
 10
1038.35
 20
768.801
 30
0.0
 11
1038.35
 21
788.836
 31
0.0
  0
LINE
  5
7E
330
19
100
AcDbEntity
  8
PV
  6
DASHED
 62
     5
100
AcDbLine
 10
1080.65
 20
760.6010000000001
 30
0.0
 11
1113.05
 21
760.6010000000001
 31
0.0
  0
ARC
  5
7F
330
19
100
AcDbEntity
  8
PV
  6
DASHED
 62
     5
100
AcDbCircle
 10
1113.05
 20
768.801
 30
0.0
 40
8.199999999999999
100
AcDbArc
 50
270.0
 51
0.0
  0
LINE
  5
80
330
19
100
AcDbEntity
  8
PV
  6
DASHED
 62
     5
100
AcDbLine
 10
1121.25
 20
792.201
 30
0.0
 11
1121.25
 21
768.801
 31
0.0
  0
ARC
  5
81
330
19
100
AcDbEntity
  8
PV
  6
DASHED
 62
     5
100
AcDbCircle
 10
1113.05
 20
768.801
 30
0.0
 40
5.0
100
AcDbArc
 50
270.0
 51
0.0
  0
LINE
  5
82
330
19
100
AcDbEntity
  8
PV
  6
DASHED
 62
     5
100
AcDbLine
 10
1080.65
 20
763.801
 30
0.0
 11
1113.05
 21
763.801
 31
0.0
  0
LINE
  5
83
330
19
100
AcDbEntity
  8
PV
  6
DASHED
 62
     5
100
AcDbLine
 10
1118.049999999999
 20
792.201
 30
0.0
 11
1118.049999999999
 21
768.801
 31
0.0
  0
LINE
  5
84
330
19
100
AcDbEntity
  8
PV
 62
     7
100
AcDbLine
 10
1080.65
 20
763.801
 30
0.0
 11
1043.349999999999
 21
763.801
 31
0.0
  0
LINE
  5
85
330
19
100
AcDbEntity
  8
PV
 62
     7
100
AcDbLine
 10
1024.44
 20
303.887
 30
0.0
 11
1038.799999999999
 21
317.803
 31
0.0
  0
CIRCLE
  5
86
330
19
100
AcDbEntity
  8
PV
 62
     7
100
AcDbCircle
 10
1035.15
 20
314.389
 30
0.0
 40
19.0
  0
CIRCLE
  5
87
330
19
100
AcDbEntity
  8
PV
 62
     7
100
AcDbCircle
 10
1250.65
 20
311.889
 30
0.0
 40
19.0
  0
LINE
  5
88
330
19
100
AcDbEntity
  8
PV
 62
     7
100
AcDbLine
 10
1231.65
 20
630.201
 30
0.0
 11
1269.65
 21
630.201
 31
0.0
  0
LINE
  5
89
330
19
100
AcDbEntity
  8
PV
 62
     7
100
AcDbLine
 10
1269.15
 20
633.201
 30
0.0
 11
1269.15
 21
654.201
 31
0.0
  0
LINE
  5
8A
330
19
100
AcDbEntity
  8
PV
 62
     7
100
AcDbLine
 10
1269.15
 20
654.201
 30
0.0
 11
1232.15
 21
654.201
 31
0.0
  0
LINE
  5
8B
330
19
100
AcDbEntity
  8
PV
 62
     7
100
AcDbLine
 10
1232.15
 20
654.201
 30
0.0
 11
1232.15
 21
633.201
 31
0.0
  0
LINE
  5
8C
330
19
100
AcDbEntity
  8
PV
 62
     7
100
AcDbLine
 10
1231.65
 20
633.201
 30
0.0
 11
1269.65
 21
633.201
 31
0.0
  0
LINE
  5
8D
330
19
100
AcDbEntity
  8
PV
 62
     7
100
AcDbLine
 10
1256.65
 20
672.201
 30
0.0
 11
1256.65
 21
654.201
 31
0.0
  0
LINE
  5
8E
330
19
100
AcDbEntity
  8
PV
 62
     7
100
AcDbLine
 10
1244.65
 20
672.201
 30
0.0
 11
1244.65
 21
654.201
 31
0.0
  0
LINE
  5
8F
330
19
100
AcDbEntity
  8
PV
 62
     7
100
AcDbLine
 10
1269.65
 20
630.201
 30
0.0
 11
1269.65
 21
633.201
 31
0.0
  0
LINE
  5
90
330
19
100
AcDbEntity
  8
PV
 62
     7
100
AcDbLine
 10
1231.65
 20
633.201
 30
0.0
 11
1231.65
 21
630.201
 31
0.0
  0
LINE
  5
91
330
19
100
AcDbEntity
  8
PV
 62
     7
100
AcDbLine
 10
1016.15
 20
641.701
 30
0.0
 11
1016.15
 21
638.701
 31
0.0
  0
LINE
  5
92
330
19
100
AcDbEntity
  8
PV
 62
     7
100
AcDbLine
 10
1054.15
 20
638.701
 30
0.0
 11
1054.15
 21
641.701
 31
0.0
  0
LINE
  5
93
330
19
100
AcDbEntity
  8
PV
 62
     7
100
AcDbLine
 10
1029.15
 20
680.701
 30
0.0
 11
1029.15
 21
662.701
 31
0.0
  0
LINE
  5
94
330
19
100
AcDbEntity
  8
PV
 62
     7
100
AcDbLine
 10
1041.15
 20
680.701
 30
0.0
 11
1041.15
 21
662.701
 31
0.0
  0
LINE
  5
95
330
19
100
AcDbEntity
  8
PV
 62
     7
100
AcDbLine
 10
1016.15
 20
641.701
 30
0.0
 11
1054.15
 21
641.701
 31
0.0
  0
LINE
  5
96
330
19
100
AcDbEntity
  8
PV
 62
     7
100
AcDbLine
 10
1016.65
 20
662.701
 30
0.0
 11
1016.65
 21
641.701
 31
0.0
  0
LINE
  5
97
330
19
100
AcDbEntity
  8
PV
 62
     7
100
AcDbLine
 10
1053.65
 20
662.701
 30
0.0
 11
1016.65
 21
662.701
 31
0.0
  0
LINE
  5
98
330
19
100
AcDbEntity
  8
PV
 62
     7
100
AcDbLine
 10
1053.65
 20
641.701
 30
0.0
 11
1053.65
 21
662.701
 31
0.0
  0
LINE
  5
99
330
19
100
AcDbEntity
  8
PV
 62
     7
100
AcDbLine
 10
1016.15
 20
638.701
 30
0.0
 11
1054.15
 21
638.701
 31
0.0
  0
ARC
  5
9A
330
19
100
AcDbEntity
  8
PV
 62
     7
100
AcDbCircle
 10
1246.05
 20
793.0010000000001
 30
0.0
 40
3.0
100
AcDbArc
 50
0.0
 51
90.0
  0
LINE
  5
9B
330
19
100
AcDbEntity
  8
PV
 62
     7
100
AcDbLine
 10
1124.249999999999
 20
796.0010000000001
 30
0.0
 11
1246.05
 21
796.0010000000001
 31
0.0
  0
LINE
  5
9C
330
19
100
AcDbEntity
  8
PV
 62
     7
100
AcDbLine
 10
1252.25
 20
792.201
 30
0.0
 11
1298.15
 21
792.201
 31
0.0
  0
LINE
  5
9D
330
19
100
AcDbEntity
  8
PV
 62
     7
100
AcDbLine
 10
1252.25
 20
793.0010000000001
 30
0.0
 11
1252.25
 21
780.701
 31
0.0
  0
ARC
  5
9E
330
19
100
AcDbEntity
  8
PV
 62
     7
100
AcDbCircle
 10
1246.05
 20
793.0010000000001
 30
0.0
 40
6.2
100
AcDbArc
 50
0.0
 51
90.0
  0
LINE
  5
9F
330
19
100
AcDbEntity
  8
PV
 62
     7
100
AcDbLine
 10
1124.249999999999
 20
799.201
 30
0.0
 11
1246.05
 21
799.201
 31
0.0
  0
LINE
  5
A0
330
19
100
AcDbEntity
  8
PV
 62
     7
100
AcDbLine
 10
1118.049999999999
 20
792.201
 30
0.0
 11
1118.049999999999
 21
793.0010000000001
 31
0.0
  0
ARC
  5
A1
330
19
100
AcDbEntity
  8
PV
 62
     7
100
AcDbCircle
 10
1124.249999999999
 20
793.0010000000001
 30
0.0
 40
6.2
100
AcDbArc
 50
90.0
 51
180.0
  0
ARC
  5
A2
330
19
100
AcDbEntity
  8
PV
 62
     7
100
AcDbCircle
 10
1124.249999999999
 20
793.0010000000001
 30
0.0
 40
3.0
100
AcDbArc
 50
90.0
 51
180.0
  0
LINE
  5
A3
330
19
100
AcDbEntity
  8
PV
 62
     7
100
AcDbLine
 10
1128.65
 20
796.0010000000001
 30
0.0
 11
1128.65
 21
792.201
 31
0.0
  0
LINE
  5
A4
330
19
100
AcDbEntity
  8
PV
 62
     7
100
AcDbLine
 10
1121.25
 20
792.201
 30
0.0
 11
1121.25
 21
793.0010000000001
 31
0.0
  0
LINE
  5
A5
330
19
100
AcDbEntity
  8
PV
 62
     7
100
AcDbLine
 10
1249.049999999999
 20
793.0010000000001
 30
0.0
 11
1249.049999999999
 21
780.701
 31
0.0
  0
LINE
  5
A6
330
19
100
AcDbEntity
  8
PV
 62
     7
100
AcDbLine
 10
1270.4
 20
673.701
 30
0.0
 11
1230.9
 21
673.701
 31
0.0
  0
LINE
  5
A7
330
19
100
AcDbEntity
  8
PV
 62
     7
100
AcDbLine
 10
1270.4
 20
760.701
 30
0.0
 11
1236.099999999999
 21
760.701
 31
0.0
  0
LINE
  5
A8
330
19
100
AcDbEntity
  8
PV
 62
     7
100
AcDbLine
 10
1230.9
 20
738.788
 30
0.0
 11
1230.9
 21
673.701
 31
0.0
  0
LINE
  5
A9
330
19
100
AcDbEntity
  8
PV
 62
     7
100
AcDbLine
 10
1270.4
 20
760.701
 30
0.0
 11
1270.4
 21
673.701
 31
0.0
  0
LINE
  5
AA
330
19
100
AcDbEntity
  8
PV
 62
     7
100
AcDbLine
 10
1236.52
 20
759.701
 30
0.0
 11
1269.4
 21
759.701
 31
0.0
  0
LINE
  5
AB
330
19
100
AcDbEntity
  8
PV
 62
     7
100
AcDbLine
 10
1231.9
 20
674.701
 30
0.0
 11
1269.4
 21
674.701
 31
0.0
  0
LINE
  5
AC
330
19
100
AcDbEntity
  8
PV
 62
     7
100
AcDbLine
 10
1269.4
 20
759.701
 30
0.0
 11
1269.4
 21
674.701
 31
0.0
  0
LINE
  5
AD
330
19
100
AcDbEntity
  8
PV
 62
     7
100
AcDbLine
 10
1231.9
 20
739.556
 30
0.0
 11
1231.9
 21
674.701
 31
0.0
  0
LINE
  5
AE
330
19
100
AcDbEntity
  8
PV
 62
     7
100
AcDbLine
 10
1258.9
 20
380.596
 30
0.0
 11
1258.9
 21
377.089
 31
0.0
  0
LINE
  5
AF
330
19
100
AcDbEntity
  8
PV
 62
     7
100
AcDbLine
 10
1265.9
 20
380.596
 30
0.0
 11
1258.9
 21
380.596
 31
0.0
  0
LINE
  5
B0
330
19
100
AcDbEntity
  8
PV
 62
     7
100
AcDbLine
 10
1265.9
 20
380.596
 30
0.0
 11
1265.9
 21
377.089
 31
0.0
  0
LINE
  5
B1
330
19
100
AcDbEntity
  8
PV
 62
     7
100
AcDbLine
 10
1268.359999999999
 20
377.089
 30
0.0
 11
1255.4
 21
377.089
 31
0.0
  0
LINE
  5
B2
330
19
100
AcDbEntity
  8
PV
 62
     7
100
AcDbLine
 10
1266.22
 20
401.5889999999999
 30
0.0
 11
1235.079999999999
 21
401.5889999999999
 31
0.0
  0
LINE
  5
B3
330
19
100
AcDbEntity
  8
PV
 62
     7
100
AcDbLine
 10
1270.65
 20
347.389
 30
0.0
 11
1230.65
 21
347.389
 31
0.0
  0
LINE
  5
B4
330
19
100
AcDbEntity
  8
PV
 62
     7
100
AcDbLine
 10
1232.01
 20
351.589
 30
0.0
 11
1232.569999999999
 21
372.889
 31
0.0
  0
LINE
  5
B5
330
19
100
AcDbEntity
  8
PV
 62
     7
100
AcDbLine
 10
1232.569999999999
 20
372.889
 30
0.0
 11
1235.079999999999
 21
401.5889999999999
 31
0.0
  0
LINE
  5
B6
330
19
100
AcDbEntity
  8
PV
 62
     7
100
AcDbLine
 10
1269.29
 20
351.589
 30
0.0
 11
1268.73
 21
372.889
 31
0.0
  0
LINE
  5
B7
330
19
100
AcDbEntity
  8
PV
 62
     7
100
AcDbLine
 10
1268.73
 20
372.889
 30
0.0
 11
1266.22
 21
401.5889999999999
 31
0.0
  0
LINE
  5
B8
330
19
100
AcDbEntity
  8
PV
 62
     7
100
AcDbLine
 10
1266.22
 20
756.89
 30
0.0
 11
1245.9
 21
756.89
 31
0.0
  0
LINE
  5
B9
330
19
100
AcDbEntity
  8
PV
 62
     7
100
AcDbLine
 10
1255.4
 20
677.5119999999999
 30
0.0
 11
1235.079999999999
 21
677.5119999999999
 31
0.0
  0
LINE
  5
BA
330
19
100
AcDbEntity
  8
PV
 62
     7
100
AcDbLine
 10
1235.079999999999
 20
677.5119999999999
 30
0.0
 11
1235.079999999999
 21
745.701
 31
0.0
  0
LINE
  5
BB
330
19
100
AcDbEntity
  8
PV
 62
     7
100
AcDbLine
 10
1266.22
 20
688.701
 30
0.0
 11
1266.22
 21
756.89
 31
0.0
  0
ARC
  5
BC
330
19
100
AcDbEntity
  8
PV
 62
     7
100
AcDbCircle
 10
1238.9
 20
752.701
 30
0.0
 40
7.0
100
AcDbArc
 50
270.0
 51
0.0
  0
ARC
  5
BD
330
19
100
AcDbEntity
  8
PV
 62
     7
100
AcDbCircle
 10
1262.4
 20
681.701
 30
0.0
 40
7.0
100
AcDbArc
 50
90.0
 51
180.0
  0
LINE
  5
BE
330
19
100
AcDbEntity
  8
PV
 62
     7
100
AcDbLine
 10
1255.4
 20
681.701
 30
0.0
 11
1255.4
 21
674.701
 31
0.0
  0
LINE
  5
BF
330
19
100
AcDbEntity
  8
PV
 62
     7
100
AcDbLine
 10
1262.4
 20
688.701
 30
0.0
 11
1269.4
 21
688.701
 31
0.0
  0
LINE
  5
C0
330
19
100
AcDbEntity
  8
PV
 62
     7
100
AcDbLine
 10
1238.9
 20
745.701
 30
0.0
 11
1234.44
 21
745.701
 31
0.0
  0
LINE
  5
C1
330
19
100
AcDbEntity
  8
PV
 62
     7
100
AcDbLine
 10
1245.9
 20
752.701
 30
0.0
 11
1245.9
 21
759.701
 31
0.0
  0
ARC
  5
C2
330
19
100
AcDbEntity
  8
PV
 62
     7
100
AcDbCircle
 10
1238.9
 20
752.701
 30
0.0
 40
3.5
100
AcDbArc
 50
223.261
 51
104.675
  0
CIRCLE
  5
C3
330
19
100
AcDbEntity
  8
PV
 62
     7
100
AcDbCircle
 10
1262.4
 20
681.701
 30
0.0
 40
3.5
  0
LINE
  5
C4
330
19
100
AcDbEntity
  8
PV
 62
     7
100
AcDbLine
 10
1255.4
 20
401.5889999999999
 30
0.0
 11
1255.4
 21
377.089
 31
0.0
  0
LINE
  5
C5
330
19
100
AcDbEntity
  8
PV
 62
     7
100
AcDbLine
 10
1270.4
 20
351.589
 30
0.0
 11
1230.9
 21
351.589
 31
0.0
  0
LINE
  5
C6
330
19
100
AcDbEntity
  8
PV
 62
     7
100
AcDbLine
 10
1270.4
 20
351.589
 30
0.0
 11
1270.4
 21
347.389
 31
0.0
  0
LINE
  5
C7
330
19
100
AcDbEntity
  8
PV
 62
     7
100
AcDbLine
 10
1230.9
 20
351.589
 30
0.0
 11
1230.9
 21
347.389
 31
0.0
  0
LINE
  5
C8
330
19
100
AcDbEntity
  8
PV
 62
     7
100
AcDbLine
 10
1270.65
 20
347.389
 30
0.0
 11
1270.65
 21
334.389
 31
0.0
  0
LINE
  5
C9
330
19
100
AcDbEntity
  8
PV
 62
     7
100
AcDbLine
 10
1230.65
 20
347.389
 30
0.0
 11
1230.65
 21
334.389
 31
0.0
  0
LINE
  5
CA
330
19
100
AcDbEntity
  8
PV
 62
     7
100
AcDbLine
 10
759.808
 20
155.1399999999999
 30
0.0
 11
698.308
 21
155.1399999999999
 31
0.0
  0
LINE
  5
CB
330
19
100
AcDbEntity
  8
PV
 62
     7
100
AcDbLine
 10
702.578
 20
468.3889999999999
 30
0.0
 11
702.578
 21
451.3889999999999
 31
0.0
  0
LINE
  5
CC
330
19
100
AcDbEntity
  8
PV
 62
     7
100
AcDbLine
 10
748.038
 20
468.3889999999999
 30
0.0
 11
748.038
 21
451.3889999999999
 31
0.0
  0
LINE
  5
CD
330
19
100
AcDbEntity
  8
PV
 62
     7
100
AcDbLine
 10
1204.27
 20
358.9859999999999
 30
0.0
 11
1196.23
 21
435.3889999999999
 31
0.0
  0
LINE
  5
CE
330
19
100
AcDbEntity
  8
PV
 62
     7
100
AcDbLine
 10
1204.26
 20
358.989
 30
0.0
 11
1204.62
 21
338.8889999999999
 31
0.0
  0
LINE
  5
CF
330
19
100
AcDbEntity
  8
PV
 62
     7
100
AcDbLine
 10
1205.95
 20
338.8889999999999
 30
0.0
 11
1085.349999999999
 21
338.8889999999999
 31
0.0
  0
LINE
  5
D0
330
19
100
AcDbEntity
  8
PV
 62
     7
100
AcDbLine
 10
1087.03
 20
358.9859999999999
 30
0.0
 11
1095.059999999999
 21
435.3889999999999
 31
0.0
  0
CIRCLE
  5
D1
330
19
100
AcDbEntity
  8
PV
 62
     7
100
AcDbCircle
 10
768.308
 20
311.889
 30
0.0
 40
7.474999999999999
  0
LINE
  5
D2
330
19
100
AcDbEntity
  8
PV
 62
     7
100
AcDbLine
 10
1161.24
 20
796.0010000000001
 30
0.0
 11
1161.24
 21
792.201
 31
0.0
  0
LINE
  5
D3
330
19
100
AcDbEntity
  8
PV
 62
     7
100
AcDbLine
 10
1130.06
 20
796.0010000000001
 30
0.0
 11
1130.06
 21
792.201
 31
0.0
  0
ARC
  5
D4
330
19
100
AcDbEntity
  8
PV
 62
     7
100
AcDbCircle
 10
718.308
 20
317.389
 30
0.0
 40
9.3155
100
AcDbArc
 50
234.8899999999999
 51
215.11
  0
LINE
  5
D5
330
19
100
AcDbEntity
  8
PV
  6
CENTER
 62
     1
100
AcDbLine
 10
705.308
 20
317.389
 30
0.0
 11
731.308
 21
317.389
 31
0.0
  0
LINE
  5
D6
330
19
100
AcDbEntity
  8
PV
  6
CENTER
 62
     1
100
AcDbLine
 10
718.308
 20
304.389
 30
0.0
 11
718.308
 21
330.3889999999999
 31
0.0
  0
LINE
  5
D7
330
19
100
AcDbEntity
  8
PV
 62
     7
100
AcDbLine
 10
1230.26
 20
439.3889999999999
 30
0.0
 11
1230.26
 21
451.3889999999999
 31
0.0
  0
LINE
  5
D8
330
19
100
AcDbEntity
  8
PV
 62
     7
100
AcDbLine
 10
1201.04
 20
439.3889999999999
 30
0.0
 11
1201.04
 21
451.3889999999999
 31
0.0
  0
LINE
  5
D9
330
19
100
AcDbEntity
  8
PV
 62
     7
100
AcDbLine
 10
1238.38
 20
468.3889999999999
 30
0.0
 11
1238.38
 21
451.3889999999999
 31
0.0
  0
LINE
  5
DA
330
19
100
AcDbEntity
  8
PV
 62
     7
100
AcDbLine
 10
1192.92
 20
468.3889999999999
 30
0.0
 11
1192.92
 21
451.3889999999999
 31
0.0
  0
LINE
  5
DB
330
19
100
AcDbEntity
  8
PV
 62
     7
100
AcDbLine
 10
1201.04
 20
480.3889999999999
 30
0.0
 11
1201.04
 21
468.3889999999999
 31
0.0
  0
LINE
  5
DC
330
19
100
AcDbEntity
  8
PV
 62
     7
100
AcDbLine
 10
1230.26
 20
480.3889999999999
 30
0.0
 11
1230.26
 21
468.3889999999999
 31
0.0
  0
LINE
  5
DD
330
19
100
AcDbEntity
  8
PV
 62
     7
100
AcDbLine
 10
1215.65
 20
777.931
 30
0.0
 11
1199.579999999999
 21
771.2739999999999
 31
0.0
  0
LINE
  5
DE
330
19
100
AcDbEntity
  8
PV
 62
     7
100
AcDbLine
 10
1231.72
 20
771.2739999999999
 30
0.0
 11
1215.65
 21
777.931
 31
0.0
  0
LINE
  5
DF
330
19
100
AcDbEntity
  8
PV
 62
     7
100
AcDbLine
 10
1238.38
 20
755.201
 30
0.0
 11
1231.72
 21
771.2739999999999
 31
0.0
  0
LINE
  5
E0
330
19
100
AcDbEntity
  8
PV
 62
     7
100
AcDbLine
 10
1231.72
 20
739.128
 30
0.0
 11
1238.38
 21
755.201
 31
0.0
  0
LINE
  5
E1
330
19
100
AcDbEntity
  8
PV
 62
     7
100
AcDbLine
 10
1215.65
 20
732.471
 30
0.0
 11
1231.72
 21
739.128
 31
0.0
  0
LINE
  5
E2
330
19
100
AcDbEntity
  8
PV
 62
     7
100
AcDbLine
 10
1199.579999999999
 20
739.128
 30
0.0
 11
1215.65
 21
732.471
 31
0.0
  0
LINE
  5
E3
330
19
100
AcDbEntity
  8
PV
 62
     7
100
AcDbLine
 10
1192.92
 20
755.201
 30
0.0
 11
1199.579999999999
 21
739.128
 31
0.0
  0
LINE
  5
E4
330
19
100
AcDbEntity
  8
PV
 62
     7
100
AcDbLine
 10
1199.579999999999
 20
771.2739999999999
 30
0.0
 11
1192.92
 21
755.201
 31
0.0
  0
LINE
  5
E5
330
19
100
AcDbEntity
  8
PV
 62
     7
100
AcDbLine
 10
1202.95
 20
666.201
 30
0.0
 11
1202.95
 21
672.201
 31
0.0
  0
LINE
  5
E6
330
19
100
AcDbEntity
  8
PV
 62
     7
100
AcDbLine
 10
1135.45
 20
656.401
 30
0.0
 11
1135.45
 21
670.201
 31
0.0
  0
LINE
  5
E7
330
19
100
AcDbEntity
  8
PV
 62
     7
100
AcDbLine
 10
1114.849999999999
 20
656.401
 30
0.0
 11
1114.849999999999
 21
670.201
 31
0.0
  0
LINE
  5
E8
330
19
100
AcDbEntity
  8
PV
 62
     7
100
AcDbLine
 10
1114.849999999999
 20
656.401
 30
0.0
 11
1135.45
 21
656.401
 31
0.0
  0
LINE
  5
E9
330
19
100
AcDbEntity
  8
PV
 62
     7
100
AcDbLine
 10
1202.95
 20
670.201
 30
0.0
 11
1113.65
 21
670.201
 31
0.0
  0
LINE
  5
EA
330
19
100
AcDbEntity
  8
PV
 62
     7
100
AcDbLine
 10
1113.65
 20
672.201
 30
0.0
 11
1113.65
 21
670.201
 31
0.0
  0
LINE
  5
EB
330
19
100
AcDbEntity
  8
PV
 62
     7
100
AcDbLine
 10
1114.849999999999
 20
173.389
 30
0.0
 11
1135.45
 21
173.389
 31
0.0
  0
LINE
  5
EC
330
19
100
AcDbEntity
  8
PV
 62
     7
100
AcDbLine
 10
1114.849999999999
 20
255.3889999999999
 30
0.0
 11
1135.45
 21
255.3889999999999
 31
0.0
  0
LINE
  5
ED
330
19
100
AcDbEntity
  8
PV
 62
     7
100
AcDbLine
 10
824.108
 20
173.389
 30
0.0
 11
824.108
 21
255.3889999999999
 31
0.0
  0
LINE
  5
EE
330
19
100
AcDbEntity
  8
PV
 62
     7
100
AcDbLine
 10
810.308
 20
173.389
 30
0.0
 11
824.108
 21
173.389
 31
0.0
  0
LINE
  5
EF
330
19
100
AcDbEntity
  8
PV
 62
     7
100
AcDbLine
 10
810.308
 20
255.3889999999999
 30
0.0
 11
824.108
 21
255.3889999999999
 31
0.0
  0
LINE
  5
F0
330
19
100
AcDbEntity
  8
PV
 62
     7
100
AcDbLine
 10
810.308
 20
171.389
 30
0.0
 11
810.308
 21
256.389
 31
0.0
  0
LINE
  5
F1
330
19
100
AcDbEntity
  8
PV
 62
     7
100
AcDbLine
 10
808.308
 20
256.389
 30
0.0
 11
810.308
 21
256.389
 31
0.0
  0
LINE
  5
F2
330
19
100
AcDbEntity
  8
PV
 62
     7
100
AcDbLine
 10
808.308
 20
171.389
 30
0.0
 11
810.308
 21
171.389
 31
0.0
  0
LINE
  5
F3
330
19
100
AcDbEntity
  8
PV
 62
     7
100
AcDbLine
 10
808.308
 20
128.389
 30
0.0
 11
808.308
 21
308.389
 31
0.0
  0
LINE
  5
F4
330
19
100
AcDbEntity
  8
PV
  6
CENTER
 62
     1
100
AcDbLine
 10
673.308
 20
146.389
 30
0.0
 11
693.308
 21
146.389
 31
0.0
  0
LINE
  5
F5
330
19
100
AcDbEntity
  8
PV
 62
     7
100
AcDbLine
 10
1056.65
 20
333.889
 30
0.0
 11
1056.65
 21
289.889
 31
0.0
  0
LINE
  5
F6
330
19
100
AcDbEntity
  8
PV
 62
     7
100
AcDbLine
 10
1087.03
 20
358.989
 30
0.0
 11
1086.68
 21
338.8889999999999
 31
0.0
  0
LINE
  5
F7
330
19
100
AcDbEntity
  8
PV
 62
     7
100
AcDbLine
 10
1095.059999999999
 20
435.3889999999999
 30
0.0
 11
1196.23
 21
435.3889999999999
 31
0.0
  0
LINE
  5
F8
330
19
100
AcDbEntity
  8
PV
 62
     7
100
AcDbLine
 10
1066.65
 20
289.889
 30
0.0
 11
1066.65
 21
289.389
 31
0.0
  0
LINE
  5
F9
330
19
100
AcDbEntity
  8
PV
 62
     7
100
AcDbLine
 10
737.3079999999999
 20
267.389
 30
0.0
 11
737.3079999999999
 21
275.5889999999999
 31
0.0
  0
LINE
  5
FA
330
19
100
AcDbEntity
  8
PV
 62
     7
100
AcDbLine
 10
799.3079999999999
 20
259.1399999999999
 30
0.0
 11
799.3079999999999
 21
275.5889999999999
 31
0.0
  0
LINE
  5
FB
330
19
100
AcDbEntity
  8
PV
 62
     7
100
AcDbLine
 10
790.1
 20
193.389
 30
0.0
 11
790.308
 21
202.389
 31
0.0
  0
LINE
  5
FC
330
19
100
AcDbEntity
  8
PV
 62
     7
100
AcDbLine
 10
799.3079999999999
 20
267.389
 30
0.0
 11
737.3079999999999
 21
267.389
 31
0.0
  0
LINE
  5
FD
330
19
100
AcDbEntity
  8
PV
 62
     7
100
AcDbLine
 10
746.516
 20
193.389
 30
0.0
 11
744.808
 21
267.389
 31
0.0
  0
LINE
  5
FE
330
19
100
AcDbEntity
  8
PV
 62
     7
100
AcDbLine
 10
790.308
 20
202.389
 30
0.0
 11
796.3079999999999
 21
202.389
 31
0.0
  0
LINE
  5
FF
330
19
100
AcDbEntity
  8
PV
 62
     7
100
AcDbLine
 10
779.3079999999999
 20
193.389
 30
0.0
 11
778.3079999999999
 21
188.389
 31
0.0
  0
LINE
  5
100
330
19
100
AcDbEntity
  8
PV
 62
     7
100
AcDbLine
 10
757.308
 20
193.389
 30
0.0
 11
758.3079999999999
 21
188.389
 31
0.0
  0
LINE
  5
101
330
19
100
AcDbEntity
  8
PV
 62
     7
100
AcDbLine
 10
758.3079999999999
 20
188.389
 30
0.0
 11
778.3079999999999
 21
188.389
 31
0.0
  0
LINE
  5
102
330
19
100
AcDbEntity
  8
PV
 62
     7
100
AcDbLine
 10
746.516
 20
193.389
 30
0.0
 11
790.1
 21
193.389
 31
0.0
  0
LINE
  5
103
330
19
100
AcDbEntity
  8
PV
 62
     7
100
AcDbLine
 10
795.3079999999999
 20
245.389
 30
0.0
 11
795.3079999999999
 21
256.389
 31
0.0
  0
LINE
  5
104
330
19
100
AcDbEntity
  8
PV
 62
     7
100
AcDbLine
 10
790.308
 20
267.389
 30
0.0
 11
790.308
 21
202.389
 31
0.0
  0
LINE
  5
105
330
19
100
AcDbEntity
  8
PV
 62
     7
100
AcDbLine
 10
795.3079999999999
 20
256.389
 30
0.0
 11
799.3079999999999
 21
263.247
 31
0.0
  0
LINE
  5
106
330
19
100
AcDbEntity
  8
PV
 62
     7
100
AcDbLine
 10
801.308
 20
242.389
 30
0.0
 11
790.8610000000001
 21
247.6129999999999
 31
0.0
  0
ARC
  5
107
330
19
100
AcDbEntity
  8
PV
 62
     7
100
AcDbCircle
 10
791.3079999999999
 20
248.5079999999999
 30
0.0
 40
1.0
100
AcDbArc
 50
180.0
 51
243.435
  0
LINE
  5
108
330
19
100
AcDbEntity
  8
PV
 62
     7
100
AcDbLine
 10
796.3079999999999
 20
202.389
 30
0.0
 11
801.308
 21
206.389
 31
0.0
  0
LINE
  5
109
330
19
100
AcDbEntity
  8
PV
 62
     7
100
AcDbLine
 10
801.308
 20
242.389
 30
0.0
 11
801.308
 21
206.389
 31
0.0
  0
LINE
  5
10A
330
19
100
AcDbEntity
  8
PV
 62
     7
100
AcDbLine
 10
802.8079999999999
 20
250.389
 30
0.0
 11
798.808
 21
250.389
 31
0.0
  0
LINE
  5
10B
330
19
100
AcDbEntity
  8
PV
 62
     7
100
AcDbLine
 10
802.8079999999999
 20
250.389
 30
0.0
 11
802.8079999999999
 21
257.389
 31
0.0
  0
LINE
  5
10C
330
19
100
AcDbEntity
  8
PV
 62
     7
100
AcDbLine
 10
795.3079999999999
 20
256.389
 30
0.0
 11
798.808
 21
250.389
 31
0.0
  0
LINE
  5
10D
330
19
100
AcDbEntity
  8
PV
 62
     7
100
AcDbLine
 10
799.3079999999999
 20
259.1399999999999
 30
0.0
 11
802.8079999999999
 21
257.389
 31
0.0
  0
LINE
  5
10E
330
19
100
AcDbEntity
  8
PV
 62
     7
100
AcDbLine
 10
1003.65
 20
267.389
 30
0.0
 11
1028.65
 21
267.389
 31
0.0
  0
LINE
  5
10F
330
19
100
AcDbEntity
  8
PV
 62
     7
100
AcDbLine
 10
1041.65
 20
267.389
 30
0.0
 11
1066.65
 21
267.389
 31
0.0
  0
LINE
  5
110
330
19
100
AcDbEntity
  8
PV
 62
     7
100
AcDbLine
 10
1056.939999999999
 20
193.389
 30
0.0
 11
1013.36
 21
193.389
 31
0.0
  0
LINE
  5
111
330
19
100
AcDbEntity
  8
PV
 62
     7
100
AcDbLine
 10
1056.939999999999
 20
193.389
 30
0.0
 11
1058.65
 21
267.389
 31
0.0
  0
LINE
  5
112
330
19
100
AcDbEntity
  8
PV
 62
     7
100
AcDbLine
 10
1013.36
 20
193.389
 30
0.0
 11
1011.65
 21
267.389
 31
0.0
  0
LINE
  5
113
330
19
100
AcDbEntity
  8
PV
 62
     7
100
AcDbLine
 10
1046.15
 20
193.389
 30
0.0
 11
1044.96
 21
187.464
 31
0.0
  0
CIRCLE
  5
114
330
19
100
AcDbEntity
  8
PV
 62
     7
100
AcDbCircle
 10
1035.15
 20
226.3889999999999
 30
0.0
 40
11.0
  0
LINE
  5
115
330
19
100
AcDbEntity
  8
PV
 62
     7
100
AcDbLine
 10
1024.15
 20
193.389
 30
0.0
 11
1025.33
 21
187.464
 31
0.0
  0
LINE
  5
116
330
19
100
AcDbEntity
  8
PV
 62
     7
100
AcDbLine
 10
1028.65
 20
249.889
 30
0.0
 11
1041.65
 21
249.889
 31
0.0
  0
LINE
  5
117
330
19
100
AcDbEntity
  8
PV
 62
     7
100
AcDbLine
 10
1028.65
 20
275.5889999999999
 30
0.0
 11
1028.65
 21
249.889
 31
0.0
  0
LINE
  5
118
330
19
100
AcDbEntity
  8
PV
 62
     7
100
AcDbLine
 10
1041.65
 20
275.5889999999999
 30
0.0
 11
1041.65
 21
249.889
 31
0.0
  0
LINE
  5
119
330
19
100
AcDbEntity
  8
PV
 62
     7
100
AcDbLine
 10
776.808
 20
147.8889999999999
 30
0.0
 11
776.808
 21
188.389
 31
0.0
  0
LINE
  5
11A
330
19
100
AcDbEntity
  8
PV
 62
     7
100
AcDbLine
 10
759.808
 20
147.8889999999999
 30
0.0
 11
759.808
 21
188.389
 31
0.0
  0
LINE
  5
11B
330
19
100
AcDbEntity
  8
PV
 62
     7
100
AcDbLine
 10
759.808
 20
147.8889999999999
 30
0.0
 11
776.808
 21
147.8889999999999
 31
0.0
  0
LINE
  5
11C
330
19
100
AcDbEntity
  8
PV
 62
     7
100
AcDbLine
 10
1025.33
 20
187.464
 30
0.0
 11
1025.33
 21
147.8889999999999
 31
0.0
  0
LINE
  5
11D
330
19
100
AcDbEntity
  8
PV
 62
     7
100
AcDbLine
 10
1044.96
 20
187.464
 30
0.0
 11
1044.96
 21
147.8889999999999
 31
0.0
  0
LINE
  5
11E
330
19
100
AcDbEntity
  8
PV
 62
     7
100
AcDbLine
 10
1044.96
 20
147.8889999999999
 30
0.0
 11
1025.33
 21
147.8889999999999
 31
0.0
  0
LINE
  5
11F
330
19
100
AcDbEntity
  8
PV
 62
     7
100
AcDbLine
 10
1025.33
 20
187.889
 30
0.0
 11
1044.96
 21
187.889
 31
0.0
  0
LINE
  5
120
330
19
100
AcDbEntity
  8
PV
 62
     7
100
AcDbLine
 10
736.8079999999999
 20
288.389
 30
0.0
 11
688.3079999999999
 21
288.389
 31
0.0
  0
LINE
  5
121
330
19
100
AcDbEntity
  8
PV
 62
     7
100
AcDbLine
 10
736.8079999999999
 20
289.389
 30
0.0
 11
688.3079999999999
 21
289.389
 31
0.0
  0
LINE
  5
122
330
19
100
AcDbEntity
  8
PV
 62
     7
100
AcDbLine
 10
808.308
 20
288.389
 30
0.0
 11
800.201
 21
288.389
 31
0.0
  0
LINE
  5
123
330
19
100
AcDbEntity
  8
PV
 62
     7
100
AcDbLine
 10
808.308
 20
289.389
 30
0.0
 11
800.201
 21
289.389
 31
0.0
  0
LINE
  5
124
330
19
100
AcDbEntity
  8
PV
 62
     7
100
AcDbLine
 10
715.6080000000001
 20
435.3889999999999
 30
0.0
 11
715.6080000000001
 21
439.3889999999999
 31
0.0
  0
LINE
  5
125
330
19
100
AcDbEntity
  8
PV
 62
     7
100
AcDbLine
 10
735.075
 20
435.3889999999999
 30
0.0
 11
735.075
 21
439.3889999999999
 31
0.0
  0
LINE
  5
126
330
19
100
AcDbEntity
  8
PV
 62
     7
100
AcDbLine
 10
748.038
 20
468.3889999999999
 30
0.0
 11
702.578
 21
468.3889999999999
 31
0.0
  0
LINE
  5
127
330
19
100
AcDbEntity
  8
PV
 62
     7
100
AcDbLine
 10
711.8079999999999
 20
480.3889999999999
 30
0.0
 11
738.808
 21
480.3889999999999
 31
0.0
  0
LINE
  5
128
330
19
100
AcDbEntity
  8
PV
 62
     7
100
AcDbLine
 10
711.8079999999999
 20
480.3889999999999
 30
0.0
 11
711.8079999999999
 21
468.3889999999999
 31
0.0
  0
LINE
  5
129
330
19
100
AcDbEntity
  8
PV
 62
     7
100
AcDbLine
 10
738.808
 20
480.3889999999999
 30
0.0
 11
738.808
 21
468.3889999999999
 31
0.0
  0
LINE
  5
12A
330
19
100
AcDbEntity
  8
PV
 62
     7
100
AcDbLine
 10
738.808
 20
439.3889999999999
 30
0.0
 11
738.808
 21
451.3889999999999
 31
0.0
  0
LINE
  5
12B
330
19
100
AcDbEntity
  8
PV
 62
     7
100
AcDbLine
 10
711.8079999999999
 20
439.3889999999999
 30
0.0
 11
711.8079999999999
 21
451.3889999999999
 31
0.0
  0
LINE
  5
12C
330
19
100
AcDbEntity
  8
PV
 62
     7
100
AcDbLine
 10
711.8079999999999
 20
439.3889999999999
 30
0.0
 11
738.808
 21
439.3889999999999
 31
0.0
  0
LINE
  5
12D
330
19
100
AcDbEntity
  8
PV
 62
     7
100
AcDbLine
 10
748.038
 20
451.3889999999999
 30
0.0
 11
702.578
 21
451.3889999999999
 31
0.0
  0
LINE
  5
12E
330
19
100
AcDbEntity
  8
PV
  6
CENTER
 62
     1
100
AcDbLine
 10
725.3079999999999
 20
485.0819999999999
 30
0.0
 11
725.3079999999999
 21
431.2059999999999
 31
0.0
  0
LINE
  5
12F
330
19
100
AcDbEntity
  8
PV
 62
     7
100
AcDbLine
 10
1239.94
 20
301.387
 30
0.0
 11
1254.299999999999
 21
315.303
 31
0.0
  0
CIRCLE
  5
130
330
19
100
AcDbEntity
  8
PV
 62
     7
100
AcDbCircle
 10
1066.65
 20
327.254
 30
0.0
 40
3.5
  0
CIRCLE
  5
131
330
19
100
AcDbEntity
  8
PV
 62
     7
100
AcDbCircle
 10
1066.65
 20
295.5239999999999
 30
0.0
 40
3.5
  0
LINE
  5
132
330
19
100
AcDbEntity
  8
PV
 62
     7
100
AcDbLine
 10
1076.65
 20
333.889
 30
0.0
 11
1076.65
 21
289.889
 31
0.0
  0
LINE
  5
133
330
19
100
AcDbEntity
  8
PV
 62
     7
100
AcDbLine
 10
1080.65
 20
334.389
 30
0.0
 11
1080.65
 21
289.389
 31
0.0
  0
LINE
  5
134
330
19
100
AcDbEntity
  8
PV
 62
     7
100
AcDbLine
 10
1080.65
 20
334.389
 30
0.0
 11
1295.65
 21
334.389
 31
0.0
  0
LINE
  5
135
330
19
100
AcDbEntity
  8
PV
 62
     7
100
AcDbLine
 10
1295.65
 20
289.389
 30
0.0
 11
1295.65
 21
288.389
 31
0.0
  0
LINE
  5
136
330
19
100
AcDbEntity
  8
PV
 62
     7
100
AcDbLine
 10
1095.65
 20
288.389
 30
0.0
 11
1095.65
 21
289.389
 31
0.0
  0
LINE
  5
137
330
19
100
AcDbEntity
  8
PV
 62
     7
100
AcDbLine
 10
1295.65
 20
334.389
 30
0.0
 11
1295.65
 21
164.389
 31
0.0
  0
LINE
  5
138
330
19
100
AcDbEntity
  8
PV
 62
     7
100
AcDbLine
 10
1295.65
 20
128.389
 30
0.0
 11
1281.65
 21
128.389
 31
0.0
  0
CIRCLE
  5
139
330
19
100
AcDbEntity
  8
PV
 62
     7
100
AcDbCircle
 10
1195.65
 20
146.389
 30
0.0
 40
14.0
  0
LINE
  5
13A
330
19
100
AcDbEntity
  8
PV
 62
     7
100
AcDbLine
 10
1281.65
 20
128.389
 30
0.0
 11
1281.65
 21
138.389
 31
0.0
  0
LINE
  5
13B
330
19
100
AcDbEntity
  8
PV
 62
     7
100
AcDbLine
 10
1281.65
 20
138.389
 30
0.0
 11
1207.14
 21
138.389
 31
0.0
  0
LINE
  5
13C
330
19
100
AcDbEntity
  8
PV
 62
     7
100
AcDbLine
 10
1095.65
 20
128.389
 30
0.0
 11
1109.65
 21
128.389
 31
0.0
  0
LINE
  5
13D
330
19
100
AcDbEntity
  8
PV
 62
     7
100
AcDbLine
 10
1109.65
 20
128.389
 30
0.0
 11
1109.65
 21
138.389
 31
0.0
  0
LINE
  5
13E
330
19
100
AcDbEntity
  8
PV
 62
     7
100
AcDbLine
 10
1109.65
 20
138.389
 30
0.0
 11
1184.16
 21
138.389
 31
0.0
  0
LINE
  5
13F
330
19
100
AcDbEntity
  8
PV
 62
     7
100
AcDbLine
 10
1235.65
 20
128.389
 30
0.0
 11
1235.65
 21
138.389
 31
0.0
  0
LINE
  5
140
330
19
100
AcDbEntity
  8
PV
 62
     7
100
AcDbLine
 10
1235.65
 20
128.389
 30
0.0
 11
1155.65
 21
128.389
 31
0.0
  0
LINE
  5
141
330
19
100
AcDbEntity
  8
PV
 62
     7
100
AcDbLine
 10
1155.65
 20
128.389
 30
0.0
 11
1155.65
 21
138.389
 31
0.0
  0
LINE
  5
142
330
19
100
AcDbEntity
  8
PV
 62
     7
100
AcDbLine
 10
1095.65
 20
289.389
 30
0.0
 11
1095.65
 21
128.389
 31
0.0
  0
CIRCLE
  5
143
330
19
100
AcDbEntity
  8
PV
 62
     7
100
AcDbCircle
 10
1215.65
 20
317.389
 30
0.0
 40
6.0
  0
LINE
  5
144
330
19
100
AcDbEntity
  8
PV
  6
CENTER
 62
     1
100
AcDbLine
 10
1012.709999999999
 20
311.889
 30
0.0
 11
994.1489999999999
 21
311.889
 31
0.0
  0
LINE
  5
145
330
19
100
AcDbEntity
  8
PV
 62
     7
100
AcDbLine
 10
1295.65
 20
792.201
 30
0.0
 11
1295.65
 21
672.201
 31
0.0
  0
LINE
  5
146
330
19
100
AcDbEntity
  8
PV
 62
     7
100
AcDbLine
 10
1081.65
 20
672.201
 30
0.0
 11
1081.65
 21
687.201
 31
0.0
  0
LINE
  5
147
330
19
100
AcDbEntity
  8
PV
 62
     7
100
AcDbLine
 10
1081.65
 20
792.201
 30
0.0
 11
1249.049999999999
 21
792.201
 31
0.0
  0
LINE
  5
148
330
19
100
AcDbEntity
  8
PV
 62
     7
100
AcDbLine
 10
1080.65
 20
687.201
 30
0.0
 11
1081.65
 21
687.201
 31
0.0
  0
LINE
  5
149
330
19
100
AcDbEntity
  8
PV
 62
     7
100
AcDbLine
 10
1080.65
 20
687.201
 30
0.0
 11
1080.65
 21
779.201
 31
0.0
  0
LINE
  5
14A
330
19
100
AcDbEntity
  8
PV
 62
     7
100
AcDbLine
 10
1080.65
 20
779.201
 30
0.0
 11
1081.65
 21
779.201
 31
0.0
  0
LINE
  5
14B
330
19
100
AcDbEntity
  8
PV
 62
     7
100
AcDbLine
 10
1081.65
 20
779.201
 30
0.0
 11
1081.65
 21
792.201
 31
0.0
  0
LINE
  5
14C
330
19
100
AcDbEntity
  8
PV
 62
     7
100
AcDbLine
 10
1205.65
 20
672.201
 30
0.0
 11
1205.65
 21
736.613
 31
0.0
  0
LINE
  5
14D
330
19
100
AcDbEntity
  8
PV
 62
     7
100
AcDbLine
 10
1085.65
 20
792.201
 30
0.0
 11
1085.65
 21
672.201
 31
0.0
  0
LINE
  5
14E
330
19
100
AcDbEntity
  8
PV
 62
     7
100
AcDbLine
 10
1295.65
 20
672.201
 30
0.0
 11
1081.65
 21
672.201
 31
0.0
  0
LINE
  5
14F
330
19
100
AcDbEntity
  8
PV
 62
     7
100
AcDbLine
 10
1205.65
 20
773.789
 30
0.0
 11
1205.65
 21
792.201
 31
0.0
  0
CIRCLE
  5
150
330
19
100
AcDbEntity
  8
PV
 62
     7
100
AcDbCircle
 10
1285.65
 20
782.201
 30
0.0
 40
6.5
  0
CIRCLE
  5
151
330
19
100
AcDbEntity
  8
PV
 62
     7
100
AcDbCircle
 10
1285.65
 20
682.201
 30
0.0
 40
6.5
  0
LINE
  5
152
330
19
100
AcDbEntity
  8
PV
 62
     7
100
AcDbLine
 10
1228.35
 20
666.201
 30
0.0
 11
1202.95
 21
666.201
 31
0.0
  0
LINE
  5
153
330
19
100
AcDbEntity
  8
PV
 62
     7
100
AcDbLine
 10
1228.35
 20
666.201
 30
0.0
 11
1228.35
 21
672.201
 31
0.0
  0
LINE
  5
154
330
19
100
AcDbEntity
  8
PV
 62
     7
100
AcDbLine
 10
1262.65
 20
802.2009999999999
 30
0.0
 11
1262.65
 21
792.201
 31
0.0
  0
LINE
  5
155
330
19
100
AcDbEntity
  8
PV
 62
     7
100
AcDbLine
 10
1278.65
 20
802.2009999999999
 30
0.0
 11
1278.65
 21
792.201
 31
0.0
  0
LINE
  5
156
330
19
100
AcDbEntity
  8
PV
 62
     7
100
AcDbLine
 10
1112.65
 20
802.2009999999999
 30
0.0
 11
1112.65
 21
792.201
 31
0.0
  0
LINE
  5
157
330
19
100
AcDbEntity
  8
PV
 62
     7
100
AcDbLine
 10
1128.65
 20
802.2009999999999
 30
0.0
 11
1128.65
 21
799.201
 31
0.0
  0
CIRCLE
  5
158
330
19
100
AcDbEntity
  8
PV
 62
     7
100
AcDbCircle
 10
1035.15
 20
712.201
 30
0.0
 40
20.0
  0
CIRCLE
  5
159
330
19
100
AcDbEntity
  8
PV
 62
     7
100
AcDbCircle
 10
1035.15
 20
712.201
 30
0.0
 40
13.0
  0
LINE
  5
15A
330
19
100
AcDbEntity
  8
PV
 62
     7
100
AcDbLine
 10
1080.65
 20
737.201
 30
0.0
 11
1054.7
 21
737.201
 31
0.0
  0
LINE
  5
15B
330
19
100
AcDbEntity
  8
PV
 62
     7
100
AcDbLine
 10
1080.65
 20
687.201
 30
0.0
 11
1054.7
 21
687.201
 31
0.0
  0
LINE
  5
15C
330
19
100
AcDbEntity
  8
PV
 62
     7
100
AcDbLine
 10
688.3079999999999
 20
334.389
 30
0.0
 11
688.3079999999999
 21
304.379
 31
0.0
  0
LINE
  5
15D
330
19
100
AcDbEntity
  8
PV
 62
     7
100
AcDbLine
 10
1295.65
 20
289.389
 30
0.0
 11
1080.65
 21
289.389
 31
0.0
  0
LINE
  5
15E
330
19
100
AcDbEntity
  8
PV
 62
     7
100
AcDbLine
 10
1295.65
 20
288.389
 30
0.0
 11
1095.65
 21
288.389
 31
0.0
  0
LINE
  5
15F
330
19
100
AcDbEntity
  8
PV
 62
     7
100
AcDbLine
 10
1205.65
 20
774.797
 30
0.0
 11
1205.65
 21
787.633
 31
0.0
  0
LINE
  5
160
330
19
100
AcDbEntity
  8
PV
 62
     7
100
AcDbLine
 10
1205.95
 20
334.389
 30
0.0
 11
1205.95
 21
439.3889999999999
 31
0.0
  0
LINE
  5
161
330
19
100
AcDbEntity
  8
PV
 62
     7
100
AcDbLine
 10
1225.42
 20
334.389
 30
0.0
 11
1225.42
 21
439.3889999999999
 31
0.0
  0
LINE
  5
162
330
19
100
AcDbEntity
  8
PV
 62
     7
100
AcDbLine
 10
1114.849999999999
 20
173.389
 30
0.0
 11
1114.849999999999
 21
255.3889999999999
 31
0.0
  0
LINE
  5
163
330
19
100
AcDbEntity
  8
PV
 62
     7
100
AcDbLine
 10
1135.45
 20
173.389
 30
0.0
 11
1135.45
 21
255.3889999999999
 31
0.0
  0
LINE
  5
164
330
19
100
AcDbEntity
  8
PV
 62
     7
100
AcDbLine
 10
1122.15
 20
237.389
 30
0.0
 11
1128.15
 21
237.389
 31
0.0
  0
LINE
  5
165
330
19
100
AcDbEntity
  8
PV
 62
     7
100
AcDbLine
 10
1122.15
 20
191.389
 30
0.0
 11
1122.15
 21
237.389
 31
0.0
  0
LINE
  5
166
330
19
100
AcDbEntity
  8
PV
 62
     7
100
AcDbLine
 10
1128.15
 20
191.389
 30
0.0
 11
1122.15
 21
191.389
 31
0.0
  0
LINE
  5
167
330
19
100
AcDbEntity
  8
PV
 62
     7
100
AcDbLine
 10
1128.15
 20
237.389
 30
0.0
 11
1128.15
 21
191.389
 31
0.0
  0
CIRCLE
  5
168
330
19
100
AcDbEntity
  8
PV
 62
     7
100
AcDbCircle
 10
1125.15
 20
183.389
 30
0.0
 40
4.5
  0
LINE
  5
169
330
19
100
AcDbEntity
  8
PV
 62
     7
100
AcDbLine
 10
1120.65
 20
244.789
 30
0.0
 11
1120.69
 21
244.789
 31
0.0
  0
CIRCLE
  5
16A
330
19
100
AcDbEntity
  8
PV
 62
     7
100
AcDbCircle
 10
1125.15
 20
245.389
 30
0.0
 40
4.5
  0
LINE
  5
16B
330
19
100
AcDbEntity
  8
PV
 62
     7
100
AcDbLine
 10
1238.38
 20
451.3889999999999
 30
0.0
 11
1192.92
 21
451.3889999999999
 31
0.0
  0
LINE
  5
16C
330
19
100
AcDbEntity
  8
PV
 62
     7
100
AcDbLine
 10
1201.04
 20
439.3889999999999
 30
0.0
 11
1230.26
 21
439.3889999999999
 31
0.0
  0
LINE
  5
16D
330
19
100
AcDbEntity
  8
PV
 62
     7
100
AcDbLine
 10
1201.04
 20
480.3889999999999
 30
0.0
 11
1230.26
 21
480.3889999999999
 31
0.0
  0
CIRCLE
  5
16E
330
19
100
AcDbEntity
  8
PV
 62
     7
100
AcDbCircle
 10
1215.65
 20
755.201
 30
0.0
 40
9.3155
  0
LINE
  5
16F
330
19
100
AcDbEntity
  8
PV
 62
     7
100
AcDbLine
 10
1238.38
 20
468.3889999999999
 30
0.0
 11
1192.92
 21
468.3889999999999
 31
0.0
  0
LINE
  5
170
330
19
100
AcDbEntity
  8
PV
 62
     7
100
AcDbLine
 10
1209.3
 20
328.3889999999999
 30
0.0
 11
1202.95
 21
317.389
 31
0.0
  0
LINE
  5
171
330
19
100
AcDbEntity
  8
PV
 62
     7
100
AcDbLine
 10
1202.95
 20
317.389
 30
0.0
 11
1209.3
 21
306.389
 31
0.0
  0
LINE
  5
172
330
19
100
AcDbEntity
  8
PV
 62
     7
100
AcDbLine
 10
1209.3
 20
306.389
 30
0.0
 11
1222.0
 21
306.389
 31
0.0
  0
LINE
  5
173
330
19
100
AcDbEntity
  8
PV
 62
     7
100
AcDbLine
 10
1222.0
 20
306.389
 30
0.0
 11
1228.35
 21
317.389
 31
0.0
  0
LINE
  5
174
330
19
100
AcDbEntity
  8
PV
 62
     7
100
AcDbLine
 10
1228.35
 20
317.389
 30
0.0
 11
1222.0
 21
328.3889999999999
 31
0.0
  0
LINE
  5
175
330
19
100
AcDbEntity
  8
PV
 62
     7
100
AcDbLine
 10
1222.0
 20
328.3889999999999
 30
0.0
 11
1209.3
 21
328.3889999999999
 31
0.0
  0
LINE
  5
176
330
19
100
AcDbEntity
  8
PV
 62
     7
100
AcDbLine
 10
1095.65
 20
283.889
 30
0.0
 11
1066.83
 21
283.889
 31
0.0
  0
LINE
  5
177
330
19
100
AcDbEntity
  8
PV
 62
     7
100
AcDbLine
 10
1155.65
 20
133.889
 30
0.0
 11
1109.65
 21
133.889
 31
0.0
  0
LINE
  5
178
330
19
100
AcDbEntity
  8
PV
  6
CENTER
 62
     1
100
AcDbLine
 10
1215.65
 20
485.204
 30
0.0
 11
1215.65
 21
431.8789999999999
 31
0.0
  0
LINE
  5
179
330
19
100
AcDbEntity
  8
PV
 62
     7
100
AcDbLine
 10
688.3079999999999
 20
128.389
 30
0.0
 11
808.308
 21
128.389
 31
0.0
  0
LINE
  5
17A
330
19
100
AcDbEntity
  8
PV
  6
CENTER
 62
     1
100
AcDbLine
 10
781.3380000000001
 20
311.889
 30
0.0
 11
755.278
 21
311.889
 31
0.0
  0
LINE
  5
17B
330
19
100
AcDbEntity
  8
PV
 62
     7
100
AcDbLine
 10
688.3079999999999
 20
334.389
 30
0.0
 11
736.8079999999999
 21
334.389
 31
0.0
  0
LINE
  5
17C
330
19
100
AcDbEntity
  8
PV
 62
     7
100
AcDbLine
 10
800.201
 20
334.389
 30
0.0
 11
808.5080000000001
 21
334.389
 31
0.0
  0
LINE
  5
17D
330
19
100
AcDbEntity
  8
PV
 62
     7
100
AcDbLine
 10
678.3079999999999
 20
154.389
 30
0.0
 11
688.3079999999999
 21
154.389
 31
0.0
  0
LINE
  5
17E
330
19
100
AcDbEntity
  8
PV
 62
     7
100
AcDbLine
 10
678.3079999999999
 20
138.389
 30
0.0
 11
688.3079999999999
 21
138.389
 31
0.0
  0
LINE
  5
17F
330
19
100
AcDbEntity
  8
PV
 62
     7
100
AcDbLine
 10
678.3079999999999
 20
263.389
 30
0.0
 11
688.3079999999999
 21
263.389
 31
0.0
  0
LINE
  5
180
330
19
100
AcDbEntity
  8
PV
 62
     7
100
AcDbLine
 10
678.3079999999999
 20
279.389
 30
0.0
 11
688.3079999999999
 21
279.389
 31
0.0
  0
LINE
  5
181
330
19
100
AcDbEntity
  8
PV
 62
     7
100
AcDbLine
 10
1295.65
 20
164.389
 30
0.0
 11
1295.65
 21
128.389
 31
0.0
  0
LINE
  5
182
330
19
100
AcDbEntity
  8
PV
 62
     7
100
AcDbLine
 10
1295.65
 20
762.201
 30
0.0
 11
1295.65
 21
697.201
 31
0.0
  0
LINE
  5
183
330
19
100
AcDbEntity
  8
PV
  6
CENTER
 62
     1
100
AcDbLine
 10
1243.24
 20
755.201
 30
0.0
 11
1188.05
 21
755.201
 31
0.0
  0
LINE
  5
184
330
19
100
AcDbEntity
  8
PV
  6
CENTER
 62
     1
100
AcDbLine
 10
1215.65
 20
724.8569999999999
 30
0.0
 11
1215.65
 21
782.796
 31
0.0
  0
LINE
  5
185
330
19
100
AcDbEntity
  8
PV
 62
     7
100
AcDbLine
 10
1014.79
 20
415.889
 30
0.0
 11
1055.509999999999
 21
415.889
 31
0.0
  0
LINE
  5
186
330
19
100
AcDbEntity
  8
PV
 62
     7
100
AcDbLine
 10
1014.79
 20
415.889
 30
0.0
 11
1014.15
 21
379.389
 31
0.0
  0
LINE
  5
187
330
19
100
AcDbEntity
  8
PV
 62
     7
100
AcDbLine
 10
1055.509999999999
 20
415.889
 30
0.0
 11
1056.15
 21
379.389
 31
0.0
  0
LINE
  5
188
330
19
100
AcDbEntity
  8
PV
 62
     7
100
AcDbLine
 10
1014.15
 20
379.389
 30
0.0
 11
1056.15
 21
379.389
 31
0.0
  0
LINE
  5
189
330
19
100
AcDbEntity
  8
PV
 62
     7
100
AcDbLine
 10
1017.149999999999
 20
379.389
 30
0.0
 11
1017.149999999999
 21
370.368
 31
0.0
  0
LINE
  5
18A
330
19
100
AcDbEntity
  8
PV
 62
     7
100
AcDbLine
 10
1053.15
 20
379.389
 30
0.0
 11
1053.15
 21
370.368
 31
0.0
  0
LINE
  5
18B
330
19
100
AcDbEntity
  8
PV
 62
     7
100
AcDbLine
 10
1057.15
 20
370.368
 30
0.0
 11
1013.15
 21
370.368
 31
0.0
  0
LINE
  5
18C
330
19
100
AcDbEntity
  8
PV
 62
     7
100
AcDbLine
 10
1013.15
 20
370.368
 30
0.0
 11
1012.89
 21
362.868
 31
0.0
  0
LINE
  5
18D
330
19
100
AcDbEntity
  8
PV
 62
     7
100
AcDbLine
 10
1057.15
 20
370.368
 30
0.0
 11
1057.41
 21
362.868
 31
0.0
  0
LINE
  5
18E
330
19
100
AcDbEntity
  8
PV
 62
     7
100
AcDbLine
 10
1066.65
 20
362.868
 30
0.0
 11
1003.65
 21
362.868
 31
0.0
  0
LINE
  5
18F
330
19
100
AcDbEntity
  8
PV
 62
     7
100
AcDbLine
 10
1003.65
 20
267.389
 30
0.0
 11
1003.65
 21
289.389
 31
0.0
  0
LINE
  5
190
330
19
100
AcDbEntity
  8
PV
 62
     7
100
AcDbLine
 10
1066.65
 20
362.868
 30
0.0
 11
1066.65
 21
357.389
 31
0.0
  0
LINE
  5
191
330
19
100
AcDbEntity
  8
PV
 62
     7
100
AcDbLine
 10
1066.65
 20
347.868
 30
0.0
 11
1003.65
 21
347.868
 31
0.0
  0
LINE
  5
192
330
19
100
AcDbEntity
  8
PV
 62
     7
100
AcDbLine
 10
1003.65
 20
334.389
 30
0.0
 11
1066.65
 21
334.389
 31
0.0
  0
LINE
  5
193
330
19
100
AcDbEntity
  8
PV
 62
     7
100
AcDbLine
 10
1003.65
 20
289.389
 30
0.0
 11
1066.65
 21
289.389
 31
0.0
  0
LINE
  5
194
330
19
100
AcDbEntity
  8
PV
  6
CENTER
 62
     1
100
AcDbLine
 10
1035.15
 20
421.5469999999999
 30
0.0
 11
1035.15
 21
142.2289999999999
 31
0.0
  0
LINE
  5
195
330
19
100
AcDbEntity
  8
PV
 62
     7
100
AcDbLine
 10
1003.65
 20
275.5889999999999
 30
0.0
 11
1066.65
 21
275.5889999999999
 31
0.0
  0
LINE
  5
196
330
19
100
AcDbEntity
  8
PV
 62
     7
100
AcDbLine
 10
1003.65
 20
357.389
 30
0.0
 11
1066.65
 21
357.389
 31
0.0
  0
LINE
  5
197
330
19
100
AcDbEntity
  8
PV
 62
     7
100
AcDbLine
 10
1003.65
 20
357.389
 30
0.0
 11
1003.65
 21
362.868
 31
0.0
  0
LINE
  5
198
330
19
100
AcDbEntity
  8
PV
 62
     7
100
AcDbLine
 10
1066.65
 20
357.389
 30
0.0
 11
1066.65
 21
334.389
 31
0.0
  0
LINE
  5
199
330
19
100
AcDbEntity
  8
PV
 62
     7
100
AcDbLine
 10
1003.65
 20
289.389
 30
0.0
 11
1003.65
 21
334.389
 31
0.0
  0
LINE
  5
19A
330
19
100
AcDbEntity
  8
PV
 62
     7
100
AcDbLine
 10
1003.65
 20
334.389
 30
0.0
 11
1003.65
 21
357.389
 31
0.0
  0
LINE
  5
19B
330
19
100
AcDbEntity
  8
PV
 62
     7
100
AcDbLine
 10
1066.65
 20
334.389
 30
0.0
 11
1066.65
 21
333.889
 31
0.0
  0
LINE
  5
19C
330
19
100
AcDbEntity
  8
PV
 62
     7
100
AcDbLine
 10
1066.65
 20
289.389
 30
0.0
 11
1066.65
 21
267.389
 31
0.0
  0
LINE
  5
19D
330
19
100
AcDbEntity
  8
PV
 62
     7
100
AcDbLine
 10
788.6699999999999
 20
415.889
 30
0.0
 11
747.946
 21
415.889
 31
0.0
  0
LINE
  5
19E
330
19
100
AcDbEntity
  8
PV
 62
     7
100
AcDbLine
 10
789.308
 20
379.389
 30
0.0
 11
747.308
 21
379.389
 31
0.0
  0
LINE
  5
19F
330
19
100
AcDbEntity
  8
PV
 62
     7
100
AcDbLine
 10
786.308
 20
379.389
 30
0.0
 11
786.308
 21
370.368
 31
0.0
  0
LINE
  5
1A0
330
19
100
AcDbEntity
  8
PV
 62
     7
100
AcDbLine
 10
750.3079999999999
 20
379.389
 30
0.0
 11
750.3079999999999
 21
370.368
 31
0.0
  0
LINE
  5
1A1
330
19
100
AcDbEntity
  8
PV
 62
     7
100
AcDbLine
 10
746.3079999999999
 20
370.368
 30
0.0
 11
790.308
 21
370.368
 31
0.0
  0
LINE
  5
1A2
330
19
100
AcDbEntity
  8
PV
 62
     7
100
AcDbLine
 10
800.201
 20
362.868
 30
0.0
 11
736.8079999999999
 21
362.868
 31
0.0
  0
LINE
  5
1A3
330
19
100
AcDbEntity
  8
PV
 62
     7
100
AcDbLine
 10
736.8079999999999
 20
275.5889999999999
 30
0.0
 11
736.8079999999999
 21
357.389
 31
0.0
  0
LINE
  5
1A4
330
19
100
AcDbEntity
  8
PV
 62
     7
100
AcDbLine
 10
800.201
 20
275.5889999999999
 30
0.0
 11
800.201
 21
357.389
 31
0.0
  0
LINE
  5
1A5
330
19
100
AcDbEntity
  8
PV
 62
     7
100
AcDbLine
 10
800.201
 20
348.368
 30
0.0
 11
736.8079999999999
 21
348.368
 31
0.0
  0
LINE
  5
1A6
330
19
100
AcDbEntity
  8
PV
 62
     7
100
AcDbLine
 10
800.201
 20
334.389
 30
0.0
 11
736.8079999999999
 21
334.389
 31
0.0
  0
LINE
  5
1A7
330
19
100
AcDbEntity
  8
PV
 62
     7
100
AcDbLine
 10
750.3079999999999
 20
334.389
 30
0.0
 11
750.3079999999999
 21
321.889
 31
0.0
  0
LINE
  5
1A8
330
19
100
AcDbEntity
  8
PV
 62
     7
100
AcDbLine
 10
750.3079999999999
 20
321.889
 30
0.0
 11
746.3079999999999
 21
319.889
 31
0.0
  0
LINE
  5
1A9
330
19
100
AcDbEntity
  8
PV
 62
     7
100
AcDbLine
 10
746.3079999999999
 20
319.889
 30
0.0
 11
746.3079999999999
 21
303.889
 31
0.0
  0
LINE
  5
1AA
330
19
100
AcDbEntity
  8
PV
 62
     7
100
AcDbLine
 10
750.3079999999999
 20
301.889
 30
0.0
 11
746.3079999999999
 21
303.889
 31
0.0
  0
LINE
  5
1AB
330
19
100
AcDbEntity
  8
PV
 62
     7
100
AcDbLine
 10
750.3079999999999
 20
301.889
 30
0.0
 11
750.3079999999999
 21
289.389
 31
0.0
  0
LINE
  5
1AC
330
19
100
AcDbEntity
  8
PV
 62
     7
100
AcDbLine
 10
786.308
 20
301.889
 30
0.0
 11
786.308
 21
289.389
 31
0.0
  0
LINE
  5
1AD
330
19
100
AcDbEntity
  8
PV
 62
     7
100
AcDbLine
 10
790.308
 20
303.889
 30
0.0
 11
786.308
 21
301.889
 31
0.0
  0
LINE
  5
1AE
330
19
100
AcDbEntity
  8
PV
 62
     7
100
AcDbLine
 10
790.308
 20
319.89
 30
0.0
 11
790.308
 21
303.889
 31
0.0
  0
LINE
  5
1AF
330
19
100
AcDbEntity
  8
PV
 62
     7
100
AcDbLine
 10
790.308
 20
319.89
 30
0.0
 11
786.308
 21
321.89
 31
0.0
  0
LINE
  5
1B0
330
19
100
AcDbEntity
  8
PV
 62
     7
100
AcDbLine
 10
786.308
 20
334.389
 30
0.0
 11
786.308
 21
321.89
 31
0.0
  0
LINE
  5
1B1
330
19
100
AcDbEntity
  8
PV
 62
     7
100
AcDbLine
 10
800.201
 20
275.5889999999999
 30
0.0
 11
736.8079999999999
 21
275.5889999999999
 31
0.0
  0
LINE
  5
1B2
330
19
100
AcDbEntity
  8
PV
 62
     7
100
AcDbLine
 10
800.201
 20
289.389
 30
0.0
 11
736.8079999999999
 21
289.389
 31
0.0
  0
LINE
  5
1B3
330
19
100
AcDbEntity
  8
PV
 62
     7
100
AcDbLine
 10
790.308
 20
370.368
 30
0.0
 11
790.561
 21
363.109
 31
0.0
  0
LINE
  5
1B4
330
19
100
AcDbEntity
  8
PV
 62
     7
100
AcDbLine
 10
746.3079999999999
 20
370.368
 30
0.0
 11
746.0549999999999
 21
363.109
 31
0.0
  0
LINE
  5
1B5
330
19
100
AcDbEntity
  8
PV
 62
     7
100
AcDbLine
 10
747.946
 20
415.889
 30
0.0
 11
747.308
 21
379.389
 31
0.0
  0
LINE
  5
1B6
330
19
100
AcDbEntity
  8
PV
 62
     7
100
AcDbLine
 10
788.6699999999999
 20
415.889
 30
0.0
 11
789.308
 21
379.389
 31
0.0
  0
LINE
  5
1B7
330
19
100
AcDbEntity
  8
PV
 62
     7
100
AcDbLine
 10
800.201
 20
357.389
 30
0.0
 11
736.8079999999999
 21
357.389
 31
0.0
  0
LINE
  5
1B8
330
19
100
AcDbEntity
  8
PV
 62
     7
100
AcDbLine
 10
736.8079999999999
 20
357.389
 30
0.0
 11
736.8079999999999
 21
362.868
 31
0.0
  0
LINE
  5
1B9
330
19
100
AcDbEntity
  8
PV
 62
     7
100
AcDbLine
 10
800.201
 20
357.389
 30
0.0
 11
800.201
 21
362.868
 31
0.0
  0
LINE
  5
1BA
330
19
100
AcDbEntity
  8
PV
  6
CENTER
 62
     1
100
AcDbLine
 10
1177.54
 20
146.389
 30
0.0
 11
1213.76
 21
146.389
 31
0.0
  0
LINE
  5
1BB
330
19
100
AcDbEntity
  8
PV
  6
CENTER
 62
     1
100
AcDbLine
 10
1195.65
 20
128.279
 30
0.0
 11
1195.65
 21
164.5
 31
0.0
  0
LINE
  5
1BC
330
19
100
AcDbEntity
  8
PV
 62
     7
100
AcDbLine
 10
1281.65
 20
133.889
 30
0.0
 11
1235.65
 21
133.889
 31
0.0
  0
LINE
  5
1BD
330
19
100
AcDbEntity
  8
PV
 62
     7
100
AcDbLine
 10
1022.1
 20
743.701
 30
0.0
 11
1003.65
 21
725.2489999999998
 31
0.0
  0
LINE
  5
1BE
330
19
100
AcDbEntity
  8
PV
 62
     7
100
AcDbLine
 10
1003.65
 20
725.2489999999998
 30
0.0
 11
1003.65
 21
699.153
 31
0.0
  0
LINE
  5
1BF
330
19
100
AcDbEntity
  8
PV
 62
     7
100
AcDbLine
 10
1003.65
 20
699.153
 30
0.0
 11
1022.1
 21
680.701
 31
0.0
  0
LINE
  5
1C0
330
19
100
AcDbEntity
  8
PV
 62
     7
100
AcDbLine
 10
1022.1
 20
680.701
 30
0.0
 11
1048.2
 21
680.701
 31
0.0
  0
LINE
  5
1C1
330
19
100
AcDbEntity
  8
PV
 62
     7
100
AcDbLine
 10
1048.2
 20
680.701
 30
0.0
 11
1066.65
 21
699.153
 31
0.0
  0
LINE
  5
1C2
330
19
100
AcDbEntity
  8
PV
 62
     7
100
AcDbLine
 10
1066.65
 20
699.153
 30
0.0
 11
1066.65
 21
725.2489999999998
 31
0.0
  0
LINE
  5
1C3
330
19
100
AcDbEntity
  8
PV
 62
     7
100
AcDbLine
 10
1066.65
 20
725.2489999999998
 30
0.0
 11
1048.2
 21
743.701
 31
0.0
  0
LINE
  5
1C4
330
19
100
AcDbEntity
  8
PV
 62
     7
100
AcDbLine
 10
1048.2
 20
743.701
 30
0.0
 11
1022.1
 21
743.701
 31
0.0
  0
LINE
  5
1C5
330
19
100
AcDbEntity
  8
PV
 62
     7
100
AcDbLine
 10
1205.32
 20
765.5339999999999
 30
0.0
 11
1201.04
 21
755.201
 31
0.0
  0
LINE
  5
1C6
330
19
100
AcDbEntity
  8
PV
 62
     7
100
AcDbLine
 10
1201.04
 20
755.201
 30
0.0
 11
1205.32
 21
744.8689999999999
 31
0.0
  0
LINE
  5
1C7
330
19
100
AcDbEntity
  8
PV
 62
     7
100
AcDbLine
 10
1205.32
 20
744.8689999999999
 30
0.0
 11
1215.65
 21
740.5889999999999
 31
0.0
  0
LINE
  5
1C8
330
19
100
AcDbEntity
  8
PV
 62
     7
100
AcDbLine
 10
1215.65
 20
740.5889999999999
 30
0.0
 11
1225.98
 21
744.8689999999999
 31
0.0
  0
LINE
  5
1C9
330
19
100
AcDbEntity
  8
PV
 62
     7
100
AcDbLine
 10
1225.98
 20
744.8689999999999
 30
0.0
 11
1230.26
 21
755.201
 31
0.0
  0
LINE
  5
1CA
330
19
100
AcDbEntity
  8
PV
 62
     7
100
AcDbLine
 10
1230.26
 20
755.201
 30
0.0
 11
1225.98
 21
765.5339999999999
 31
0.0
  0
LINE
  5
1CB
330
19
100
AcDbEntity
  8
PV
 62
     7
100
AcDbLine
 10
1225.98
 20
765.5339999999999
 30
0.0
 11
1215.65
 21
769.8129999999999
 31
0.0
  0
LINE
  5
1CC
330
19
100
AcDbEntity
  8
PV
 62
     7
100
AcDbLine
 10
1215.65
 20
769.8129999999999
 30
0.0
 11
1205.32
 21
765.5339999999999
 31
0.0
  0
LINE
  5
1CD
330
19
100
AcDbEntity
  8
PV
 62
     7
100
AcDbLine
 10
1192.76
 20
151.389
 30
0.0
 11
1189.88
 21
146.389
 31
0.0
  0
LINE
  5
1CE
330
19
100
AcDbEntity
  8
PV
 62
     7
100
AcDbLine
 10
1189.88
 20
146.389
 30
0.0
 11
1192.76
 21
141.389
 31
0.0
  0
LINE
  5
1CF
330
19
100
AcDbEntity
  8
PV
 62
     7
100
AcDbLine
 10
1192.76
 20
141.389
 30
0.0
 11
1198.54
 21
141.389
 31
0.0
  0
LINE
  5
1D0
330
19
100
AcDbEntity
  8
PV
 62
     7
100
AcDbLine
 10
1198.54
 20
141.389
 30
0.0
 11
1201.42
 21
146.389
 31
0.0
  0
LINE
  5
1D1
330
19
100
AcDbEntity
  8
PV
 62
     7
100
AcDbLine
 10
1201.42
 20
146.389
 30
0.0
 11
1198.54
 21
151.389
 31
0.0
  0
LINE
  5
1D2
330
19
100
AcDbEntity
  8
PV
 62
     7
100
AcDbLine
 10
1198.54
 20
151.389
 30
0.0
 11
1192.76
 21
151.389
 31
0.0
  0
LINE
  5
1D3
330
19
100
AcDbEntity
  8
PV
 62
     7
100
AcDbLine
 10
1085.65
 20
280.14
 30
0.0
 11
1085.65
 21
262.639
 31
0.0
  0
LINE
  5
1D4
330
19
100
AcDbEntity
  8
PV
 62
     7
100
AcDbLine
 10
798.308
 20
155.1399999999999
 30
0.0
 11
776.808
 21
155.1399999999999
 31
0.0
  0
LINE
  5
1D5
330
19
100
AcDbEntity
  8
PV
 62
     7
100
AcDbLine
 10
798.308
 20
137.639
 30
0.0
 11
698.308
 21
137.639
 31
0.0
  0
ARC
  5
1D6
330
19
100
AcDbEntity
  8
PV
 62
     7
100
AcDbCircle
 10
698.308
 20
146.389
 30
0.0
 40
8.75031
100
AcDbArc
 50
90.0
 51
270.0
  0
ARC
  5
1D7
330
19
100
AcDbEntity
  8
PV
 62
     7
100
AcDbCircle
 10
798.308
 20
146.389
 30
0.0
 40
8.75031
100
AcDbArc
 50
270.0
 51
90.0
  0
ARC
  5
1D8
330
19
100
AcDbEntity
  8
PV
 62
     7
100
AcDbCircle
 10
798.308
 20
271.389
 30
0.0
 40
8.75031
100
AcDbArc
 50
276.562
 51
77.5074
  0
ARC
  5
1D9
330
19
100
AcDbEntity
  8
PV
 62
     7
100
AcDbCircle
 10
698.308
 20
271.389
 30
0.0
 40
8.75031
100
AcDbArc
 50
90.0
 51
270.0
  0
LINE
  5
1DA
330
19
100
AcDbEntity
  8
PV
 62
     7
100
AcDbLine
 10
744.918
 20
262.639
 30
0.0
 11
698.308
 21
262.639
 31
0.0
  0
LINE
  5
1DB
330
19
100
AcDbEntity
  8
PV
 62
     7
100
AcDbLine
 10
736.8079999999999
 20
280.14
 30
0.0
 11
698.308
 21
280.14
 31
0.0
  0
LINE
  5
1DC
330
19
100
AcDbEntity
  8
PV
 62
     7
100
AcDbLine
 10
1095.65
 20
280.14
 30
0.0
 11
1085.65
 21
280.14
 31
0.0
  0
LINE
  5
1DD
330
19
100
AcDbEntity
  8
PV
 62
     7
100
AcDbLine
 10
1095.65
 20
262.639
 30
0.0
 11
1085.65
 21
262.639
 31
0.0
  0
LINE
  5
1DE
330
19
100
AcDbEntity
  8
PV
 62
     7
100
AcDbLine
 10
1095.65
 20
155.1399999999999
 30
0.0
 11
1085.65
 21
155.1399999999999
 31
0.0
  0
LINE
  5
1DF
330
19
100
AcDbEntity
  8
PV
 62
     7
100
AcDbLine
 10
1095.65
 20
137.639
 30
0.0
 11
1085.65
 21
137.639
 31
0.0
  0
LINE
  5
1E0
330
19
100
AcDbEntity
  8
PV
 62
     7
100
AcDbLine
 10
1085.65
 20
155.1399999999999
 30
0.0
 11
1085.65
 21
137.639
 31
0.0
  0
LINE
  5
1E1
330
19
100
AcDbEntity
  8
PV
 62
     7
100
AcDbLine
 10
1297.65
 20
256.389
 30
0.0
 11
1297.65
 21
132.389
 31
0.0
  0
LINE
  5
1E2
330
19
100
AcDbEntity
  8
PV
 62
     7
100
AcDbLine
 10
1297.65
 20
132.389
 30
0.0
 11
1295.65
 21
132.389
 31
0.0
  0
LINE
  5
1E3
330
19
100
AcDbEntity
  8
PV
 62
     7
100
AcDbLine
 10
1297.65
 20
256.389
 30
0.0
 11
1295.65
 21
256.389
 31
0.0
  0
LINE
  5
1E4
330
19
100
AcDbEntity
  8
PV
 62
     7
100
AcDbLine
 10
1080.65
 20
333.889
 30
0.0
 11
1056.65
 21
333.889
 31
0.0
  0
LINE
  5
1E5
330
19
100
AcDbEntity
  8
PV
 62
     7
100
AcDbLine
 10
1080.65
 20
289.889
 30
0.0
 11
1056.65
 21
289.889
 31
0.0
  0
LINE
  5
1E6
330
19
100
AcDbEntity
  8
PV
 62
     7
100
AcDbLine
 10
1298.15
 20
194.389
 30
0.0
 11
1298.15
 21
134.389
 31
0.0
  0
LINE
  5
1E7
330
19
100
AcDbEntity
  8
PV
 62
     7
100
AcDbLine
 10
1298.15
 20
194.389
 30
0.0
 11
1297.65
 21
194.389
 31
0.0
  0
LINE
  5
1E8
330
19
100
AcDbEntity
  8
PV
 62
     7
100
AcDbLine
 10
1298.15
 20
134.389
 30
0.0
 11
1297.65
 21
134.389
 31
0.0
  0
LINE
  5
1E9
330
19
100
AcDbEntity
  8
PV
 62
     7
100
AcDbLine
 10
1301.75
 20
184.889
 30
0.0
 11
1301.75
 21
177.889
 31
0.0
  0
LINE
  5
1EA
330
19
100
AcDbEntity
  8
PV
 62
     7
100
AcDbLine
 10
1301.75
 20
184.889
 30
0.0
 11
1298.15
 21
184.889
 31
0.0
  0
LINE
  5
1EB
330
19
100
AcDbEntity
  8
PV
 62
     7
100
AcDbLine
 10
1301.75
 20
177.889
 30
0.0
 11
1298.15
 21
177.889
 31
0.0
  0
LINE
  5
1EC
330
19
100
AcDbEntity
  8
PV
 62
     7
100
AcDbLine
 10
1301.75
 20
143.889
 30
0.0
 11
1298.15
 21
143.889
 31
0.0
  0
LINE
  5
1ED
330
19
100
AcDbEntity
  8
PV
 62
     7
100
AcDbLine
 10
1301.75
 20
150.889
 30
0.0
 11
1298.15
 21
150.889
 31
0.0
  0
LINE
  5
1EE
330
19
100
AcDbEntity
  8
PV
 62
     7
100
AcDbLine
 10
1301.75
 20
150.889
 30
0.0
 11
1301.75
 21
143.889
 31
0.0
  0
LINE
  5
1EF
330
19
100
AcDbEntity
  8
PV
 62
     7
100
AcDbLine
 10
1297.65
 20
786.201
 30
0.0
 11
1297.65
 21
696.201
 31
0.0
  0
LINE
  5
1F0
330
19
100
AcDbEntity
  8
PV
 62
     7
100
AcDbLine
 10
1295.65
 20
786.201
 30
0.0
 11
1297.65
 21
786.201
 31
0.0
  0
LINE
  5
1F1
330
19
100
AcDbEntity
  8
PV
 62
     7
100
AcDbLine
 10
1295.65
 20
696.201
 30
0.0
 11
1297.65
 21
696.201
 31
0.0
  0
LINE
  5
1F2
330
19
100
AcDbEntity
  8
PV
 62
     7
100
AcDbLine
 10
1298.15
 20
792.201
 30
0.0
 11
1298.15
 21
785.788
 31
0.0
  0
LINE
  5
1F3
330
19
100
AcDbEntity
  8
PV
 62
     7
100
AcDbLine
 10
689.692
 20
358.9859999999999
 30
0.0
 11
697.7219999999999
 21
435.3889999999999
 31
0.0
  0
LINE
  5
1F4
330
19
100
AcDbEntity
  8
PV
 62
     7
100
AcDbLine
 10
689.692
 20
358.989
 30
0.0
 11
689.341
 21
338.8889999999999
 31
0.0
  0
LINE
  5
1F5
330
19
100
AcDbEntity
  8
PV
 62
     7
100
AcDbLine
 10
808.5080000000001
 20
338.8889999999999
 30
0.0
 11
800.201
 21
338.8889999999999
 31
0.0
  0
LINE
  5
1F6
330
19
100
AcDbEntity
  8
PV
 62
     7
100
AcDbLine
 10
806.924
 20
358.9859999999999
 30
0.0
 11
798.8939999999999
 21
435.3889999999999
 31
0.0
  0
LINE
  5
1F7
330
19
100
AcDbEntity
  8
PV
 62
     7
100
AcDbLine
 10
808.5080000000001
 20
338.8889999999999
 30
0.0
 11
808.5080000000001
 21
334.389
 31
0.0
  0
LINE
  5
1F8
330
19
100
AcDbEntity
  8
PV
 62
     7
100
AcDbLine
 10
808.5080000000001
 20
338.789
 30
0.0
 11
808.5080000000001
 21
334.389
 31
0.0
  0
LINE
  5
1F9
330
19
100
AcDbEntity
  8
PV
 62
     7
100
AcDbLine
 10
806.924
 20
358.989
 30
0.0
 11
807.2749999999999
 21
338.8889999999999
 31
0.0
  0
LINE
  5
1FA
330
19
100
AcDbEntity
  8
PV
 62
     7
100
AcDbLine
 10
688.108
 20
338.789
 30
0.0
 11
688.108
 21
334.389
 31
0.0
  0
LINE
  5
1FB
330
19
100
AcDbEntity
  8
PV
 62
     7
100
AcDbLine
 10
688.108
 20
338.8889999999999
 30
0.0
 11
688.108
 21
334.389
 31
0.0
  0
LINE
  5
1FC
330
19
100
AcDbEntity
  8
PV
 62
     7
100
AcDbLine
 10
697.7219999999999
 20
435.3889999999999
 30
0.0
 11
798.8939999999999
 21
435.3889999999999
 31
0.0
  0
LINE
  5
1FD
330
19
100
AcDbEntity
  8
PV
 62
     7
100
AcDbLine
 10
736.8079999999999
 20
338.8889999999999
 30
0.0
 11
688.108
 21
338.8889999999999
 31
0.0
  0
LINE
  5
1FE
330
19
100
AcDbEntity
  8
PV
 62
     7
100
AcDbLine
 10
1095.059999999999
 20
681.615
 30
0.0
 11
1196.23
 21
681.615
 31
0.0
  0
LINE
  5
1FF
330
19
100
AcDbEntity
  8
PV
 62
     7
100
AcDbLine
 10
1095.059999999999
 20
681.615
 30
0.0
 11
1095.059999999999
 21
782.7869999999998
 31
0.0
  0
LINE
  5
200
330
19
100
AcDbEntity
  8
PV
 62
     7
100
AcDbLine
 10
1196.23
 20
782.7869999999998
 30
0.0
 11
1196.23
 21
763.2069999999999
 31
0.0
  0
LINE
  5
201
330
19
100
AcDbEntity
  8
PV
 62
     7
100
AcDbLine
 10
1196.23
 20
782.7869999999998
 30
0.0
 11
1095.059999999999
 21
782.7869999999998
 31
0.0
  0
LINE
  5
202
330
19
100
AcDbEntity
  8
PV
 62
     7
100
AcDbLine
 10
1196.23
 20
747.195
 30
0.0
 11
1196.23
 21
681.615
 31
0.0
  0
LINE
  5
203
330
19
100
AcDbEntity
  8
PV
 62
     7
100
AcDbLine
 10
1085.65
 20
792.201
 30
0.0
 11
1095.059999999999
 21
782.7869999999998
 31
0.0
  0
LINE
  5
204
330
19
100
AcDbEntity
  8
PV
 62
     7
100
AcDbLine
 10
1095.059999999999
 20
681.615
 30
0.0
 11
1085.65
 21
672.201
 31
0.0
  0
LINE
  5
205
330
19
100
AcDbEntity
  8
PV
 62
     7
100
AcDbLine
 10
1196.23
 20
681.615
 30
0.0
 11
1205.65
 21
672.201
 31
0.0
  0
LINE
  5
206
330
19
100
AcDbEntity
  8
PV
 62
     7
100
AcDbLine
 10
1196.23
 20
782.7869999999998
 30
0.0
 11
1205.65
 21
792.201
 31
0.0
  0
LINE
  5
207
330
19
100
AcDbEntity
  8
PV
  6
CENTER
 62
     1
100
AcDbLine
 10
1012.709999999999
 20
712.201
 30
0.0
 11
994.1489999999999
 21
712.201
 31
0.0
  0
LINE
  5
208
330
19
100
AcDbEntity
  8
PV
 62
     7
100
AcDbLine
 10
1085.349999999999
 20
334.389
 30
0.0
 11
1085.349999999999
 21
338.8889999999999
 31
0.0
  0
LINE
  5
209
330
19
100
AcDbEntity
  8
PV
 62
     7
100
AcDbLine
 10
1205.95
 20
334.389
 30
0.0
 11
1205.95
 21
338.8889999999999
 31
0.0
  0
LINE
  5
20A
330
19
100
AcDbEntity
  8
PV
  6
CENTER
 62
     1
100
AcDbLine
 10
768.308
 20
419.0469999999999
 30
0.0
 11
768.308
 21
142.2289999999999
 31
0.0
  0
LINE
  5
20B
330
19
100
AcDbEntity
  8
PV
 62
     7
100
AcDbLine
 10
1301.65
 20
339.889
 30
0.0
 11
1301.65
 21
338.0009999999999
 31
0.0
  0
LINE
  5
20C
330
19
100
AcDbEntity
  8
PV
 62
     7
100
AcDbLine
 10
1356.65
 20
339.889
 30
0.0
 11
1356.65
 21
338.0009999999999
 31
0.0
  0
LINE
  5
20D
330
19
100
AcDbEntity
  8
PV
 62
     7
100
AcDbLine
 10
1299.15
 20
337.9129999999999
 30
0.0
 11
1299.15
 21
236.8659999999999
 31
0.0
  0
LINE
  5
20E
330
19
100
AcDbEntity
  8
PV
 62
     7
100
AcDbLine
 10
1374.15
 20
337.389
 30
0.0
 11
1374.15
 21
237.389
 31
0.0
  0
LINE
  5
20F
330
19
100
AcDbEntity
  8
PV
 62
     7
100
AcDbLine
 10
1374.15
 20
337.389
 30
0.0
 11
1329.15
 21
338.961
 31
0.0
  0
LINE
  5
210
330
19
100
AcDbEntity
  8
PV
 62
     7
100
AcDbLine
 10
1329.15
 20
338.961
 30
0.0
 11
1328.95
 21
338.954
 31
0.0
  0
LINE
  5
211
330
19
100
AcDbEntity
  8
PV
 62
     7
100
AcDbLine
 10
1356.65
 20
339.889
 30
0.0
 11
1342.33
 21
340.389
 31
0.0
  0
LINE
  5
212
330
19
100
AcDbEntity
  8
PV
 62
     7
100
AcDbLine
 10
1315.97
 20
340.389
 30
0.0
 11
1301.65
 21
339.889
 31
0.0
  0
LINE
  5
213
330
19
100
AcDbEntity
  8
PV
 62
     7
100
AcDbLine
 10
1374.15
 20
237.389
 30
0.0
 11
1329.15
 21
235.8179999999999
 31
0.0
  0
LINE
  5
214
330
19
100
AcDbEntity
  8
PV
 62
     7
100
AcDbLine
 10
1329.15
 20
235.8179999999999
 30
0.0
 11
1299.15
 21
236.8659999999999
 31
0.0
  0
LINE
  5
215
330
19
100
AcDbEntity
  8
PV
 62
     7
100
AcDbLine
 10
1355.15
 20
236.7259999999999
 30
0.0
 11
1355.15
 21
202.389
 31
0.0
  0
LINE
  5
216
330
19
100
AcDbEntity
  8
PV
 62
     7
100
AcDbLine
 10
1303.15
 20
236.7259999999999
 30
0.0
 11
1303.15
 21
202.389
 31
0.0
  0
LINE
  5
217
330
19
100
AcDbEntity
  8
PV
 62
     7
100
AcDbLine
 10
1303.15
 20
205.3889999999999
 30
0.0
 11
1297.65
 21
205.3889999999999
 31
0.0
  0
LINE
  5
218
330
19
100
AcDbEntity
  8
PV
 62
     7
100
AcDbLine
 10
1299.15
 20
270.389
 30
0.0
 11
1297.65
 21
270.389
 31
0.0
  0
LINE
  5
219
330
19
100
AcDbEntity
  8
PV
 62
     7
100
AcDbLine
 10
1374.15
 20
792.201
 30
0.0
 11
1374.15
 21
672.7009999999999
 31
0.0
  0
LINE
  5
21A
330
19
100
AcDbEntity
  8
PV
 62
     7
100
AcDbLine
 10
1299.15
 20
792.725
 30
0.0
 11
1299.15
 21
672.177
 31
0.0
  0
ARC
  5
21B
330
19
100
AcDbEntity
  8
PV
 62
     7
100
AcDbCircle
 10
1350.15
 20
723.701
 30
0.0
 40
6.5
100
AcDbArc
 50
0.0
 51
90.0
  0
LINE
  5
21C
330
19
100
AcDbEntity
  8
PV
 62
     7
100
AcDbLine
 10
1350.15
 20
730.201
 30
0.0
 11
1329.15
 21
730.201
 31
0.0
  0
ARC
  5
21D
330
19
100
AcDbEntity
  8
PV
 62
     7
100
AcDbCircle
 10
1308.15
 20
681.701
 30
0.0
 40
6.5
100
AcDbArc
 50
180.0
 51
270.0
  0
LINE
  5
21E
330
19
100
AcDbEntity
  8
PV
 62
     7
100
AcDbLine
 10
1301.65
 20
702.701
 30
0.0
 11
1301.65
 21
681.701
 31
0.0
  0
LINE
  5
21F
330
19
100
AcDbEntity
  8
PV
 62
     7
100
AcDbLine
 10
1308.15
 20
675.201
 30
0.0
 11
1329.15
 21
675.201
 31
0.0
  0
LINE
  5
220
330
19
100
AcDbEntity
  8
PV
 62
     7
100
AcDbLine
 10
1356.65
 20
723.701
 30
0.0
 11
1356.65
 21
702.701
 31
0.0
  0
LINE
  5
221
330
19
100
AcDbEntity
  8
PV
 62
     7
100
AcDbLine
 10
1374.15
 20
672.7009999999999
 30
0.0
 11
1345.509999999999
 21
671.701
 31
0.0
  0
LINE
  5
222
330
19
100
AcDbEntity
  8
PV
 62
     7
100
AcDbLine
 10
1308.15
 20
671.863
 30
0.0
 11
1299.15
 21
672.177
 31
0.0
  0
LINE
  5
223
330
19
100
AcDbEntity
  8
PV
 62
     7
100
AcDbLine
 10
1308.15
 20
671.863
 30
0.0
 11
1308.15
 21
671.701
 31
0.0
  0
LINE
  5
224
330
19
100
AcDbEntity
  8
PV
 62
     7
100
AcDbLine
 10
1374.15
 20
792.201
 30
0.0
 11
1329.15
 21
793.773
 31
0.0
  0
LINE
  5
225
330
19
100
AcDbEntity
  8
PV
 62
     7
100
AcDbLine
 10
1329.15
 20
793.773
 30
0.0
 11
1299.15
 21
792.725
 31
0.0
  0
LINE
  5
226
330
19
100
AcDbEntity
  8
PV
 62
     7
100
AcDbLine
 10
1297.65
 20
785.771
 30
0.0
 11
1299.15
 21
785.8229999999999
 31
0.0
  0
LINE
  5
227
330
19
100
AcDbEntity
  8
PV
 62
     7
100
AcDbLine
 10
1297.65
 20
688.631
 30
0.0
 11
1299.15
 21
688.579
 31
0.0
  0
LINE
  5
228
330
19
100
AcDbEntity
  8
PV
 62
     7
100
AcDbLine
 10
1297.65
 20
785.771
 30
0.0
 11
1297.65
 21
688.631
 31
0.0
  0
LINE
  5
229
330
19
100
AcDbEntity
  8
PV
 62
     7
100
AcDbLine
 10
1308.15
 20
671.701
 30
0.0
 11
1345.509999999999
 21
671.701
 31
0.0
  0
LINE
  5
22A
330
19
100
AcDbEntity
  8
PV
 62
     7
100
AcDbLine
 10
1355.15
 20
202.389
 30
0.0
 11
1303.15
 21
202.389
 31
0.0
  0
LINE
  5
22B
330
19
100
AcDbEntity
  8
PV
 62
     7
100
AcDbLine
 10
1356.65
 20
340.389
 30
0.0
 11
1301.65
 21
340.389
 31
0.0
  0
LINE
  5
22C
330
19
100
AcDbEntity
  8
PV
 62
     7
100
AcDbLine
 10
1297.65
 20
270.389
 30
0.0
 11
1297.65
 21
205.3889999999999
 31
0.0
  0
LINE
  5
22D
330
19
100
AcDbEntity
  8
PV
 62
     7
100
AcDbLine
 10
1356.65
 20
350.389
 30
0.0
 11
1312.75
 21
350.389
 31
0.0
  0
LINE
  5
22E
330
19
100
AcDbEntity
  8
PV
 62
     7
100
AcDbLine
 10
1351.65
 20
355.3889999999999
 30
0.0
 11
1351.65
 21
350.389
 31
0.0
  0
LINE
  5
22F
330
19
100
AcDbEntity
  8
PV
 62
     7
100
AcDbLine
 10
1356.65
 20
350.389
 30
0.0
 11
1356.65
 21
340.389
 31
0.0
  0
LINE
  5
230
330
19
100
AcDbEntity
  8
PV
 62
     7
100
AcDbLine
 10
1306.65
 20
355.3889999999999
 30
0.0
 11
1306.65
 21
351.689
 31
0.0
  0
LINE
  5
231
330
19
100
AcDbEntity
  8
PV
 62
     7
100
AcDbLine
 10
1301.65
 20
350.389
 30
0.0
 11
1301.65
 21
340.389
 31
0.0
  0
LINE
  5
232
330
19
100
AcDbEntity
  8
PV
 62
     7
100
AcDbLine
 10
1314.65
 20
350.389
 30
0.0
 11
1314.65
 21
345.389
 31
0.0
  0
LINE
  5
233
330
19
100
AcDbEntity
  8
PV
 62
     7
100
AcDbLine
 10
1314.65
 20
345.389
 30
0.0
 11
1301.65
 21
345.389
 31
0.0
  0
LINE
  5
234
330
19
100
AcDbEntity
  8
PV
 62
     7
100
AcDbLine
 10
1356.65
 20
355.3889999999999
 30
0.0
 11
1301.65
 21
355.3889999999999
 31
0.0
  0
LINE
  5
235
330
19
100
AcDbEntity
  8
PV
 62
     7
100
AcDbLine
 10
1356.65
 20
376.3889999999999
 30
0.0
 11
1301.65
 21
376.3889999999999
 31
0.0
  0
LINE
  5
236
330
19
100
AcDbEntity
  8
PV
 62
     7
100
AcDbLine
 10
1356.65
 20
376.3889999999999
 30
0.0
 11
1356.65
 21
361.389
 31
0.0
  0
LINE
  5
237
330
19
100
AcDbEntity
  8
PV
 62
     7
100
AcDbLine
 10
1301.65
 20
376.3889999999999
 30
0.0
 11
1301.65
 21
361.389
 31
0.0
  0
LINE
  5
238
330
19
100
AcDbEntity
  8
PV
 62
     7
100
AcDbLine
 10
1356.65
 20
358.389
 30
0.0
 11
1301.65
 21
358.389
 31
0.0
  0
LINE
  5
239
330
19
100
AcDbEntity
  8
PV
 62
     7
100
AcDbLine
 10
1356.65
 20
361.389
 30
0.0
 11
1301.65
 21
361.389
 31
0.0
  0
LINE
  5
23A
330
19
100
AcDbEntity
  8
PV
 62
     7
100
AcDbLine
 10
1354.15
 20
361.389
 30
0.0
 11
1354.15
 21
360.389
 31
0.0
  0
LINE
  5
23B
330
19
100
AcDbEntity
  8
PV
 62
     7
100
AcDbLine
 10
1304.15
 20
361.389
 30
0.0
 11
1304.15
 21
360.389
 31
0.0
  0
LINE
  5
23C
330
19
100
AcDbEntity
  8
PV
 62
     7
100
AcDbLine
 10
1356.65
 20
358.389
 30
0.0
 11
1356.65
 21
355.3889999999999
 31
0.0
  0
LINE
  5
23D
330
19
100
AcDbEntity
  8
PV
 62
     7
100
AcDbLine
 10
1301.65
 20
358.389
 30
0.0
 11
1301.65
 21
355.3889999999999
 31
0.0
  0
LINE
  5
23E
330
19
100
AcDbEntity
  8
PV
 62
     7
100
AcDbLine
 10
1355.15
 20
360.389
 30
0.0
 11
1303.15
 21
360.389
 31
0.0
  0
ARC
  5
23F
330
19
100
AcDbEntity
  8
PV
 62
     7
100
AcDbCircle
 10
1355.15
 20
359.389
 30
0.0
 40
1.0
100
AcDbArc
 50
270.0
 51
90.0
  0
ARC
  5
240
330
19
100
AcDbEntity
  8
PV
 62
     7
100
AcDbCircle
 10
1303.15
 20
359.389
 30
0.0
 40
1.0
100
AcDbArc
 50
90.0
 51
270.0
  0
LINE
  5
241
330
19
100
AcDbEntity
  8
PV
 62
     7
100
AcDbLine
 10
1305.78
 20
688.201
 30
0.0
 11
1301.65
 21
688.201
 31
0.0
  0
LINE
  5
242
330
19
100
AcDbEntity
  8
PV
 62
     7
100
AcDbLine
 10
1314.65
 20
679.3339999999999
 30
0.0
 11
1314.65
 21
675.201
 31
0.0
  0
LINE
  5
243
330
19
100
AcDbEntity
  8
PV
 62
     7
100
AcDbLine
 10
1343.65
 20
726.0679999999999
 30
0.0
 11
1343.65
 21
730.201
 31
0.0
  0
LINE
  5
244
330
19
100
AcDbEntity
  8
PV
 62
     7
100
AcDbLine
 10
1352.52
 20
717.201
 30
0.0
 11
1356.65
 21
717.201
 31
0.0
  0
CIRCLE
  5
245
330
19
100
AcDbEntity
  8
PV
 62
     7
100
AcDbCircle
 10
1329.15
 20
702.701
 30
0.0
 40
27.5
  0
CIRCLE
  5
246
330
19
100
AcDbEntity
  8
PV
 62
     7
100
AcDbCircle
 10
1329.15
 20
702.701
 30
0.0
 40
25.0
  0
ARC
  5
247
330
19
100
AcDbEntity
  8
PV
 62
     7
100
AcDbCircle
 10
1308.15
 20
681.701
 30
0.0
 40
4.599999999999999
100
AcDbArc
 50
102.4739999999999
 51
347.526
  0
ARC
  5
248
330
19
100
AcDbEntity
  8
PV
 62
     7
100
AcDbCircle
 10
1350.15
 20
723.701
 30
0.0
 40
4.599999999999999
100
AcDbArc
 50
282.4739999999999
 51
167.526
  0
LINE
  5
249
330
19
100
AcDbEntity
  8
PV
 62
     7
100
AcDbLine
 10
1303.549999999999
 20
351.689
 30
0.0
 11
1303.549999999999
 21
345.389
 31
0.0
  0
LINE
  5
24A
330
19
100
AcDbEntity
  8
PV
 62
     7
100
AcDbLine
 10
1312.75
 20
351.689
 30
0.0
 11
1303.549999999999
 21
351.689
 31
0.0
  0
LINE
  5
24B
330
19
100
AcDbEntity
  8
PV
 62
     7
100
AcDbLine
 10
1312.75
 20
351.689
 30
0.0
 11
1312.75
 21
345.389
 31
0.0
  0
LINE
  5
24C
330
19
100
AcDbEntity
  8
PV
 62
     7
100
AcDbLine
 10
1303.549999999999
 20
350.389
 30
0.0
 11
1301.65
 21
350.389
 31
0.0
  0
LINE
  5
24D
330
19
100
AcDbEntity
  8
PV
 62
     7
100
AcDbLine
 10
1308.349999999999
 20
657.9010000000001
 30
0.0
 11
1328.95
 21
657.9010000000001
 31
0.0
  0
LINE
  5
24E
330
19
100
AcDbEntity
  8
PV
 62
     7
100
AcDbLine
 10
1308.349999999999
 20
657.9010000000001
 30
0.0
 11
1308.349999999999
 21
671.701
 31
0.0
  0
LINE
  5
24F
330
19
100
AcDbEntity
  8
PV
 62
     7
100
AcDbLine
 10
1328.95
 20
657.9010000000001
 30
0.0
 11
1328.95
 21
671.701
 31
0.0
  0
CIRCLE
  5
250
330
19
100
AcDbEntity
  8
PV
 62
     7
100
AcDbCircle
 10
1318.65
 20
329.389
 30
0.0
 40
4.5
  0
CIRCLE
  5
251
330
19
100
AcDbEntity
  8
PV
 62
     7
100
AcDbCircle
 10
1318.65
 20
267.389
 30
0.0
 40
4.5
  0
LINE
  5
252
330
19
100
AcDbEntity
  8
PV
 62
     7
100
AcDbLine
 10
1321.65
 20
321.389
 30
0.0
 11
1321.65
 21
275.389
 31
0.0
  0
LINE
  5
253
330
19
100
AcDbEntity
  8
PV
 62
     7
100
AcDbLine
 10
1321.65
 20
275.389
 30
0.0
 11
1315.65
 21
275.389
 31
0.0
  0
LINE
  5
254
330
19
100
AcDbEntity
  8
PV
 62
     7
100
AcDbLine
 10
1315.65
 20
275.389
 30
0.0
 11
1315.65
 21
321.389
 31
0.0
  0
LINE
  5
255
330
19
100
AcDbEntity
  8
PV
 62
     7
100
AcDbLine
 10
1315.65
 20
321.389
 30
0.0
 11
1321.65
 21
321.389
 31
0.0
  0
LINE
  5
256
330
19
100
AcDbEntity
  8
PV
 62
     7
100
AcDbLine
 10
1328.95
 20
257.389
 30
0.0
 11
1328.95
 21
339.389
 31
0.0
  0
LINE
  5
257
330
19
100
AcDbEntity
  8
PV
 62
     7
100
AcDbLine
 10
1308.349999999999
 20
257.389
 30
0.0
 11
1308.349999999999
 21
339.389
 31
0.0
  0
LINE
  5
258
330
19
100
AcDbEntity
  8
PV
 62
     7
100
AcDbLine
 10
1308.349999999999
 20
339.389
 30
0.0
 11
1328.95
 21
339.389
 31
0.0
  0
LINE
  5
259
330
19
100
AcDbEntity
  8
PV
 62
     7
100
AcDbLine
 10
1308.349999999999
 20
257.389
 30
0.0
 11
1328.95
 21
257.389
 31
0.0
  0
LINE
  5
25A
330
19
100
AcDbEntity
  8
PV
 62
     7
100
AcDbLine
 10
1308.349999999999
 20
338.235
 30
0.0
 11
1299.15
 21
337.9129999999999
 31
0.0
  0
LINE
  5
25B
330
19
100
AcDbEntity
  8
PV
 62
     7
100
AcDbLine
 10
1354.15
 20
198.389
 30
0.0
 11
1304.15
 21
198.389
 31
0.0
  0
LINE
  5
25C
330
19
100
AcDbEntity
  8
PV
 62
     7
100
AcDbLine
 10
1354.15
 20
202.389
 30
0.0
 11
1354.15
 21
198.389
 31
0.0
  0
LINE
  5
25D
330
19
100
AcDbEntity
  8
PV
 62
     7
100
AcDbLine
 10
1304.15
 20
202.389
 30
0.0
 11
1304.15
 21
198.389
 31
0.0
  0
LINE
  5
25E
330
19
100
AcDbEntity
  8
PV
 62
     7
100
AcDbLine
 10
1304.55
 20
192.089
 30
0.0
 11
1304.55
 21
198.389
 31
0.0
  0
LINE
  5
25F
330
19
100
AcDbEntity
  8
PV
 62
     7
100
AcDbLine
 10
1304.55
 20
192.089
 30
0.0
 11
1313.75
 21
192.089
 31
0.0
  0
LINE
  5
260
330
19
100
AcDbEntity
  8
PV
 62
     7
100
AcDbLine
 10
1313.75
 20
192.089
 30
0.0
 11
1313.75
 21
198.389
 31
0.0
  0
LINE
  5
261
330
19
100
AcDbEntity
  8
PV
 62
     7
100
AcDbLine
 10
1353.75
 20
192.089
 30
0.0
 11
1353.75
 21
198.389
 31
0.0
  0
LINE
  5
262
330
19
100
AcDbEntity
  8
PV
 62
     7
100
AcDbLine
 10
1344.549999999999
 20
192.089
 30
0.0
 11
1353.75
 21
192.089
 31
0.0
  0
LINE
  5
263
330
19
100
AcDbEntity
  8
PV
 62
     7
100
AcDbLine
 10
1344.549999999999
 20
192.089
 30
0.0
 11
1344.549999999999
 21
198.389
 31
0.0
  0
LINE
  5
264
330
19
100
AcDbEntity
  8
PV
 62
     7
100
AcDbLine
 10
1299.15
 20
283.889
 30
0.0
 11
1295.65
 21
283.889
 31
0.0
  0
LINE
  5
265
330
19
100
AcDbEntity
  8
PV
 62
     7
100
AcDbLine
 10
678.3079999999999
 20
138.389
 30
0.0
 11
678.3079999999999
 21
154.389
 31
0.0
  0
LINE
  5
266
330
19
100
AcDbEntity
  8
PV
 62
     7
100
AcDbLine
 10
678.3079999999999
 20
263.389
 30
0.0
 11
678.3079999999999
 21
279.389
 31
0.0
  0
LINE
  5
267
330
19
100
AcDbEntity
  8
PV
  6
CENTER
 62
     1
100
AcDbLine
 10
673.308
 20
271.389
 30
0.0
 11
693.308
 21
271.389
 31
0.0
  0
LINE
  5
268
330
19
100
AcDbEntity
  8
PV
 62
     7
100
AcDbLine
 10
225.912
 20
401.5889999999999
 30
0.0
 11
257.055
 21
401.5889999999999
 31
0.0
  0
LINE
  5
269
330
19
100
AcDbEntity
  8
PV
 62
     7
100
AcDbLine
 10
221.483
 20
347.389
 30
0.0
 11
261.4829999999999
 21
347.389
 31
0.0
  0
LINE
  5
26A
330
19
100
AcDbEntity
  8
PV
 62
     7
100
AcDbLine
 10
260.123
 20
351.589
 30
0.0
 11
259.5659999999999
 21
372.889
 31
0.0
  0
LINE
  5
26B
330
19
100
AcDbEntity
  8
PV
 62
     7
100
AcDbLine
 10
259.5659999999999
 20
372.889
 30
0.0
 11
257.055
 21
401.5889999999999
 31
0.0
  0
LINE
  5
26C
330
19
100
AcDbEntity
  8
PV
 62
     7
100
AcDbLine
 10
222.8429999999999
 20
351.589
 30
0.0
 11
223.401
 21
372.889
 31
0.0
  0
LINE
  5
26D
330
19
100
AcDbEntity
  8
PV
 62
     7
100
AcDbLine
 10
223.401
 20
372.889
 30
0.0
 11
225.912
 21
401.5889999999999
 31
0.0
  0
LINE
  5
26E
330
19
100
AcDbEntity
  8
PV
 62
     7
100
AcDbLine
 10
221.733
 20
351.589
 30
0.0
 11
261.233
 21
351.589
 31
0.0
  0
LINE
  5
26F
330
19
100
AcDbEntity
  8
PV
 62
     7
100
AcDbLine
 10
221.733
 20
351.589
 30
0.0
 11
221.733
 21
347.389
 31
0.0
  0
LINE
  5
270
330
19
100
AcDbEntity
  8
PV
 62
     7
100
AcDbLine
 10
261.233
 20
351.589
 30
0.0
 11
261.233
 21
347.389
 31
0.0
  0
LINE
  5
271
330
19
100
AcDbEntity
  8
PV
 62
     7
100
AcDbLine
 10
221.483
 20
347.389
 30
0.0
 11
221.483
 21
334.389
 31
0.0
  0
LINE
  5
272
330
19
100
AcDbEntity
  8
PV
 62
     7
100
AcDbLine
 10
261.4829999999999
 20
347.389
 30
0.0
 11
261.4829999999999
 21
334.389
 31
0.0
  0
LINE
  5
273
330
19
100
AcDbEntity
  8
PV
 62
     7
100
AcDbLine
 10
287.8669999999999
 20
358.9859999999999
 30
0.0
 11
295.8969999999999
 21
435.3889999999999
 31
0.0
  0
LINE
  5
274
330
19
100
AcDbEntity
  8
PV
 62
     7
100
AcDbLine
 10
287.8669999999999
 20
358.989
 30
0.0
 11
287.517
 21
338.8889999999999
 31
0.0
  0
LINE
  5
275
330
19
100
AcDbEntity
  8
PV
 62
     7
100
AcDbLine
 10
286.1829999999999
 20
338.8889999999999
 30
0.0
 11
406.7829999999999
 21
338.8889999999999
 31
0.0
  0
LINE
  5
276
330
19
100
AcDbEntity
  8
PV
 62
     7
100
AcDbLine
 10
405.1
 20
358.9859999999999
 30
0.0
 11
397.0699999999999
 21
435.3889999999999
 31
0.0
  0
LINE
  5
277
330
19
100
AcDbEntity
  8
PV
 62
     7
100
AcDbLine
 10
261.8709999999999
 20
439.3889999999999
 30
0.0
 11
261.8709999999999
 21
451.3889999999999
 31
0.0
  0
LINE
  5
278
330
19
100
AcDbEntity
  8
PV
 62
     7
100
AcDbLine
 10
291.096
 20
439.3889999999999
 30
0.0
 11
291.096
 21
451.3889999999999
 31
0.0
  0
LINE
  5
279
330
19
100
AcDbEntity
  8
PV
 62
     7
100
AcDbLine
 10
253.7529999999999
 20
468.3889999999999
 30
0.0
 11
253.7529999999999
 21
451.3889999999999
 31
0.0
  0
LINE
  5
27A
330
19
100
AcDbEntity
  8
PV
 62
     7
100
AcDbLine
 10
299.214
 20
468.3889999999999
 30
0.0
 11
299.214
 21
451.3889999999999
 31
0.0
  0
LINE
  5
27B
330
19
100
AcDbEntity
  8
PV
 62
     7
100
AcDbLine
 10
291.096
 20
480.3889999999999
 30
0.0
 11
291.096
 21
468.3889999999999
 31
0.0
  0
LINE
  5
27C
330
19
100
AcDbEntity
  8
PV
 62
     7
100
AcDbLine
 10
261.8709999999999
 20
480.3889999999999
 30
0.0
 11
261.8709999999999
 21
468.3889999999999
 31
0.0
  0
LINE
  5
27D
330
19
100
AcDbEntity
  8
PV
 62
     7
100
AcDbLine
 10
435.4829999999999
 20
333.889
 30
0.0
 11
435.4829999999999
 21
289.889
 31
0.0
  0
LINE
  5
27E
330
19
100
AcDbEntity
  8
PV
 62
     7
100
AcDbLine
 10
405.0989999999999
 20
358.989
 30
0.0
 11
405.4499999999999
 21
338.8889999999999
 31
0.0
  0
LINE
  5
27F
330
19
100
AcDbEntity
  8
PV
 62
     7
100
AcDbLine
 10
397.0699999999999
 20
435.3889999999999
 30
0.0
 11
295.8969999999999
 21
435.3889999999999
 31
0.0
  0
LINE
  5
280
330
19
100
AcDbEntity
  8
PV
 62
     7
100
AcDbLine
 10
425.483
 20
289.889
 30
0.0
 11
425.483
 21
289.389
 31
0.0
  0
LINE
  5
281
330
19
100
AcDbEntity
  8
PV
 62
     7
100
AcDbLine
 10
488.483
 20
267.389
 30
0.0
 11
425.483
 21
267.389
 31
0.0
  0
LINE
  5
282
330
19
100
AcDbEntity
  8
PV
 62
     7
100
AcDbLine
 10
435.191
 20
193.389
 30
0.0
 11
478.776
 21
193.389
 31
0.0
  0
LINE
  5
283
330
19
100
AcDbEntity
  8
PV
 62
     7
100
AcDbLine
 10
435.191
 20
193.389
 30
0.0
 11
433.483
 21
267.389
 31
0.0
  0
LINE
  5
284
330
19
100
AcDbEntity
  8
PV
 62
     7
100
AcDbLine
 10
478.776
 20
193.389
 30
0.0
 11
480.4829999999999
 21
267.389
 31
0.0
  0
LINE
  5
285
330
19
100
AcDbEntity
  8
PV
 62
     7
100
AcDbLine
 10
445.983
 20
193.389
 30
0.0
 11
447.169
 21
187.464
 31
0.0
  0
LINE
  5
286
330
19
100
AcDbEntity
  8
PV
 62
     7
100
AcDbLine
 10
467.9829999999999
 20
193.389
 30
0.0
 11
466.798
 21
187.464
 31
0.0
  0
LINE
  5
287
330
19
100
AcDbEntity
  8
PV
 62
     7
100
AcDbLine
 10
466.798
 20
187.464
 30
0.0
 11
466.798
 21
147.8889999999999
 31
0.0
  0
LINE
  5
288
330
19
100
AcDbEntity
  8
PV
 62
     7
100
AcDbLine
 10
447.169
 20
187.464
 30
0.0
 11
447.169
 21
147.8889999999999
 31
0.0
  0
LINE
  5
289
330
19
100
AcDbEntity
  8
PV
 62
     7
100
AcDbLine
 10
447.169
 20
147.8889999999999
 30
0.0
 11
466.798
 21
147.8889999999999
 31
0.0
  0
LINE
  5
28A
330
19
100
AcDbEntity
  8
PV
 62
     7
100
AcDbLine
 10
466.798
 20
187.889
 30
0.0
 11
447.169
 21
187.889
 31
0.0
  0
CIRCLE
  5
28B
330
19
100
AcDbEntity
  8
PV
 62
     7
100
AcDbCircle
 10
425.483
 20
327.254
 30
0.0
 40
3.5
  0
CIRCLE
  5
28C
330
19
100
AcDbEntity
  8
PV
 62
     7
100
AcDbCircle
 10
425.483
 20
295.5239999999999
 30
0.0
 40
3.5
  0
LINE
  5
28D
330
19
100
AcDbEntity
  8
PV
 62
     7
100
AcDbLine
 10
415.483
 20
333.889
 30
0.0
 11
415.483
 21
289.889
 31
0.0
  0
LINE
  5
28E
330
19
100
AcDbEntity
  8
PV
 62
     7
100
AcDbLine
 10
411.483
 20
334.389
 30
0.0
 11
411.483
 21
289.389
 31
0.0
  0
LINE
  5
28F
330
19
100
AcDbEntity
  8
PV
 62
     7
100
AcDbLine
 10
411.483
 20
334.389
 30
0.0
 11
196.483
 21
334.389
 31
0.0
  0
LINE
  5
290
330
19
100
AcDbEntity
  8
PV
 62
     7
100
AcDbLine
 10
196.483
 20
289.389
 30
0.0
 11
196.483
 21
288.389
 31
0.0
  0
LINE
  5
291
330
19
100
AcDbEntity
  8
PV
 62
     7
100
AcDbLine
 10
396.483
 20
288.389
 30
0.0
 11
396.483
 21
289.389
 31
0.0
  0
LINE
  5
292
330
19
100
AcDbEntity
  8
PV
 62
     7
100
AcDbLine
 10
196.483
 20
334.389
 30
0.0
 11
196.483
 21
164.389
 31
0.0
  0
LINE
  5
293
330
19
100
AcDbEntity
  8
PV
 62
     7
100
AcDbLine
 10
196.483
 20
128.389
 30
0.0
 11
210.483
 21
128.389
 31
0.0
  0
LINE
  5
294
330
19
100
AcDbEntity
  8
PV
 62
     7
100
AcDbLine
 10
210.483
 20
128.389
 30
0.0
 11
210.483
 21
138.389
 31
0.0
  0
LINE
  5
295
330
19
100
AcDbEntity
  8
PV
 62
     7
100
AcDbLine
 10
396.483
 20
128.389
 30
0.0
 11
382.483
 21
128.389
 31
0.0
  0
LINE
  5
296
330
19
100
AcDbEntity
  8
PV
 62
     7
100
AcDbLine
 10
382.483
 20
128.389
 30
0.0
 11
382.483
 21
138.389
 31
0.0
  0
LINE
  5
297
330
19
100
AcDbEntity
  8
PV
 62
     7
100
AcDbLine
 10
382.483
 20
138.389
 30
0.0
 11
210.483
 21
138.389
 31
0.0
  0
LINE
  5
298
330
19
100
AcDbEntity
  8
PV
 62
     7
100
AcDbLine
 10
256.483
 20
128.389
 30
0.0
 11
256.483
 21
138.389
 31
0.0
  0
LINE
  5
299
330
19
100
AcDbEntity
  8
PV
 62
     7
100
AcDbLine
 10
256.483
 20
128.389
 30
0.0
 11
336.4829999999999
 21
128.389
 31
0.0
  0
LINE
  5
29A
330
19
100
AcDbEntity
  8
PV
 62
     7
100
AcDbLine
 10
336.4829999999999
 20
128.389
 30
0.0
 11
336.4829999999999
 21
138.389
 31
0.0
  0
LINE
  5
29B
330
19
100
AcDbEntity
  8
PV
 62
     7
100
AcDbLine
 10
396.483
 20
289.389
 30
0.0
 11
396.483
 21
128.389
 31
0.0
  0
LINE
  5
29C
330
19
100
AcDbEntity
  8
PV
  6
CENTER
 62
     1
100
AcDbLine
 10
479.4179999999999
 20
311.889
 30
0.0
 11
497.9829999999999
 21
311.889
 31
0.0
  0
LINE
  5
29D
330
19
100
AcDbEntity
  8
PV
 62
     7
100
AcDbLine
 10
196.483
 20
289.389
 30
0.0
 11
411.483
 21
289.389
 31
0.0
  0
LINE
  5
29E
330
19
100
AcDbEntity
  8
PV
 62
     7
100
AcDbLine
 10
196.483
 20
288.389
 30
0.0
 11
396.483
 21
288.389
 31
0.0
  0
LINE
  5
29F
330
19
100
AcDbEntity
  8
PV
 62
     7
100
AcDbLine
 10
286.1829999999999
 20
334.389
 30
0.0
 11
286.1829999999999
 21
439.3889999999999
 31
0.0
  0
LINE
  5
2A0
330
19
100
AcDbEntity
  8
PV
 62
     7
100
AcDbLine
 10
266.7159999999999
 20
334.389
 30
0.0
 11
266.7159999999999
 21
439.3889999999999
 31
0.0
  0
LINE
  5
2A1
330
19
100
AcDbEntity
  8
PV
 62
     7
100
AcDbLine
 10
253.7529999999999
 20
451.3889999999999
 30
0.0
 11
299.214
 21
451.3889999999999
 31
0.0
  0
LINE
  5
2A2
330
19
100
AcDbEntity
  8
PV
 62
     7
100
AcDbLine
 10
291.096
 20
439.3889999999999
 30
0.0
 11
261.8709999999999
 21
439.3889999999999
 31
0.0
  0
LINE
  5
2A3
330
19
100
AcDbEntity
  8
PV
 62
     7
100
AcDbLine
 10
291.096
 20
480.3889999999999
 30
0.0
 11
261.8709999999999
 21
480.3889999999999
 31
0.0
  0
LINE
  5
2A4
330
19
100
AcDbEntity
  8
PV
 62
     7
100
AcDbLine
 10
253.7529999999999
 20
468.3889999999999
 30
0.0
 11
299.214
 21
468.3889999999999
 31
0.0
  0
LINE
  5
2A5
330
19
100
AcDbEntity
  8
PV
 62
     7
100
AcDbLine
 10
396.483
 20
283.889
 30
0.0
 11
425.3049999999999
 21
283.889
 31
0.0
  0
LINE
  5
2A6
330
19
100
AcDbEntity
  8
PV
 62
     7
100
AcDbLine
 10
336.4829999999999
 20
133.889
 30
0.0
 11
382.483
 21
133.889
 31
0.0
  0
LINE
  5
2A7
330
19
100
AcDbEntity
  8
PV
  6
CENTER
 62
     1
100
AcDbLine
 10
276.4829999999999
 20
485.3889999999999
 30
0.0
 11
276.4829999999999
 21
434.389
 31
0.0
  0
LINE
  5
2A8
330
19
100
AcDbEntity
  8
PV
 62
     7
100
AcDbLine
 10
196.483
 20
164.389
 30
0.0
 11
196.483
 21
128.389
 31
0.0
  0
LINE
  5
2A9
330
19
100
AcDbEntity
  8
PV
 62
     7
100
AcDbLine
 10
477.346
 20
415.889
 30
0.0
 11
436.6209999999999
 21
415.889
 31
0.0
  0
LINE
  5
2AA
330
19
100
AcDbEntity
  8
PV
 62
     7
100
AcDbLine
 10
477.346
 20
415.889
 30
0.0
 11
477.983
 21
379.389
 31
0.0
  0
LINE
  5
2AB
330
19
100
AcDbEntity
  8
PV
 62
     7
100
AcDbLine
 10
436.6209999999999
 20
415.889
 30
0.0
 11
435.984
 21
379.389
 31
0.0
  0
LINE
  5
2AC
330
19
100
AcDbEntity
  8
PV
 62
     7
100
AcDbLine
 10
477.983
 20
379.389
 30
0.0
 11
435.984
 21
379.389
 31
0.0
  0
LINE
  5
2AD
330
19
100
AcDbEntity
  8
PV
 62
     7
100
AcDbLine
 10
474.983
 20
379.389
 30
0.0
 11
474.983
 21
370.368
 31
0.0
  0
LINE
  5
2AE
330
19
100
AcDbEntity
  8
PV
 62
     7
100
AcDbLine
 10
438.9829999999999
 20
379.389
 30
0.0
 11
438.9829999999999
 21
370.368
 31
0.0
  0
LINE
  5
2AF
330
19
100
AcDbEntity
  8
PV
 62
     7
100
AcDbLine
 10
434.984
 20
370.368
 30
0.0
 11
478.983
 21
370.368
 31
0.0
  0
LINE
  5
2B0
330
19
100
AcDbEntity
  8
PV
 62
     7
100
AcDbLine
 10
478.983
 20
370.368
 30
0.0
 11
479.245
 21
362.868
 31
0.0
  0
LINE
  5
2B1
330
19
100
AcDbEntity
  8
PV
 62
     7
100
AcDbLine
 10
434.984
 20
370.368
 30
0.0
 11
434.722
 21
362.868
 31
0.0
  0
LINE
  5
2B2
330
19
100
AcDbEntity
  8
PV
 62
     7
100
AcDbLine
 10
425.483
 20
362.868
 30
0.0
 11
488.483
 21
362.868
 31
0.0
  0
LINE
  5
2B3
330
19
100
AcDbEntity
  8
PV
 62
     7
100
AcDbLine
 10
488.483
 20
267.389
 30
0.0
 11
488.483
 21
289.389
 31
0.0
  0
LINE
  5
2B4
330
19
100
AcDbEntity
  8
PV
 62
     7
100
AcDbLine
 10
425.483
 20
362.868
 30
0.0
 11
425.483
 21
357.389
 31
0.0
  0
LINE
  5
2B5
330
19
100
AcDbEntity
  8
PV
 62
     7
100
AcDbLine
 10
425.483
 20
347.868
 30
0.0
 11
488.483
 21
347.868
 31
0.0
  0
LINE
  5
2B6
330
19
100
AcDbEntity
  8
PV
 62
     7
100
AcDbLine
 10
488.483
 20
334.389
 30
0.0
 11
425.483
 21
334.389
 31
0.0
  0
LINE
  5
2B7
330
19
100
AcDbEntity
  8
PV
 62
     7
100
AcDbLine
 10
488.483
 20
289.389
 30
0.0
 11
425.483
 21
289.389
 31
0.0
  0
LINE
  5
2B8
330
19
100
AcDbEntity
  8
PV
  6
CENTER
 62
     1
100
AcDbLine
 10
456.983
 20
421.5469999999999
 30
0.0
 11
456.983
 21
142.2289999999999
 31
0.0
  0
LINE
  5
2B9
330
19
100
AcDbEntity
  8
PV
 62
     7
100
AcDbLine
 10
488.483
 20
275.5889999999999
 30
0.0
 11
425.483
 21
275.5889999999999
 31
0.0
  0
LINE
  5
2BA
330
19
100
AcDbEntity
  8
PV
 62
     7
100
AcDbLine
 10
488.483
 20
357.389
 30
0.0
 11
425.483
 21
357.389
 31
0.0
  0
LINE
  5
2BB
330
19
100
AcDbEntity
  8
PV
 62
     7
100
AcDbLine
 10
488.483
 20
357.389
 30
0.0
 11
488.483
 21
362.868
 31
0.0
  0
LINE
  5
2BC
330
19
100
AcDbEntity
  8
PV
 62
     7
100
AcDbLine
 10
425.483
 20
357.389
 30
0.0
 11
425.483
 21
334.389
 31
0.0
  0
LINE
  5
2BD
330
19
100
AcDbEntity
  8
PV
 62
     7
100
AcDbLine
 10
488.483
 20
289.389
 30
0.0
 11
488.483
 21
334.389
 31
0.0
  0
LINE
  5
2BE
330
19
100
AcDbEntity
  8
PV
 62
     7
100
AcDbLine
 10
488.483
 20
334.389
 30
0.0
 11
488.483
 21
357.389
 31
0.0
  0
LINE
  5
2BF
330
19
100
AcDbEntity
  8
PV
 62
     7
100
AcDbLine
 10
425.483
 20
334.389
 30
0.0
 11
425.483
 21
333.889
 31
0.0
  0
LINE
  5
2C0
330
19
100
AcDbEntity
  8
PV
 62
     7
100
AcDbLine
 10
425.483
 20
289.389
 30
0.0
 11
425.483
 21
267.389
 31
0.0
  0
LINE
  5
2C1
330
19
100
AcDbEntity
  8
PV
 62
     7
100
AcDbLine
 10
210.483
 20
133.889
 30
0.0
 11
256.483
 21
133.889
 31
0.0
  0
LINE
  5
2C2
330
19
100
AcDbEntity
  8
PV
 62
     7
100
AcDbLine
 10
406.4829999999999
 20
280.14
 30
0.0
 11
406.4829999999999
 21
262.639
 31
0.0
  0
LINE
  5
2C3
330
19
100
AcDbEntity
  8
PV
 62
     7
100
AcDbLine
 10
396.483
 20
280.14
 30
0.0
 11
406.4829999999999
 21
280.14
 31
0.0
  0
LINE
  5
2C4
330
19
100
AcDbEntity
  8
PV
 62
     7
100
AcDbLine
 10
396.483
 20
262.639
 30
0.0
 11
406.4829999999999
 21
262.639
 31
0.0
  0
LINE
  5
2C5
330
19
100
AcDbEntity
  8
PV
 62
     7
100
AcDbLine
 10
396.483
 20
155.1399999999999
 30
0.0
 11
406.4829999999999
 21
155.1399999999999
 31
0.0
  0
LINE
  5
2C6
330
19
100
AcDbEntity
  8
PV
 62
     7
100
AcDbLine
 10
396.483
 20
137.639
 30
0.0
 11
406.4829999999999
 21
137.639
 31
0.0
  0
LINE
  5
2C7
330
19
100
AcDbEntity
  8
PV
 62
     7
100
AcDbLine
 10
406.4829999999999
 20
155.1399999999999
 30
0.0
 11
406.4829999999999
 21
137.639
 31
0.0
  0
LINE
  5
2C8
330
19
100
AcDbEntity
  8
PV
 62
     7
100
AcDbLine
 10
194.4829999999999
 20
256.389
 30
0.0
 11
194.4829999999999
 21
132.389
 31
0.0
  0
LINE
  5
2C9
330
19
100
AcDbEntity
  8
PV
 62
     7
100
AcDbLine
 10
194.4829999999999
 20
132.389
 30
0.0
 11
196.483
 21
132.389
 31
0.0
  0
LINE
  5
2CA
330
19
100
AcDbEntity
  8
PV
 62
     7
100
AcDbLine
 10
194.4829999999999
 20
256.389
 30
0.0
 11
196.483
 21
256.389
 31
0.0
  0
LINE
  5
2CB
330
19
100
AcDbEntity
  8
PV
 62
     7
100
AcDbLine
 10
411.483
 20
333.889
 30
0.0
 11
435.4829999999999
 21
333.889
 31
0.0
  0
LINE
  5
2CC
330
19
100
AcDbEntity
  8
PV
 62
     7
100
AcDbLine
 10
411.483
 20
289.889
 30
0.0
 11
435.4829999999999
 21
289.889
 31
0.0
  0
LINE
  5
2CD
330
19
100
AcDbEntity
  8
PV
 62
     7
100
AcDbLine
 10
193.983
 20
194.389
 30
0.0
 11
193.983
 21
134.389
 31
0.0
  0
LINE
  5
2CE
330
19
100
AcDbEntity
  8
PV
 62
     7
100
AcDbLine
 10
193.983
 20
194.389
 30
0.0
 11
194.4829999999999
 21
194.389
 31
0.0
  0
LINE
  5
2CF
330
19
100
AcDbEntity
  8
PV
 62
     7
100
AcDbLine
 10
193.983
 20
134.389
 30
0.0
 11
194.4829999999999
 21
134.389
 31
0.0
  0
LINE
  5
2D0
330
19
100
AcDbEntity
  8
PV
 62
     7
100
AcDbLine
 10
190.3829999999999
 20
184.889
 30
0.0
 11
190.3829999999999
 21
177.889
 31
0.0
  0
LINE
  5
2D1
330
19
100
AcDbEntity
  8
PV
 62
     7
100
AcDbLine
 10
190.3829999999999
 20
184.889
 30
0.0
 11
193.983
 21
184.889
 31
0.0
  0
LINE
  5
2D2
330
19
100
AcDbEntity
  8
PV
 62
     7
100
AcDbLine
 10
190.3829999999999
 20
177.889
 30
0.0
 11
193.983
 21
177.889
 31
0.0
  0
LINE
  5
2D3
330
19
100
AcDbEntity
  8
PV
 62
     7
100
AcDbLine
 10
190.3829999999999
 20
143.889
 30
0.0
 11
193.983
 21
143.889
 31
0.0
  0
LINE
  5
2D4
330
19
100
AcDbEntity
  8
PV
 62
     7
100
AcDbLine
 10
190.3829999999999
 20
150.889
 30
0.0
 11
193.983
 21
150.889
 31
0.0
  0
LINE
  5
2D5
330
19
100
AcDbEntity
  8
PV
 62
     7
100
AcDbLine
 10
190.3829999999999
 20
150.889
 30
0.0
 11
190.3829999999999
 21
143.889
 31
0.0
  0
LINE
  5
2D6
330
19
100
AcDbEntity
  8
PV
 62
     7
100
AcDbLine
 10
406.7829999999999
 20
334.389
 30
0.0
 11
406.7829999999999
 21
338.8889999999999
 31
0.0
  0
LINE
  5
2D7
330
19
100
AcDbEntity
  8
PV
 62
     7
100
AcDbLine
 10
286.1829999999999
 20
334.389
 30
0.0
 11
286.1829999999999
 21
338.8889999999999
 31
0.0
  0
LINE
  5
2D8
330
19
100
AcDbEntity
  8
PV
 62
     7
100
AcDbLine
 10
190.483
 20
339.889
 30
0.0
 11
190.483
 21
338.0009999999999
 31
0.0
  0
LINE
  5
2D9
330
19
100
AcDbEntity
  8
PV
 62
     7
100
AcDbLine
 10
135.4829999999999
 20
339.889
 30
0.0
 11
135.4829999999999
 21
338.0009999999999
 31
0.0
  0
LINE
  5
2DA
330
19
100
AcDbEntity
  8
PV
 62
     7
100
AcDbLine
 10
192.983
 20
337.9129999999999
 30
0.0
 11
192.983
 21
236.8659999999999
 31
0.0
  0
LINE
  5
2DB
330
19
100
AcDbEntity
  8
PV
 62
     7
100
AcDbLine
 10
117.9829999999999
 20
337.389
 30
0.0
 11
117.9829999999999
 21
237.389
 31
0.0
  0
LINE
  5
2DC
330
19
100
AcDbEntity
  8
PV
 62
     7
100
AcDbLine
 10
117.9829999999999
 20
337.389
 30
0.0
 11
162.983
 21
338.961
 31
0.0
  0
LINE
  5
2DD
330
19
100
AcDbEntity
  8
PV
 62
     7
100
AcDbLine
 10
162.983
 20
338.961
 30
0.0
 11
163.1829999999999
 21
338.954
 31
0.0
  0
LINE
  5
2DE
330
19
100
AcDbEntity
  8
PV
 62
     7
100
AcDbLine
 10
135.4829999999999
 20
339.889
 30
0.0
 11
149.802
 21
340.389
 31
0.0
  0
LINE
  5
2DF
330
19
100
AcDbEntity
  8
PV
 62
     7
100
AcDbLine
 10
176.1649999999999
 20
340.389
 30
0.0
 11
190.483
 21
339.889
 31
0.0
  0
LINE
  5
2E0
330
19
100
AcDbEntity
  8
PV
 62
     7
100
AcDbLine
 10
117.9829999999999
 20
237.389
 30
0.0
 11
162.983
 21
235.8179999999999
 31
0.0
  0
LINE
  5
2E1
330
19
100
AcDbEntity
  8
PV
 62
     7
100
AcDbLine
 10
162.983
 20
235.8179999999999
 30
0.0
 11
192.983
 21
236.8659999999999
 31
0.0
  0
LINE
  5
2E2
330
19
100
AcDbEntity
  8
PV
 62
     7
100
AcDbLine
 10
136.983
 20
236.7259999999999
 30
0.0
 11
136.983
 21
202.389
 31
0.0
  0
LINE
  5
2E3
330
19
100
AcDbEntity
  8
PV
 62
     7
100
AcDbLine
 10
188.983
 20
236.7259999999999
 30
0.0
 11
188.983
 21
202.389
 31
0.0
  0
LINE
  5
2E4
330
19
100
AcDbEntity
  8
PV
 62
     7
100
AcDbLine
 10
188.983
 20
205.3889999999999
 30
0.0
 11
194.4829999999999
 21
205.3889999999999
 31
0.0
  0
LINE
  5
2E5
330
19
100
AcDbEntity
  8
PV
 62
     7
100
AcDbLine
 10
192.983
 20
270.389
 30
0.0
 11
194.4829999999999
 21
270.389
 31
0.0
  0
LINE
  5
2E6
330
19
100
AcDbEntity
  8
PV
 62
     7
100
AcDbLine
 10
136.983
 20
202.389
 30
0.0
 11
188.983
 21
202.389
 31
0.0
  0
LINE
  5
2E7
330
19
100
AcDbEntity
  8
PV
 62
     7
100
AcDbLine
 10
135.4829999999999
 20
340.389
 30
0.0
 11
190.483
 21
340.389
 31
0.0
  0
LINE
  5
2E8
330
19
100
AcDbEntity
  8
PV
 62
     7
100
AcDbLine
 10
194.4829999999999
 20
270.389
 30
0.0
 11
194.4829999999999
 21
205.3889999999999
 31
0.0
  0
LINE
  5
2E9
330
19
100
AcDbEntity
  8
PV
 62
     7
100
AcDbLine
 10
135.4829999999999
 20
350.389
 30
0.0
 11
137.3829999999999
 21
350.389
 31
0.0
  0
LINE
  5
2EA
330
19
100
AcDbEntity
  8
PV
 62
     7
100
AcDbLine
 10
140.483
 20
355.3889999999999
 30
0.0
 11
140.483
 21
351.689
 31
0.0
  0
LINE
  5
2EB
330
19
100
AcDbEntity
  8
PV
 62
     7
100
AcDbLine
 10
135.4829999999999
 20
350.389
 30
0.0
 11
135.4829999999999
 21
340.389
 31
0.0
  0
LINE
  5
2EC
330
19
100
AcDbEntity
  8
PV
 62
     7
100
AcDbLine
 10
185.4829999999999
 20
355.3889999999999
 30
0.0
 11
185.4829999999999
 21
350.389
 31
0.0
  0
LINE
  5
2ED
330
19
100
AcDbEntity
  8
PV
 62
     7
100
AcDbLine
 10
190.483
 20
350.389
 30
0.0
 11
190.483
 21
340.389
 31
0.0
  0
LINE
  5
2EE
330
19
100
AcDbEntity
  8
PV
 62
     7
100
AcDbLine
 10
135.4829999999999
 20
355.3889999999999
 30
0.0
 11
190.483
 21
355.3889999999999
 31
0.0
  0
LINE
  5
2EF
330
19
100
AcDbEntity
  8
PV
 62
     7
100
AcDbLine
 10
135.4829999999999
 20
376.3889999999999
 30
0.0
 11
190.483
 21
376.3889999999999
 31
0.0
  0
LINE
  5
2F0
330
19
100
AcDbEntity
  8
PV
 62
     7
100
AcDbLine
 10
135.4829999999999
 20
376.3889999999999
 30
0.0
 11
135.4829999999999
 21
361.389
 31
0.0
  0
LINE
  5
2F1
330
19
100
AcDbEntity
  8
PV
 62
     7
100
AcDbLine
 10
190.483
 20
376.3889999999999
 30
0.0
 11
190.483
 21
361.389
 31
0.0
  0
LINE
  5
2F2
330
19
100
AcDbEntity
  8
PV
 62
     7
100
AcDbLine
 10
135.4829999999999
 20
358.389
 30
0.0
 11
190.483
 21
358.389
 31
0.0
  0
LINE
  5
2F3
330
19
100
AcDbEntity
  8
PV
 62
     7
100
AcDbLine
 10
135.4829999999999
 20
361.389
 30
0.0
 11
190.483
 21
361.389
 31
0.0
  0
LINE
  5
2F4
330
19
100
AcDbEntity
  8
PV
 62
     7
100
AcDbLine
 10
137.983
 20
361.389
 30
0.0
 11
137.983
 21
360.389
 31
0.0
  0
LINE
  5
2F5
330
19
100
AcDbEntity
  8
PV
 62
     7
100
AcDbLine
 10
187.983
 20
361.389
 30
0.0
 11
187.983
 21
360.389
 31
0.0
  0
LINE
  5
2F6
330
19
100
AcDbEntity
  8
PV
 62
     7
100
AcDbLine
 10
135.4829999999999
 20
358.389
 30
0.0
 11
135.4829999999999
 21
355.3889999999999
 31
0.0
  0
LINE
  5
2F7
330
19
100
AcDbEntity
  8
PV
 62
     7
100
AcDbLine
 10
190.483
 20
358.389
 30
0.0
 11
190.483
 21
355.3889999999999
 31
0.0
  0
LINE
  5
2F8
330
19
100
AcDbEntity
  8
PV
 62
     7
100
AcDbLine
 10
136.983
 20
360.389
 30
0.0
 11
188.983
 21
360.389
 31
0.0
  0
ARC
  5
2F9
330
19
100
AcDbEntity
  8
PV
 62
     7
100
AcDbCircle
 10
136.983
 20
359.389
 30
0.0
 40
1.0
100
AcDbArc
 50
90.0
 51
270.0
  0
ARC
  5
2FA
330
19
100
AcDbEntity
  8
PV
 62
     7
100
AcDbCircle
 10
188.983
 20
359.389
 30
0.0
 40
1.0
100
AcDbArc
 50
270.0
 51
90.0
  0
LINE
  5
2FB
330
19
100
AcDbEntity
  8
PV
 62
     7
100
AcDbLine
 10
183.7829999999999
 20
339.389
 30
0.0
 11
163.1829999999999
 21
339.389
 31
0.0
  0
LINE
  5
2FC
330
19
100
AcDbEntity
  8
PV
 62
     7
100
AcDbLine
 10
183.7829999999999
 20
338.235
 30
0.0
 11
192.983
 21
337.9129999999999
 31
0.0
  0
LINE
  5
2FD
330
19
100
AcDbEntity
  8
PV
 62
     7
100
AcDbLine
 10
137.983
 20
198.389
 30
0.0
 11
187.983
 21
198.389
 31
0.0
  0
LINE
  5
2FE
330
19
100
AcDbEntity
  8
PV
 62
     7
100
AcDbLine
 10
137.983
 20
202.389
 30
0.0
 11
137.983
 21
198.389
 31
0.0
  0
LINE
  5
2FF
330
19
100
AcDbEntity
  8
PV
 62
     7
100
AcDbLine
 10
187.983
 20
202.389
 30
0.0
 11
187.983
 21
198.389
 31
0.0
  0
LINE
  5
300
330
19
100
AcDbEntity
  8
PV
 62
     7
100
AcDbLine
 10
187.583
 20
192.089
 30
0.0
 11
187.583
 21
198.389
 31
0.0
  0
LINE
  5
301
330
19
100
AcDbEntity
  8
PV
 62
     7
100
AcDbLine
 10
187.583
 20
192.089
 30
0.0
 11
178.3829999999999
 21
192.089
 31
0.0
  0
LINE
  5
302
330
19
100
AcDbEntity
  8
PV
 62
     7
100
AcDbLine
 10
178.3829999999999
 20
192.089
 30
0.0
 11
178.3829999999999
 21
198.389
 31
0.0
  0
LINE
  5
303
330
19
100
AcDbEntity
  8
PV
 62
     7
100
AcDbLine
 10
138.3829999999999
 20
192.089
 30
0.0
 11
138.3829999999999
 21
198.389
 31
0.0
  0
LINE
  5
304
330
19
100
AcDbEntity
  8
PV
 62
     7
100
AcDbLine
 10
147.583
 20
192.089
 30
0.0
 11
138.3829999999999
 21
192.089
 31
0.0
  0
LINE
  5
305
330
19
100
AcDbEntity
  8
PV
 62
     7
100
AcDbLine
 10
147.583
 20
192.089
 30
0.0
 11
147.583
 21
198.389
 31
0.0
  0
LINE
  5
306
330
19
100
AcDbEntity
  8
PV
 62
     7
100
AcDbLine
 10
192.983
 20
283.889
 30
0.0
 11
196.483
 21
283.889
 31
0.0
  0
CIRCLE
  5
307
330
19
100
AcDbEntity
  8
PV
 62
     7
100
AcDbCircle
 10
371.483
 20
271.389
 30
0.0
 40
3.0
  0
CIRCLE
  5
308
330
19
100
AcDbEntity
  8
PV
 62
     7
100
AcDbCircle
 10
221.483
 20
271.389
 30
0.0
 40
3.0
  0
CIRCLE
  5
309
330
19
100
AcDbEntity
  8
PV
 62
     7
100
AcDbCircle
 10
221.483
 20
146.389
 30
0.0
 40
3.0
  0
CIRCLE
  5
30A
330
19
100
AcDbEntity
  8
PV
 62
     7
100
AcDbCircle
 10
371.483
 20
146.389
 30
0.0
 40
3.0
  0
CIRCLE
  5
30B
330
19
100
AcDbEntity
  8
PV
 62
     7
100
AcDbCircle
 10
371.483
 20
271.389
 30
0.0
 40
8.0
  0
CIRCLE
  5
30C
330
19
100
AcDbEntity
  8
PV
 62
     7
100
AcDbCircle
 10
371.483
 20
146.389
 30
0.0
 40
8.0
  0
CIRCLE
  5
30D
330
19
100
AcDbEntity
  8
PV
 62
     7
100
AcDbCircle
 10
221.483
 20
146.389
 30
0.0
 40
8.0
  0
CIRCLE
  5
30E
330
19
100
AcDbEntity
  8
PV
 62
     7
100
AcDbCircle
 10
221.483
 20
271.389
 30
0.0
 40
8.0
  0
LINE
  5
30F
330
19
100
AcDbEntity
  8
PV
 62
     7
100
AcDbLine
 10
1112.65
 20
802.2009999999999
 30
0.0
 11
1128.65
 21
802.2009999999999
 31
0.0
  0
LINE
  5
310
330
19
100
AcDbEntity
  8
PV
 62
     7
100
AcDbLine
 10
1262.65
 20
802.2009999999999
 30
0.0
 11
1278.65
 21
802.2009999999999
 31
0.0
  0
LINE
  5
311
330
19
100
AcDbEntity
  8
PV
  6
CENTER
 62
     1
100
AcDbLine
 10
371.483
 20
284.389
 30
0.0
 11
371.483
 21
258.389
 31
0.0
  0
LINE
  5
312
330
19
100
AcDbEntity
  8
PV
  6
CENTER
 62
     1
100
AcDbLine
 10
221.483
 20
284.389
 30
0.0
 11
221.483
 21
258.389
 31
0.0
  0
LINE
  5
313
330
19
100
AcDbEntity
  8
PV
  6
CENTER
 62
     1
100
AcDbLine
 10
208.483
 20
271.389
 30
0.0
 11
234.4829999999999
 21
271.389
 31
0.0
  0
LINE
  5
314
330
19
100
AcDbEntity
  8
PV
  6
CENTER
 62
     1
100
AcDbLine
 10
208.483
 20
146.389
 30
0.0
 11
234.4829999999999
 21
146.389
 31
0.0
  0
LINE
  5
315
330
19
100
AcDbEntity
  8
PV
  6
CENTER
 62
     1
100
AcDbLine
 10
358.483
 20
271.389
 30
0.0
 11
384.4829999999999
 21
271.389
 31
0.0
  0
LINE
  5
316
330
19
100
AcDbEntity
  8
PV
  6
CENTER
 62
     1
100
AcDbLine
 10
371.483
 20
159.389
 30
0.0
 11
371.483
 21
133.389
 31
0.0
  0
LINE
  5
317
330
19
100
AcDbEntity
  8
PV
  6
CENTER
 62
     1
100
AcDbLine
 10
358.483
 20
146.389
 30
0.0
 11
384.4829999999999
 21
146.389
 31
0.0
  0
LINE
  5
318
330
19
100
AcDbEntity
  8
PV
  6
CENTER
 62
     1
100
AcDbLine
 10
221.483
 20
159.389
 30
0.0
 11
221.483
 21
133.389
 31
0.0
  0
LINE
  5
319
330
19
100
AcDbEntity
  8
PV
  6
CENTER
 62
     1
100
AcDbLine
 10
1120.65
 20
787.201
 30
0.0
 11
1120.65
 21
807.201
 31
0.0
  0
LINE
  5
31A
330
19
100
AcDbEntity
  8
PV
  6
CENTER
 62
     1
100
AcDbLine
 10
1270.65
 20
787.201
 30
0.0
 11
1270.65
 21
807.201
 31
0.0
  0
LINE
  5
31B
330
19
100
AcDbEntity
  8
PV
 62
     7
100
AcDbLine
 10
146.5829999999999
 20
351.689
 30
0.0
 11
146.5829999999999
 21
345.389
 31
0.0
  0
LINE
  5
31C
330
19
100
AcDbEntity
  8
PV
 62
     7
100
AcDbLine
 10
146.5829999999999
 20
351.689
 30
0.0
 11
137.3829999999999
 21
351.689
 31
0.0
  0
LINE
  5
31D
330
19
100
AcDbEntity
  8
PV
 62
     7
100
AcDbLine
 10
137.3829999999999
 20
351.689
 30
0.0
 11
137.3829999999999
 21
345.389
 31
0.0
  0
LINE
  5
31E
330
19
100
AcDbEntity
  8
PV
 62
     7
100
AcDbLine
 10
148.483
 20
345.389
 30
0.0
 11
135.4829999999999
 21
345.389
 31
0.0
  0
LINE
  5
31F
330
19
100
AcDbEntity
  8
PV
 62
     7
100
AcDbLine
 10
148.483
 20
350.389
 30
0.0
 11
148.483
 21
345.389
 31
0.0
  0
LINE
  5
320
330
19
100
AcDbEntity
  8
PV
 62
     7
100
AcDbLine
 10
146.5829999999999
 20
350.389
 30
0.0
 11
190.483
 21
350.389
 31
0.0
  0
POLYLINE
  5
321
330
19
100
AcDbEntity
  8
PV
 62
     7
100
AcDb2dPolyline
 66
     1
 10
0.0
 20
0.0
 30
0.0
  0
VERTEX
  5
353
330
321
100
AcDbEntity
  8
PV
 62
     7
100
AcDbVertex
100
AcDb2dVertex
 10
999.0060000000001
 20
320.9019999999999
 30
0.0
  0
VERTEX
  5
354
330
321
100
AcDbEntity
  8
PV
 62
     7
100
AcDbVertex
100
AcDb2dVertex
 10
996.334
 20
318.909
 30
0.0
  0
VERTEX
  5
355
330
321
100
AcDbEntity
  8
PV
 62
     7
100
AcDbVertex
100
AcDb2dVertex
 10
1003.65
 20
311.889
 30
0.0
  0
VERTEX
  5
356
330
321
100
AcDbEntity
  8
PV
 62
     7
100
AcDbVertex
100
AcDb2dVertex
 10
999.0060000000001
 20
320.9019999999999
 30
0.0
  0
SEQEND
  5
357
330
321
100
AcDbEntity
  8
PV
 62
     7
  0
LINE
  5
327
330
19
100
AcDbEntity
  8
PV
 62
     7
100
AcDbLine
 10
997.6699999999999
 20
319.9049999999999
 30
0.0
 11
973.503
 21
352.308
 31
0.0
  0
LINE
  5
328
330
19
100
AcDbEntity
  8
PV
 62
     7
100
AcDbLine
 10
973.503
 20
352.308
 30
0.0
 11
963.503
 21
352.308
 31
0.0
  0
LINE
  5
329
330
19
100
AcDbEntity
  8
PV
 62
     7
100
AcDbLine
 10
963.503
 20
352.308
 30
0.0
 11
876.72
 21
352.308
 31
0.0
  0
POLYLINE
  5
32A
330
19
100
AcDbEntity
  8
PV
 62
     7
100
AcDb2dPolyline
 66
     1
 10
0.0
 20
0.0
 30
0.0
  0
VERTEX
  5
358
330
32A
100
AcDbEntity
  8
PV
 62
     7
100
AcDbVertex
100
AcDb2dVertex
 10
1223.9
 20
486.282
 30
0.0
  0
VERTEX
  5
359
330
32A
100
AcDbEntity
  8
PV
 62
     7
100
AcDbVertex
100
AcDb2dVertex
 10
1221.54
 20
488.639
 30
0.0
  0
VERTEX
  5
35A
330
32A
100
AcDbEntity
  8
PV
 62
     7
100
AcDbVertex
100
AcDb2dVertex
 10
1215.65
 20
480.3889999999999
 30
0.0
  0
VERTEX
  5
35B
330
32A
100
AcDbEntity
  8
PV
 62
     7
100
AcDbVertex
100
AcDb2dVertex
 10
1223.9
 20
486.282
 30
0.0
  0
SEQEND
  5
35C
330
32A
100
AcDbEntity
  8
PV
 62
     7
  0
LINE
  5
330
330
19
100
AcDbEntity
  8
PV
 62
     7
100
AcDbLine
 10
1222.72
 20
487.461
 30
0.0
 11
1251.0
 21
515.7449999999999
 31
0.0
  0
LINE
  5
331
330
19
100
AcDbEntity
  8
PV
 62
     7
100
AcDbLine
 10
1251.0
 20
515.7449999999999
 30
0.0
 11
1261.0
 21
515.7449999999999
 31
0.0
  0
LINE
  5
332
330
19
100
AcDbEntity
  8
PV
 62
     7
100
AcDbLine
 10
1261.0
 20
515.7449999999999
 30
0.0
 11
1382.789999999999
 21
515.7449999999999
 31
0.0
  0
TEXT
  5
333
330
19
100
AcDbEntity
  8
PV
 62
     7
100
AcDbText
 10
675.5746
 20
557.2409999999999
 30
0.0
 40
10.0
  1
DRIP MONITOR 
 41
0.948718
  7
FONT1
100
AcDbText
  0
TEXT
  5
334
330
19
100
AcDbEntity
  8
PV
 62
     7
100
AcDbText
 10
760.7607
 20
557.2409999999999
 30
0.0
 40
10.0
  1
AMP
  7
FONT1
100
AcDbText
  0
TEXT
  5
335
330
19
100
AcDbEntity
  8
PV
 62
     7
100
AcDbText
 10
181.8753
 20
678.9179999999999
 30
0.0
 40
10.0
  1
MODEL No.
 41
0.9259999999999999
  7
FONT1
100
AcDbText
  0
TEXT
  5
336
330
19
100
AcDbEntity
  8
PV
 62
     7
100
AcDbText
 10
181.8750999999999
 20
653.9179999999999
 30
0.0
 40
10.0
  1
MC5-A2L2-3D110
 41
0.9404759999999999
  7
FONT1
100
AcDbText
  0
TEXT
  5
337
330
19
100
AcDbEntity
  8
PV
 62
     7
100
AcDbText
 10
181.8756999999999
 20
628.9179999999999
 30
0.0
 40
10.0
  1
DXF.No.TM0501
 41
0.9375829999999998
  7
FONT1
100
AcDbText
  0
TEXT
  5
339
330
19
100
AcDbEntity
  8
0
100
AcDbText
 10
828.2973249999999
 20
363.0158629999999
 30
0.0
 40
10.0
  1
AIR IN PORT Rc3/8
100
AcDbText
  0
TEXT
  5
33A
330
19
100
AcDbEntity
  8
0
100
AcDbText
 10
1244.358038
 20
523.5070869999999
 30
0.0
 40
10.0
  1
FOG OUT PORT Rc1/2
100
AcDbText
  0
ENDSEC
  0
SECTION
  2
OBJECTS
  0
DICTIONARY
  5
C
330
0
100
AcDbDictionary
  3
ACAD_GROUP
350
D
  3
ACAD_LAYOUT
350
347
  3
ACAD_MLINESTYLE
350
E
  3
ACAD_PLOTSETTINGS
350
348
1001
ACAD
1000
TREAT_AS_HARD
1070
     0
  0
DICTIONARY
  5
351
330
19
100
AcDbDictionary
  3
ACAD_LAYOUTSELFREF
350
352
  0
DICTIONARY
  5
34F
330
16
100
AcDbDictionary
  3
ACAD_LAYOUTSELFREF
350
350
  0
DICTIONARY
  5
D
102
{ACAD_REACTORS
330
C
102
}
330
0
100
AcDbDictionary
1001
ACAD
1000
TREAT_AS_HARD
1070
     0
  0
DICTIONARY
  5
347
102
{ACAD_REACTORS
330
C
102
}
330
C
100
AcDbDictionary
1001
ACAD
1000
TREAT_AS_HARD
1070
     0
  0
DICTIONARY
  5
E
102
{ACAD_REACTORS
330
C
102
}
330
0
100
AcDbDictionary
  3
STANDARD
350
1C
1001
ACAD
1000
TREAT_AS_HARD
1070
     0
  0
DICTIONARY
  5
348
102
{ACAD_REACTORS
330
C
102
}
330
C
100
AcDbDictionary
1001
ACAD
1000
TREAT_AS_HARD
1070
     0
  0
XRECORD
  5
352
102
{ACAD_REACTORS
330
351
102
}
330
351
100
AcDbXrecord
340
19
  0
XRECORD
  5
350
102
{ACAD_REACTORS
330
34F
102
}
330
34F
100
AcDbXrecord
340
16
  0
MLINESTYLE
  5
1C
102
{ACAD_REACTORS
330
E
102
}
330
0
100
AcDbMlineStyle
  2
STANDARD
 70
     0
  3

 62
     0
 51
90.0
 52
90.0
 71
     2
 49
0.5
 62
   256
  6
BYLAYER
 49
-0.5
 62
   256
  6
BYLAYER
  0
ENDSEC
  0
EOF
