  0
SECTION
  2
HEADER
  9
$ACADVER
  1
AC1012
  9
$DWGCODEPAGE
  3
dos932
  9
$INSBASE
 10
0.0
 20
0.0
 30
0.0
  9
$EXTMIN
 10
-38.673718
 20
108.489854
 30
-5.17203
  9
$EXTMAX
 10
842.978388
 20
807.915382
 30
5.0037
  9
$LIMMIN
 10
0.0
 20
0.0
  9
$LIMMAX
 10
420.0
 20
297.0
  9
$ORTHOMODE
 70
     1
  9
$REGENMODE
 70
     1
  9
$FILLMODE
 70
     1
  9
$QTEXTMODE
 70
     0
  9
$MIRRTEXT
 70
     1
  9
$DRAGMODE
 70
     2
  9
$LTSCALE
 40
2.0
  9
$OSMODE
 70
  1023
  9
$ATTMODE
 70
     1
  9
$TEXTSIZE
 40
1.4
  9
$TRACEWID
 40
0.05
  9
$TEXTSTYLE
  7
STANDARD
  9
$CLAYER
  8
L-ZISSEN
  9
$CELTYPE
  6
BYLAYER
  9
$CECOLOR
 62
   256
  9
$CELTSCALE
 40
1.0
  9
$DELOBJ
 70
     1
  9
$DISPSILH
 70
     0
  9
$DIMSCALE
 40
3.0
  9
$DIMASZ
 40
2.0
  9
$DIMEXO
 40
1.0
  9
$DIMDLI
 40
0.38
  9
$DIMRND
 40
0.0
  9
$DIMDLE
 40
0.0
  9
$DIMEXE
 40
1.0
  9
$DIMTP
 40
0.0
  9
$DIMTM
 40
0.0
  9
$DIMTXT
 40
2.8
  9
$DIMCEN
 40
0.09
  9
$DIMTSZ
 40
0.0
  9
$DIMTOL
 70
     0
  9
$DIMLIM
 70
     0
  9
$DIMTIH
 70
     0
  9
$DIMTOH
 70
     0
  9
$DIMSE1
 70
     0
  9
$DIMSE2
 70
     0
  9
$DIMTAD
 70
     1
  9
$DIMZIN
 70
     8
  9
$DIMBLK
  1

  9
$DIMASO
 70
     1
  9
$DIMSHO
 70
     0
  9
$DIMPOST
  1

  9
$DIMAPOST
  1

  9
$DIMALT
 70
     0
  9
$DIMALTD
 70
     2
  9
$DIMALTF
 40
25.4
  9
$DIMLFAC
 40
1.0
  9
$DIMTOFL
 70
     1
  9
$DIMTVP
 40
0.0
  9
$DIMTIX
 70
     1
  9
$DIMSOXD
 70
     0
  9
$DIMSAH
 70
     0
  9
$DIMBLK1
  1

  9
$DIMBLK2
  1

  9
$DIMSTYLE
  2
STANDARD
  9
$DIMCLRD
 70
     0
  9
$DIMCLRE
 70
     0
  9
$DIMCLRT
 70
     0
  9
$DIMTFAC
 40
1.0
  9
$DIMGAP
 40
0.8
  9
$DIMJUST
 70
     0
  9
$DIMSD1
 70
     0
  9
$DIMSD2
 70
     0
  9
$DIMTOLJ
 70
     1
  9
$DIMTZIN
 70
     0
  9
$DIMALTZ
 70
     0
  9
$DIMALTTZ
 70
     0
  9
$DIMFIT
 70
     3
  9
$DIMUPT
 70
     0
  9
$DIMUNIT
 70
     2
  9
$DIMDEC
 70
     3
  9
$DIMTDEC
 70
     4
  9
$DIMALTU
 70
     2
  9
$DIMALTTD
 70
     2
  9
$DIMTXSTY
  7
STANDARD
  9
$DIMAUNIT
 70
     0
  9
$LUNITS
 70
     2
  9
$LUPREC
 70
     4
  9
$SKETCHINC
 40
0.1
  9
$FILLETRAD
 40
0.4
  9
$AUNITS
 70
     0
  9
$AUPREC
 70
     0
  9
$MENU
  1
acad
  9
$ELEVATION
 40
0.0
  9
$PELEVATION
 40
0.0
  9
$THICKNESS
 40
0.0
  9
$LIMCHECK
 70
     0
  9
$BLIPMODE
 70
     1
  9
$CHAMFERA
 40
0.0
  9
$CHAMFERB
 40
0.0
  9
$CHAMFERC
 40
0.0
  9
$CHAMFERD
 40
0.0
  9
$SKPOLY
 70
     0
  9
$TDCREATE
 40
2450214.232181597
  9
$TDUPDATE
 40
2452387.673007638
  9
$TDINDWG
 40
15.5285269676
  9
$TDUSRTIMER
 40
15.5285269676
  9
$USRTIMER
 70
     1
  9
$ANGBASE
 50
0.0
  9
$ANGDIR
 70
     0
  9
$PDMODE
 70
     0
  9
$PDSIZE
 40
0.0
  9
$PLINEWID
 40
0.0
  9
$COORDS
 70
     2
  9
$SPLFRAME
 70
     0
  9
$SPLINETYPE
 70
     6
  9
$SPLINESEGS
 70
     8
  9
$ATTDIA
 70
     0
  9
$ATTREQ
 70
     1
  9
$HANDLING
 70
     1
  9
$HANDSEED
  5
14F82
  9
$SURFTAB1
 70
     6
  9
$SURFTAB2
 70
     6
  9
$SURFTYPE
 70
     6
  9
$SURFU
 70
     6
  9
$SURFV
 70
     6
  9
$UCSNAME
  2

  9
$UCSORG
 10
0.0
 20
0.0
 30
0.0
  9
$UCSXDIR
 10
1.0
 20
0.0
 30
0.0
  9
$UCSYDIR
 10
0.0
 20
1.0
 30
0.0
  9
$PUCSNAME
  2

  9
$PUCSORG
 10
0.0
 20
0.0
 30
0.0
  9
$PUCSXDIR
 10
1.0
 20
0.0
 30
0.0
  9
$PUCSYDIR
 10
0.0
 20
1.0
 30
0.0
  9
$USERI1
 70
     0
  9
$USERI2
 70
     0
  9
$USERI3
 70
     0
  9
$USERI4
 70
     0
  9
$USERI5
 70
     0
  9
$USERR1
 40
0.0
  9
$USERR2
 40
0.0
  9
$USERR3
 40
0.0
  9
$USERR4
 40
0.0
  9
$USERR5
 40
0.0
  9
$WORLDVIEW
 70
     1
  9
$SHADEDGE
 70
     3
  9
$SHADEDIF
 70
    70
  9
$TILEMODE
 70
     1
  9
$MAXACTVP
 70
    16
  9
$PINSBASE
 10
0.0
 20
0.0
 30
0.0
  9
$PLIMCHECK
 70
     0
  9
$PEXTMIN
 10
1.000000E+20
 20
1.000000E+20
 30
1.000000E+20
  9
$PEXTMAX
 10
-1.000000E+20
 20
-1.000000E+20
 30
-1.000000E+20
  9
$PLIMMIN
 10
0.0
 20
0.0
  9
$PLIMMAX
 10
12.0
 20
9.0
  9
$UNITMODE
 70
     0
  9
$VISRETAIN
 70
     0
  9
$PLINEGEN
 70
     0
  9
$PSLTSCALE
 70
     0
  9
$TREEDEPTH
 70
  3020
  9
$PICKSTYLE
 70
     1
  9
$CMLSTYLE
  2
STANDARD
  9
$CMLJUST
 70
     0
  9
$CMLSCALE
 40
1.0
  9
$SAVEIMAGES
 70
     1
  0
ENDSEC
  0
SECTION
  2
CLASSES
  0
CLASS
  1
LWPOLYLINE
  2
AcDbPolyline
  3
"AutoCAD"
 90
    32768
280
     1
281
     1
  0
ENDSEC
  0
SECTION
  2
TABLES
  0
TABLE
  2
VPORT
  5
12
100
AcDbSymbolTable
 70
     2
  0
VPORT
  5
14F81
100
AcDbSymbolTableRecord
100
AcDbViewportTableRecord
  2
*ACTIVE
 70
     0
 10
0.0
 20
0.0
 11
1.0
 21
1.0
 12
570.927064
 22
503.691192
 13
0.0
 23
0.0
 14
1.0
 24
1.0
 15
0.0
 25
0.0
 16
0.0
 26
0.0
 36
1.0
 17
0.0
 27
0.0
 37
0.0
 40
1007.900461
 41
1.599034
 42
50.0
 43
0.0
 44
0.0
 50
0.0
 51
0.0
 71
     0
 72
   100
 73
     1
 74
     0
 75
     0
 76
     0
 77
     0
 78
     2
  0
ENDTAB
  0
TABLE
  2
LTYPE
  5
E
100
AcDbSymbolTable
 70
     2
  0
LTYPE
  5
F
100
AcDbSymbolTableRecord
100
AcDbLinetypeTableRecord
  2
BYBLOCK
 70
     0
  3

 72
    65
 73
     0
 40
0.0
  0
LTYPE
  5
6
100
AcDbSymbolTableRecord
100
AcDbLinetypeTableRecord
  2
BYLAYER
 70
     0
  3

 72
    65
 73
     0
 40
0.0
  0
LTYPE
  5
5
100
AcDbSymbolTableRecord
100
AcDbLinetypeTableRecord
  2
CONTINUOUS
 70
     0
  3
Solid line
 72
    65
 73
     0
 40
0.0
  0
LTYPE
  5
32
100
AcDbSymbolTableRecord
100
AcDbLinetypeTableRecord
  2
CENTER
 70
     0
  3
----- - ----- - ----- - ----- - ----- - -----
 72
    65
 73
     4
 40
35.0
 49
30.0
 74
     0
 49
-1.5
 74
     0
 49
2.0
 74
     0
 49
-1.5
 74
     0
  0
ENDTAB
  0
TABLE
  2
LAYER
  5
B
100
AcDbSymbolTable
 70
     4
  0
LAYER
  5
4
100
AcDbSymbolTableRecord
100
AcDbLayerTableRecord
  2
0
 70
     0
 62
     2
  6
CONTINUOUS
  0
LAYER
  5
1B
100
AcDbSymbolTableRecord
100
AcDbLayerTableRecord
  2
SUNPOU
 70
     0
 62
     3
  6
CONTINUOUS
  0
LAYER
  5
20
100
AcDbSymbolTableRecord
100
AcDbLayerTableRecord
  2
L-ZISSEN
 70
     0
 62
     7
  6
CONTINUOUS
  0
LAYER
  5
31
100
AcDbSymbolTableRecord
100
AcDbLayerTableRecord
  2
L-TYUSIN
 70
     0
 62
     1
  6
CENTER
  0
ENDTAB
  0
TABLE
  2
STYLE
  5
C
100
AcDbSymbolTable
 70
     1
  0
STYLE
  5
D
100
AcDbSymbolTableRecord
100
AcDbTextStyleTableRecord
  2
STANDARD
 70
     0
 40
0.0
 41
0.8
 50
0.0
 71
     0
 42
1.4
  3
SIMPLEX
  4
BIGFONT
  0
ENDTAB
  0
TABLE
  2
VIEW
  5
10
100
AcDbSymbolTable
 70
     0
  0
ENDTAB
  0
TABLE
  2
UCS
  5
11
100
AcDbSymbolTable
 70
     0
  0
ENDTAB
  0
TABLE
  2
APPID
  5
14
100
AcDbSymbolTable
 70
     1
  0
APPID
  5
15
100
AcDbSymbolTableRecord
100
AcDbRegAppTableRecord
  2
ACAD
 70
     0
  0
ENDTAB
  0
TABLE
  2
DIMSTYLE
  5
16
100
AcDbSymbolTable
 70
     1
  0
DIMSTYLE
105
1D
100
AcDbSymbolTableRecord
100
AcDbDimStyleTableRecord
  2
STANDARD
 70
     0
  3

  4

  5

  6

  7

 40
1.0
 41
0.18
 42
0.0625
 43
0.38
 44
0.18
 45
0.0
 46
0.0
 47
0.0
 48
0.0
140
0.18
141
0.09
142
0.0
143
25.4
144
1.0
145
0.0
146
1.0
147
0.09
 71
     0
 72
     0
 73
     1
 74
     1
 75
     0
 76
     0
 77
     0
 78
     0
170
     0
171
     2
172
     0
173
     0
174
     0
175
     0
176
     0
177
     0
178
     0
270
     2
271
     4
272
     4
273
     2
274
     2
340
D
275
     0
280
     0
281
     0
282
     0
283
     1
284
     0
285
     0
286
     0
287
     3
288
     0
  0
ENDTAB
  0
TABLE
  2
BLOCK_RECORD
  5
1
100
AcDbSymbolTable
 70
     0
  0
BLOCK_RECORD
  5
2
100
AcDbSymbolTableRecord
100
AcDbBlockTableRecord
  2
*MODEL_SPACE
  0
BLOCK_RECORD
  5
8
100
AcDbSymbolTableRecord
100
AcDbBlockTableRecord
  2
*PAPER_SPACE
  0
ENDTAB
  0
ENDSEC
  0
SECTION
  2
BLOCKS
  0
BLOCK
  5
3
100
AcDbEntity
  8
0
100
AcDbBlockBegin
  2
*MODEL_SPACE
 70
     0
 10
0.0
 20
0.0
 30
0.0
  3
*MODEL_SPACE
  1

  0
ENDBLK
  5
7
100
AcDbEntity
  8
0
100
AcDbBlockEnd
  0
BLOCK
  5
9
100
AcDbEntity
 67
     1
  8
0
100
AcDbBlockBegin
  2
*PAPER_SPACE
 70
     0
 10
0.0
 20
0.0
 30
0.0
  3
*PAPER_SPACE
  1

  0
ENDBLK
  5
A
100
AcDbEntity
 67
     1
  8
0
100
AcDbBlockEnd
  0
ENDSEC
  0
SECTION
  2
ENTITIES
  0
TEXT
  5
4C6B
100
AcDbEntity
  8
SUNPOU
100
AcDbText
 10
1551.100455
 20
1329.969196
 30
0.0
 40
8.0
  1

 41
0.8
100
AcDbText
  0
TEXT
  5
13AEE
100
AcDbEntity
  8
SUNPOU
100
AcDbText
 10
2811.100454
 20
1329.969196
 30
0.0
 40
8.0
  1

 41
0.8
100
AcDbText
  0
TEXT
  5
13C8C
100
AcDbEntity
  8
SUNPOU
100
AcDbText
 10
2752.608723
 20
2545.742103
 30
0.0
 40
8.0
  1

 41
0.8
100
AcDbText
  0
LINE
  5
1403F
100
AcDbEntity
  8
L-ZISSEN
100
AcDbLine
 10
516.4846
 20
376.103312
 30
0.0
 11
512.478698
 21
452.540477
 31
0.0
  0
LINE
  5
14040
100
AcDbEntity
  8
L-ZISSEN
100
AcDbLine
 10
398.89586
 20
376.103312
 30
0.0
 11
402.901762
 21
452.540477
 31
0.0
  0
CIRCLE
  5
14055
100
AcDbEntity
  8
L-ZISSEN
100
AcDbCircle
 10
368.49023
 20
167.340477
 30
0.0
 40
5.0
  0
LINE
  5
14059
100
AcDbEntity
  8
L-ZISSEN
100
AcDbLine
 10
318.49023
 20
302.340477
 30
0.0
 11
318.49023
 21
152.340477
 31
0.0
  0
LINE
  5
1405A
100
AcDbEntity
  8
L-ZISSEN
100
AcDbLine
 10
298.49023
 20
152.340477
 30
0.0
 11
298.49023
 21
170.840477
 31
0.0
  0
LINE
  5
1405B
100
AcDbEntity
  8
L-ZISSEN
100
AcDbLine
 10
316.49023
 20
300.340477
 30
0.0
 11
316.49023
 21
152.340477
 31
0.0
  0
LINE
  5
1405C
100
AcDbEntity
  8
L-ZISSEN
100
AcDbLine
 10
648.49023
 20
302.340477
 30
0.0
 11
648.49023
 21
152.340477
 31
0.0
  0
LINE
  5
1405D
100
AcDbEntity
  8
L-ZISSEN
100
AcDbLine
 10
668.49023
 20
152.340477
 30
0.0
 11
668.49023
 21
170.840477
 31
0.0
  0
LINE
  5
1405E
100
AcDbEntity
  8
L-ZISSEN
100
AcDbLine
 10
650.49023
 20
300.340477
 30
0.0
 11
650.49023
 21
152.340477
 31
0.0
  0
LINE
  5
14061
100
AcDbEntity
  8
L-ZISSEN
100
AcDbLine
 10
648.49023
 20
158.340477
 30
0.0
 11
318.49023
 21
158.340477
 31
0.0
  0
LEADER
  5
14062
100
AcDbEntity
  8
L-ZISSEN
100
AcDbLeader
  3
STANDARD
 76
     3
 10
364.315371
 20
164.589014
 30
0.0
 10
263.133424
 20
108.489854
 30
0.0
 10
185.852142
 20
108.489854
 30
0.0
 77
   256
1001
ACAD
1000
DSTYLE
1002
{
1070
    78
1070
     8
1070
   140
1040
2.8
1070
    74
1070
     0
1070
   172
1070
     1
1070
   174
1070
     1
1070
    73
1070
     0
1070
    77
1070
     1
1070
    40
1040
3.0
1070
   147
1040
0.8
1070
    42
1040
1.0
1070
    44
1040
1.0
1070
   271
1070
     3
1070
    41
1040
2.0
1002
}
1000
LEANOF
1010
0.0
1020
0.0
1030
0.0
  0
TEXT
  5
14063
100
AcDbEntity
  8
L-ZISSEN
100
AcDbText
 10
187.365623
 20
113.385212
 30
0.0
 40
4.5
  1
M／Lドレンポート
 72
     2
 11
231.851337
 21
112.785212
 31
0.0
100
AcDbText
 73
     1
  0
TEXT
  5
14065
100
AcDbEntity
  8
L-ZISSEN
100
AcDbText
 10
236.484374
 20
113.584143
 30
0.0
 40
4.5
  1
Rc1／8
 72
     2
 11
256.670088
 21
112.984143
 31
0.0
100
AcDbText
 73
     1
  0
LINE
  5
14067
100
AcDbEntity
  8
L-ZISSEN
100
AcDbLine
 10
318.49023
 20
155.340477
 30
0.0
 11
316.49023
 21
155.340477
 31
0.0
  0
LINE
  5
14069
100
AcDbEntity
  8
L-ZISSEN
100
AcDbLine
 10
318.49023
 20
152.340477
 30
0.0
 11
298.49023
 21
152.340477
 31
0.0
  0
LINE
  5
14070
100
AcDbEntity
  8
L-ZISSEN
100
AcDbLine
 10
648.49023
 20
152.340477
 30
0.0
 11
668.49023
 21
152.340477
 31
0.0
  0
LINE
  5
14071
100
AcDbEntity
  8
L-ZISSEN
100
AcDbLine
 10
648.49023
 20
155.340477
 30
0.0
 11
650.49023
 21
155.340477
 31
0.0
  0
LINE
  5
14075
100
AcDbEntity
  8
L-ZISSEN
100
AcDbLine
 10
353.421134
 20
300.340477
 30
0.0
 11
648.49023
 21
300.340477
 31
0.0
  0
LINE
  5
14076
100
AcDbEntity
  8
L-ZISSEN
  6
CONTINUOUS
100
AcDbLine
 10
363.862472
 20
306.540477
 30
0.0
 11
515.49023
 21
306.540477
 31
0.0
  0
LINE
  5
14077
100
AcDbEntity
  8
L-ZISSEN
  6
CONTINUOUS
100
AcDbLine
 10
517.99023
 20
351.540477
 30
0.0
 11
375.99023
 21
351.540477
 31
0.0
  0
LINE
  5
14078
100
AcDbEntity
  8
L-ZISSEN
  6
CONTINUOUS
100
AcDbLine
 10
504.49023
 20
348.540477
 30
0.0
 11
375.99023
 21
348.540477
 31
0.0
  0
LINE
  5
14079
100
AcDbEntity
  8
L-ZISSEN
  6
CONTINUOUS
100
AcDbLine
 10
375.99023
 20
312.540477
 30
0.0
 11
504.49023
 21
312.540477
 31
0.0
  0
LINE
  5
1407C
100
AcDbEntity
  8
L-ZISSEN
100
AcDbLine
 10
663.49023
 20
306.540477
 30
0.0
 11
363.862472
 21
306.540477
 31
0.0
  0
LINE
  5
1407D
100
AcDbEntity
  8
L-ZISSEN
100
AcDbLine
 10
663.49023
 20
303.340477
 30
0.0
 11
360.420527
 21
303.340477
 31
0.0
  0
LINE
  5
1407E
100
AcDbEntity
  8
L-ZISSEN
100
AcDbLine
 10
663.49023
 20
302.340477
 30
0.0
 11
358.847492
 21
302.340477
 31
0.0
  0
CIRCLE
  5
1407F
100
AcDbEntity
  8
L-ZISSEN
100
AcDbCircle
 10
349.99023
 20
318.010477
 30
0.0
 40
18.0
  0
LINE
  5
14082
100
AcDbEntity
  8
L-ZISSEN
100
AcDbLine
 10
303.49023
 20
300.340477
 30
0.0
 11
303.49023
 21
306.540477
 31
0.0
  0
CIRCLE
  5
14085
100
AcDbEntity
  8
L-ZISSEN
100
AcDbCircle
 10
356.49023
 20
234.840477
 30
0.0
 40
2.75
  0
CIRCLE
  5
14086
100
AcDbEntity
  8
L-ZISSEN
100
AcDbCircle
 10
330.49023
 20
234.840477
 30
0.0
 40
2.75
  0
LINE
  5
14087
100
AcDbEntity
  8
L-ZISSEN
100
AcDbLine
 10
326.99023
 20
187.840477
 30
0.0
 11
326.99023
 21
281.840477
 31
0.0
  0
LINE
  5
14088
100
AcDbEntity
  8
L-ZISSEN
100
AcDbLine
 10
359.99023
 20
281.840477
 30
0.0
 11
359.99023
 21
187.840477
 31
0.0
  0
LINE
  5
14089
100
AcDbEntity
  8
L-ZISSEN
100
AcDbLine
 10
336.74023
 20
187.840477
 30
0.0
 11
336.74023
 21
281.840477
 31
0.0
  0
LINE
  5
1408A
100
AcDbEntity
  8
L-ZISSEN
100
AcDbLine
 10
350.24023
 20
281.840477
 30
0.0
 11
350.24023
 21
187.840477
 31
0.0
  0
LINE
  5
1408B
100
AcDbEntity
  8
L-ZISSEN
100
AcDbLine
 10
298.49023
 20
179.840477
 30
0.0
 11
298.49023
 21
280.840477
 31
0.0
  0
ARC
  5
1408C
100
AcDbEntity
  8
L-ZISSEN
100
AcDbCircle
 10
343.49023
 20
187.840477
 30
0.0
 40
16.5
100
AcDbArc
 50
180.0
 51
0.0
  0
ARC
  5
1408D
100
AcDbEntity
  8
L-ZISSEN
100
AcDbCircle
 10
343.49023
 20
187.840477
 30
0.0
 40
6.75
100
AcDbArc
 50
180.0
 51
0.0
  0
LINE
  5
1408E
100
AcDbEntity
  8
L-TYUSIN
100
AcDbLine
 10
308.49023
 20
167.908775
 30
0.0
 11
308.49023
 21
182.926815
 31
0.0
  0
LINE
  5
1408F
100
AcDbEntity
  8
L-TYUSIN
100
AcDbLine
 10
314.979168
 20
175.340477
 30
0.0
 11
302.464134
 21
175.340477
 31
0.0
  0
ARC
  5
14090
100
AcDbEntity
  8
L-ZISSEN
100
AcDbCircle
 10
308.49023
 20
175.340477
 30
0.0
 40
4.5
100
AcDbArc
 50
270.0
 51
90.0
  0
LINE
  5
14091
100
AcDbEntity
  8
L-ZISSEN
100
AcDbLine
 10
308.49023
 20
179.840477
 30
0.0
 11
298.49023
 21
179.840477
 31
0.0
  0
LINE
  5
14092
100
AcDbEntity
  8
L-ZISSEN
100
AcDbLine
 10
298.49023
 20
170.840477
 30
0.0
 11
308.49023
 21
170.840477
 31
0.0
  0
CIRCLE
  5
14095
100
AcDbEntity
  8
L-ZISSEN
100
AcDbCircle
 10
330.49023
 20
192.840477
 30
0.0
 40
2.75
  0
CIRCLE
  5
1409B
100
AcDbEntity
  8
L-ZISSEN
100
AcDbCircle
 10
356.49023
 20
192.840477
 30
0.0
 40
2.75
  0
ARC
  5
1409F
100
AcDbEntity
  8
L-ZISSEN
100
AcDbCircle
 10
343.49023
 20
281.840477
 30
0.0
 40
16.5
100
AcDbArc
 50
0.0
 51
180.0
  0
ARC
  5
140A0
100
AcDbEntity
  8
L-ZISSEN
100
AcDbCircle
 10
343.49023
 20
281.840477
 30
0.0
 40
6.75
100
AcDbArc
 50
0.0
 51
180.0
  0
LINE
  5
140A1
100
AcDbEntity
  8
L-ZISSEN
100
AcDbLine
 10
318.49023
 20
300.340477
 30
0.0
 11
346.559326
 21
300.340477
 31
0.0
  0
LINE
  5
140A2
100
AcDbEntity
  8
L-TYUSIN
100
AcDbLine
 10
308.49023
 20
278.166219
 30
0.0
 11
308.49023
 21
292.683657
 31
0.0
  0
ARC
  5
140A3
100
AcDbEntity
  8
L-ZISSEN
100
AcDbCircle
 10
308.49023
 20
285.340477
 30
0.0
 40
4.5
100
AcDbArc
 50
270.0
 51
90.0
  0
LINE
  5
140A4
100
AcDbEntity
  8
L-TYUSIN
100
AcDbLine
 10
315.229468
 20
285.340477
 30
0.0
 11
302.464134
 21
285.340477
 31
0.0
  0
LINE
  5
140A5
100
AcDbEntity
  8
L-ZISSEN
100
AcDbLine
 10
298.49023
 20
280.840477
 30
0.0
 11
308.49023
 21
280.840477
 31
0.0
  0
CIRCLE
  5
140A8
100
AcDbEntity
  8
L-ZISSEN
100
AcDbCircle
 10
330.49023
 20
276.840477
 30
0.0
 40
2.75
  0
LINE
  5
140A9
100
AcDbEntity
  8
L-ZISSEN
100
AcDbLine
 10
339.559933
 20
303.340477
 30
0.0
 11
303.49023
 21
303.340477
 31
0.0
  0
LINE
  5
140AA
100
AcDbEntity
  8
L-ZISSEN
100
AcDbLine
 10
341.132967
 20
302.340477
 30
0.0
 11
303.49023
 21
302.340477
 31
0.0
  0
LINE
  5
140AC
100
AcDbEntity
  8
L-ZISSEN
100
AcDbLine
 10
298.49023
 20
289.840477
 30
0.0
 11
298.49023
 21
300.340477
 31
0.0
  0
LINE
  5
140AD
100
AcDbEntity
  8
L-ZISSEN
100
AcDbLine
 10
308.49023
 20
289.840477
 30
0.0
 11
298.49023
 21
289.840477
 31
0.0
  0
LINE
  5
140AE
100
AcDbEntity
  8
L-ZISSEN
100
AcDbLine
 10
298.49023
 20
300.340477
 30
0.0
 11
316.49023
 21
300.340477
 31
0.0
  0
CIRCLE
  5
140B0
100
AcDbEntity
  8
L-ZISSEN
100
AcDbCircle
 10
356.49023
 20
276.840477
 30
0.0
 40
2.75
  0
LEADER
  5
140B1
100
AcDbEntity
  8
L-ZISSEN
100
AcDbLeader
  3
STANDARD
 76
     3
 10
317.49023
 20
328.659171
 30
0.0
 10
271.708083
 20
408.780872
 30
0.0
 10
179.583685
 20
408.780872
 30
0.0
 77
   256
1001
ACAD
1000
DSTYLE
1002
{
1070
    78
1070
     8
1070
   140
1040
2.8
1070
    74
1070
     0
1070
   172
1070
     1
1070
   174
1070
     1
1070
    73
1070
     0
1070
    77
1070
     1
1070
    40
1040
3.0
1070
   147
1040
0.8
1070
    42
1040
1.0
1070
    44
1040
1.0
1070
   271
1070
     3
1070
    41
1040
2.0
1002
}
1000
LEANOF
1010
0.0
1020
0.0
1030
0.0
  0
TEXT
  5
140B2
100
AcDbEntity
  8
L-ZISSEN
100
AcDbText
 10
180.600684
 20
412.195791
 30
0.0
 40
4.5
  1
M／L AIR IN PORT
 72
     2
 11
236.957827
 21
411.595791
 31
0.0
100
AcDbText
 73
     1
  0
LINE
  5
140B3
100
AcDbEntity
  8
L-ZISSEN
  6
CONTINUOUS
100
AcDbLine
 10
359.99023
 20
359.740477
 30
0.0
 11
359.99023
 21
384.540526
 31
0.0
  0
LINE
  5
140B4
100
AcDbEntity
  8
L-ZISSEN
  6
CONTINUOUS
100
AcDbLine
 10
339.99023
 20
359.740477
 30
0.0
 11
339.99023
 21
384.540526
 31
0.0
  0
LINE
  5
140B5
100
AcDbEntity
  8
L-ZISSEN
  6
CONTINUOUS
100
AcDbLine
 10
375.99023
 20
306.540477
 30
0.0
 11
375.99023
 21
356.540477
 31
0.0
  0
LINE
  5
140B6
100
AcDbEntity
  8
L-ZISSEN
  6
CONTINUOUS
100
AcDbLine
 10
317.49023
 20
356.540477
 30
0.0
 11
317.49023
 21
306.540477
 31
0.0
  0
LINE
  5
140B7
100
AcDbEntity
  8
L-ZISSEN
100
AcDbLine
 10
357.72729
 20
306.719159
 30
0.0
 11
342.070389
 21
331.824472
 31
0.0
  0
LINE
  5
140B9
100
AcDbEntity
  8
L-ZISSEN
100
AcDbLine
 10
336.117988
 20
306.540477
 30
0.0
 11
303.49023
 21
306.540477
 31
0.0
  0
LINE
  5
140BA
100
AcDbEntity
  8
L-ZISSEN
  6
CONTINUOUS
100
AcDbLine
 10
317.49023
 20
306.540477
 30
0.0
 11
336.117988
 21
306.540477
 31
0.0
  0
LINE
  5
140C1
100
AcDbEntity
  8
L-TYUSIN
100
AcDbLine
 10
334.349044
 20
328.540477
 30
0.0
 11
308.428217
 21
328.540477
 31
0.0
  0
LINE
  5
140C3
100
AcDbEntity
  8
L-ZISSEN
100
AcDbLine
 10
317.49023
 20
356.540477
 30
0.0
 11
375.99023
 21
356.540477
 31
0.0
  0
LINE
  5
140C4
100
AcDbEntity
  8
L-ZISSEN
  6
CONTINUOUS
100
AcDbLine
 10
330.49023
 20
359.740477
 30
0.0
 11
369.49023
 21
359.740477
 31
0.0
  0
LINE
  5
140C5
100
AcDbEntity
  8
L-ZISSEN
100
AcDbLine
 10
324.49023
 20
356.540477
 30
0.0
 11
365.49023
 21
356.540477
 31
0.0
  0
LINE
  5
140C6
100
AcDbEntity
  8
L-ZISSEN
  6
CONTINUOUS
100
AcDbLine
 10
330.49023
 20
356.540477
 30
0.0
 11
330.49023
 21
359.740477
 31
0.0
  0
LINE
  5
140C7
100
AcDbEntity
  8
L-ZISSEN
100
AcDbLine
 10
336.99023
 20
363.540477
 30
0.0
 11
336.99023
 21
374.540477
 31
0.0
  0
LINE
  5
140C8
100
AcDbEntity
  8
L-ZISSEN
100
AcDbLine
 10
339.99023
 20
374.540477
 30
0.0
 11
336.99023
 21
374.540477
 31
0.0
  0
LINE
  5
140C9
100
AcDbEntity
  8
L-ZISSEN
100
AcDbLine
 10
329.99023
 20
363.540477
 30
0.0
 11
329.99023
 21
356.540477
 31
0.0
  0
LINE
  5
140CA
100
AcDbEntity
  8
L-ZISSEN
100
AcDbLine
 10
339.99023
 20
363.540477
 30
0.0
 11
329.99023
 21
363.540477
 31
0.0
  0
LINE
  5
140CB
100
AcDbEntity
  8
L-ZISSEN
  6
CONTINUOUS
100
AcDbLine
 10
369.49023
 20
356.540477
 30
0.0
 11
369.49023
 21
359.740477
 31
0.0
  0
LINE
  5
140CC
100
AcDbEntity
  8
L-ZISSEN
100
AcDbLine
 10
375.99023
 20
363.540477
 30
0.0
 11
375.99023
 21
356.540477
 31
0.0
  0
LINE
  5
140CE
100
AcDbEntity
  8
L-ZISSEN
100
AcDbLine
 10
375.99023
 20
363.540477
 30
0.0
 11
359.99023
 21
363.540477
 31
0.0
  0
LINE
  5
140CF
100
AcDbEntity
  8
L-ZISSEN
100
AcDbLine
 10
368.99023
 20
363.540477
 30
0.0
 11
368.99023
 21
374.540477
 31
0.0
  0
LINE
  5
140D0
100
AcDbEntity
  8
L-ZISSEN
100
AcDbLine
 10
368.99023
 20
374.540477
 30
0.0
 11
359.99023
 21
374.540477
 31
0.0
  0
TEXT
  5
140D2
100
AcDbEntity
  8
L-ZISSEN
100
AcDbText
 10
244.201891
 20
411.825674
 30
0.0
 40
4.5
  1
Rc3／8
 72
     2
 11
265.244748
 21
411.225674
 31
0.0
100
AcDbText
 73
     1
  0
LINE
  5
140D3
100
AcDbEntity
  8
L-ZISSEN
  6
CONTINUOUS
100
AcDbLine
 10
359.99023
 20
384.540526
 30
0.0
 11
339.99023
 21
384.540526
 31
0.0
  0
LINE
  5
140D5
100
AcDbEntity
  8
L-ZISSEN
100
AcDbLine
 10
353.99023
 20
384.540526
 30
0.0
 11
353.99023
 21
394.540526
 31
0.0
  0
LINE
  5
140D6
100
AcDbEntity
  8
L-ZISSEN
100
AcDbLine
 10
345.99023
 20
384.540526
 30
0.0
 11
345.99023
 21
394.540526
 31
0.0
  0
LINE
  5
140D7
100
AcDbEntity
  8
L-ZISSEN
100
AcDbLine
 10
345.99023
 20
385.040526
 30
0.0
 11
353.99023
 21
385.040526
 31
0.0
  0
LINE
  5
140D9
100
AcDbEntity
  8
L-ZISSEN
100
AcDbLine
 10
353.99023
 20
397.040526
 30
0.0
 11
345.99023
 21
397.040526
 31
0.0
  0
LINE
  5
140DA
100
AcDbEntity
  8
L-ZISSEN
100
AcDbLine
 10
345.99023
 20
397.040526
 30
0.0
 11
345.99023
 21
394.540526
 31
0.0
  0
LINE
  5
140DC
100
AcDbEntity
  8
L-ZISSEN
100
AcDbLine
 10
353.99023
 20
397.040526
 30
0.0
 11
353.99023
 21
394.540526
 31
0.0
  0
LINE
  5
140E5
100
AcDbEntity
  8
L-ZISSEN
100
AcDbLine
 10
663.49023
 20
300.340477
 30
0.0
 11
663.49023
 21
306.540477
 31
0.0
  0
LINE
  5
140E6
100
AcDbEntity
  8
L-ZISSEN
100
AcDbLine
 10
441.99023
 20
205.340477
 30
0.0
 11
441.99023
 21
248.644325
 31
0.0
  0
LINE
  5
140E7
100
AcDbEntity
  8
L-ZISSEN
100
AcDbLine
 10
407.99023
 20
220.794513
 30
0.0
 11
407.99023
 21
248.644325
 31
0.0
  0
LINE
  5
140E9
100
AcDbEntity
  8
L-ZISSEN
100
AcDbLine
 10
449.49023
 20
187.840477
 30
0.0
 11
449.49023
 21
222.840477
 31
0.0
  0
ARC
  5
140EA
100
AcDbEntity
  8
L-ZISSEN
100
AcDbCircle
 10
424.99023
 20
205.340477
 30
0.0
 40
17.0
100
AcDbArc
 50
180.0
 51
0.0
  0
LINE
  5
140EB
100
AcDbEntity
  8
L-ZISSEN
100
AcDbLine
 10
400.49023
 20
222.840477
 30
0.0
 11
400.49023
 21
187.840477
 31
0.0
  0
LINE
  5
140EC
100
AcDbEntity
  8
L-ZISSEN
100
AcDbLine
 10
449.49023
 20
187.840477
 30
0.0
 11
400.49023
 21
187.840477
 31
0.0
  0
LINE
  5
140EF
100
AcDbEntity
  8
L-ZISSEN
100
AcDbLine
 10
424.99023
 20
188.340477
 30
0.0
 11
429.99023
 21
188.471407
 31
0.0
  0
LINE
  5
140F0
100
AcDbEntity
  8
L-ZISSEN
100
AcDbLine
 10
419.99023
 20
188.471407
 30
0.0
 11
419.99023
 21
189.0924
 31
0.0
  0
LINE
  5
140F1
100
AcDbEntity
  8
L-ZISSEN
100
AcDbLine
 10
424.99023
 20
188.340477
 30
0.0
 11
419.99023
 21
188.471407
 31
0.0
  0
LINE
  5
140F2
100
AcDbEntity
  8
L-ZISSEN
100
AcDbLine
 10
429.99023
 20
188.471407
 30
0.0
 11
429.99023
 21
189.0924
 31
0.0
  0
CIRCLE
  5
140F5
100
AcDbEntity
  8
L-ZISSEN
100
AcDbCircle
 10
445.49023
 20
192.840477
 30
0.0
 40
2.25
  0
LINE
  5
140F6
100
AcDbEntity
  8
L-ZISSEN
100
AcDbLine
 10
449.49023
 20
222.840477
 30
0.0
 11
441.99023
 21
222.840477
 31
0.0
  0
ARC
  5
140F8
100
AcDbEntity
  8
L-ZISSEN
100
AcDbCircle
 10
404.49023
 20
217.840477
 30
0.0
 40
4.5
100
AcDbArc
 50
321.057559
 51
38.942441
  0
CIRCLE
  5
140FA
100
AcDbEntity
  8
L-ZISSEN
100
AcDbCircle
 10
404.49023
 20
217.840477
 30
0.0
 40
2.25
  0
LINE
  5
140FB
100
AcDbEntity
  8
L-ZISSEN
100
AcDbLine
 10
407.99023
 20
205.340477
 30
0.0
 11
407.99023
 21
215.137658
 31
0.0
  0
LINE
  5
140FE
100
AcDbEntity
  8
L-ZISSEN
100
AcDbLine
 10
407.99023
 20
222.840477
 30
0.0
 11
400.49023
 21
222.840477
 31
0.0
  0
LINE
  5
14100
100
AcDbEntity
  8
L-ZISSEN
100
AcDbLine
 10
535.49023
 20
300.340477
 30
0.0
 11
483.49023
 21
300.340477
 31
0.0
  0
LINE
  5
14101
100
AcDbEntity
  8
L-ZISSEN
100
AcDbLine
 10
481.49023
 20
302.340477
 30
0.0
 11
535.49023
 21
302.340477
 31
0.0
  0
LINE
  5
14102
100
AcDbEntity
  8
L-ZISSEN
  6
CONTINUOUS
100
AcDbLine
 10
398.99023
 20
261.340477
 30
0.0
 11
398.99023
 21
276.340477
 31
0.0
  0
LINE
  5
14115
100
AcDbEntity
  8
L-ZISSEN
  6
CONTINUOUS
100
AcDbLine
 10
450.99023
 20
261.340477
 30
0.0
 11
450.99023
 21
276.340477
 31
0.0
  0
LINE
  5
14117
100
AcDbEntity
  8
L-ZISSEN
100
AcDbLine
 10
404.99023
 20
253.840477
 30
0.0
 11
444.99023
 21
253.840477
 31
0.0
  0
LINE
  5
14118
100
AcDbEntity
  8
L-ZISSEN
100
AcDbLine
 10
444.99023
 20
253.840477
 30
0.0
 11
441.99023
 21
248.644325
 31
0.0
  0
LINE
  5
14119
100
AcDbEntity
  8
L-ZISSEN
  6
CONTINUOUS
100
AcDbLine
 10
398.99023
 20
261.340477
 30
0.0
 11
450.99023
 21
261.340477
 31
0.0
  0
LINE
  5
1411A
100
AcDbEntity
  8
L-ZISSEN
  6
CONTINUOUS
100
AcDbLine
 10
398.99023
 20
257.340477
 30
0.0
 11
450.99023
 21
257.340477
 31
0.0
  0
LINE
  5
1411B
100
AcDbEntity
  8
L-ZISSEN
100
AcDbLine
 10
404.99023
 20
257.340477
 30
0.0
 11
404.99023
 21
253.840477
 31
0.0
  0
LINE
  5
1411C
100
AcDbEntity
  8
L-ZISSEN
100
AcDbLine
 10
407.99023
 20
248.644325
 30
0.0
 11
441.99023
 21
248.644325
 31
0.0
  0
LINE
  5
1411D
100
AcDbEntity
  8
L-ZISSEN
100
AcDbLine
 10
404.99023
 20
253.840477
 30
0.0
 11
407.99023
 21
248.644325
 31
0.0
  0
LINE
  5
1411E
100
AcDbEntity
  8
L-ZISSEN
  6
CONTINUOUS
100
AcDbLine
 10
398.99023
 20
261.340477
 30
0.0
 11
398.99023
 21
257.340477
 31
0.0
  0
LINE
  5
14120
100
AcDbEntity
  8
L-ZISSEN
100
AcDbLine
 10
444.99023
 20
257.340477
 30
0.0
 11
444.99023
 21
253.840477
 31
0.0
  0
LINE
  5
14121
100
AcDbEntity
  8
L-ZISSEN
  6
CONTINUOUS
100
AcDbLine
 10
450.99023
 20
257.340477
 30
0.0
 11
450.99023
 21
261.340477
 31
0.0
  0
LINE
  5
14122
100
AcDbEntity
  8
L-ZISSEN
  6
CONTINUOUS
100
AcDbLine
 10
398.99023
 20
276.340477
 30
0.0
 11
450.99023
 21
276.340477
 31
0.0
  0
LINE
  5
1412F
100
AcDbEntity
  8
L-ZISSEN
100
AcDbLine
 10
535.49023
 20
302.340477
 30
0.0
 11
535.49023
 21
300.340477
 31
0.0
  0
LINE
  5
14139
100
AcDbEntity
  8
L-ZISSEN
100
AcDbLine
 10
668.49023
 20
179.840477
 30
0.0
 11
668.49023
 21
280.840477
 31
0.0
  0
LINE
  5
14145
100
AcDbEntity
  8
L-TYUSIN
100
AcDbLine
 10
652.001292
 20
175.340477
 30
0.0
 11
664.516326
 21
175.340477
 31
0.0
  0
LINE
  5
14146
100
AcDbEntity
  8
L-ZISSEN
100
AcDbLine
 10
658.49023
 20
179.840477
 30
0.0
 11
668.49023
 21
179.840477
 31
0.0
  0
LINE
  5
14147
100
AcDbEntity
  8
L-ZISSEN
100
AcDbLine
 10
668.49023
 20
170.840477
 30
0.0
 11
658.49023
 21
170.840477
 31
0.0
  0
LINE
  5
14148
100
AcDbEntity
  8
L-TYUSIN
100
AcDbLine
 10
658.49023
 20
167.908775
 30
0.0
 11
658.49023
 21
182.926815
 31
0.0
  0
ARC
  5
14149
100
AcDbEntity
  8
L-ZISSEN
100
AcDbCircle
 10
658.49023
 20
175.340477
 30
0.0
 40
4.5
100
AcDbArc
 50
90.0
 51
270.0
  0
LINE
  5
14154
100
AcDbEntity
  8
L-TYUSIN
100
AcDbLine
 10
658.49023
 20
278.166219
 30
0.0
 11
658.49023
 21
292.683657
 31
0.0
  0
ARC
  5
14155
100
AcDbEntity
  8
L-ZISSEN
100
AcDbCircle
 10
658.49023
 20
285.340477
 30
0.0
 40
4.5
100
AcDbArc
 50
90.0
 51
270.0
  0
LINE
  5
14156
100
AcDbEntity
  8
L-TYUSIN
100
AcDbLine
 10
651.750992
 20
285.340477
 30
0.0
 11
664.516326
 21
285.340477
 31
0.0
  0
LINE
  5
14157
100
AcDbEntity
  8
L-ZISSEN
100
AcDbLine
 10
668.49023
 20
280.840477
 30
0.0
 11
658.49023
 21
280.840477
 31
0.0
  0
LINE
  5
14158
100
AcDbEntity
  8
L-ZISSEN
100
AcDbLine
 10
658.49023
 20
289.840477
 30
0.0
 11
668.49023
 21
289.840477
 31
0.0
  0
LINE
  5
14159
100
AcDbEntity
  8
L-ZISSEN
100
AcDbLine
 10
668.49023
 20
300.340477
 30
0.0
 11
650.49023
 21
300.340477
 31
0.0
  0
LINE
  5
1415B
100
AcDbEntity
  8
L-ZISSEN
100
AcDbLine
 10
668.49023
 20
289.840477
 30
0.0
 11
668.49023
 21
300.340477
 31
0.0
  0
CIRCLE
  5
1415D
100
AcDbEntity
  8
L-ZISSEN
100
AcDbCircle
 10
604.49023
 20
403.040477
 30
0.0
 40
21.5
  0
LINE
  5
14160
100
AcDbEntity
  8
L-ZISSEN
100
AcDbLine
 10
596.49023
 20
343.540477
 30
0.0
 11
538.99023
 21
343.540477
 31
0.0
  0
LINE
  5
14163
100
AcDbEntity
  8
L-ZISSEN
100
AcDbLine
 10
538.99023
 20
350.540477
 30
0.0
 11
591.013004
 21
350.540477
 31
0.0
  0
LINE
  5
14164
100
AcDbEntity
  8
L-ZISSEN
100
AcDbLine
 10
398.720774
 20
356.040477
 30
0.0
 11
398.89586
 21
376.103312
 31
0.0
  0
LINE
  5
14165
100
AcDbEntity
  8
L-ZISSEN
100
AcDbLine
 10
516.659686
 20
356.040477
 30
0.0
 11
516.4846
 21
376.103312
 31
0.0
  0
LINE
  5
14166
100
AcDbEntity
  8
L-ZISSEN
100
AcDbLine
 10
546.447085
 20
412.540477
 30
0.0
 11
543.197802
 21
350.540477
 31
0.0
  0
ARC
  5
14167
100
AcDbEntity
  8
L-ZISSEN
100
AcDbCircle
 10
485.49023
 20
330.540477
 30
0.0
 40
12.5
100
AcDbArc
 50
53.073918
 51
66.926082
  0
ARC
  5
14168
100
AcDbEntity
  8
L-ZISSEN
100
AcDbCircle
 10
485.49023
 20
330.540477
 30
0.0
 40
12.5
100
AcDbArc
 50
293.073918
 51
306.926082
  0
CIRCLE
  5
1416A
100
AcDbEntity
  8
L-ZISSEN
100
AcDbCircle
 10
485.49023
 20
330.540477
 30
0.0
 40
13.5
  0
LINE
  5
1416C
100
AcDbEntity
  8
L-ZISSEN
100
AcDbLine
 10
517.99023
 20
356.040477
 30
0.0
 11
397.39023
 21
356.040477
 31
0.0
  0
ARC
  5
1416D
100
AcDbEntity
  8
L-ZISSEN
100
AcDbCircle
 10
485.49023
 20
330.540477
 30
0.0
 40
12.5
100
AcDbArc
 50
113.073918
 51
126.926082
  0
LINE
  5
14173
100
AcDbEntity
  8
L-ZISSEN
100
AcDbLine
 10
473.081448
 20
329.033117
 30
0.0
 11
477.980428
 21
320.547837
 31
0.0
  0
LINE
  5
14175
100
AcDbEntity
  8
L-ZISSEN
100
AcDbLine
 10
490.38921
 20
319.040477
 30
0.0
 11
480.59125
 21
319.040477
 31
0.0
  0
ARC
  5
14176
100
AcDbEntity
  8
L-ZISSEN
100
AcDbCircle
 10
485.49023
 20
330.540477
 30
0.0
 40
12.5
100
AcDbArc
 50
233.073918
 51
246.926082
  0
ARC
  5
1417D
100
AcDbEntity
  8
L-ZISSEN
100
AcDbCircle
 10
485.49023
 20
330.540477
 30
0.0
 40
12.5
100
AcDbArc
 50
173.073918
 51
186.926082
  0
LINE
  5
14180
100
AcDbEntity
  8
L-ZISSEN
100
AcDbLine
 10
473.081448
 20
332.047837
 30
0.0
 11
477.980428
 21
340.533117
 31
0.0
  0
CIRCLE
  5
14181
100
AcDbEntity
  8
L-ZISSEN
100
AcDbCircle
 10
485.49023
 20
330.540477
 30
0.0
 40
4.0
  0
LINE
  5
14184
100
AcDbEntity
  8
L-ZISSEN
100
AcDbLine
 10
397.39023
 20
356.040477
 30
0.0
 11
397.39023
 21
351.540477
 31
0.0
  0
LINE
  5
14185
100
AcDbEntity
  8
L-ZISSEN
100
AcDbLine
 10
480.59125
 20
342.040477
 30
0.0
 11
490.38921
 21
342.040477
 31
0.0
  0
LINE
  5
14186
100
AcDbEntity
  8
L-ZISSEN
  6
CONTINUOUS
100
AcDbLine
 10
517.49023
 20
306.540477
 30
0.0
 11
517.49023
 21
351.540477
 31
0.0
  0
LINE
  5
14187
100
AcDbEntity
  8
L-ZISSEN
  6
CONTINUOUS
100
AcDbLine
 10
504.49023
 20
312.540477
 30
0.0
 11
504.49023
 21
348.540477
 31
0.0
  0
LINE
  5
14188
100
AcDbEntity
  8
L-ZISSEN
100
AcDbLine
 10
539.49023
 20
343.540477
 30
0.0
 11
539.49023
 21
306.540477
 31
0.0
  0
LINE
  5
14190
100
AcDbEntity
  8
L-ZISSEN
100
AcDbLine
 10
497.899012
 20
329.033118
 30
0.0
 11
493.000032
 21
320.547837
 31
0.0
  0
ARC
  5
14199
100
AcDbEntity
  8
L-ZISSEN
100
AcDbCircle
 10
485.49023
 20
330.540477
 30
0.0
 40
12.5
100
AcDbArc
 50
353.073918
 51
6.926082
  0
LINE
  5
1419B
100
AcDbEntity
  8
L-ZISSEN
100
AcDbLine
 10
497.899012
 20
332.047836
 30
0.0
 11
493.000032
 21
340.533117
 31
0.0
  0
LINE
  5
141D3
100
AcDbEntity
  8
L-ZISSEN
100
AcDbLine
 10
517.99023
 20
351.540477
 30
0.0
 11
517.99023
 21
356.040477
 31
0.0
  0
LINE
  5
141D4
100
AcDbEntity
  8
L-ZISSEN
100
AcDbLine
 10
538.99023
 20
343.540477
 30
0.0
 11
538.99023
 21
350.540477
 31
0.0
  0
LINE
  5
141D6
100
AcDbEntity
  8
L-ZISSEN
100
AcDbLine
 10
546.447085
 20
412.540477
 30
0.0
 11
585.202928
 21
412.540477
 31
0.0
  0
LINE
  5
141D7
100
AcDbEntity
  8
L-ZISSEN
100
AcDbLine
 10
598.49023
 20
382.394655
 30
0.0
 11
598.49023
 21
372.540477
 31
0.0
  0
LINE
  5
141D8
100
AcDbEntity
  8
L-ZISSEN
100
AcDbLine
 10
610.49023
 20
382.394655
 30
0.0
 11
610.49023
 21
372.540477
 31
0.0
  0
LINE
  5
141DB
100
AcDbEntity
  8
L-ZISSEN
100
AcDbLine
 10
646.782658
 20
350.540477
 30
0.0
 11
643.533375
 21
412.540477
 31
0.0
  0
LINE
  5
141DD
100
AcDbEntity
  8
L-ZISSEN
100
AcDbLine
 10
596.49023
 20
334.540477
 30
0.0
 11
596.49023
 21
345.040477
 31
0.0
  0
LINE
  5
141DE
100
AcDbEntity
  8
L-ZISSEN
100
AcDbLine
 10
612.49023
 20
334.540477
 30
0.0
 11
612.49023
 21
343.040477
 31
0.0
  0
ARC
  5
141DF
100
AcDbEntity
  8
L-ZISSEN
100
AcDbCircle
 10
630.49023
 20
329.540477
 30
0.0
 40
12.5
100
AcDbArc
 50
113.073918
 51
126.926082
  0
ARC
  5
141E0
100
AcDbEntity
  8
L-ZISSEN
100
AcDbCircle
 10
630.49023
 20
329.540477
 30
0.0
 40
12.5
100
AcDbArc
 50
53.073918
 51
66.926082
  0
CIRCLE
  5
141E1
100
AcDbEntity
  8
L-ZISSEN
100
AcDbCircle
 10
630.49023
 20
329.540477
 30
0.0
 40
13.5
  0
LINE
  5
141E3
100
AcDbEntity
  8
L-ZISSEN
100
AcDbLine
 10
650.49023
 20
306.540477
 30
0.0
 11
650.49023
 21
343.540477
 31
0.0
  0
LINE
  5
141E4
100
AcDbEntity
  8
L-ZISSEN
100
AcDbLine
 10
642.899012
 20
328.033118
 30
0.0
 11
638.000032
 21
319.547837
 31
0.0
  0
LINE
  5
141E6
100
AcDbEntity
  8
L-ZISSEN
100
AcDbLine
 10
642.899012
 20
331.047836
 30
0.0
 11
638.000032
 21
339.533117
 31
0.0
  0
LINE
  5
141ED
100
AcDbEntity
  8
L-ZISSEN
100
AcDbLine
 10
618.081448
 20
328.033117
 30
0.0
 11
622.980428
 21
319.547837
 31
0.0
  0
LINE
  5
141F2
100
AcDbEntity
  8
L-ZISSEN
100
AcDbLine
 10
599.64023
 20
323.540477
 30
0.0
 11
599.84986
 21
319.540477
 31
0.0
  0
LINE
  5
141F5
100
AcDbEntity
  8
L-ZISSEN
100
AcDbLine
 10
610.263732
 20
323.540477
 30
0.0
 11
598.716726
 21
323.540477
 31
0.0
  0
LINE
  5
141F7
100
AcDbEntity
  8
L-ZISSEN
100
AcDbLine
 10
609.34023
 20
323.540477
 30
0.0
 11
609.130598
 21
319.540477
 31
0.0
  0
LINE
  5
141FD
100
AcDbEntity
  8
L-ZISSEN
100
AcDbLine
 10
597.678052
 20
311.540477
 30
0.0
 11
597.96288
 21
306.540477
 31
0.0
  0
LINE
  5
141FF
100
AcDbEntity
  8
L-ZISSEN
100
AcDbLine
 10
608.531682
 20
311.540477
 30
0.0
 11
608.531682
 21
319.540477
 31
0.0
  0
LINE
  5
14201
100
AcDbEntity
  8
L-ZISSEN
100
AcDbLine
 10
612.573134
 20
311.540477
 30
0.0
 11
596.407326
 21
311.540477
 31
0.0
  0
LINE
  5
14202
100
AcDbEntity
  8
L-ZISSEN
100
AcDbLine
 10
611.302408
 20
311.540477
 30
0.0
 11
611.017578
 21
306.540477
 31
0.0
  0
LINE
  5
14203
100
AcDbEntity
  8
L-ZISSEN
100
AcDbLine
 10
612.573134
 20
311.540477
 30
0.0
 11
612.573134
 21
319.540477
 31
0.0
  0
LINE
  5
14207
100
AcDbEntity
  8
L-ZISSEN
100
AcDbLine
 10
596.407326
 20
319.540477
 30
0.0
 11
596.407326
 21
311.540477
 31
0.0
  0
LINE
  5
14209
100
AcDbEntity
  8
L-ZISSEN
100
AcDbLine
 10
600.448778
 20
319.540477
 30
0.0
 11
600.448778
 21
311.540477
 31
0.0
  0
LINE
  5
1420A
100
AcDbEntity
  8
L-ZISSEN
100
AcDbLine
 10
596.407326
 20
319.540477
 30
0.0
 11
612.573134
 21
319.540477
 31
0.0
  0
ARC
  5
1420B
100
AcDbEntity
  8
L-ZISSEN
100
AcDbCircle
 10
630.49023
 20
329.540477
 30
0.0
 40
12.5
100
AcDbArc
 50
293.073918
 51
306.926082
  0
ARC
  5
1420C
100
AcDbEntity
  8
L-ZISSEN
100
AcDbCircle
 10
630.49023
 20
329.540477
 30
0.0
 40
12.5
100
AcDbArc
 50
233.073918
 51
246.926082
  0
LINE
  5
1420D
100
AcDbEntity
  8
L-ZISSEN
100
AcDbLine
 10
635.38921
 20
318.040477
 30
0.0
 11
625.59125
 21
318.040477
 31
0.0
  0
LINE
  5
14213
100
AcDbEntity
  8
L-ZISSEN
100
AcDbLine
 10
601.603478
 20
330.540477
 30
0.0
 11
601.603478
 21
323.540477
 31
0.0
  0
LINE
  5
14214
100
AcDbEntity
  8
L-ZISSEN
100
AcDbLine
 10
599.64023
 20
330.540477
 30
0.0
 11
599.84986
 21
334.540477
 31
0.0
  0
LINE
  5
14215
100
AcDbEntity
  8
L-ZISSEN
100
AcDbLine
 10
598.716726
 20
330.540477
 30
0.0
 11
598.716726
 21
323.540477
 31
0.0
  0
LINE
  5
1421A
100
AcDbEntity
  8
L-ZISSEN
100
AcDbLine
 10
607.37698
 20
330.540477
 30
0.0
 11
607.37698
 21
323.540477
 31
0.0
  0
LINE
  5
1421B
100
AcDbEntity
  8
L-ZISSEN
100
AcDbLine
 10
610.263732
 20
330.540477
 30
0.0
 11
598.716726
 21
330.540477
 31
0.0
  0
LINE
  5
1421D
100
AcDbEntity
  8
L-ZISSEN
100
AcDbLine
 10
609.34023
 20
330.540477
 30
0.0
 11
609.130598
 21
334.540477
 31
0.0
  0
LINE
  5
1421E
100
AcDbEntity
  8
L-ZISSEN
100
AcDbLine
 10
610.263732
 20
330.540477
 30
0.0
 11
610.263732
 21
323.540477
 31
0.0
  0
LINE
  5
14220
100
AcDbEntity
  8
L-ZISSEN
100
AcDbLine
 10
612.49023
 20
334.540477
 30
0.0
 11
596.49023
 21
334.540477
 31
0.0
  0
LINE
  5
14221
100
AcDbEntity
  8
L-ZISSEN
100
AcDbLine
 10
625.59125
 20
341.040477
 30
0.0
 11
635.38921
 21
341.040477
 31
0.0
  0
LINE
  5
14223
100
AcDbEntity
  8
L-ZISSEN
100
AcDbLine
 10
618.081448
 20
331.047837
 30
0.0
 11
622.980428
 21
339.533117
 31
0.0
  0
ARC
  5
14225
100
AcDbEntity
  8
L-ZISSEN
100
AcDbCircle
 10
630.49023
 20
329.540477
 30
0.0
 40
12.5
100
AcDbArc
 50
173.073918
 51
186.926082
  0
CIRCLE
  5
14227
100
AcDbEntity
  8
L-ZISSEN
100
AcDbCircle
 10
630.49023
 20
329.540477
 30
0.0
 40
4.0
  0
ARC
  5
1422E
100
AcDbEntity
  8
L-ZISSEN
100
AcDbCircle
 10
630.49023
 20
329.540477
 30
0.0
 40
12.5
100
AcDbArc
 50
353.073918
 51
6.926082
  0
LINE
  5
14231
100
AcDbEntity
  8
L-ZISSEN
100
AcDbLine
 10
636.99023
 20
346.040477
 30
0.0
 11
640.49023
 21
346.040477
 31
0.0
  0
LINE
  5
14232
100
AcDbEntity
  8
L-ZISSEN
100
AcDbLine
 10
640.49023
 20
356.040477
 30
0.0
 11
636.99023
 21
356.040477
 31
0.0
  0
LINE
  5
14233
100
AcDbEntity
  8
L-ZISSEN
100
AcDbLine
 10
650.99023
 20
343.540477
 30
0.0
 11
620.981838
 21
343.540477
 31
0.0
  0
LINE
  5
14236
100
AcDbEntity
  8
L-ZISSEN
100
AcDbLine
 10
596.49023
 20
367.540477
 30
0.0
 11
596.49023
 21
357.040477
 31
0.0
  0
LINE
  5
14237
100
AcDbEntity
  8
L-ZISSEN
100
AcDbLine
 10
601.99023
 20
360.540477
 30
0.0
 11
601.99023
 21
341.540477
 31
0.0
  0
LINE
  5
14238
100
AcDbEntity
  8
L-ZISSEN
100
AcDbLine
 10
606.99023
 20
341.540477
 30
0.0
 11
606.99023
 21
360.540477
 31
0.0
  0
LINE
  5
14239
100
AcDbEntity
  8
L-ZISSEN
100
AcDbLine
 10
612.49023
 20
359.040477
 30
0.0
 11
610.49023
 21
357.040477
 31
0.0
  0
LINE
  5
1423A
100
AcDbEntity
  8
L-ZISSEN
100
AcDbLine
 10
612.49023
 20
343.040477
 30
0.0
 11
620.99023
 21
343.040477
 31
0.0
  0
LINE
  5
1423B
100
AcDbEntity
  8
L-ZISSEN
100
AcDbLine
 10
593.026128
 20
350.540477
 30
0.0
 11
599.95433
 21
350.540477
 31
0.0
  0
LINE
  5
1423D
100
AcDbEntity
  8
L-ZISSEN
100
AcDbLine
 10
598.49023
 20
356.163953
 30
0.0
 11
598.49023
 21
357.040477
 31
0.0
  0
LINE
  5
1423E
100
AcDbEntity
  8
L-ZISSEN
100
AcDbLine
 10
596.49023
 20
357.040477
 30
0.0
 11
601.99023
 21
357.040477
 31
0.0
  0
CIRCLE
  5
1423F
100
AcDbEntity
  8
L-ZISSEN
100
AcDbCircle
 10
596.49023
 20
351.040477
 30
0.0
 40
5.5
  0
CIRCLE
  5
14240
100
AcDbEntity
  8
L-ZISSEN
100
AcDbCircle
 10
596.49023
 20
351.040477
 30
0.0
 40
3.5
  0
LINE
  5
14242
100
AcDbEntity
  8
L-ZISSEN
100
AcDbLine
 10
598.49023
 20
345.917001
 30
0.0
 11
598.49023
 21
345.040477
 31
0.0
  0
LINE
  5
14243
100
AcDbEntity
  8
L-ZISSEN
100
AcDbLine
 10
596.49023
 20
345.040477
 30
0.0
 11
601.99023
 21
345.040477
 31
0.0
  0
LINE
  5
14244
100
AcDbEntity
  8
L-ZISSEN
100
AcDbLine
 10
601.99023
 20
341.540477
 30
0.0
 11
606.99023
 21
341.540477
 31
0.0
  0
LINE
  5
14246
100
AcDbEntity
  8
L-ZISSEN
100
AcDbLine
 10
610.49023
 20
345.040477
 30
0.0
 11
612.49023
 21
343.040477
 31
0.0
  0
LINE
  5
14247
100
AcDbEntity
  8
L-ZISSEN
100
AcDbLine
 10
606.99023
 20
345.040477
 30
0.0
 11
610.49023
 21
345.040477
 31
0.0
  0
LINE
  5
14248
100
AcDbEntity
  8
L-ZISSEN
100
AcDbLine
 10
610.49023
 20
357.040477
 30
0.0
 11
610.49023
 21
345.040477
 31
0.0
  0
LINE
  5
14249
100
AcDbEntity
  8
L-ZISSEN
100
AcDbLine
 10
606.99023
 20
357.040477
 30
0.0
 11
610.49023
 21
357.040477
 31
0.0
  0
ARC
  5
14250
100
AcDbEntity
  8
L-ZISSEN
100
AcDbCircle
 10
633.74023
 20
345.844325
 30
0.0
 40
3.25
100
AcDbArc
 50
327.795772
 51
32.204228
  0
ARC
  5
14251
100
AcDbEntity
  8
L-ZISSEN
100
AcDbCircle
 10
624.74023
 20
351.040477
 30
0.0
 40
12.25
100
AcDbArc
 50
343.573579
 51
16.426421
  0
ARC
  5
14253
100
AcDbEntity
  8
L-ZISSEN
100
AcDbCircle
 10
633.74023
 20
356.236629
 30
0.0
 40
3.25
100
AcDbArc
 50
327.795772
 51
32.204228
  0
LINE
  5
14254
100
AcDbEntity
  8
L-ZISSEN
100
AcDbLine
 10
636.99023
 20
345.844323
 30
0.0
 11
636.99023
 21
356.236631
 31
0.0
  0
LINE
  5
14255
100
AcDbEntity
  8
L-ZISSEN
100
AcDbLine
 10
636.49023
 20
357.968681
 30
0.0
 11
625.49023
 21
357.968681
 31
0.0
  0
ARC
  5
14256
100
AcDbEntity
  8
L-ZISSEN
100
AcDbCircle
 10
628.24023
 20
356.236629
 30
0.0
 40
3.25
100
AcDbArc
 50
147.795772
 51
212.204228
  0
ARC
  5
14257
100
AcDbEntity
  8
L-ZISSEN
100
AcDbCircle
 10
637.24023
 20
351.040477
 30
0.0
 40
12.25
100
AcDbArc
 50
163.573579
 51
196.426421
  0
LINE
  5
14258
100
AcDbEntity
  8
L-ZISSEN
100
AcDbLine
 10
636.49023
 20
354.504579
 30
0.0
 11
625.49023
 21
354.504579
 31
0.0
  0
LINE
  5
14259
100
AcDbEntity
  8
L-ZISSEN
100
AcDbLine
 10
624.99023
 20
356.236629
 30
0.0
 11
620.99023
 21
355.958737
 31
0.0
  0
LINE
  5
1425B
100
AcDbEntity
  8
L-ZISSEN
100
AcDbLine
 10
620.99023
 20
359.040477
 30
0.0
 11
620.99023
 21
343.040477
 31
0.0
  0
ARC
  5
1425C
100
AcDbEntity
  8
L-ZISSEN
100
AcDbCircle
 10
628.24023
 20
345.844325
 30
0.0
 40
3.25
100
AcDbArc
 50
147.795772
 51
212.204228
  0
LINE
  5
1425D
100
AcDbEntity
  8
L-ZISSEN
100
AcDbLine
 10
636.49023
 20
347.576375
 30
0.0
 11
625.49023
 21
347.576375
 31
0.0
  0
LINE
  5
1425F
100
AcDbEntity
  8
L-ZISSEN
100
AcDbLine
 10
620.99023
 20
346.122217
 30
0.0
 11
624.99023
 21
345.844325
 31
0.0
  0
LINE
  5
14260
100
AcDbEntity
  8
L-ZISSEN
100
AcDbLine
 10
624.99023
 20
356.236631
 30
0.0
 11
624.99023
 21
345.844323
 31
0.0
  0
LINE
  5
14261
100
AcDbEntity
  8
L-ZISSEN
100
AcDbLine
 10
636.49023
 20
344.112273
 30
0.0
 11
625.49023
 21
344.112273
 31
0.0
  0
LINE
  5
14262
100
AcDbEntity
  8
L-ZISSEN
100
AcDbLine
 10
620.99023
 20
359.040477
 30
0.0
 11
612.49023
 21
359.040477
 31
0.0
  0
LINE
  5
14268
100
AcDbEntity
  8
L-ZISSEN
100
AcDbLine
 10
612.49023
 20
359.040477
 30
0.0
 11
612.49023
 21
367.540477
 31
0.0
  0
LINE
  5
1426A
100
AcDbEntity
  8
L-ZISSEN
100
AcDbLine
 10
609.18398
 20
367.540477
 30
0.0
 11
609.34023
 21
372.540477
 31
0.0
  0
LINE
  5
1426B
100
AcDbEntity
  8
L-ZISSEN
100
AcDbLine
 10
610.49023
 20
372.540477
 30
0.0
 11
598.49023
 21
372.540477
 31
0.0
  0
LINE
  5
1426D
100
AcDbEntity
  8
L-ZISSEN
100
AcDbLine
 10
599.64023
 20
372.540477
 30
0.0
 11
599.79648
 21
367.540477
 31
0.0
  0
LINE
  5
1426E
100
AcDbEntity
  8
L-ZISSEN
100
AcDbLine
 10
612.49023
 20
367.540477
 30
0.0
 11
596.49023
 21
367.540477
 31
0.0
  0
LINE
  5
14270
100
AcDbEntity
  8
L-ZISSEN
100
AcDbLine
 10
606.99023
 20
360.540477
 30
0.0
 11
601.99023
 21
360.540477
 31
0.0
  0
LINE
  5
14276
100
AcDbEntity
  8
L-ZISSEN
100
AcDbLine
 10
644.49023
 20
345.265477
 30
0.0
 11
644.49023
 21
356.815477
 31
0.0
  0
LINE
  5
14277
100
AcDbEntity
  8
L-ZISSEN
100
AcDbLine
 10
640.49023
 20
356.815477
 30
0.0
 11
644.49023
 21
356.815477
 31
0.0
  0
LINE
  5
14279
100
AcDbEntity
  8
L-ZISSEN
100
AcDbLine
 10
644.49023
 20
345.265477
 30
0.0
 11
640.49023
 21
345.265477
 31
0.0
  0
LINE
  5
1427A
100
AcDbEntity
  8
L-ZISSEN
100
AcDbLine
 10
644.49023
 20
348.152977
 30
0.0
 11
640.49023
 21
348.152977
 31
0.0
  0
LINE
  5
1427B
100
AcDbEntity
  8
L-ZISSEN
100
AcDbLine
 10
644.49023
 20
353.927977
 30
0.0
 11
640.49023
 21
353.927977
 31
0.0
  0
LINE
  5
1427C
100
AcDbEntity
  8
L-ZISSEN
100
AcDbLine
 10
640.49023
 20
345.265477
 30
0.0
 11
640.49023
 21
356.815477
 31
0.0
  0
LINE
  5
1427D
100
AcDbEntity
  8
L-ZISSEN
100
AcDbLine
 10
644.49023
 20
350.540477
 30
0.0
 11
650.99023
 21
350.540477
 31
0.0
  0
LINE
  5
1427E
100
AcDbEntity
  8
L-ZISSEN
100
AcDbLine
 10
650.99023
 20
343.540477
 30
0.0
 11
650.99023
 21
350.540477
 31
0.0
  0
LINE
  5
14280
100
AcDbEntity
  8
L-ZISSEN
100
AcDbLine
 10
603.479398
 20
401.030323
 30
0.0
 11
593.883628
 21
392.433875
 31
0.0
  0
LINE
  5
14281
100
AcDbEntity
  8
L-ZISSEN
100
AcDbLine
 10
602.480074
 20
402.029645
 30
0.0
 11
593.883628
 21
392.433875
 31
0.0
  0
ARC
  5
14282
100
AcDbEntity
  8
L-ZISSEN
100
AcDbCircle
 10
608.069796
 20
406.620045
 30
0.0
 40
1.107712
100
AcDbArc
 50
318.447387
 51
131.552613
  0
LINE
  5
14283
100
AcDbEntity
  8
L-ZISSEN
100
AcDbLine
 10
607.335044
 20
407.448997
 30
0.0
 11
605.274802
 21
405.149255
 31
0.0
  0
LINE
  5
14284
100
AcDbEntity
  8
L-ZISSEN
100
AcDbLine
 10
608.898748
 20
405.885291
 30
0.0
 11
606.599008
 21
403.825049
 31
0.0
  0
CIRCLE
  5
14285
100
AcDbEntity
  8
L-ZISSEN
100
AcDbCircle
 10
604.49023
 20
403.040477
 30
0.0
 40
2.25
  0
LINE
  5
14286
100
AcDbEntity
  8
L-ZISSEN
100
AcDbLine
 10
623.777531
 20
412.540477
 30
0.0
 11
643.533375
 21
412.540477
 31
0.0
  0
LINE
  5
1428A
100
AcDbEntity
  8
L-ZISSEN
100
AcDbLine
 10
367.99023
 20
537.44482
 30
-2.309424
 11
367.99023
 21
559.44482
 31
-2.309424
  0
LINE
  5
1428B
100
AcDbEntity
  8
L-ZISSEN
100
AcDbLine
 10
331.99023
 20
537.44482
 30
-2.309424
 11
331.99023
 21
559.44482
 31
-2.309424
  0
LINE
  5
1428C
100
AcDbEntity
  8
L-ZISSEN
100
AcDbLine
 10
367.99023
 20
537.44482
 30
-2.309424
 11
331.99023
 21
537.44482
 31
-2.309424
  0
LINE
  5
1428D
100
AcDbEntity
  8
L-ZISSEN
100
AcDbLine
 10
367.99023
 20
559.44482
 30
-2.309424
 11
331.99023
 21
559.44482
 31
-2.309424
  0
LINE
  5
1428E
100
AcDbEntity
  8
L-ZISSEN
100
AcDbLine
 10
355.99023
 20
565.44482
 30
-2.309424
 11
343.99023
 21
565.44482
 31
-2.309424
  0
LINE
  5
1428F
100
AcDbEntity
  8
L-ZISSEN
100
AcDbLine
 10
343.99023
 20
559.44482
 30
-2.309424
 11
343.99023
 21
565.44482
 31
-2.309424
  0
LINE
  5
14290
100
AcDbEntity
  8
L-ZISSEN
100
AcDbLine
 10
355.99023
 20
559.44482
 30
-2.309424
 11
355.99023
 21
565.44482
 31
-2.309424
  0
LEADER
  5
14293
100
AcDbEntity
  8
L-ZISSEN
100
AcDbLeader
  3
STANDARD
 76
     3
 10
347.527866
 20
715.412127
 30
0.0
 10
313.21321
 20
797.043767
 30
0.0
 10
216.550548
 20
797.043767
 30
0.0
 77
   256
1001
ACAD
1000
DSTYLE
1002
{
1070
    78
1070
     8
1070
   140
1040
2.8
1070
    74
1070
     0
1070
   172
1070
     1
1070
   174
1070
     1
1070
    73
1070
     0
1070
    77
1070
     1
1070
    40
1040
3.0
1070
   147
1040
0.8
1070
    42
1040
1.0
1070
    44
1040
1.0
1070
   271
1070
     3
1070
    41
1040
2.0
1002
}
1000
LEANOF
1010
0.0
1020
0.0
1030
0.0
  0
LINE
  5
1429C
100
AcDbEntity
  8
L-ZISSEN
  6
CONTINUOUS
100
AcDbLine
 10
517.49023
 20
726.74482
 30
0.0
 11
517.49023
 21
727.44482
 31
0.0
  0
CIRCLE
  5
1429E
100
AcDbEntity
  8
L-ZISSEN
100
AcDbCircle
 10
370.74023
 20
722.19482
 30
0.0
 40
4.0
  0
LINE
  5
142A3
100
AcDbEntity
  8
L-ZISSEN
100
AcDbLine
 10
375.99023
 20
605.44482
 30
0.0
 11
375.99023
 21
727.44482
 31
0.0
  0
LINE
  5
142A4
100
AcDbEntity
  8
L-ZISSEN
  6
CONTINUOUS
100
AcDbLine
 10
317.49023
 20
727.44482
 30
0.0
 11
317.49023
 21
609.94482
 31
0.0
  0
LINE
  5
142A7
100
AcDbEntity
  8
L-ZISSEN
100
AcDbLine
 10
643.033376
 20
661.901676
 30
0.0
 11
643.033376
 21
745.987966
 31
0.0
  0
LINE
  5
142A8
100
AcDbEntity
  8
L-ZISSEN
100
AcDbLine
 10
646.282658
 20
658.652392
 30
0.0
 11
646.282658
 21
749.237248
 31
0.0
  0
LINE
  5
142A9
100
AcDbEntity
  8
L-ZISSEN
100
AcDbLine
 10
650.49023
 20
654.565712
 30
0.0
 11
650.49023
 21
753.021567
 31
0.0
  0
LINE
  5
142AA
100
AcDbEntity
  8
L-ZISSEN
100
AcDbLine
 10
545.947084
 20
745.987966
 30
0.0
 11
545.947084
 21
661.901676
 31
0.0
  0
LINE
  5
142AB
100
AcDbEntity
  8
L-ZISSEN
100
AcDbLine
 10
542.99023
 20
749.237248
 30
0.0
 11
542.99023
 21
658.652392
 31
0.0
  0
LINE
  5
142AC
100
AcDbEntity
  8
L-ZISSEN
100
AcDbLine
 10
538.490572
 20
752.890669
 30
0.0
 11
538.497452
 21
654.565712
 31
0.0
  0
LINE
  5
142AD
100
AcDbEntity
  8
L-TYUSIN
100
AcDbLine
 10
483.49023
 20
551.425356
 30
0.0
 11
483.49023
 21
781.44482
 31
0.0
  0
LINE
  5
142AE
100
AcDbEntity
  8
L-ZISSEN
100
AcDbLine
 10
303.49023
 20
566.44482
 30
0.0
 11
303.49023
 21
766.44482
 31
0.0
  0
LINE
  5
142AF
100
AcDbEntity
  8
L-ZISSEN
100
AcDbLine
 10
663.49023
 20
566.44482
 30
0.0
 11
663.49023
 21
766.44482
 31
0.0
  0
LINE
  5
142B0
100
AcDbEntity
  8
L-ZISSEN
100
AcDbLine
 10
354.99023
 20
566.44482
 30
0.0
 11
663.49023
 21
566.44482
 31
0.0
  0
LINE
  5
142B3
100
AcDbEntity
  8
L-ZISSEN
  6
CONTINUOUS
100
AcDbLine
 10
375.99023
 20
605.44482
 30
0.0
 11
517.49023
 21
605.44482
 31
0.0
  0
LINE
  5
142B4
100
AcDbEntity
  8
L-TYUSIN
100
AcDbLine
 10
521.923163
 20
666.44482
 30
0.0
 11
307.949876
 21
666.44482
 31
0.0
  0
LINE
  5
142B8
100
AcDbEntity
  8
L-TYUSIN
100
AcDbLine
 10
288.49023
 20
666.44482
 30
0.0
 11
678.49023
 21
666.44482
 31
0.0
  0
LINE
  5
142BD
100
AcDbEntity
  8
L-ZISSEN
100
AcDbLine
 10
349.99023
 20
608.94482
 30
0.0
 11
349.99023
 21
568.94482
 31
0.0
  0
LINE
  5
142BE
100
AcDbEntity
  8
L-ZISSEN
100
AcDbLine
 10
356.99023
 20
609.94482
 30
0.0
 11
356.99023
 21
568.94482
 31
0.0
  0
LINE
  5
142BF
100
AcDbEntity
  8
L-ZISSEN
100
AcDbLine
 10
342.99023
 20
609.94482
 30
0.0
 11
342.99023
 21
568.94482
 31
0.0
  0
LINE
  5
142C7
100
AcDbEntity
  8
L-ZISSEN
100
AcDbLine
 10
356.99023
 20
568.94482
 30
0.0
 11
342.99023
 21
568.94482
 31
0.0
  0
LINE
  5
142C8
100
AcDbEntity
  8
L-ZISSEN
100
AcDbLine
 10
303.49023
 20
566.44482
 30
0.0
 11
344.99023
 21
566.44482
 31
0.0
  0
LINE
  5
142D0
100
AcDbEntity
  8
L-ZISSEN
100
AcDbLine
 10
354.99023
 20
565.44482
 30
0.0
 11
354.99023
 21
568.94482
 31
0.0
  0
LINE
  5
142D1
100
AcDbEntity
  8
L-ZISSEN
100
AcDbLine
 10
344.99023
 20
565.44482
 30
0.0
 11
344.99023
 21
568.94482
 31
0.0
  0
LINE
  5
142D4
100
AcDbEntity
  8
L-ZISSEN
100
AcDbLine
 10
370.49023
 20
656.94482
 30
0.0
 11
370.49023
 21
615.94482
 31
0.0
  0
LINE
  5
142D5
100
AcDbEntity
  8
L-ZISSEN
100
AcDbLine
 10
329.49023
 20
656.94482
 30
0.0
 11
329.49023
 21
615.94482
 31
0.0
  0
CIRCLE
  5
142D6
100
AcDbEntity
  8
L-ZISSEN
100
AcDbCircle
 10
334.24023
 20
652.19482
 30
0.0
 40
4.0
  0
CIRCLE
  5
142D9
100
AcDbEntity
  8
L-ZISSEN
100
AcDbCircle
 10
365.74023
 20
620.69482
 30
0.0
 40
4.0
  0
LINE
  5
142DB
100
AcDbEntity
  8
L-ZISSEN
100
AcDbLine
 10
370.49023
 20
615.94482
 30
0.0
 11
329.49023
 21
615.94482
 31
0.0
  0
LINE
  5
142DC
100
AcDbEntity
  8
L-ZISSEN
100
AcDbLine
 10
375.99023
 20
609.94482
 30
0.0
 11
317.49023
 21
609.94482
 31
0.0
  0
LINE
  5
142DE
100
AcDbEntity
  8
L-ZISSEN
  6
CONTINUOUS
100
AcDbLine
 10
375.99023
 20
607.94482
 30
0.0
 11
375.99023
 21
607.44482
 31
0.0
  0
CIRCLE
  5
142E1
100
AcDbEntity
  8
L-ZISSEN
100
AcDbCircle
 10
349.99023
 20
636.44482
 30
0.0
 40
10.15
  0
CIRCLE
  5
142EC
100
AcDbEntity
  8
L-ZISSEN
100
AcDbCircle
 10
370.74023
 20
690.69482
 30
0.0
 40
4.0
  0
CIRCLE
  5
142F0
100
AcDbEntity
  8
L-ZISSEN
100
AcDbCircle
 10
335.24023
 20
690.69482
 30
0.0
 40
4.0
  0
LINE
  5
142F3
100
AcDbEntity
  8
L-ZISSEN
100
AcDbLine
 10
375.99023
 20
685.94482
 30
0.0
 11
329.99023
 21
685.94482
 31
0.0
  0
CIRCLE
  5
142F4
100
AcDbEntity
  8
L-ZISSEN
100
AcDbCircle
 10
352.99023
 20
671.94482
 30
0.0
 40
9.0
  0
LINE
  5
142F5
100
AcDbEntity
  8
L-ZISSEN
100
AcDbLine
 10
329.49023
 20
656.94482
 30
0.0
 11
370.49023
 21
656.94482
 31
0.0
  0
POLYLINE
  5
142F7
100
AcDbEntity
  8
L-ZISSEN
100
AcDb2dPolyline
 66
     1
 10
0.0
 20
0.0
 30
0.0
 70
     1
  0
VERTEX
  5
14F7A
100
AcDbEntity
  8
L-ZISSEN
100
AcDbVertex
100
AcDb2dVertex
 10
328.969504
 20
683.94482
 30
0.0
  0
VERTEX
  5
14F7B
100
AcDbEntity
  8
L-ZISSEN
100
AcDbVertex
100
AcDb2dVertex
 10
326.948778
 20
680.44482
 30
0.0
  0
VERTEX
  5
14F7C
100
AcDbEntity
  8
L-ZISSEN
100
AcDbVertex
100
AcDb2dVertex
 10
328.969504
 20
676.94482
 30
0.0
  0
VERTEX
  5
14F7D
100
AcDbEntity
  8
L-ZISSEN
100
AcDbVertex
100
AcDb2dVertex
 10
333.010956
 20
676.94482
 30
0.0
  0
VERTEX
  5
14F7E
100
AcDbEntity
  8
L-ZISSEN
100
AcDbVertex
100
AcDb2dVertex
 10
335.031682
 20
680.44482
 30
0.0
  0
VERTEX
  5
14F7F
100
AcDbEntity
  8
L-ZISSEN
100
AcDbVertex
100
AcDb2dVertex
 10
333.010956
 20
683.94482
 30
0.0
  0
SEQEND
  5
14F80
100
AcDbEntity
  8
L-ZISSEN
  0
CIRCLE
  5
14301
100
AcDbEntity
  8
L-ZISSEN
100
AcDbCircle
 10
352.99023
 20
671.94482
 30
0.0
 40
5.0
  0
LINE
  5
14303
100
AcDbEntity
  8
L-ZISSEN
100
AcDbLine
 10
348.015293
 20
664.44482
 30
0.0
 11
357.965167
 21
664.44482
 31
0.0
  0
LINE
  5
14304
100
AcDbEntity
  8
L-ZISSEN
100
AcDbLine
 10
348.015293
 20
679.44482
 30
0.0
 11
357.965167
 21
679.44482
 31
0.0
  0
CIRCLE
  5
14307
100
AcDbEntity
  8
L-ZISSEN
100
AcDbCircle
 10
352.99023
 20
706.44482
 30
0.0
 40
16.0
  0
CIRCLE
  5
14308
100
AcDbEntity
  8
L-ZISSEN
100
AcDbCircle
 10
352.99023
 20
706.44482
 30
0.0
 40
10.5
  0
LINE
  5
1430A
100
AcDbEntity
  8
L-ZISSEN
100
AcDbLine
 10
329.99023
 20
726.94482
 30
0.0
 11
329.99023
 21
685.94482
 31
0.0
  0
LINE
  5
14314
100
AcDbEntity
  8
L-ZISSEN
100
AcDbLine
 10
375.99023
 20
721.94482
 30
0.0
 11
375.99023
 21
690.94482
 31
0.0
  0
LINE
  5
14318
100
AcDbEntity
  8
L-ZISSEN
100
AcDbLine
 10
496.49023
 20
592.56828
 30
0.0
 11
496.49023
 21
582.56828
 31
0.0
  0
LINE
  5
1431B
100
AcDbEntity
  8
L-ZISSEN
100
AcDbLine
 10
474.49023
 20
592.56828
 30
0.0
 11
474.49023
 21
582.56828
 31
0.0
  0
LINE
  5
14322
100
AcDbEntity
  8
L-ZISSEN
100
AcDbLine
 10
625.99023
 20
579.44082
 30
0.0
 11
625.99023
 21
590.44082
 31
0.0
  0
LINE
  5
14323
100
AcDbEntity
  8
L-ZISSEN
100
AcDbLine
 10
582.99023
 20
579.44082
 30
0.0
 11
582.99023
 21
590.44082
 31
0.0
  0
LINE
  5
14325
100
AcDbEntity
  8
L-ZISSEN
100
AcDbLine
 10
625.99023
 20
579.44082
 30
0.0
 11
582.99023
 21
579.44082
 31
0.0
  0
CIRCLE
  5
14326
100
AcDbEntity
  8
L-ZISSEN
  6
CONTINUOUS
100
AcDbCircle
 10
424.99023
 20
530.44482
 30
0.0
 40
26.0
  0
LINE
  5
1432B
100
AcDbEntity
  8
L-ZISSEN
100
AcDbLine
 10
402.901762
 20
452.540477
 30
0.0
 11
512.478698
 21
452.540477
 31
0.0
  0
LINE
  5
14336
100
AcDbEntity
  8
L-ZISSEN
100
AcDbLine
 10
491.49023
 20
577.56828
 30
0.0
 11
496.49023
 21
582.56828
 31
0.0
  0
LINE
  5
1433C
100
AcDbEntity
  8
L-ZISSEN
100
AcDbLine
 10
449.49023
 20
548.44482
 30
0.0
 11
449.49023
 21
566.44482
 31
0.0
  0
LINE
  5
1433D
100
AcDbEntity
  8
L-ZISSEN
100
AcDbLine
 10
400.49023
 20
548.44482
 30
0.0
 11
400.49023
 21
566.44482
 31
0.0
  0
LINE
  5
14342
100
AcDbEntity
  8
L-ZISSEN
100
AcDbLine
 10
400.49023
 20
548.44482
 30
0.0
 11
400.49023
 21
543.94482
 31
0.0
  0
ARC
  5
14343
100
AcDbEntity
  8
L-ZISSEN
100
AcDbCircle
 10
400.99023
 20
543.94482
 30
0.0
 40
0.5
100
AcDbArc
 50
180.0
 51
270.0
  0
LINE
  5
14344
100
AcDbEntity
  8
L-ZISSEN
100
AcDbLine
 10
400.99023
 20
543.44482
 30
0.0
 11
402.473569
 21
543.44482
 31
0.0
  0
LINE
  5
14345
100
AcDbEntity
  8
L-ZISSEN
100
AcDbLine
 10
400.49023
 20
548.44482
 30
0.0
 11
406.228567
 21
548.44482
 31
0.0
  0
LINE
  5
14348
100
AcDbEntity
  8
L-ZISSEN
100
AcDbLine
 10
443.751893
 20
548.44482
 30
0.0
 11
449.49023
 21
548.44482
 31
0.0
  0
LINE
  5
1434B
100
AcDbEntity
  8
L-ZISSEN
100
AcDbLine
 10
449.49023
 20
548.44482
 30
0.0
 11
449.49023
 21
543.94482
 31
0.0
  0
LINE
  5
1434C
100
AcDbEntity
  8
L-ZISSEN
100
AcDbLine
 10
447.50689
 20
543.44482
 30
0.0
 11
448.99023
 21
543.44482
 31
0.0
  0
ARC
  5
1434D
100
AcDbEntity
  8
L-ZISSEN
100
AcDbCircle
 10
448.99023
 20
543.94482
 30
0.0
 40
0.5
100
AcDbArc
 50
270.0
 51
0.0
  0
LINE
  5
14355
100
AcDbEntity
  8
L-ZISSEN
100
AcDbLine
 10
474.49023
 20
582.56828
 30
0.0
 11
479.49023
 21
577.56828
 31
0.0
  0
LINE
  5
14358
100
AcDbEntity
  8
L-ZISSEN
100
AcDbLine
 10
479.49023
 20
577.56828
 30
0.0
 11
491.49023
 21
577.56828
 31
0.0
  0
LINE
  5
14373
100
AcDbEntity
  8
L-ZISSEN
100
AcDbLine
 10
583.49023
 20
604.44082
 30
0.0
 11
625.49023
 21
604.44082
 31
0.0
  0
LINE
  5
14374
100
AcDbEntity
  8
L-ZISSEN
100
AcDbLine
 10
582.99023
 20
590.44082
 30
0.0
 11
636.99023
 21
590.44082
 31
0.0
  0
ARC
  5
14376
100
AcDbEntity
  8
L-ZISSEN
100
AcDbCircle
 10
594.49023
 20
669.94482
 30
0.0
 40
8.28399
100
AcDbArc
 50
5.0
 51
175.0
  0
LINE
  5
14378
100
AcDbEntity
  8
L-ZISSEN
100
AcDbLine
 10
646.282658
 20
658.652392
 30
0.0
 11
542.99023
 21
658.652392
 31
0.0
  0
CIRCLE
  5
1437B
100
AcDbEntity
  8
L-ZISSEN
100
AcDbCircle
 10
594.49023
 20
669.94482
 30
0.0
 40
5.0
  0
LINE
  5
14382
100
AcDbEntity
  8
L-ZISSEN
100
AcDbLine
 10
491.44023
 20
700.19482
 30
0.0
 11
491.44023
 21
632.69482
 31
0.0
  0
LINE
  5
14383
100
AcDbEntity
  8
L-ZISSEN
100
AcDbLine
 10
512.478698
 20
721.233289
 30
0.0
 11
512.478698
 21
611.656352
 31
0.0
  0
LINE
  5
14384
100
AcDbEntity
  8
L-ZISSEN
100
AcDbLine
 10
517.99023
 20
726.74482
 30
0.0
 11
517.99023
 21
606.14482
 31
0.0
  0
ARC
  5
14385
100
AcDbEntity
  8
L-ZISSEN
100
AcDbCircle
 10
387.69023
 20
643.44482
 30
0.0
 40
20.219324
100
AcDbArc
 50
318.792305
 51
41.207695
  0
ARC
  5
14386
100
AcDbEntity
  8
L-ZISSEN
100
AcDbCircle
 10
387.69023
 20
643.44482
 30
0.0
 40
17.2
100
AcDbArc
 50
304.329651
 51
55.670349
  0
LINE
  5
14387
100
AcDbEntity
  8
L-ZISSEN
100
AcDbLine
 10
423.94023
 20
700.19482
 30
0.0
 11
423.94023
 21
632.69482
 31
0.0
  0
LINE
  5
1438A
100
AcDbEntity
  8
L-ZISSEN
100
AcDbLine
 10
473.49023
 20
597.56828
 30
0.0
 11
497.833088
 21
597.56828
 31
0.0
  0
LINE
  5
1438B
100
AcDbEntity
  8
L-ZISSEN
100
AcDbLine
 10
474.49023
 20
592.56828
 30
0.0
 11
496.49023
 21
592.56828
 31
0.0
  0
LINE
  5
1438C
100
AcDbEntity
  8
L-ZISSEN
100
AcDbLine
 10
471.99023
 20
602.06828
 30
0.0
 11
498.99023
 21
602.06828
 31
0.0
  0
LINE
  5
1438E
100
AcDbEntity
  8
L-ZISSEN
100
AcDbLine
 10
512.478698
 20
611.656352
 30
0.0
 11
402.901762
 21
611.656352
 31
0.0
  0
LINE
  5
1438F
100
AcDbEntity
  8
L-ZISSEN
100
AcDbLine
 10
397.39023
 20
606.14482
 30
0.0
 11
517.99023
 21
606.14482
 31
0.0
  0
CIRCLE
  5
14392
100
AcDbEntity
  8
L-ZISSEN
100
AcDbCircle
 10
462.69023
 20
622.44482
 30
0.0
 40
5.0
  0
LINE
  5
14393
100
AcDbEntity
  8
L-ZISSEN
100
AcDbLine
 10
402.901762
 20
630.124522
 30
0.0
 11
402.901762
 21
611.656352
 31
0.0
  0
LINE
  5
14394
100
AcDbEntity
  8
L-ZISSEN
100
AcDbLine
 10
397.39023
 20
629.240948
 30
0.0
 11
397.39023
 21
606.14482
 31
0.0
  0
LINE
  5
14397
100
AcDbEntity
  8
L-ZISSEN
100
AcDbLine
 10
471.99023
 20
605.56828
 30
0.0
 11
471.99023
 21
602.06828
 31
0.0
  0
LINE
  5
14399
100
AcDbEntity
  8
L-ZISSEN
100
AcDbLine
 10
491.49023
 20
602.06828
 30
0.0
 11
491.49023
 21
597.56828
 31
0.0
  0
LINE
  5
1439A
100
AcDbEntity
  8
L-ZISSEN
100
AcDbLine
 10
473.49023
 20
597.56828
 30
0.0
 11
473.49023
 21
602.06828
 31
0.0
  0
LINE
  5
1439B
100
AcDbEntity
  8
L-ZISSEN
100
AcDbLine
 10
477.24023
 20
597.56828
 30
0.0
 11
477.24023
 21
592.56828
 31
0.0
  0
LINE
  5
1439C
100
AcDbEntity
  8
L-ZISSEN
100
AcDbLine
 10
479.49023
 20
597.56828
 30
0.0
 11
479.49023
 21
602.06828
 31
0.0
  0
LINE
  5
143A0
100
AcDbEntity
  8
L-ZISSEN
100
AcDbLine
 10
423.94023
 20
632.69482
 30
0.0
 11
491.44023
 21
632.69482
 31
0.0
  0
LINE
  5
143AB
100
AcDbEntity
  8
L-ZISSEN
100
AcDbLine
 10
498.99023
 20
602.06828
 30
0.0
 11
498.99023
 21
605.32136
 31
0.0
  0
LINE
  5
143AC
100
AcDbEntity
  8
L-ZISSEN
100
AcDbLine
 10
497.833088
 20
597.56828
 30
0.0
 11
497.833088
 21
602.06828
 31
0.0
  0
LINE
  5
143AD
100
AcDbEntity
  8
L-ZISSEN
100
AcDbLine
 10
493.74023
 20
597.56828
 30
0.0
 11
493.74023
 21
592.56828
 31
0.0
  0
LINE
  5
143B3
100
AcDbEntity
  8
L-ZISSEN
  6
CONTINUOUS
100
AcDbLine
 10
517.49023
 20
605.44482
 30
0.0
 11
517.49023
 21
606.14482
 31
0.0
  0
LINE
  5
143B9
100
AcDbEntity
  8
L-ZISSEN
100
AcDbLine
 10
583.49023
 20
604.44082
 30
0.0
 11
583.49023
 21
590.44082
 31
0.0
  0
LINE
  5
143F0
100
AcDbEntity
  8
L-ZISSEN
100
AcDbLine
 10
512.478698
 20
721.233289
 30
0.0
 11
402.901762
 21
721.233289
 31
0.0
  0
LINE
  5
143F1
100
AcDbEntity
  8
L-ZISSEN
100
AcDbLine
 10
402.901762
 20
721.233289
 30
0.0
 11
402.901762
 21
656.765119
 31
0.0
  0
LINE
  5
143F2
100
AcDbEntity
  8
L-ZISSEN
100
AcDbLine
 10
397.39023
 20
726.74482
 30
0.0
 11
397.39023
 21
657.648693
 31
0.0
  0
LINE
  5
143F3
100
AcDbEntity
  8
L-ZISSEN
100
AcDbLine
 10
423.94023
 20
700.19482
 30
0.0
 11
491.44023
 21
700.19482
 31
0.0
  0
CIRCLE
  5
143F6
100
AcDbEntity
  8
L-ZISSEN
100
AcDbCircle
 10
462.69023
 20
710.44482
 30
0.0
 40
5.0
  0
LINE
  5
143FA
100
AcDbEntity
  8
L-ZISSEN
100
AcDbLine
 10
545.947084
 20
661.901676
 30
0.0
 11
582.721918
 21
661.901676
 31
0.0
  0
LINE
  5
143FF
100
AcDbEntity
  8
L-ZISSEN
100
AcDbLine
 10
585.710502
 20
664.640208
 30
0.0
 11
586.237762
 21
670.666818
 31
0.0
  0
ARC
  5
14400
100
AcDbEntity
  8
L-ZISSEN
100
AcDbCircle
 10
582.721918
 20
664.901676
 30
0.0
 40
3.0
100
AcDbArc
 50
270.0
 51
355.0
  0
LINE
  5
14405
100
AcDbEntity
  8
L-ZISSEN
100
AcDbLine
 10
643.49023
 20
651.312632
 30
0.0
 11
643.49023
 21
654.565712
 31
0.0
  0
LINE
  5
14406
100
AcDbEntity
  8
L-ZISSEN
100
AcDbLine
 10
616.49023
 20
654.565712
 30
0.0
 11
616.49023
 21
651.312632
 31
0.0
  0
LINE
  5
1440A
100
AcDbEntity
  8
L-ZISSEN
100
AcDbLine
 10
644.49023
 20
591.44082
 30
0.0
 11
636.99023
 21
591.44082
 31
0.0
  0
LINE
  5
1440B
100
AcDbEntity
  8
L-ZISSEN
100
AcDbLine
 10
636.99023
 20
601.44082
 30
0.0
 11
644.49023
 21
601.44082
 31
0.0
  0
LINE
  5
1440D
100
AcDbEntity
  8
L-ZISSEN
100
AcDbLine
 10
636.99023
 20
602.44082
 30
0.0
 11
636.99023
 21
590.44082
 31
0.0
  0
LINE
  5
1440E
100
AcDbEntity
  8
L-ZISSEN
100
AcDbLine
 10
625.49023
 20
604.44082
 30
0.0
 11
625.49023
 21
590.44082
 31
0.0
  0
LINE
  5
14413
100
AcDbEntity
  8
L-ZISSEN
100
AcDbLine
 10
625.49023
 20
596.44082
 30
0.0
 11
636.49023
 21
596.44082
 31
0.0
  0
LINE
  5
14416
100
AcDbEntity
  8
L-ZISSEN
100
AcDbLine
 10
590.99023
 20
604.44082
 30
0.0
 11
590.99023
 21
608.94082
 31
0.0
  0
LINE
  5
14418
100
AcDbEntity
  8
L-ZISSEN
100
AcDbLine
 10
590.99023
 20
608.94082
 30
0.0
 11
601.99023
 21
608.94082
 31
0.0
  0
LINE
  5
14419
100
AcDbEntity
  8
L-ZISSEN
100
AcDbLine
 10
601.99023
 20
608.94082
 30
0.0
 11
601.99023
 21
604.44082
 31
0.0
  0
LINE
  5
1441B
100
AcDbEntity
  8
L-ZISSEN
100
AcDbLine
 10
625.49023
 20
602.44082
 30
0.0
 11
636.99023
 21
602.44082
 31
0.0
  0
LINE
  5
1441F
100
AcDbEntity
  8
L-ZISSEN
100
AcDbLine
 10
640.49023
 20
596.44082
 30
0.0
 11
644.49023
 21
596.44082
 31
0.0
  0
LINE
  5
14421
100
AcDbEntity
  8
L-ZISSEN
100
AcDbLine
 10
640.49023
 20
601.44082
 30
0.0
 11
640.49023
 21
591.44082
 31
0.0
  0
LINE
  5
14422
100
AcDbEntity
  8
L-ZISSEN
100
AcDbLine
 10
644.49023
 20
601.44082
 30
0.0
 11
644.49023
 21
591.44082
 31
0.0
  0
LINE
  5
14424
100
AcDbEntity
  8
L-ZISSEN
100
AcDbLine
 10
616.49023
 20
651.312632
 30
0.0
 11
643.49023
 21
651.312632
 31
0.0
  0
LINE
  5
14426
100
AcDbEntity
  8
L-ZISSEN
100
AcDbLine
 10
618.99023
 20
641.812632
 30
0.0
 11
640.99023
 21
641.812632
 31
0.0
  0
LINE
  5
14428
100
AcDbEntity
  8
L-ZISSEN
100
AcDbLine
 10
635.99023
 20
626.812632
 30
0.0
 11
640.99023
 21
631.812632
 31
0.0
  0
LINE
  5
14429
100
AcDbEntity
  8
L-ZISSEN
100
AcDbLine
 10
617.99023
 20
646.812632
 30
0.0
 11
642.333088
 21
646.812632
 31
0.0
  0
LINE
  5
1442E
100
AcDbEntity
  8
L-ZISSEN
100
AcDbLine
 10
618.99023
 20
641.812632
 30
0.0
 11
618.99023
 21
631.812632
 31
0.0
  0
LINE
  5
14433
100
AcDbEntity
  8
L-ZISSEN
100
AcDbLine
 10
623.99023
 20
626.812632
 30
0.0
 11
635.99023
 21
626.812632
 31
0.0
  0
LINE
  5
14434
100
AcDbEntity
  8
L-ZISSEN
100
AcDbLine
 10
618.99023
 20
631.812632
 30
0.0
 11
623.99023
 21
626.812632
 31
0.0
  0
LINE
  5
14437
100
AcDbEntity
  8
L-ZISSEN
100
AcDbLine
 10
638.24023
 20
646.812632
 30
0.0
 11
638.24023
 21
641.812632
 31
0.0
  0
LINE
  5
14438
100
AcDbEntity
  8
L-ZISSEN
100
AcDbLine
 10
635.99023
 20
651.312632
 30
0.0
 11
635.99023
 21
646.812632
 31
0.0
  0
LINE
  5
1443B
100
AcDbEntity
  8
L-ZISSEN
100
AcDbLine
 10
623.99023
 20
646.812632
 30
0.0
 11
623.99023
 21
651.312632
 31
0.0
  0
LINE
  5
1443C
100
AcDbEntity
  8
L-ZISSEN
100
AcDbLine
 10
621.74023
 20
646.812632
 30
0.0
 11
621.74023
 21
641.812632
 31
0.0
  0
LINE
  5
1443D
100
AcDbEntity
  8
L-ZISSEN
100
AcDbLine
 10
617.99023
 20
646.812632
 30
0.0
 11
617.99023
 21
651.312632
 31
0.0
  0
LINE
  5
14440
100
AcDbEntity
  8
L-ZISSEN
100
AcDbLine
 10
640.99023
 20
641.812632
 30
0.0
 11
640.99023
 21
631.812632
 31
0.0
  0
LINE
  5
14445
100
AcDbEntity
  8
L-ZISSEN
100
AcDbLine
 10
642.333088
 20
646.812632
 30
0.0
 11
642.333088
 21
651.312632
 31
0.0
  0
LINE
  5
14447
100
AcDbEntity
  8
L-ZISSEN
100
AcDbLine
 10
606.258542
 20
661.901676
 30
0.0
 11
643.033376
 21
661.901676
 31
0.0
  0
ARC
  5
1444C
100
AcDbEntity
  8
L-ZISSEN
100
AcDbCircle
 10
606.258542
 20
664.901676
 30
0.0
 40
3.0
100
AcDbArc
 50
185.0
 51
270.0
  0
LINE
  5
1444D
100
AcDbEntity
  8
L-ZISSEN
100
AcDbLine
 10
603.269958
 20
664.640208
 30
0.0
 11
602.742698
 21
670.666818
 31
0.0
  0
LINE
  5
14467
100
AcDbEntity
  8
L-ZISSEN
  6
CONTINUOUS
100
AcDbLine
 10
517.49023
 20
727.44482
 30
0.0
 11
317.49023
 21
727.44482
 31
0.0
  0
LINE
  5
1446B
100
AcDbEntity
  8
L-ZISSEN
100
AcDbLine
 10
298.49023
 20
766.44482
 30
0.0
 11
668.49023
 21
766.44482
 31
0.0
  0
TEXT
  5
1446D
100
AcDbEntity
  8
L-ZISSEN
100
AcDbText
 10
271.112229
 20
803.415382
 30
0.0
 40
4.5
  1
PORT Rc1／2
 72
     2
 11
311.569372
 21
802.815382
 31
0.0
100
AcDbText
 73
     1
  0
LINE
  5
14474
100
AcDbEntity
  8
L-ZISSEN
100
AcDbLine
 10
375.99023
 20
726.94482
 30
0.0
 11
329.99023
 21
726.94482
 31
0.0
  0
LINE
  5
14477
100
AcDbEntity
  8
L-ZISSEN
100
AcDbLine
 10
298.49023
 20
766.44482
 30
0.0
 11
298.49023
 21
764.44482
 31
0.0
  0
LINE
  5
14478
100
AcDbEntity
  8
L-ZISSEN
100
AcDbLine
 10
303.49023
 20
764.44482
 30
0.0
 11
298.49023
 21
764.44482
 31
0.0
  0
TEXT
  5
1447A
100
AcDbEntity
  8
L-ZISSEN
100
AcDbText
 10
219.665475
 20
803.38223
 30
0.0
 40
4.5
  1
M／L FOG OUT
 72
     2
 11
264.75119
 21
802.78223
 31
0.0
100
AcDbText
 73
     1
  0
CIRCLE
  5
1447E
100
AcDbEntity
  8
L-ZISSEN
100
AcDbCircle
 10
594.49023
 20
737.94482
 30
0.0
 40
5.0
  0
ARC
  5
14480
100
AcDbEntity
  8
L-ZISSEN
100
AcDbCircle
 10
594.49023
 20
737.94482
 30
0.0
 40
8.28399
100
AcDbArc
 50
185.0
 51
355.0
  0
LINE
  5
14482
100
AcDbEntity
  8
L-ZISSEN
100
AcDbLine
 10
542.99023
 20
749.237248
 30
0.0
 11
646.282658
 21
749.237248
 31
0.0
  0
LINE
  5
14483
100
AcDbEntity
  8
L-ZISSEN
100
AcDbLine
 10
538.490572
 20
752.890669
 30
0.0
 11
601.99023
 21
753.44482
 31
0.0
  0
LINE
  5
14484
100
AcDbEntity
  8
L-ZISSEN
100
AcDbLine
 10
397.39023
 20
726.74482
 30
0.0
 11
517.99023
 21
726.74482
 31
0.0
  0
LINE
  5
14495
100
AcDbEntity
  8
L-ZISSEN
100
AcDbLine
 10
585.710502
 20
743.249432
 30
0.0
 11
586.237762
 21
737.222822
 31
0.0
  0
LINE
  5
14497
100
AcDbEntity
  8
L-ZISSEN
100
AcDbLine
 10
570.49023
 20
754.81828
 30
0.0
 11
548.49023
 21
754.81828
 31
0.0
  0
LINE
  5
14498
100
AcDbEntity
  8
L-ZISSEN
100
AcDbLine
 10
545.947084
 20
745.987966
 30
0.0
 11
582.721918
 21
745.987966
 31
0.0
  0
LINE
  5
14499
100
AcDbEntity
  8
L-ZISSEN
100
AcDbLine
 10
546.99023
 20
753.31828
 30
0.0
 11
546.99023
 21
752.964842
 31
0.0
  0
ARC
  5
1449A
100
AcDbEntity
  8
L-ZISSEN
100
AcDbCircle
 10
548.49023
 20
753.31828
 30
0.0
 40
1.5
100
AcDbArc
 50
90.0
 51
180.0
  0
ARC
  5
1449D
100
AcDbEntity
  8
L-ZISSEN
100
AcDbCircle
 10
570.49023
 20
753.31828
 30
0.0
 40
1.5
100
AcDbArc
 50
0.0
 51
90.0
  0
LINE
  5
1449E
100
AcDbEntity
  8
L-ZISSEN
100
AcDbLine
 10
571.99023
 20
753.31828
 30
0.0
 11
571.99023
 21
753.183014
 31
0.0
  0
ARC
  5
1449F
100
AcDbEntity
  8
L-ZISSEN
100
AcDbCircle
 10
582.721918
 20
742.987966
 30
0.0
 40
3.0
100
AcDbArc
 50
5.0
 51
90.0
  0
LINE
  5
144AA
100
AcDbEntity
  8
L-ZISSEN
100
AcDbLine
 10
606.258542
 20
745.987966
 30
0.0
 11
643.033376
 21
745.987966
 31
0.0
  0
LINE
  5
144AB
100
AcDbEntity
  8
L-ZISSEN
100
AcDbLine
 10
601.99023
 20
753.44482
 30
0.0
 11
650.49023
 21
753.021567
 31
0.0
  0
LINE
  5
144AE
100
AcDbEntity
  8
L-ZISSEN
100
AcDbLine
 10
602.742698
 20
737.222822
 30
0.0
 11
603.269958
 21
743.249432
 31
0.0
  0
ARC
  5
144B2
100
AcDbEntity
  8
L-ZISSEN
100
AcDbCircle
 10
606.258542
 20
742.987966
 30
0.0
 40
3.0
100
AcDbArc
 50
90.0
 51
175.0
  0
LINE
  5
144B6
100
AcDbEntity
  8
L-ZISSEN
100
AcDbLine
 10
663.49023
 20
764.44482
 30
0.0
 11
668.49023
 21
764.44482
 31
0.0
  0
LINE
  5
144B8
100
AcDbEntity
  8
L-ZISSEN
100
AcDbLine
 10
668.49023
 20
766.44482
 30
0.0
 11
668.49023
 21
764.44482
 31
0.0
  0
LINE
  5
14875
100
AcDbEntity
  8
L-ZISSEN
100
AcDbLine
 10
740.35354
 20
168.462315
 30
0.0
 11
842.978388
 21
168.462315
 31
0.0
  0
TEXT
  5
14876
100
AcDbEntity
  8
L-ZISSEN
100
AcDbText
 10
742.572902
 20
171.57399
 30
0.0
 40
4.5
  1
MODEL NO.
100
AcDbText
  0
LINE
  5
14931
100
AcDbEntity
  8
L-ZISSEN
100
AcDbLine
 10
488.49023
 20
741.44482
 30
0.0
 11
502.49023
 21
741.44482
 31
0.0
  0
LINE
  5
14935
100
AcDbEntity
  8
L-ZISSEN
100
AcDbLine
 10
488.49023
 20
741.44482
 30
0.0
 11
487.49023
 21
727.44482
 31
0.0
  0
LINE
  5
14936
100
AcDbEntity
  8
L-ZISSEN
100
AcDbLine
 10
502.49023
 20
741.44482
 30
0.0
 11
503.49023
 21
727.44482
 31
0.0
  0
LINE
  5
14937
100
AcDbEntity
  8
L-ZISSEN
100
AcDbLine
 10
468.49023
 20
741.44482
 30
0.0
 11
467.49023
 21
727.44482
 31
0.0
  0
LINE
  5
14938
100
AcDbEntity
  8
L-ZISSEN
100
AcDbLine
 10
468.49023
 20
741.44482
 30
0.0
 11
482.49023
 21
741.44482
 31
0.0
  0
LINE
  5
14939
100
AcDbEntity
  8
L-ZISSEN
100
AcDbLine
 10
482.49023
 20
741.44482
 30
0.0
 11
483.49023
 21
727.44482
 31
0.0
  0
CIRCLE
  5
14982
100
AcDbEntity
  8
L-ZISSEN
100
AcDbCircle
 10
334.99023
 20
722.44482
 30
0.0
 40
4.0
  0
LINE
  5
14987
100
AcDbEntity
  8
L-ZISSEN
100
AcDbLine
 10
650.49023
 20
654.565712
 30
0.0
 11
538.497452
 21
654.565963
 31
0.0
  0
TEXT
  5
14989
100
AcDbEntity
  8
L-ZISSEN
100
AcDbText
 10
781.262119
 20
171.57399
 30
0.0
 40
4.5
  1
MCB-06L3-*B0*
100
AcDbText
  0
LINE
  5
1498C
100
AcDbEntity
  8
L-ZISSEN
100
AcDbLine
 10
161.326282
 20
158.340477
 30
0.0
 11
-38.673718
 21
158.340477
 31
0.0
  0
LINE
  5
1498D
100
AcDbEntity
  8
L-ZISSEN
100
AcDbLine
 10
161.326282
 20
306.540477
 30
0.0
 11
-38.673718
 21
306.540477
 31
0.0
  0
LINE
  5
1498E
100
AcDbEntity
  8
L-ZISSEN
100
AcDbLine
 10
161.326282
 20
306.540477
 30
0.0
 11
161.326282
 21
158.340477
 31
0.0
  0
LINE
  5
1498F
100
AcDbEntity
  8
L-ZISSEN
100
AcDbLine
 10
-38.673718
 20
306.540477
 30
0.0
 11
-38.673718
 21
152.340477
 31
0.0
  0
LINE
  5
14990
100
AcDbEntity
  8
L-ZISSEN
100
AcDbLine
 10
-36.673718
 20
300.340477
 30
0.0
 11
-36.673718
 21
152.340477
 31
0.0
  0
LINE
  5
14992
100
AcDbEntity
  8
L-ZISSEN
100
AcDbLine
 10
-36.673718
 20
152.340477
 30
0.0
 11
-38.673718
 21
152.340477
 31
0.0
  0
LINE
  5
14996
100
AcDbEntity
  8
L-ZISSEN
100
AcDbLine
 10
168.826282
 20
222.840477
 30
0.0
 11
161.326282
 21
222.840477
 31
0.0
  0
LINE
  5
14997
100
AcDbEntity
  8
L-ZISSEN
100
AcDbLine
 10
179.826282
 20
187.840477
 30
0.0
 11
161.326282
 21
187.840477
 31
0.0
  0
LINE
  5
14B9C
100
AcDbEntity
  8
L-ZISSEN
100
AcDbLine
 10
180.826282
 20
222.840477
 30
-0.729431
 11
161.326282
 21
222.840477
 31
0.0
  0
LINE
  5
14BA9
100
AcDbEntity
  8
L-ZISSEN
100
AcDbLine
 10
214.826282
 20
205.340477
 30
5.0037
 11
214.826282
 21
248.644325
 31
5.0037
  0
LINE
  5
14BAA
100
AcDbEntity
  8
L-ZISSEN
100
AcDbLine
 10
180.826282
 20
222.840477
 30
5.0037
 11
180.826282
 21
248.644325
 31
5.0037
  0
ARC
  5
14BAC
100
AcDbEntity
  8
L-ZISSEN
100
AcDbCircle
 10
197.826282
 20
205.340477
 30
5.0037
 40
17.0
100
AcDbArc
 50
270.0
 51
0.0
  0
LINE
  5
14BBA
100
AcDbEntity
  8
L-ZISSEN
100
AcDbLine
 10
197.826282
 20
188.340477
 30
5.0037
 11
179.826282
 21
188.340477
 31
5.0037
  0
LINE
  5
14BBC
100
AcDbEntity
  8
L-ZISSEN
100
AcDbLine
 10
179.826282
 20
187.840477
 30
0.0
 11
179.826282
 21
222.840477
 31
5.0037
  0
LINE
  5
14BC3
100
AcDbEntity
  8
L-ZISSEN
100
AcDbLine
 10
180.826282
 20
248.644325
 30
5.0037
 11
214.826282
 21
248.644325
 31
5.0037
  0
LINE
  5
14C07
100
AcDbEntity
  8
L-ZISSEN
  6
CONTINUOUS
100
AcDbLine
 10
171.826282
 20
276.340477
 30
5.0037
 11
223.826282
 21
276.340477
 31
5.0037
  0
LINE
  5
14C08
100
AcDbEntity
  8
L-ZISSEN
  6
CONTINUOUS
100
AcDbLine
 10
171.826282
 20
257.340477
 30
5.0037
 11
223.826282
 21
257.340477
 31
5.0037
  0
LINE
  5
14C09
100
AcDbEntity
  8
L-ZISSEN
  6
CONTINUOUS
100
AcDbLine
 10
171.826282
 20
261.340477
 30
5.0037
 11
223.826282
 21
261.340477
 31
5.0037
  0
LINE
  5
14C0A
100
AcDbEntity
  8
L-ZISSEN
100
AcDbLine
 10
177.826282
 20
253.840477
 30
5.0037
 11
217.826282
 21
253.840477
 31
5.0037
  0
LINE
  5
14C0B
100
AcDbEntity
  8
L-ZISSEN
  6
CONTINUOUS
100
AcDbLine
 10
171.826282
 20
261.340477
 30
5.0037
 11
171.826282
 21
276.340477
 31
5.0037
  0
LINE
  5
14C0C
100
AcDbEntity
  8
L-ZISSEN
100
AcDbLine
 10
177.826282
 20
257.340477
 30
5.0037
 11
177.826282
 21
253.840477
 31
5.0037
  0
LINE
  5
14C0D
100
AcDbEntity
  8
L-ZISSEN
100
AcDbLine
 10
177.826282
 20
253.840477
 30
5.0037
 11
180.826282
 21
248.644325
 31
5.0037
  0
LINE
  5
14C0E
100
AcDbEntity
  8
L-ZISSEN
  6
CONTINUOUS
100
AcDbLine
 10
171.826282
 20
261.340477
 30
5.0037
 11
171.826282
 21
257.340477
 31
5.0037
  0
LINE
  5
14C0F
100
AcDbEntity
  8
L-ZISSEN
  6
CONTINUOUS
100
AcDbLine
 10
223.826282
 20
261.340477
 30
5.0037
 11
223.826282
 21
276.340477
 31
5.0037
  0
LINE
  5
14C10
100
AcDbEntity
  8
L-ZISSEN
100
AcDbLine
 10
217.826282
 20
257.340477
 30
5.0037
 11
217.826282
 21
253.840477
 31
5.0037
  0
LINE
  5
14C11
100
AcDbEntity
  8
L-ZISSEN
100
AcDbLine
 10
217.826282
 20
253.840477
 30
5.0037
 11
214.826282
 21
248.644325
 31
5.0037
  0
LINE
  5
14C12
100
AcDbEntity
  8
L-ZISSEN
  6
CONTINUOUS
100
AcDbLine
 10
223.826282
 20
257.340477
 30
5.0037
 11
223.826282
 21
261.340477
 31
5.0037
  0
LINE
  5
14C21
100
AcDbEntity
  8
L-ZISSEN
100
AcDbLine
 10
80.796607
 20
306.540477
 30
0.0
 11
-38.673718
 21
306.540477
 31
0.0
  0
LINE
  5
14C22
100
AcDbEntity
  8
L-ZISSEN
100
AcDbLine
 10
161.326282
 20
303.340477
 30
0.0
 11
-38.673718
 21
303.340477
 31
0.0
  0
LINE
  5
14C23
100
AcDbEntity
  8
L-ZISSEN
100
AcDbLine
 10
-38.673718
 20
300.340477
 30
0.0
 11
161.326282
 21
300.340477
 31
0.0
  0
LINE
  5
14C24
100
AcDbEntity
  8
L-ZISSEN
100
AcDbLine
 10
161.326282
 20
302.340477
 30
0.0
 11
-38.673718
 21
302.340477
 31
0.0
  0
LINE
  5
14C33
100
AcDbEntity
  8
L-ZISSEN
100
AcDbLine
 10
0.326282
 20
356.540477
 30
-0.608412
 11
0.326282
 21
306.540477
 31
0.0
  0
LINE
  5
14C39
100
AcDbEntity
  8
L-ZISSEN
100
AcDbLine
 10
0.326282
 20
346.99001
 30
-0.985914
 11
0.326282
 21
330.540477
 31
-0.985914
  0
LINE
  5
14C43
100
AcDbEntity
  8
L-ZISSEN
  6
CONTINUOUS
100
AcDbLine
 10
117.826282
 20
306.540477
 30
0.0
 11
0.326282
 21
306.540477
 31
0.0
  0
LINE
  5
14C46
100
AcDbEntity
  8
L-ZISSEN
100
AcDbLine
 10
117.826282
 20
306.540477
 30
0.0
 11
117.826282
 21
356.540477
 31
0.0
  0
CIRCLE
  5
14C51
100
AcDbEntity
  8
L-ZISSEN
100
AcDbCircle
 10
61.326282
 20
328.540477
 30
0.575535
 40
8.65
  0
LINE
  5
14C56
100
AcDbEntity
  8
L-ZISSEN
100
AcDbLine
 10
117.826282
 20
356.540477
 30
-5.0037
 11
0.326282
 21
356.540477
 31
-0.608412
  0
LINE
  5
14C57
100
AcDbEntity
  8
L-ZISSEN
100
AcDbLine
 10
41.826282
 20
363.540477
 30
-1.924635
 11
0.826282
 21
363.540477
 31
-2.719872
  0
LINE
  5
14C58
100
AcDbEntity
  8
L-ZISSEN
100
AcDbLine
 10
37.326282
 20
374.540477
 30
-2.768362
 11
5.326282
 21
374.540477
 31
-2.768362
  0
LINE
  5
14C59
100
AcDbEntity
  8
L-ZISSEN
100
AcDbLine
 10
5.326282
 20
363.540477
 30
-2.768362
 11
5.326282
 21
374.540477
 31
-2.768362
  0
LINE
  5
14C5A
100
AcDbEntity
  8
L-ZISSEN
100
AcDbLine
 10
37.326282
 20
363.540477
 30
-2.768362
 11
37.326282
 21
374.540477
 31
-2.768362
  0
LINE
  5
14C5B
100
AcDbEntity
  8
L-ZISSEN
100
AcDbLine
 10
41.826282
 20
363.540477
 30
-1.924635
 11
41.826282
 21
356.540477
 31
-1.924635
  0
LINE
  5
14C5C
100
AcDbEntity
  8
L-ZISSEN
100
AcDbLine
 10
0.826282
 20
363.540477
 30
-1.924635
 11
0.826282
 21
356.540477
 31
-1.924635
  0
LINE
  5
14C61
100
AcDbEntity
  8
L-ZISSEN
100
AcDbLine
 10
51.367734
 20
368.017509
 30
0.853056
 11
51.367734
 21
360.517509
 31
0.853056
  0
LINE
  5
14C62
100
AcDbEntity
  8
L-ZISSEN
100
AcDbLine
 10
43.28483
 20
368.017509
 30
0.853056
 11
43.28483
 21
360.517509
 31
0.853056
  0
LINE
  5
14C68
100
AcDbEntity
  8
L-ZISSEN
100
AcDbLine
 10
43.28483
 20
357.697609
 30
0.853056
 11
43.28483
 21
356.540523
 31
0.853056
  0
LINE
  5
14C69
100
AcDbEntity
  8
L-ZISSEN
100
AcDbLine
 10
50.347008
 20
360.517509
 30
0.853056
 11
50.347008
 21
359.432119
 31
0.853056
  0
LINE
  5
14C6C
100
AcDbEntity
  8
L-ZISSEN
100
AcDbLine
 10
44.305556
 20
360.517509
 30
0.853056
 11
44.305556
 21
359.432119
 31
0.853056
  0
LINE
  5
14C6D
100
AcDbEntity
  8
L-ZISSEN
100
AcDbLine
 10
51.367734
 20
360.517509
 30
0.853056
 11
43.28483
 21
360.517509
 31
0.853056
  0
LINE
  5
14C6E
100
AcDbEntity
  8
L-ZISSEN
100
AcDbLine
 10
51.367734
 20
359.432119
 30
0.853056
 11
43.28483
 21
359.432119
 31
0.853056
  0
LINE
  5
14C6F
100
AcDbEntity
  8
L-ZISSEN
100
AcDbLine
 10
43.28483
 20
359.432119
 30
0.853056
 11
43.28483
 21
357.697609
 31
0.853056
  0
LINE
  5
14C70
100
AcDbEntity
  8
L-ZISSEN
100
AcDbLine
 10
51.367734
 20
357.697609
 30
0.853056
 11
51.367734
 21
356.540523
 31
0.853056
  0
LINE
  5
14C71
100
AcDbEntity
  8
L-ZISSEN
100
AcDbLine
 10
51.367734
 20
359.432119
 30
0.853056
 11
51.367734
 21
357.697609
 31
0.853056
  0
LINE
  5
14C74
100
AcDbEntity
  8
L-ZISSEN
100
AcDbLine
 10
51.367734
 20
368.017509
 30
0.853056
 11
43.28483
 21
368.017509
 31
0.853056
  0
LINE
  5
14C76
100
AcDbEntity
  8
L-ZISSEN
100
AcDbLine
 10
2.423031
 20
363.540477
 30
2.926822
 11
2.531912
 21
376.017033
 31
2.926822
  0
LINE
  5
14C79
100
AcDbEntity
  8
L-ZISSEN
100
AcDbLine
 10
63.326282
 20
366.540477
 30
3.715653
 11
63.326282
 21
361.540477
 31
3.715653
  0
LINE
  5
14C7B
100
AcDbEntity
  8
L-ZISSEN
100
AcDbLine
 10
50.826282
 20
373.540477
 30
3.715653
 11
50.826282
 21
368.017509
 31
3.715653
  0
LINE
  5
14C7C
100
AcDbEntity
  8
L-ZISSEN
100
AcDbLine
 10
60.826282
 20
373.540477
 30
3.715653
 11
56.576282
 21
373.540477
 31
3.715653
  0
LINE
  5
14C7D
100
AcDbEntity
  8
L-ZISSEN
100
AcDbLine
 10
55.076282
 20
371.540477
 30
3.715653
 11
55.076282
 21
373.540477
 31
3.715653
  0
LINE
  5
14C7E
100
AcDbEntity
  8
L-ZISSEN
100
AcDbLine
 10
55.076282
 20
371.540477
 30
3.715653
 11
56.576282
 21
371.540477
 31
3.715653
  0
LINE
  5
14C7F
100
AcDbEntity
  8
L-ZISSEN
100
AcDbLine
 10
56.576282
 20
371.540477
 30
3.715653
 11
56.576282
 21
373.540477
 31
3.715653
  0
LINE
  5
14C81
100
AcDbEntity
  8
L-ZISSEN
100
AcDbLine
 10
60.826282
 20
373.540477
 30
3.715653
 11
60.826282
 21
366.540477
 31
3.715653
  0
LINE
  5
14C82
100
AcDbEntity
  8
L-ZISSEN
100
AcDbLine
 10
63.326282
 20
366.540477
 30
3.715653
 11
51.367734
 21
366.540477
 31
3.715653
  0
LINE
  5
14C83
100
AcDbEntity
  8
L-ZISSEN
100
AcDbLine
 10
55.076282
 20
373.540477
 30
3.715653
 11
50.826282
 21
373.540477
 31
3.715653
  0
LINE
  5
14C86
100
AcDbEntity
  8
L-ZISSEN
  6
CONTINUOUS
100
AcDbLine
 10
110.826282
 20
356.540477
 30
3.772607
 11
110.826282
 21
371.740477
 31
3.772607
  0
LINE
  5
14C87
100
AcDbEntity
  8
L-ZISSEN
  6
CONTINUOUS
100
AcDbLine
 10
71.826282
 20
356.540477
 30
3.772607
 11
71.826282
 21
371.740477
 31
3.772607
  0
LINE
  5
14C89
100
AcDbEntity
  8
L-ZISSEN
100
AcDbLine
 10
64.826282
 20
361.540477
 30
3.715653
 11
64.826282
 21
356.540477
 31
3.715653
  0
LINE
  5
14C8C
100
AcDbEntity
  8
L-ZISSEN
  6
CONTINUOUS
100
AcDbLine
 10
71.826282
 20
371.740477
 30
3.772607
 11
110.826282
 21
371.740477
 31
3.772607
  0
LINE
  5
14C8D
100
AcDbEntity
  8
L-ZISSEN
100
AcDbLine
 10
71.826282
 20
368.540477
 30
3.772607
 11
110.826282
 21
368.540477
 31
3.772607
  0
LINE
  5
14C8E
100
AcDbEntity
  8
L-ZISSEN
  6
CONTINUOUS
100
AcDbLine
 10
81.326282
 20
371.740477
 30
3.772607
 11
81.326282
 21
396.540526
 31
3.772607
  0
LINE
  5
14C8F
100
AcDbEntity
  8
L-ZISSEN
  6
CONTINUOUS
100
AcDbLine
 10
101.326282
 20
371.740477
 30
3.772607
 11
101.326282
 21
396.540526
 31
3.772607
  0
LINE
  5
14C90
100
AcDbEntity
  8
L-ZISSEN
100
AcDbLine
 10
88.826282
 20
406.540526
 30
3.772607
 11
87.326282
 21
406.540526
 31
3.772607
  0
LINE
  5
14C91
100
AcDbEntity
  8
L-ZISSEN
  6
CONTINUOUS
100
AcDbLine
 10
101.326282
 20
396.540526
 30
3.772607
 11
81.326282
 21
396.540526
 31
3.772607
  0
LINE
  5
14C92
100
AcDbEntity
  8
L-ZISSEN
100
AcDbLine
 10
87.326282
 20
397.040526
 30
3.772607
 11
95.326282
 21
397.040526
 31
3.772607
  0
LINE
  5
14C93
100
AcDbEntity
  8
L-ZISSEN
100
AcDbLine
 10
87.326282
 20
406.040526
 30
3.772607
 11
95.326282
 21
406.040526
 31
3.772607
  0
LINE
  5
14C94
100
AcDbEntity
  8
L-ZISSEN
100
AcDbLine
 10
87.326282
 20
406.540526
 30
3.772607
 11
95.326282
 21
406.540526
 31
3.772607
  0
LINE
  5
14C95
100
AcDbEntity
  8
L-ZISSEN
100
AcDbLine
 10
87.013675
 20
405.581978
 30
3.772607
 11
79.826282
 21
405.581978
 31
3.772607
  0
LINE
  5
14C99
100
AcDbEntity
  8
L-ZISSEN
100
AcDbLine
 10
87.013675
 20
397.499074
 30
3.772607
 11
79.826282
 21
397.499074
 31
3.772607
  0
LINE
  5
14C9C
100
AcDbEntity
  8
L-ZISSEN
100
AcDbLine
 10
79.826282
 20
397.499074
 30
3.772607
 11
79.826282
 21
405.581978
 31
3.772607
  0
LINE
  5
14C9D
100
AcDbEntity
  8
L-ZISSEN
100
AcDbLine
 10
87.326282
 20
396.540526
 30
3.772607
 11
87.326282
 21
409.040526
 31
3.772607
  0
LINE
  5
14C9E
100
AcDbEntity
  8
L-ZISSEN
100
AcDbLine
 10
95.326282
 20
406.540526
 30
3.772607
 11
93.826282
 21
406.540526
 31
3.772607
  0
LINE
  5
14CA0
100
AcDbEntity
  8
L-ZISSEN
100
AcDbLine
 10
95.326282
 20
409.040526
 30
3.772607
 11
95.326282
 21
396.540526
 31
3.772607
  0
LINE
  5
14CAE
100
AcDbEntity
  8
L-ZISSEN
100
AcDbLine
 10
95.326282
 20
409.040526
 30
3.772607
 11
87.326282
 21
409.040526
 31
3.772607
  0
LINE
  5
14CB1
100
AcDbEntity
  8
L-ZISSEN
100
AcDbLine
 10
122.326282
 20
306.540477
 30
0.0
 11
122.326282
 21
311.010477
 31
0.0
  0
LINE
  5
14CB2
100
AcDbEntity
  8
L-ZISSEN
100
AcDbLine
 10
122.326282
 20
348.540477
 30
-5.17203
 11
117.826282
 21
348.540477
 31
-5.0037
  0
LINE
  5
14CB3
100
AcDbEntity
  8
L-ZISSEN
100
AcDbLine
 10
122.326282
 20
351.540477
 30
0.0
 11
117.826282
 21
351.540477
 31
0.0
  0
LINE
  5
14CB4
100
AcDbEntity
  8
L-ZISSEN
100
AcDbLine
 10
122.326282
 20
348.540477
 30
0.0
 11
122.326282
 21
351.540477
 31
0.0
  0
LINE
  5
14CB5
100
AcDbEntity
  8
L-ZISSEN
100
AcDbLine
 10
120.295738
 20
355.954198
 30
2.926822
 11
120.120652
 21
376.017033
 31
2.926822
  0
LINE
  5
14CB6
100
AcDbEntity
  8
L-ZISSEN
100
AcDbLine
 10
121.626282
 20
355.960724
 30
2.705446
 11
117.826282
 21
355.960724
 31
2.705446
  0
LINE
  5
14CB7
100
AcDbEntity
  8
L-ZISSEN
100
AcDbLine
 10
121.626282
 20
351.460724
 30
2.705446
 11
121.626282
 21
355.960724
 31
2.705446
  0
LINE
  5
14CB8
100
AcDbEntity
  8
L-ZISSEN
100
AcDbLine
 10
2.531912
 20
376.017033
 30
2.926822
 11
6.542336
 21
452.540477
 31
2.926822
  0
LINE
  5
14CB9
100
AcDbEntity
  8
L-ZISSEN
100
AcDbLine
 10
2.423031
 20
363.540477
 30
2.926822
 11
2.531912
 21
376.017033
 31
2.926822
  0
LINE
  5
14CBA
100
AcDbEntity
  8
L-ZISSEN
100
AcDbLine
 10
120.120652
 20
376.017033
 30
2.926822
 11
116.110229
 21
452.540477
 31
2.926822
  0
LINE
  5
14CBC
100
AcDbEntity
  8
L-ZISSEN
100
AcDbLine
 10
116.110229
 20
452.540477
 30
2.926822
 11
6.542336
 21
452.540477
 31
2.926822
  0
LINE
  5
14CC0
100
AcDbEntity
  8
L-ZISSEN
100
AcDbLine
 10
117.826282
 20
311.010477
 30
0.0
 11
158.826282
 21
311.010477
 31
0.0
  0
LINE
  5
14CC1
100
AcDbEntity
  8
L-ZISSEN
100
AcDbLine
 10
117.826282
 20
325.010477
 30
0.0
 11
158.826282
 21
325.010477
 31
0.0
  0
LINE
  5
14CC2
100
AcDbEntity
  8
L-ZISSEN
100
AcDbLine
 10
117.826282
 20
318.010477
 30
0.0
 11
158.826282
 21
318.010477
 31
0.0
  0
LINE
  5
14CC3
100
AcDbEntity
  8
L-ZISSEN
100
AcDbLine
 10
162.326282
 20
313.010477
 30
0.0
 11
158.826282
 21
313.010477
 31
0.0
  0
LINE
  5
14CC4
100
AcDbEntity
  8
L-ZISSEN
100
AcDbLine
 10
162.326282
 20
323.010477
 30
0.0
 11
158.826282
 21
323.010477
 31
0.0
  0
LINE
  5
14CC5
100
AcDbEntity
  8
L-ZISSEN
100
AcDbLine
 10
158.826282
 20
325.010477
 30
0.0
 11
158.826282
 21
311.010477
 31
0.0
  0
LINE
  5
14CC6
100
AcDbEntity
  8
L-ZISSEN
100
AcDbLine
 10
168.326282
 20
336.010477
 30
-2.309424
 11
168.326282
 21
300.010477
 31
-2.309424
  0
LINE
  5
14CC7
100
AcDbEntity
  8
L-ZISSEN
100
AcDbLine
 10
190.326282
 20
336.010477
 30
-2.309424
 11
190.326282
 21
300.010477
 31
-2.309424
  0
LINE
  5
14CC8
100
AcDbEntity
  8
L-ZISSEN
100
AcDbLine
 10
190.326282
 20
300.010477
 30
-2.309424
 11
168.326282
 21
300.010477
 31
-2.309424
  0
LINE
  5
14CC9
100
AcDbEntity
  8
L-ZISSEN
100
AcDbLine
 10
190.326282
 20
336.010477
 30
-2.309424
 11
168.326282
 21
336.010477
 31
-2.309424
  0
LINE
  5
14CCA
100
AcDbEntity
  8
L-ZISSEN
100
AcDbLine
 10
168.326282
 20
312.010477
 30
-2.309424
 11
162.326282
 21
312.010477
 31
-2.309424
  0
LINE
  5
14CCB
100
AcDbEntity
  8
L-ZISSEN
100
AcDbLine
 10
168.326282
 20
324.010477
 30
-2.309424
 11
162.326282
 21
324.010477
 31
-2.309424
  0
LINE
  5
14CCC
100
AcDbEntity
  8
L-ZISSEN
100
AcDbLine
 10
162.326282
 20
324.010477
 30
-2.309424
 11
162.326282
 21
312.010477
 31
-2.309424
  0
LINE
  5
14CCD
100
AcDbEntity
  8
L-ZISSEN
100
AcDbLine
 10
122.326282
 20
325.010477
 30
0.0
 11
122.326282
 21
348.540477
 31
0.0
  0
LINE
  5
14CCF
100
AcDbEntity
  8
L-ZISSEN
100
AcDbLine
 10
135.326282
 20
341.540477
 30
0.0
 11
145.326282
 21
341.540477
 31
0.0
  0
LINE
  5
14CD0
100
AcDbEntity
  8
L-ZISSEN
100
AcDbLine
 10
150.326282
 20
325.010477
 30
0.0
 11
150.326282
 21
336.540477
 31
0.0
  0
LINE
  5
14CD1
100
AcDbEntity
  8
L-ZISSEN
100
AcDbLine
 10
150.326282
 20
336.540477
 30
0.0
 11
145.326282
 21
341.540477
 31
0.0
  0
LINE
  5
14CD2
100
AcDbEntity
  8
L-ZISSEN
100
AcDbLine
 10
125.826282
 20
325.010477
 30
0.0
 11
125.826282
 21
344.040477
 31
0.0
  0
LINE
  5
14CD3
100
AcDbEntity
  8
L-ZISSEN
100
AcDbLine
 10
135.326282
 20
325.010477
 30
0.0
 11
135.326282
 21
341.540477
 31
0.0
  0
LINE
  5
14CD4
100
AcDbEntity
  8
L-ZISSEN
100
AcDbLine
 10
130.326282
 20
325.010477
 30
0.0
 11
130.326282
 21
342.883335
 31
0.0
  0
LINE
  5
14CD5
100
AcDbEntity
  8
L-ZISSEN
100
AcDbLine
 10
125.826282
 20
344.040477
 30
0.0
 11
122.326282
 21
344.040477
 31
0.0
  0
LINE
  5
14CD6
100
AcDbEntity
  8
L-ZISSEN
100
AcDbLine
 10
130.326282
 20
338.790477
 30
0.0
 11
135.326282
 21
338.790477
 31
0.0
  0
LINE
  5
14CD7
100
AcDbEntity
  8
L-ZISSEN
100
AcDbLine
 10
125.826282
 20
336.540477
 30
0.0
 11
130.326282
 21
336.540477
 31
0.0
  0
LINE
  5
14CD8
100
AcDbEntity
  8
L-ZISSEN
100
AcDbLine
 10
130.326282
 20
342.883335
 30
0.0
 11
125.826282
 21
342.883335
 31
0.0
  0
LINE
  5
14CE1
100
AcDbEntity
  8
L-ZISSEN
100
AcDbLine
 10
-13.673718
 20
337.540477
 30
-0.985914
 11
0.326282
 21
338.540477
 31
-0.985914
  0
LINE
  5
14CE2
100
AcDbEntity
  8
L-ZISSEN
100
AcDbLine
 10
-13.673718
 20
323.540477
 30
-0.985914
 11
0.326282
 21
322.540477
 31
-0.985914
  0
LINE
  5
14CE3
100
AcDbEntity
  8
L-ZISSEN
100
AcDbLine
 10
-13.673718
 20
323.540477
 30
-0.985914
 11
-13.673718
 21
337.540477
 31
-0.985914
  0
LINE
  5
14CE4
100
AcDbEntity
  8
L-ZISSEN
100
AcDbLine
 10
0.326282
 20
338.540477
 30
-0.985914
 11
0.326282
 21
322.540477
 31
-0.985914
  0
LINE
  5
14DCA
100
AcDbEntity
  8
L-ZISSEN
100
AcDbLine
 10
-25.119565
 20
350.540477
 30
0.0
 11
-25.119565
 21
306.540477
 31
0.0
  0
LINE
  5
14E1E
100
AcDbEntity
  8
L-ZISSEN
100
AcDbLine
 10
0.326282
 20
343.540477
 30
0.0
 11
-25.119565
 21
343.540477
 31
0.0
  0
LINE
  5
14E1F
100
AcDbEntity
  8
L-ZISSEN
100
AcDbLine
 10
-25.119565
 20
350.540477
 30
0.0
 11
0.326282
 21
350.540477
 31
0.0
  0
LINE
  5
14E20
100
AcDbEntity
  8
L-ZISSEN
100
AcDbLine
 10
-18.216863
 20
412.540477
 30
0.0
 11
4.446024
 21
412.540477
 31
0.0
  0
LINE
  5
14E21
100
AcDbEntity
  8
L-ZISSEN
100
AcDbLine
 10
-18.216863
 20
412.540477
 30
0.0
 11
-21.466147
 21
350.540477
 31
0.0
  0
LINE
  5
14EB3
100
AcDbEntity
  8
L-ZISSEN
100
AcDbLine
 10
148.326283
 20
424.040477
 30
0.0
 11
137.326283
 21
424.040477
 31
0.0
  0
LINE
  5
14EB4
100
AcDbEntity
  8
L-ZISSEN
100
AcDbLine
 10
148.326283
 20
381.040477
 30
0.0
 11
137.326283
 21
381.040477
 31
0.0
  0
LINE
  5
14EB5
100
AcDbEntity
  8
L-ZISSEN
100
AcDbLine
 10
148.326283
 20
424.040477
 30
0.0
 11
148.326283
 21
381.040477
 31
0.0
  0
LINE
  5
14EB6
100
AcDbEntity
  8
L-ZISSEN
100
AcDbLine
 10
137.326283
 20
424.040477
 30
0.0
 11
137.326283
 21
381.040477
 31
0.0
  0
LINE
  5
14EB7
100
AcDbEntity
  8
L-ZISSEN
100
AcDbLine
 10
123.326283
 20
423.540477
 30
0.0
 11
137.326283
 21
423.540477
 31
0.0
  0
LINE
  5
14EB8
100
AcDbEntity
  8
L-ZISSEN
100
AcDbLine
 10
123.326283
 20
381.540477
 30
0.0
 11
123.326283
 21
423.540477
 31
0.0
  0
LINE
  5
14EBA
100
AcDbEntity
  8
L-ZISSEN
100
AcDbLine
 10
123.326283
 20
389.040477
 30
0.0
 11
119.438123
 21
389.040477
 31
0.0
  0
LINE
  5
14EBB
100
AcDbEntity
  8
L-ZISSEN
100
AcDbLine
 10
118.826283
 20
400.040477
 30
0.0
 11
123.326283
 21
400.040477
 31
0.0
  0
LINE
  5
14EBC
100
AcDbEntity
  8
L-ZISSEN
100
AcDbLine
 10
123.326283
 20
381.540477
 30
0.0
 11
137.326283
 21
381.540477
 31
0.0
  0
LINE
  5
14EBE
100
AcDbEntity
  8
L-ZISSEN
100
AcDbLine
 10
136.326283
 20
381.540477
 30
0.0
 11
136.326283
 21
372.540477
 31
0.0
  0
LINE
  5
14EBF
100
AcDbEntity
  8
L-ZISSEN
100
AcDbLine
 10
136.326283
 20
372.540477
 30
0.0
 11
124.326283
 21
372.540477
 31
0.0
  0
LINE
  5
14EC0
100
AcDbEntity
  8
L-ZISSEN
100
AcDbLine
 10
138.326283
 20
367.540477
 30
0.0
 11
122.326283
 21
367.540477
 31
0.0
  0
LINE
  5
14EC1
100
AcDbEntity
  8
L-ZISSEN
100
AcDbLine
 10
138.326283
 20
359.040477
 30
0.0
 11
138.326283
 21
367.540477
 31
0.0
  0
LINE
  5
14EC2
100
AcDbEntity
  8
L-ZISSEN
100
AcDbLine
 10
135.020033
 20
367.540477
 30
0.0
 11
135.176283
 21
372.540477
 31
0.0
  0
LINE
  5
14EC3
100
AcDbEntity
  8
L-ZISSEN
100
AcDbLine
 10
124.326283
 20
381.540477
 30
0.0
 11
124.326283
 21
372.540477
 31
0.0
  0
LINE
  5
14ECA
100
AcDbEntity
  8
L-ZISSEN
100
AcDbLine
 10
138.326283
 20
341.540477
 30
0.0
 11
138.326283
 21
359.040477
 31
0.0
  0
LINE
  5
14ECF
100
AcDbEntity
  8
L-ZISSEN
100
AcDbLine
 10
137.108269
 20
311.010477
 30
0.0
 11
136.853631
 21
306.540477
 31
0.0
  0
LINE
  5
14ED3
100
AcDbEntity
  8
L-ZISSEN
100
AcDbLine
 10
122.326283
 20
334.540477
 30
0.0
 11
122.326283
 21
367.540477
 31
0.0
  0
LINE
  5
14ED6
100
AcDbEntity
  8
L-ZISSEN
100
AcDbLine
 10
123.544297
 20
311.010477
 30
0.0
 11
123.798933
 21
306.540477
 31
0.0
  0
LINE
  5
14EDB
100
AcDbEntity
  8
L-ZISSEN
100
AcDbLine
 10
125.476283
 20
372.540477
 30
0.0
 11
125.632533
 21
367.540477
 31
0.0
  0
LINE
  5
14EEE
100
AcDbEntity
  8
L-ZISSEN
100
AcDbLine
 10
136.853631
 20
306.540477
 30
0.0
 11
123.798933
 21
306.540477
 31
0.0
  0
LINE
  5
14EF0
100
AcDbEntity
  8
L-ZISSEN
100
AcDbLine
 10
63.326282
 20
361.540477
 30
3.715653
 11
64.826282
 21
361.540477
 31
3.715653
  0
ENDSEC
  0
SECTION
  2
OBJECTS
  0
DICTIONARY
  5
1A
100
AcDbDictionary
  3
ACAD_GROUP
350
18
  3
ACAD_MLINESTYLE
350
19
  0
DICTIONARY
  5
18
102
{ACAD_REACTORS
330
1A
102
}
100
AcDbDictionary
  0
DICTIONARY
  5
19
102
{ACAD_REACTORS
330
1A
102
}
100
AcDbDictionary
  3
STANDARD
350
1C
  0
MLINESTYLE
  5
1C
102
{ACAD_REACTORS
330
19
102
}
100
AcDbMlineStyle
  2
STANDARD
 70
     0
  3

 62
     0
 51
90.0
 52
90.0
 71
     2
 49
0.5
 62
   256
  6
BYLAYER
 49
-0.5
 62
   256
  6
BYLAYER
  0
ENDSEC
  0
EOF
