  0
SECTION
  2
HEADER
  9
$ACADVER
  1
AC1012
  9
$DWGCODEPAGE
  3
dos932
  9
$INSBASE
 10
0.0
 20
0.0
 30
0.0
  9
$EXTMIN
 10
258.8051377847491
 20
284.2379190940072
 30
-2.309423799016662
  9
$EXTMAX
 10
889.5587385650754
 20
1076.282013124887
 30
0.0
  9
$LIMMIN
 10
0.0
 20
0.0
  9
$LIMMAX
 10
297.0
 20
210.0
  9
$ORTHOMODE
 70
     0
  9
$REGENMODE
 70
     1
  9
$FILLMODE
 70
     1
  9
$QTEXTMODE
 70
     0
  9
$MIRRTEXT
 70
     1
  9
$DRAGMODE
 70
     2
  9
$LTSCALE
 40
2.0
  9
$OSMODE
 70
   167
  9
$ATTMODE
 70
     1
  9
$TEXTSIZE
 40
2.799999999999999
  9
$TRACEWID
 40
0.05
  9
$TEXTSTYLE
  7
STANDARD
  9
$CLAYER
  8
L-ZISSEN
  9
$CELTYPE
  6
BYLAYER
  9
$CECOLOR
 62
   256
  9
$CELTSCALE
 40
1.0
  9
$DELOBJ
 70
     1
  9
$DISPSILH
 70
     0
  9
$DIMSCALE
 40
3.0
  9
$DIMASZ
 40
5.0
  9
$DIMEXO
 40
1.0
  9
$DIMDLI
 40
8.0
  9
$DIMRND
 40
0.0
  9
$DIMDLE
 40
0.0
  9
$DIMEXE
 40
0.8
  9
$DIMTP
 40
0.0
  9
$DIMTM
 40
0.0
  9
$DIMTXT
 40
3.5
  9
$DIMCEN
 40
0.0
  9
$DIMTSZ
 40
0.0
  9
$DIMTOL
 70
     0
  9
$DIMLIM
 70
     0
  9
$DIMTIH
 70
     0
  9
$DIMTOH
 70
     0
  9
$DIMSE1
 70
     0
  9
$DIMSE2
 70
     0
  9
$DIMTAD
 70
     3
  9
$DIMZIN
 70
     8
  9
$DIMBLK
  1
OPEN
  9
$DIMASO
 70
     1
  9
$DIMSHO
 70
     0
  9
$DIMPOST
  1

  9
$DIMAPOST
  1

  9
$DIMALT
 70
     0
  9
$DIMALTD
 70
     2
  9
$DIMALTF
 40
25.4
  9
$DIMLFAC
 40
1.0
  9
$DIMTOFL
 70
     1
  9
$DIMTVP
 40
1.0
  9
$DIMTIX
 70
     1
  9
$DIMSOXD
 70
     0
  9
$DIMSAH
 70
     0
  9
$DIMBLK1
  1

  9
$DIMBLK2
  1

  9
$DIMSTYLE
  2
STANDARD
  9
$DIMCLRD
 70
     0
  9
$DIMCLRE
 70
     0
  9
$DIMCLRT
 70
     0
  9
$DIMTFAC
 40
1.0
  9
$DIMGAP
 40
1.5
  9
$DIMJUST
 70
     0
  9
$DIMSD1
 70
     0
  9
$DIMSD2
 70
     0
  9
$DIMTOLJ
 70
     1
  9
$DIMTZIN
 70
     0
  9
$DIMALTZ
 70
     0
  9
$DIMALTTZ
 70
     0
  9
$DIMFIT
 70
     3
  9
$DIMUPT
 70
     0
  9
$DIMUNIT
 70
     2
  9
$DIMDEC
 70
     3
  9
$DIMTDEC
 70
     3
  9
$DIMALTU
 70
     2
  9
$DIMALTTD
 70
     2
  9
$DIMTXSTY
  7
STANDARD
  9
$DIMAUNIT
 70
     0
  9
$LUNITS
 70
     2
  9
$LUPREC
 70
     4
  9
$SKETCHINC
 40
0.1
  9
$FILLETRAD
 40
0.5
  9
$AUNITS
 70
     0
  9
$AUPREC
 70
     0
  9
$MENU
  1
C:\ACAD
  9
$ELEVATION
 40
0.0
  9
$PELEVATION
 40
0.0
  9
$THICKNESS
 40
0.0
  9
$LIMCHECK
 70
     0
  9
$BLIPMODE
 70
     0
  9
$CHAMFERA
 40
0.0
  9
$CHAMFERB
 40
0.0
  9
$CHAMFERC
 40
0.0
  9
$CHAMFERD
 40
0.0
  9
$SKPOLY
 70
     0
  9
$TDCREATE
 40
2449742.360412268
  9
$TDUPDATE
 40
2452909.471976585
  9
$TDINDWG
 40
2.6951968634
  9
$TDUSRTIMER
 40
2.6951968634
  9
$USRTIMER
 70
     1
  9
$ANGBASE
 50
0.0
  9
$ANGDIR
 70
     0
  9
$PDMODE
 70
     0
  9
$PDSIZE
 40
0.0
  9
$PLINEWID
 40
0.0
  9
$COORDS
 70
     0
  9
$SPLFRAME
 70
     0
  9
$SPLINETYPE
 70
     6
  9
$SPLINESEGS
 70
     8
  9
$ATTDIA
 70
     0
  9
$ATTREQ
 70
     1
  9
$HANDLING
 70
-16383
  9
$HANDSEED
  5
30E
  9
$SURFTAB1
 70
     6
  9
$SURFTAB2
 70
     6
  9
$SURFTYPE
 70
     6
  9
$SURFU
 70
     6
  9
$SURFV
 70
     6
  9
$UCSNAME
  2

  9
$UCSORG
 10
0.0
 20
0.0
 30
0.0
  9
$UCSXDIR
 10
1.0
 20
0.0
 30
0.0
  9
$UCSYDIR
 10
0.0
 20
1.0
 30
0.0
  9
$PUCSNAME
  2

  9
$PUCSORG
 10
0.0
 20
0.0
 30
0.0
  9
$PUCSXDIR
 10
1.0
 20
0.0
 30
0.0
  9
$PUCSYDIR
 10
0.0
 20
1.0
 30
0.0
  9
$USERI1
 70
     0
  9
$USERI2
 70
     0
  9
$USERI3
 70
     0
  9
$USERI4
 70
     0
  9
$USERI5
 70
     0
  9
$USERR1
 40
0.0
  9
$USERR2
 40
0.0
  9
$USERR3
 40
0.0
  9
$USERR4
 40
0.0
  9
$USERR5
 40
0.0
  9
$WORLDVIEW
 70
     1
  9
$SHADEDGE
 70
     3
  9
$SHADEDIF
 70
    70
  9
$TILEMODE
 70
     1
  9
$MAXACTVP
 70
    48
  9
$PINSBASE
 10
0.0
 20
0.0
 30
0.0
  9
$PLIMCHECK
 70
     0
  9
$PEXTMIN
 10
1.000000000000000E+20
 20
1.000000000000000E+20
 30
1.000000000000000E+20
  9
$PEXTMAX
 10
-1.000000000000000E+20
 20
-1.000000000000000E+20
 30
-1.000000000000000E+20
  9
$PLIMMIN
 10
0.0
 20
0.0
  9
$PLIMMAX
 10
12.0
 20
9.0
  9
$UNITMODE
 70
     0
  9
$VISRETAIN
 70
     0
  9
$PLINEGEN
 70
     0
  9
$PSLTSCALE
 70
     0
  9
$TREEDEPTH
 70
  3020
  9
$PICKSTYLE
 70
     1
  9
$CMLSTYLE
  2
STANDARD
  9
$CMLJUST
 70
     0
  9
$CMLSCALE
 40
1.0
  9
$SAVEIMAGES
 70
     1
  0
ENDSEC
  0
SECTION
  2
CLASSES
  0
CLASS
  1
DICTIONARYVAR
  2
AcDbDictionaryVar
  3
AutoCAD 2000
 90
    32768
280
     0
281
     0
  0
CLASS
  1
LWPOLYLINE
  2
AcDbPolyline
  3
AutoCAD 2000
 90
    32768
280
     0
281
     1
  0
CLASS
  1
ACDBDICTIONARYWDFLT
  2
AcDbDictionaryWithDefault
  3
AutoCAD 2000
 90
    32768
280
     0
281
     0
  0
CLASS
  1
ACDBPLACEHOLDER
  2
AcDbPlaceHolder
  3
AutoCAD 2000
 90
    32768
280
     0
281
     0
  0
CLASS
  1
LAYOUT
  2
AcDbLayout
  3
AutoCAD 2000
 90
    32768
280
     0
281
     0
  0
CLASS
  1
LONG_TRANSACTION
  2
AcDbLongTransaction
  3
AutoCAD 2000
 90
    32768
280
     0
281
     0
  0
CLASS
  1
LWPOLYLINE
  2
AcDbPolyline
  3
AutoCAD 2000
 90
    32768
280
     0
281
     1
  0
CLASS
  1
HATCH
  2
AcDbHatch
  3
AutoCAD 2000
 90
    32768
280
     0
281
     1
  0
CLASS
  1
XRECORD
  2
AcDbXrecord
  3
AutoCAD 2000
 90
    32768
280
     0
281
     0
  0
CLASS
  1
LONG_TRANSACTION
  2
AcDbLongTransaction
  3
AutoCAD 2000
 90
    32768
280
     0
281
     0
  0
CLASS
  1
LWPOLYLINE
  2
AcDbPolyline
  3
AutoCAD 2000
 90
    32768
280
     0
281
     1
  0
CLASS
  1
HATCH
  2
AcDbHatch
  3
AutoCAD 2000
 90
    32768
280
     0
281
     1
  0
CLASS
  1
XRECORD
  2
AcDbXrecord
  3
AutoCAD 2000
 90
    32768
280
     0
281
     0
  0
CLASS
  1
LONG_TRANSACTION
  2
AcDbLongTransaction
  3
AutoCAD 2000
 90
    32768
280
     0
281
     0
  0
CLASS
  1
LWPOLYLINE
  2
AcDbPolyline
  3
AutoCAD 2000
 90
    32768
280
     0
281
     1
  0
CLASS
  1
HATCH
  2
AcDbHatch
  3
AutoCAD 2000
 90
    32768
280
     0
281
     1
  0
CLASS
  1
XRECORD
  2
AcDbXrecord
  3
AutoCAD 2000
 90
    32768
280
     0
281
     0
  0
CLASS
  1
LONG_TRANSACTION
  2
AcDbLongTransaction
  3
AutoCAD 2000
 90
    32768
280
     0
281
     0
  0
CLASS
  1
LWPOLYLINE
  2
AcDbPolyline
  3
AutoCAD 2000
 90
    32768
280
     0
281
     1
  0
CLASS
  1
HATCH
  2
AcDbHatch
  3
AutoCAD 2000
 90
    32768
280
     0
281
     1
  0
CLASS
  1
XRECORD
  2
AcDbXrecord
  3
AutoCAD 2000
 90
    32768
280
     0
281
     0
  0
CLASS
  1
LONG_TRANSACTION
  2
AcDbLongTransaction
  3
AutoCAD 2000
 90
    32768
280
     0
281
     0
  0
CLASS
  1
LWPOLYLINE
  2
AcDbPolyline
  3
AutoCAD 2000
 90
    32768
280
     0
281
     1
  0
CLASS
  1
HATCH
  2
AcDbHatch
  3
AutoCAD 2000
 90
    32768
280
     0
281
     1
  0
CLASS
  1
XRECORD
  2
AcDbXrecord
  3
AutoCAD 2000
 90
    32768
280
     0
281
     0
  0
CLASS
  1
LONG_TRANSACTION
  2
AcDbLongTransaction
  3
AutoCAD 2000
 90
    32768
280
     0
281
     0
  0
CLASS
  1
LWPOLYLINE
  2
AcDbPolyline
  3
AutoCAD 2000
 90
    32768
280
     0
281
     1
  0
CLASS
  1
HATCH
  2
AcDbHatch
  3
AutoCAD 2000
 90
    32768
280
     0
281
     1
  0
CLASS
  1
XRECORD
  2
AcDbXrecord
  3
AutoCAD 2000
 90
    32768
280
     0
281
     0
  0
CLASS
  1
LONG_TRANSACTION
  2
AcDbLongTransaction
  3
AutoCAD 2000
 90
    32768
280
     0
281
     0
  0
CLASS
  1
LWPOLYLINE
  2
AcDbPolyline
  3
AutoCAD 2000
 90
    32768
280
     0
281
     1
  0
CLASS
  1
HATCH
  2
AcDbHatch
  3
AutoCAD 2000
 90
    32768
280
     0
281
     1
  0
CLASS
  1
XRECORD
  2
AcDbXrecord
  3
AutoCAD 2000
 90
    32768
280
     0
281
     0
  0
CLASS
  1
LONG_TRANSACTION
  2
AcDbLongTransaction
  3
AutoCAD 2000
 90
    32768
280
     0
281
     0
  0
CLASS
  1
LWPOLYLINE
  2
AcDbPolyline
  3
AutoCAD 2000
 90
    32768
280
     0
281
     1
  0
CLASS
  1
HATCH
  2
AcDbHatch
  3
AutoCAD 2000
 90
    32768
280
     0
281
     1
  0
CLASS
  1
XRECORD
  2
AcDbXrecord
  3
AutoCAD 2000
 90
    32768
280
     0
281
     0
  0
ENDSEC
  0
SECTION
  2
TABLES
  0
TABLE
  2
VPORT
  5
1E
330
0
100
AcDbSymbolTable
 70
     2
  0
VPORT
  5
2F9
330
1E
100
AcDbSymbolTableRecord
100
AcDbViewportTableRecord
  2
*ACTIVE
 70
     0
 10
0.0
 20
0.0
 11
1.0
 21
1.0
 12
716.498341165778
 22
680.2389419511142
 13
0.0
 23
0.0
 14
1.0
 24
1.0
 15
4.0
 25
4.0
 16
0.0
 26
0.0
 36
1.0
 17
0.0
 27
0.0
 37
0.0
 40
801.5768832197128
 41
1.598440545808966
 42
50.0
 43
0.0
 44
0.0
 50
0.0
 51
0.0
 71
     0
 72
   100
 73
     1
 74
     0
 75
     0
 76
     0
 77
     0
 78
     0
  0
ENDTAB
  0
TABLE
  2
LTYPE
  5
19
330
0
100
AcDbSymbolTable
 70
     3
  0
LTYPE
  5
1A
330
19
100
AcDbSymbolTableRecord
100
AcDbLinetypeTableRecord
  2
BYBLOCK
 70
     0
  3

 72
    65
 73
     0
 40
0.0
  0
LTYPE
  5
1B
330
19
100
AcDbSymbolTableRecord
100
AcDbLinetypeTableRecord
  2
BYLAYER
 70
     0
  3

 72
    65
 73
     0
 40
0.0
  0
LTYPE
  5
B
330
19
100
AcDbSymbolTableRecord
100
AcDbLinetypeTableRecord
  2
CONTINUOUS
 70
     0
  3
Solid line
 72
    65
 73
     0
 40
0.0
  0
LTYPE
  5
31
330
19
100
AcDbSymbolTableRecord
100
AcDbLinetypeTableRecord
  2
CENTER
 70
     0
  3

 72
    65
 73
     4
 40
18.0
 49
15.0
 74
     0
 49
-1.0
 74
     0
 49
1.0
 74
     0
 49
-1.0
 74
     0
  0
LTYPE
  5
C1
330
19
100
AcDbSymbolTableRecord
100
AcDbLinetypeTableRecord
  2
HIDDEN
 70
     0
  3

 72
    65
 73
     2
 40
3.0
 49
1.5
 74
     0
 49
-1.5
 74
     0
  0
ENDTAB
  0
TABLE
  2
LAYER
  5
15
330
0
100
AcDbSymbolTable
 70
     4
  0
LAYER
  5
6
330
15
100
AcDbSymbolTableRecord
100
AcDbLayerTableRecord
  2
0
 70
     0
 62
     7
  6
CONTINUOUS
  0
LAYER
  5
26
330
15
100
AcDbSymbolTableRecord
100
AcDbLayerTableRecord
  2
L-ZISSEN
 70
     0
 62
     7
  6
CONTINUOUS
  0
LAYER
  5
30
330
15
100
AcDbSymbolTableRecord
100
AcDbLayerTableRecord
  2
L-TYUSIN
 70
     0
 62
     1
  6
CENTER
  0
LAYER
  5
C0
330
15
100
AcDbSymbolTableRecord
100
AcDbLayerTableRecord
  2
L-HASEN
 70
     0
 62
     5
  6
HIDDEN
  0
ENDTAB
  0
TABLE
  2
STYLE
  5
16
330
0
100
AcDbSymbolTable
 70
     1
  0
STYLE
  5
17
330
16
100
AcDbSymbolTableRecord
100
AcDbTextStyleTableRecord
  2
STANDARD
 70
     0
 40
0.0
 41
1.0
 50
0.0
 71
     0
 42
2.799999999999999
  3
txt.shx
  4

  0
ENDTAB
  0
TABLE
  2
VIEW
  5
1C
330
0
100
AcDbSymbolTable
 70
     0
  0
ENDTAB
  0
TABLE
  2
UCS
  5
1D
330
0
100
AcDbSymbolTable
 70
     0
  0
ENDTAB
  0
TABLE
  2
APPID
  5
20
330
0
100
AcDbSymbolTable
 70
     1
  0
APPID
  5
A
330
20
100
AcDbSymbolTableRecord
100
AcDbRegAppTableRecord
  2
ACAD
 70
     0
  0
ENDTAB
  0
TABLE
  2
DIMSTYLE
  5
21
330
0
100
AcDbSymbolTable
 70
     1
  0
DIMSTYLE
105
2E
330
21
100
AcDbSymbolTableRecord
100
AcDbDimStyleTableRecord
  2
STANDARD
 70
     0
  3

  4

  5

  6

  7

 40
1.0
 41
0.18
 42
0.0625
 43
0.38
 44
0.18
 45
0.0
 46
0.0
 47
0.0
 48
0.0
140
0.18
141
0.09
142
0.0
143
25.4
144
1.0
145
0.0
146
1.0
147
0.09
 71
     0
 72
     0
 73
     1
 74
     1
 75
     0
 76
     0
 77
     0
 78
     0
170
     0
171
     2
172
     0
173
     0
174
     0
175
     0
176
     0
177
     0
178
     0
270
     2
271
     4
272
     4
273
     2
274
     2
340
17
275
     0
280
     0
281
     0
282
     0
283
     1
284
     0
285
     0
286
     0
287
     3
288
     0
  0
ENDTAB
  0
TABLE
  2
BLOCK_RECORD
  5
1
330
0
100
AcDbSymbolTable
 70
     1
  0
BLOCK_RECORD
  5
2
102
{ACAD_XDICTIONARY
360
3
102
}
330
1
100
AcDbSymbolTableRecord
100
AcDbBlockTableRecord
  2
*MODEL_SPACE
  0
BLOCK_RECORD
  5
F
102
{ACAD_XDICTIONARY
360
10
102
}
330
1
100
AcDbSymbolTableRecord
100
AcDbBlockTableRecord
  2
*PAPER_SPACE
  0
BLOCK_RECORD
  5
27
330
1
100
AcDbSymbolTableRecord
100
AcDbBlockTableRecord
  2
_OPEN
  0
ENDTAB
  0
ENDSEC
  0
SECTION
  2
BLOCKS
  0
BLOCK
  5
5
330
2
100
AcDbEntity
  8
0
100
AcDbBlockBegin
  2
*MODEL_SPACE
 70
     0
 10
0.0
 20
0.0
 30
0.0
  3
*MODEL_SPACE
  1

  0
ENDBLK
  5
C
330
2
100
AcDbEntity
  8
0
100
AcDbBlockEnd
  0
BLOCK
  5
12
330
F
100
AcDbEntity
 67
     1
  8
0
100
AcDbBlockBegin
  2
*PAPER_SPACE
 70
     0
 10
0.0
 20
0.0
 30
0.0
  3
*PAPER_SPACE
  1

  0
ENDBLK
  5
13
330
F
100
AcDbEntity
 67
     1
  8
0
100
AcDbBlockEnd
  0
BLOCK
  5
2B
330
27
100
AcDbEntity
  8
0
100
AcDbBlockBegin
  2
_OPEN
 70
     0
 10
0.0
 20
0.0
 30
0.0
  3
_OPEN
  1

  0
LINE
  5
28
330
27
100
AcDbEntity
  8
0
  6
BYBLOCK
 62
     0
100
AcDbLine
 10
-1.0
 20
0.1666666666666666
 30
0.0
 11
0.0
 21
0.0
 31
0.0
  0
LINE
  5
29
330
27
100
AcDbEntity
  8
0
  6
BYBLOCK
 62
     0
100
AcDbLine
 10
-1.0
 20
-0.1666666666666666
 30
0.0
 11
0.0
 21
0.0
 31
0.0
  0
LINE
  5
2A
330
27
100
AcDbEntity
  8
0
  6
BYBLOCK
 62
     0
100
AcDbLine
 10
0.0
 20
0.0
 30
0.0
 11
-1.0
 21
0.0
 31
0.0
  0
ENDBLK
  5
2C
330
27
100
AcDbEntity
  8
0
100
AcDbBlockEnd
  0
ENDSEC
  0
SECTION
  2
ENTITIES
  0
LINE
  5
2F
330
2
100
AcDbEntity
  8
L-TYUSIN
 48
2.0
100
AcDbLine
 10
416.0716810783521
 20
897.3417223779676
 30
0.0
 11
532.6491986609621
 21
897.3417223779676
 31
0.0
  0
LINE
  5
32
330
2
100
AcDbEntity
  8
L-ZISSEN
  6
BYBLOCK
 62
     0
 48
0.5
100
AcDbLine
 10
436.3245192341923
 20
879.3417253068945
 30
0.0
 11
455.8245292341923
 21
859.8417253068944
 31
0.0
  0
LINE
  5
33
330
2
100
AcDbEntity
  8
L-ZISSEN
  6
BYBLOCK
 62
     0
100
AcDbLine
 10
454.9961392341924
 20
857.8417153068942
 30
0.0
 11
434.3476692341924
 21
878.4902053068943
 31
0.0
  0
LINE
  5
34
330
2
100
AcDbEntity
  8
L-ZISSEN
  6
BYBLOCK
 62
     0
100
AcDbLine
 10
436.3245592341923
 20
915.341705306894
 30
0.0
 11
455.8245592341923
 21
934.8416953068943
 31
0.0
  0
LINE
  5
35
330
2
100
AcDbEntity
  8
L-ZISSEN
  6
BYBLOCK
 62
     0
100
AcDbLine
 10
434.3475492341922
 20
916.1929753068941
 30
0.0
 11
454.9962892341922
 21
936.8417153068943
 31
0.0
  0
LINE
  5
36
330
2
100
AcDbEntity
  8
L-ZISSEN
  6
BYBLOCK
 62
     0
100
AcDbLine
 10
505.2517871073901
 20
316.1738205794161
 30
0.0
 11
437.4633113609949
 21
316.1738205794161
 31
0.0
  0
LINE
  5
37
330
2
100
AcDbEntity
  8
L-ZISSEN
  6
BYBLOCK
 62
     0
100
AcDbLine
 10
444.2601712058696
 20
305.5378359940076
 30
0.0
 11
498.7301412058696
 21
305.5378359940076
 31
0.0
  0
LINE
  5
38
330
2
100
AcDbEntity
  8
L-ZISSEN
  6
BYBLOCK
 62
     0
100
AcDbLine
 10
442.0963434231099
 20
328.8157455901499
 30
0.0
 11
454.0870661203395
 21
328.8157455901499
 31
0.0
  0
LINE
  5
39
330
2
100
AcDbEntity
  8
L-ZISSEN
  6
BYBLOCK
 62
     0
100
AcDbLine
 10
431.3575692341927
 20
475.4778990940074
 30
0.0
 11
553.3575118133658
 21
475.4778990940074
 31
0.0
  0
LINE
  5
3A
330
2
100
AcDbEntity
  8
L-ZISSEN
  6
BYBLOCK
 62
     0
 48
0.5
100
AcDbLine
 10
432.8412447697793
 20
413.0378040940071
 30
0.0
 11
509.8743340098578
 21
413.0378040940071
 31
0.0
  0
LINE
  5
3B
330
2
100
AcDbEntity
  8
L-ZISSEN
  6
BYBLOCK
 62
     0
100
AcDbLine
 10
433.4952794605412
 20
409.0378040940071
 30
0.0
 11
464.9952794605411
 21
409.0378040940071
 31
0.0
  0
LINE
  5
3C
330
2
100
AcDbEntity
  8
L-ZISSEN
  6
BYBLOCK
 62
     0
100
AcDbLine
 10
454.087066120339
 20
400.7061332275887
 30
0.0
 11
442.0963434231099
 21
400.7061332275887
 31
0.0
  0
LINE
  5
3D
330
2
100
AcDbEntity
  8
L-ZISSEN
  6
BYBLOCK
 62
     0
100
AcDbLine
 10
442.0963434231099
 20
380.8416847585828
 30
0.0
 11
454.0870661203395
 21
380.8416847585828
 31
0.0
  0
LINE
  5
3E
330
2
100
AcDbEntity
  8
L-ZISSEN
  6
BYBLOCK
 62
     0
100
AcDbLine
 10
454.087066120339
 20
375.1661262737942
 30
0.0
 11
442.0963434231099
 21
375.1661262737942
 31
0.0
  0
LINE
  5
3F
330
2
100
AcDbEntity
  8
L-TYUSIN
 48
2.0
100
AcDbLine
 10
423.6618592341925
 20
452.977919094007
 30
0.0
 11
519.0083392341928
 21
452.977919094007
 31
0.0
  0
LINE
  5
40
330
2
100
AcDbEntity
  8
L-ZISSEN
  6
BYBLOCK
 62
     0
100
AcDbLine
 10
511.8575194737474
 20
430.4779151280725
 30
0.0
 11
431.3575692341927
 21
430.4779490940071
 31
0.0
  0
LINE
  5
41
330
2
100
AcDbEntity
  8
L-ZISSEN
  6
BYBLOCK
 62
     0
100
AcDbLine
 10
436.9281857937643
 20
409.0378040940071
 30
0.0
 11
437.7385784605409
 21
316.1738700940071
 31
0.0
  0
LINE
  5
42
330
2
100
AcDbEntity
  8
L-ZISSEN
  6
BYBLOCK
 62
     0
100
AcDbLine
 10
442.0963434231099
 20
375.1661262737942
 30
0.0
 11
442.0963434231099
 21
328.8157455901499
 31
0.0
  0
ARC
  5
43
330
2
100
AcDbEntity
  8
L-ZISSEN
  6
BYBLOCK
 62
     0
100
AcDbCircle
 10
444.2601694605411
 20
310.5378340940073
 30
0.0
 40
4.9999981
100
AcDbArc
 50
195.0000599999997
 51
270.0000200000019
  0
LINE
  5
44
330
2
100
AcDbEntity
  8
L-ZISSEN
  6
BYBLOCK
 62
     0
100
AcDbLine
 10
437.908789460541
 20
314.923489094007
 30
0.0
 11
439.430659460541
 21
309.243794094007
 31
0.0
  0
ARC
  5
45
330
2
100
AcDbEntity
  8
L-ZISSEN
  6
BYBLOCK
 62
     0
100
AcDbCircle
 10
442.7384394605411
 20
316.2175220940072
 30
0.0
 40
4.9999981
100
AcDbArc
 50
180.4998999999981
 51
195.0000100000012
  0
TEXT
  5
46
330
2
100
AcDbEntity
  8
L-ZISSEN
100
AcDbText
 10
337.7294899425073
 20
504.1040537740052
 30
0.0
 40
11.19999999999999
  1
Rc3/8
 41
0.8
100
AcDbText
  0
LINE
  5
47
330
2
100
AcDbEntity
  8
L-ZISSEN
100
AcDbLine
 10
386.1496503440034
 20
521.565031048822
 30
0.0
 11
334.2828108661883
 21
521.565031048822
 31
0.0
1001
ACAD
1000
DSTYLE
1002
{
1070
    40
1040
3.0
1070
    41
1040
5.0
1070
    42
1040
1.0
1070
    43
1040
8.0
1070
    44
1040
0.8
1070
    73
1070
     0
1070
    74
1070
     0
1070
    77
1070
     0
1070
    78
1070
     8
1070
    79
1070
     2
1070
   140
1040
3.5
1070
   141
1040
0.0
1070
   145
1040
1.0
1070
   147
1040
1.5
1070
   172
1070
     1
1070
   174
1070
     1
1070
   271
1070
     3
1070
   272
1070
     3
1002
}
  0
TEXT
  5
48
330
2
100
AcDbEntity
  8
L-ZISSEN
100
AcDbText
 10
337.7294899425073
 20
525.1597148568755
 30
0.0
 40
11.19999999999999
  1
AIR IN
 41
0.8
100
AcDbText
  0
INSERT
  5
49
330
2
100
AcDbEntity
  8
L-ZISSEN
100
AcDbBlockReference
  2
_OPEN
 10
431.3575692341927
 20
452.9779240940073
 30
0.0
 41
15.0
 42
15.0
 43
15.0
 50
303.3901326996282
  0
LINE
  5
4A
330
2
100
AcDbEntity
  8
L-ZISSEN
  6
BYBLOCK
 62
     0
100
AcDbLine
 10
431.3575692341927
 20
475.4778990940074
 30
0.0
 11
431.3575692341927
 21
430.4779490940071
 31
0.0
  0
LINE
  5
4B
330
2
100
AcDbEntity
  8
L-ZISSEN
  6
BYBLOCK
 62
     0
100
AcDbLine
 10
442.4075592341927
 20
475.4778990940074
 30
0.0
 11
442.4075592341927
 21
430.4779490940071
 31
0.0
  0
LINE
  5
4C
330
2
100
AcDbEntity
  8
L-ZISSEN
  6
BYBLOCK
 62
     0
100
AcDbLine
 10
432.9952794605411
 20
413.0378040940071
 30
0.0
 11
432.9952794605411
 21
409.5378040940071
 31
0.0
  0
LINE
  5
4D
330
2
100
AcDbEntity
  8
L-ZISSEN
  6
BYBLOCK
 62
     0
100
AcDbLine
 10
442.0963434231099
 20
400.7061332275887
 30
0.0
 11
442.0963434231099
 21
380.8416847585828
 31
0.0
  0
ARC
  5
4E
330
2
100
AcDbEntity
  8
L-ZISSEN
  6
BYBLOCK
 62
     0
100
AcDbCircle
 10
433.4952794605412
 20
409.5378040940071
 30
0.0
 40
0.49999994
100
AcDbArc
 50
179.9999600000024
 51
270.0
  0
ARC
  5
4F
330
2
100
AcDbEntity
  8
L-ZISSEN
  6
BYBLOCK
 62
     0
100
AcDbCircle
 10
432.8412447697793
 20
413.5378040940071
 30
0.0
 40
0.5
100
AcDbArc
 50
181.7356292558665
 51
270.0
  0
LINE
  5
50
330
2
100
AcDbEntity
  8
L-ZISSEN
  6
BYBLOCK
 62
     0
100
AcDbLine
 10
432.9801394605412
 20
413.0378040940071
 30
0.0
 11
432.9952794605411
 21
413.0378040940071
 31
0.0
  0
LINE
  5
51
330
2
100
AcDbEntity
  8
L-ZISSEN
  6
BYBLOCK
 62
     0
100
AcDbLine
 10
432.3414741602947
 20
413.5226601877901
 30
0.0
 11
431.8276992341926
 21
430.4779690940071
 31
0.0
  0
LINE
  5
52
330
2
100
AcDbEntity
  8
L-ZISSEN
100
AcDbLine
 10
423.1025148787674
 20
465.5020638883794
 30
0.0
 11
386.1496503440034
 21
521.565031048822
 31
0.0
1001
ACAD
1000
DSTYLE
1002
{
1070
    40
1040
3.0
1070
    41
1040
5.0
1070
    42
1040
1.0
1070
    43
1040
8.0
1070
    44
1040
0.8
1070
    73
1070
     0
1070
    74
1070
     0
1070
    77
1070
     0
1070
    78
1070
     8
1070
    79
1070
     2
1070
   140
1040
3.5
1070
   141
1040
0.0
1070
   145
1040
1.0
1070
   147
1040
1.5
1070
   172
1070
     1
1070
   174
1070
     1
1070
   271
1070
     3
1070
   272
1070
     3
1002
}
  0
TEXT
  5
53
330
2
100
AcDbEntity
  8
L-ZISSEN
100
AcDbText
 10
272.7179711795252
 20
1019.429271265912
 30
0.0
 40
11.19999999999999
  1
MCA-01H3-3Y08A
 41
0.8
100
AcDbText
  0
TEXT
  5
54
330
2
100
AcDbEntity
  8
L-ZISSEN
100
AcDbText
 10
258.8051377847491
 20
1040.818037644943
 30
0.0
 40
11.19999999999999
  1
MODEL No.
 41
0.8
100
AcDbText
  0
LINE
  5
55
330
2
100
AcDbEntity
  8
L-ZISSEN
  6
BYBLOCK
 62
     0
100
AcDbLine
 10
434.6573792341923
 20
915.341705306894
 30
0.0
 11
433.2014792341924
 21
919.3417053068939
 31
0.0
  0
LINE
  5
56
330
2
100
AcDbEntity
  8
L-ZISSEN
  6
BYBLOCK
 62
     0
100
AcDbLine
 10
431.3575492341924
 20
919.3417053068939
 30
0.0
 11
431.3575492341924
 21
875.341705306894
 31
0.0
  0
LINE
  5
57
330
2
100
AcDbEntity
  8
L-ZISSEN
  6
BYBLOCK
 62
     0
100
AcDbLine
 10
431.3575492341924
 20
879.3417253068945
 30
0.0
 11
436.3245192341923
 21
879.3417253068945
 31
0.0
  0
LINE
  5
58
330
2
100
AcDbEntity
  8
L-ZISSEN
  6
BYBLOCK
 62
     0
100
AcDbLine
 10
433.2016792341923
 20
875.341705306894
 30
0.0
 11
431.3575492341924
 21
875.341705306894
 31
0.0
  0
LINE
  5
59
330
2
100
AcDbEntity
  8
L-ZISSEN
  6
BYBLOCK
 62
     0
100
AcDbLine
 10
433.2016692341921
 20
875.3417153068943
 30
0.0
 11
434.6575992341922
 21
879.3417353068942
 31
0.0
  0
LINE
  5
5A
330
2
100
AcDbEntity
  8
L-ZISSEN
  6
BYBLOCK
 62
     0
100
AcDbLine
 10
431.3575492341924
 20
915.341705306894
 30
0.0
 11
436.3245592341923
 21
915.341705306894
 31
0.0
  0
LINE
  5
5B
330
2
100
AcDbEntity
  8
L-ZISSEN
  6
BYBLOCK
 62
     0
100
AcDbLine
 10
431.3575492341924
 20
919.3417053068939
 30
0.0
 11
433.2014792341924
 21
919.3417053068939
 31
0.0
  0
LINE
  5
5C
330
2
100
AcDbEntity
  8
L-ZISSEN
100
AcDbLine
 10
886.8518894879885
 20
500.5407541380133
 30
0.0
 11
882.8459874179534
 21
576.9779190940067
 31
0.0
  0
LINE
  5
5D
330
2
100
AcDbEntity
  8
L-TYUSIN
100
AcDbLine
 10
861.3575192341945
 20
562.104957624857
 30
0.0
 11
861.3575192341945
 21
536.0470028721693
 31
0.0
  0
LINE
  5
5E
330
2
100
AcDbEntity
  8
L-ZISSEN
100
AcDbLine
 10
769.5640226981034
 20
506.2817666713
 30
0.0
 11
773.2690510504326
 21
576.9779190940067
 31
0.0
  0
LINE
  5
5F
330
2
100
AcDbEntity
  8
L-ZISSEN
100
AcDbLine
 10
746.3575192341935
 20
690.9778704399569
 30
0.0
 11
746.3575192341936
 21
492.9779190940068
 31
0.0
  0
LINE
  5
60
330
2
100
AcDbEntity
  8
L-ZISSEN
100
AcDbLine
 10
659.2573718133656
 20
526.2232125556278
 30
0.0
 11
659.2573718133656
 21
541.5232125556279
 31
0.0
  0
LINE
  5
61
330
2
100
AcDbEntity
  8
L-ZISSEN
100
AcDbLine
 10
699.3575192341932
 20
635.977919094007
 30
0.0
 11
699.3575192341929
 21
535.977919094007
 31
0.0
  0
LINE
  5
62
330
2
100
AcDbEntity
  8
L-ZISSEN
100
AcDbLine
 10
633.2573718133655
 20
525.7232125556278
 30
0.0
 11
633.2573718133655
 21
541.5232125556279
 31
0.0
  0
LINE
  5
63
330
2
100
AcDbEntity
  8
L-ZISSEN
100
AcDbLine
 10
632.257371813366
 20
526.1232125556278
 30
0.0
 11
632.2573718133655
 21
541.1232125556279
 31
0.0
  0
LINE
  5
64
330
2
100
AcDbEntity
  8
L-ZISSEN
100
AcDbLine
 10
633.2573718133655
 20
526.1232125556278
 30
0.0
 11
633.2573718133655
 21
541.1232125556279
 31
0.0
  0
LINE
  5
65
330
2
100
AcDbEntity
  8
L-ZISSEN
100
AcDbLine
 10
630.257371813366
 20
517.3779130940073
 30
0.0
 11
630.257371813366
 21
542.3779130940073
 31
0.0
  0
LINE
  5
66
330
2
100
AcDbEntity
  8
L-ZISSEN
100
AcDbLine
 10
597.9386815005807
 20
546.8779130940073
 30
0.0
 11
597.9386815005807
 21
533.8779130940073
 31
0.0
  0
LINE
  5
67
330
2
100
AcDbEntity
  8
L-ZISSEN
100
AcDbLine
 10
606.257371813366
 20
517.3779130940073
 30
0.0
 11
606.257371813366
 21
542.3779130940073
 31
0.0
  0
LINE
  5
68
330
2
100
AcDbEntity
  8
L-ZISSEN
100
AcDbLine
 10
660.3575192341931
 20
670.977919094007
 30
0.0
 11
660.3575192341931
 21
535.977919094007
 31
0.0
  0
LINE
  5
69
330
2
100
AcDbEntity
  8
L-ZISSEN
100
AcDbLine
 10
700.3575192341932
 20
690.9778704399577
 30
0.0
 11
700.3575192341932
 21
496.1779190940069
 31
0.0
  0
LINE
  5
6A
330
2
100
AcDbEntity
  8
L-ZISSEN
100
AcDbLine
 10
567.7761815005808
 20
546.8779130940073
 30
0.0
 11
567.7761815005808
 21
533.8779130940073
 31
0.0
  0
LINE
  5
6B
330
2
100
AcDbEntity
  8
L-TYUSIN
100
AcDbLine
 10
536.3575192341945
 20
535.8508805631571
 30
0.0
 11
536.3575192341945
 21
561.9088353158448
 31
0.0
  0
LINE
  5
6C
330
2
100
AcDbEntity
  8
L-ZISSEN
100
AcDbLine
 10
513.8575192341945
 20
475.4778990940075
 30
0.0
 11
513.8575192341945
 21
558.977919094007
 31
0.0
  0
LINE
  5
6D
330
2
100
AcDbEntity
  8
L-ZISSEN
  6
CONTINUOUS
 62
     7
100
AcDbLine
 10
728.3575192341922
 20
520.977967748057
 30
0.0
 11
712.3575152322387
 21
520.9779677480567
 31
0.0
  0
LINE
  5
6E
330
2
100
AcDbEntity
  8
L-ZISSEN
100
AcDbLine
 10
699.3575192341928
 20
492.9779190940069
 30
0.0
 11
746.3575192341927
 21
492.9779190940068
 31
0.0
  0
LINE
  5
6F
330
2
100
AcDbEntity
  8
L-ZISSEN
  6
CONTINUOUS
 62
     7
100
AcDbLine
 10
699.8575192341927
 20
496.1779190940068
 30
0.0
 11
740.8575192341932
 21
496.1779190940068
 31
0.0
  0
LINE
  5
70
330
2
100
AcDbEntity
  8
L-ZISSEN
100
AcDbLine
 10
716.3575192341925
 20
521.4779677480565
 30
-0.0000000000000009
 11
724.3575192341925
 21
521.4779677480565
 31
-0.0000000000000009
  0
LINE
  5
71
330
2
100
AcDbEntity
  8
L-ZISSEN
100
AcDbLine
 10
724.0575192341926
 20
533.4779677480566
 30
-0.0000000000000009
 11
716.6575192341924
 21
533.4779677480566
 31
-0.0000000000000009
  0
LINE
  5
72
330
2
100
AcDbEntity
  8
L-ZISSEN
100
AcDbLine
 10
850.0185405338125
 20
297.9779190940067
 30
0.0
 11
694.6964979345734
 21
297.9779190940067
 31
0.0
  0
LINE
  5
73
330
2
100
AcDbEntity
  8
L-ZISSEN
100
AcDbLine
 10
730.357519234193
 20
289.9779190940069
 30
0.0
 11
714.3575192341925
 21
289.9779190940067
 31
0.0
  0
CIRCLE
  5
74
330
2
100
AcDbEntity
  8
L-ZISSEN
100
AcDbCircle
 10
720.3575192341928
 20
442.447919094007
 30
0.0
 40
17.99999999999982
  0
LINE
  5
75
330
2
100
AcDbEntity
  8
L-ZISSEN
 62
     7
100
AcDbLine
 10
728.0945790346393
 20
430.0418040057333
 30
0.0
 11
712.4376786179759
 21
455.1471170709825
 31
0.0
  0
LINE
  5
76
330
2
100
AcDbEntity
  8
L-ZISSEN
100
AcDbLine
 10
687.8575192341929
 20
480.9779190940069
 30
0.0
 11
746.3575192341927
 21
480.9779190940068
 31
0.0
  0
LINE
  5
77
330
2
100
AcDbEntity
  8
L-ZISSEN
  6
CONTINUOUS
 62
     7
100
AcDbLine
 10
599.8573315005817
 20
499.1779130940074
 30
0.0
 11
565.8573315005821
 21
499.177913094007
 31
0.0
  0
LINE
  5
78
330
2
100
AcDbEntity
  8
L-ZISSEN
100
AcDbLine
 10
565.8574315005819
 20
519.177913094007
 30
0.0
 11
599.8574315005819
 21
519.177913094007
 31
0.0
  0
LINE
  5
79
330
2
100
AcDbEntity
  8
L-ZISSEN
100
AcDbLine
 10
602.1074315005828
 20
533.8779130940073
 30
0.0
 11
563.6074315005806
 21
533.8779130940073
 31
0.0
  0
LINE
  5
7A
330
2
100
AcDbEntity
  8
L-ZISSEN
100
AcDbLine
 10
564.4074315005807
 20
521.7779130940074
 30
0.0
 11
601.307431500583
 21
521.7779130940074
 31
0.0
  0
LINE
  5
7B
330
2
100
AcDbEntity
  8
L-ZISSEN
100
AcDbLine
 10
555.8573718133659
 20
499.1779130940074
 30
0.0
 11
630.8573718133659
 21
499.1779130940074
 31
0.0
  0
LINE
  5
7C
330
2
100
AcDbEntity
  8
L-ZISSEN
100
AcDbLine
 10
554.8426763442883
 20
492.9779230940074
 30
0.0
 11
631.8721693180907
 21
492.9779230940074
 31
0.0
  0
LINE
  5
7D
330
2
100
AcDbEntity
  8
L-ZISSEN
100
AcDbLine
 10
556.8575118133655
 20
475.4779130940072
 30
0.0
 11
687.8575192341929
 21
475.4779130940072
 31
0.0
  0
CIRCLE
  5
7E
330
2
100
AcDbEntity
  8
L-ZISSEN
 48
5.0
100
AcDbCircle
 10
593.3574818133658
 20
450.4779430940069
 30
0.0
 40
25.0
  0
LINE
  5
7F
330
2
100
AcDbEntity
  8
L-ZISSEN
100
AcDbLine
 10
609.1516211158739
 20
417.9778787394615
 30
0.0
 11
577.5698085000824
 21
417.9779530940071
 31
0.0
  0
LINE
  5
80
330
2
100
AcDbEntity
  8
L-ZISSEN
100
AcDbLine
 10
614.3138868133657
 20
425.4779530940071
 30
0.0
 11
572.4010868133657
 21
425.4779530940071
 31
0.0
  0
LINE
  5
81
330
2
100
AcDbEntity
  8
L-ZISSEN
100
AcDbLine
 10
513.8575192341945
 20
308.9779190940072
 30
0.0
 11
673.8575192341945
 21
308.9779190940072
 31
0.0
  0
LINE
  5
82
330
2
100
AcDbEntity
  8
L-ZISSEN
  6
BYBLOCK
 62
     0
100
AcDbLine
 10
506.0623737582233
 20
409.0378040940071
 30
0.0
 11
505.2519474605411
 21
316.1737820940071
 31
0.0
  0
LINE
  5
83
330
2
100
AcDbEntity
  8
L-ZISSEN
  6
BYBLOCK
 62
     0
100
AcDbLine
 10
488.9034928007427
 20
328.8157455901499
 30
0.0
 11
488.9034928007427
 21
375.1661262737942
 31
0.0
  0
LINE
  5
84
330
2
100
AcDbEntity
  8
L-ZISSEN
  6
BYBLOCK
 62
     0
100
AcDbLine
 10
500.8942154979723
 20
375.1661262737942
 30
0.0
 11
500.8942154979723
 21
328.8157455901499
 31
0.0
  0
LINE
  5
85
330
2
100
AcDbEntity
  8
L-ZISSEN
  6
BYBLOCK
 62
     0
100
AcDbLine
 10
454.0870661203395
 20
328.8157455901499
 30
0.0
 11
454.087066120339
 21
375.1661262737942
 31
0.0
  0
LINE
  5
86
330
2
100
AcDbEntity
  8
L-ZISSEN
  6
BYBLOCK
 62
     0
100
AcDbLine
 10
513.8575192341945
 20
388.9779190940072
 30
0.0
 11
513.8575192341945
 21
308.9779190940072
 31
0.0
  0
LINE
  5
87
330
2
100
AcDbEntity
  8
L-ZISSEN
  6
BYBLOCK
 62
     0
100
AcDbLine
 10
474.7075592341924
 20
285.7379190940072
 30
0.0
 11
474.7075592341924
 21
287.2379190940072
 31
0.0
  0
LINE
  5
88
330
2
100
AcDbEntity
  8
L-ZISSEN
  6
BYBLOCK
 62
     0
100
AcDbLine
 10
468.0075392341924
 20
285.7379190940072
 30
0.0
 11
468.0075392341926
 21
287.2379190940072
 31
0.0
  0
LINE
  5
89
330
2
100
AcDbEntity
  8
L-ZISSEN
  6
BYBLOCK
 62
     0
100
AcDbLine
 10
474.7075592341924
 20
285.7379190940072
 30
0.0
 11
468.0075392341924
 21
285.7379190940072
 31
0.0
  0
LINE
  5
8A
330
2
100
AcDbEntity
  8
L-ZISSEN
  6
BYBLOCK
 62
     0
100
AcDbLine
 10
468.4075492341925
 20
284.2379190940072
 30
0.0
 11
474.3075492341926
 21
284.2379190940072
 31
0.0
  0
LINE
  5
8B
330
2
100
AcDbEntity
  8
L-ZISSEN
  6
BYBLOCK
 62
     0
100
AcDbLine
 10
468.4075492341925
 20
284.2379190940072
 30
0.0
 11
468.4075492341925
 21
285.7379190940072
 31
0.0
  0
LINE
  5
8C
330
2
100
AcDbEntity
  8
L-ZISSEN
  6
BYBLOCK
 62
     0
100
AcDbLine
 10
474.3075492341926
 20
284.2379190940072
 30
0.0
 11
474.3075492341926
 21
285.7379190940072
 31
0.0
  0
LINE
  5
8D
330
2
100
AcDbEntity
  8
L-ZISSEN
  6
BYBLOCK
 62
     0
100
AcDbLine
 10
479.495249460541
 20
287.824650094007
 30
0.0
 11
480.6662894605412
 21
288.2508740940071
 31
0.0
  0
LINE
  5
8E
330
2
100
AcDbEntity
  8
L-ZISSEN
  6
BYBLOCK
 62
     0
100
AcDbLine
 10
462.4952794605412
 20
304.3245890940071
 30
0.0
 11
480.495304460541
 21
304.3245890940071
 31
0.0
  0
LINE
  5
8F
330
2
100
AcDbEntity
  8
L-ZISSEN
  6
BYBLOCK
 62
     0
100
AcDbLine
 10
462.4953094605412
 20
304.3246120940072
 30
0.0
 11
461.9953294605408
 21
303.824619094007
 31
0.0
  0
ARC
  5
90
330
2
100
AcDbEntity
  8
L-ZISSEN
  6
BYBLOCK
 62
     0
100
AcDbCircle
 10
462.4952894605408
 20
288.7206760940072
 30
0.0
 40
0.5
100
AcDbArc
 50
179.9996400000028
 51
249.9998399999971
  0
LINE
  5
91
330
2
100
AcDbEntity
  8
L-ZISSEN
  6
BYBLOCK
 62
     0
100
AcDbLine
 10
461.9952894605408
 20
288.7206760940072
 30
0.0
 11
461.9952894605408
 21
303.8245890940071
 31
0.0
  0
LINE
  5
92
330
2
100
AcDbEntity
  8
L-ZISSEN
  6
BYBLOCK
 62
     0
100
AcDbLine
 10
461.9952894605408
 20
288.7206760940072
 30
0.0
 11
461.9952894605408
 21
303.8245890940071
 31
0.0
  0
LINE
  5
93
330
2
100
AcDbEntity
  8
L-ZISSEN
  6
BYBLOCK
 62
     0
100
AcDbLine
 10
463.495339460541
 20
287.8246570940071
 30
0.0
 11
479.495249460541
 21
287.824650094007
 31
0.0
  0
LINE
  5
94
330
2
100
AcDbEntity
  8
L-ZISSEN
  6
BYBLOCK
 62
     0
100
AcDbLine
 10
474.7075592341924
 20
287.2379190940072
 30
0.0
 11
468.0075392341926
 21
287.2379190940072
 31
0.0
  0
LINE
  5
95
330
2
100
AcDbEntity
  8
L-ZISSEN
  6
BYBLOCK
 62
     0
100
AcDbLine
 10
464.2786944433834
 20
305.5378300940073
 30
0.0
 11
464.2786944433834
 21
304.3245890940071
 31
0.0
  0
LINE
  5
96
330
2
100
AcDbEntity
  8
L-ZISSEN
  6
BYBLOCK
 62
     0
100
AcDbLine
 10
468.0687928816229
 20
287.8246040940071
 30
0.0
 11
468.4075092341926
 21
287.237934094007
 31
0.0
  0
LINE
  5
97
330
2
100
AcDbEntity
  8
L-ZISSEN
  6
BYBLOCK
 62
     0
100
AcDbLine
 10
462.3243194605412
 20
288.2508740940071
 30
0.0
 11
463.495339460541
 21
287.8246570940071
 31
0.0
  0
LINE
  5
98
330
2
100
AcDbEntity
  8
L-ZISSEN
  6
BYBLOCK
 62
     0
100
AcDbLine
 10
478.7118644776988
 20
305.5378300940073
 30
0.0
 11
478.7118644776988
 21
304.3245890940071
 31
0.0
  0
LINE
  5
99
330
2
100
AcDbEntity
  8
L-ZISSEN
  6
BYBLOCK
 62
     0
100
AcDbLine
 10
474.6463055867624
 20
287.8246040940071
 30
0.0
 11
474.3075892341924
 21
287.237934094007
 31
0.0
  0
LINE
  5
9A
330
2
100
AcDbEntity
  8
L-ZISSEN
  6
BYBLOCK
 62
     0
100
AcDbLine
 10
480.9952894605409
 20
303.8246040940072
 30
0.0
 11
480.4952894605409
 21
304.3246040940072
 31
0.0
  0
ARC
  5
9B
330
2
100
AcDbEntity
  8
L-ZISSEN
  6
BYBLOCK
 62
     0
100
AcDbCircle
 10
480.4952894605409
 20
288.7206760940072
 30
0.0
 40
0.5
100
AcDbArc
 50
290.0001200000019
 51
0.0003545554118953
  0
LINE
  5
9C
330
2
100
AcDbEntity
  8
L-ZISSEN
  6
BYBLOCK
 62
     0
100
AcDbLine
 10
480.9952894605409
 20
303.8245890940071
 30
0.0
 11
480.9952894605409
 21
288.7206760940072
 31
0.0
  0
ARC
  5
9D
330
2
100
AcDbEntity
  8
L-ZISSEN
  6
BYBLOCK
 62
     0
100
AcDbCircle
 10
498.7301394605411
 20
310.5378340940073
 30
0.0
 40
4.9999981
100
AcDbArc
 50
270.0000200000019
 51
344.9999700000022
  0
LINE
  5
9E
330
2
100
AcDbEntity
  8
L-ZISSEN
  6
BYBLOCK
 62
     0
100
AcDbLine
 10
505.0816054605408
 20
314.9233510940072
 30
0.0
 11
503.5597554605411
 21
309.2437170940071
 31
0.0
  0
ARC
  5
9F
330
2
100
AcDbEntity
  8
L-ZISSEN
  6
BYBLOCK
 62
     0
100
AcDbCircle
 10
500.2519794605411
 20
316.2174610940072
 30
0.0
 40
4.9999981
100
AcDbArc
 50
344.9999800000028
 51
359.4999099999981
  0
LINE
  5
A0
330
2
100
AcDbEntity
  8
L-ZISSEN
  6
BYBLOCK
 62
     0
100
AcDbLine
 10
500.8942154979723
 20
328.8157455901499
 30
0.0
 11
488.9034928007427
 21
328.8157455901499
 31
0.0
  0
LINE
  5
A1
330
2
100
AcDbEntity
  8
L-ZISSEN
100
AcDbLine
 10
571.3574918133658
 20
430.4779151280725
 30
0.0
 11
511.8575194737474
 21
430.4779151280725
 31
0.0
  0
CIRCLE
  5
A2
330
2
100
AcDbEntity
  8
L-ZISSEN
 62
     0
 48
0.5
100
AcDbCircle
 10
511.3575292341923
 20
468.977919094007
 30
0.0
 40
3.5
  0
CIRCLE
  5
A3
330
2
100
AcDbEntity
  8
L-ZISSEN
 62
     0
 48
0.5
100
AcDbCircle
 10
511.3575292341923
 20
436.977919094007
 30
0.0
 40
3.5
  0
LINE
  5
A4
330
2
100
AcDbEntity
  8
L-ZISSEN
  6
BYBLOCK
 62
     0
100
AcDbLine
 10
497.8905378231835
 20
474.977919094007
 30
0.0
 11
497.8905378231836
 21
430.4779210212636
 31
0.0
  0
LINE
  5
A5
330
2
100
AcDbEntity
  8
L-ZISSEN
  6
BYBLOCK
 62
     0
100
AcDbLine
 10
500.8575292341923
 20
474.9779190940074
 30
0.0
 11
500.8575292341924
 21
430.4779197693791
 31
0.0
  0
LINE
  5
A6
330
2
100
AcDbEntity
  8
L-ZISSEN
  6
BYBLOCK
 62
     0
 48
0.5
100
AcDbLine
 10
509.034784460541
 20
409.0378040940071
 30
0.0
 11
477.9952794605411
 21
409.0378040940071
 31
0.0
  0
LINE
  5
A7
330
2
100
AcDbEntity
  8
L-ZISSEN
  6
BYBLOCK
 62
     0
100
AcDbLine
 10
477.9952794605411
 20
413.0378040940071
 30
0.0
 11
477.9952794605411
 21
388.4047870940072
 31
0.0
  0
LINE
  5
A8
330
2
100
AcDbEntity
  8
L-ZISSEN
  6
BYBLOCK
 62
     0
100
AcDbLine
 10
464.9952794605411
 20
413.0378040940071
 30
0.0
 11
464.9952794605411
 21
388.4047870940072
 31
0.0
  0
LINE
  5
A9
330
2
100
AcDbEntity
  8
L-ZISSEN
  6
BYBLOCK
 62
     0
100
AcDbLine
 10
454.0870661203395
 20
380.8416847585828
 30
0.0
 11
454.087066120339
 21
400.7061332275887
 31
0.0
  0
LINE
  5
AA
330
2
100
AcDbEntity
  8
L-ZISSEN
  6
BYBLOCK
 62
     0
100
AcDbLine
 10
477.9952794605411
 20
388.4047870940072
 30
0.0
 11
464.9952794605411
 21
388.4047870940072
 31
0.0
  0
POINT
  5
AB
330
2
100
AcDbEntity
  8
L-ZISSEN
  6
BYBLOCK
 62
     0
100
AcDbPoint
 10
471.3575492341925
 20
412.9779690940071
 30
0.0
  0
LINE
  5
AC
330
2
100
AcDbEntity
  8
L-ZISSEN
  6
BYBLOCK
 62
     0
 48
0.5
100
AcDbLine
 10
509.9951414605409
 20
413.0526179855295
 30
0.0
 11
509.9951414605409
 21
409.5378040940071
 31
0.0
  0
LINE
  5
AD
330
2
100
AcDbEntity
  8
L-ZISSEN
  6
BYBLOCK
 62
     0
100
AcDbLine
 10
513.8575192341945
 20
388.9779190940072
 30
0.0
 11
513.8575192341945
 21
430.4779490940071
 31
0.0
  0
LINE
  5
AE
330
2
100
AcDbEntity
  8
L-ZISSEN
  6
BYBLOCK
 62
     0
100
AcDbLine
 10
500.8942154979723
 20
380.8416847585828
 30
0.0
 11
488.9034928007427
 21
380.8416847585828
 31
0.0
  0
LINE
  5
AF
330
2
100
AcDbEntity
  8
L-ZISSEN
  6
BYBLOCK
 62
     0
100
AcDbLine
 10
488.9034928007427
 20
375.1661262737942
 30
0.0
 11
500.8942154979723
 21
375.1661262737942
 31
0.0
  0
LINE
  5
B0
330
2
100
AcDbEntity
  8
L-ZISSEN
  6
BYBLOCK
 62
     0
100
AcDbLine
 10
488.9034928007427
 20
400.7061332275887
 30
0.0
 11
500.8942154979723
 21
400.7061332275887
 31
0.0
  0
LINE
  5
B1
330
2
100
AcDbEntity
  8
L-ZISSEN
  6
BYBLOCK
 62
     0
100
AcDbLine
 10
488.9034928007427
 20
380.8416847585828
 30
0.0
 11
488.9034928007427
 21
400.7061332275887
 31
0.0
  0
LINE
  5
B2
330
2
100
AcDbEntity
  8
L-ZISSEN
  6
BYBLOCK
 62
     0
100
AcDbLine
 10
500.8942154979723
 20
400.7061332275887
 30
0.0
 11
500.8942154979723
 21
380.8416847585828
 31
0.0
  0
ARC
  5
B3
330
2
100
AcDbEntity
  8
L-ZISSEN
  6
BYBLOCK
 62
     0
 48
0.5
100
AcDbCircle
 10
509.4951264605413
 20
409.5378040940071
 30
0.0
 40
0.49999994
100
AcDbArc
 50
270.0000200000019
 51
0.0
  0
LINE
  5
B4
330
2
100
AcDbEntity
  8
L-ZISSEN
  6
BYBLOCK
 62
     0
 48
0.5
100
AcDbLine
 10
509.4951264605413
 20
409.0378040940071
 30
0.0
 11
509.034784460541
 21
409.0378040940071
 31
0.0
  0
ARC
  5
B5
330
2
100
AcDbEntity
  8
L-ZISSEN
  6
BYBLOCK
 62
     0
 48
0.5
100
AcDbCircle
 10
509.8743340098578
 20
413.5378040940071
 30
0.0
 40
0.5
100
AcDbArc
 50
270.0
 51
358.2643380337228
  0
LINE
  5
B6
330
2
100
AcDbEntity
  8
L-ZISSEN
  6
BYBLOCK
 62
     0
 48
0.5
100
AcDbLine
 10
510.3741046106968
 20
413.5226599024689
 30
0.0
 11
510.8878892341929
 21
430.4779690940071
 31
0.0
  0
LINE
  5
B7
330
2
100
AcDbEntity
  8
L-ZISSEN
100
AcDbLine
 10
565.8575118133655
 20
474.977919094007
 30
0.0
 11
565.8575118133655
 21
430.9779190940069
 31
0.0
  0
LINE
  5
B8
330
2
100
AcDbEntity
  8
L-ZISSEN
100
AcDbLine
 10
563.8575118133656
 20
474.9779190940074
 30
0.0
 11
563.8575118133656
 21
430.9779190940069
 31
0.0
  0
LINE
  5
B9
330
2
100
AcDbEntity
  8
L-ZISSEN
100
AcDbLine
 10
523.8575292341927
 20
474.977919094007
 30
0.0
 11
523.8575292341927
 21
430.4779151280725
 31
0.0
  0
LINE
  5
BA
330
2
100
AcDbEntity
  8
L-ZISSEN
100
AcDbLine
 10
521.8575292341922
 20
474.9779190940074
 30
0.0
 11
521.8575292341923
 21
430.4779151280726
 31
0.0
  0
LINE
  5
BB
330
2
100
AcDbEntity
  8
L-ZISSEN
100
AcDbLine
 10
539.8905204023565
 20
474.977919094007
 30
0.0
 11
539.8905204023565
 21
430.9779190940069
 31
0.0
  0
LINE
  5
BC
330
2
100
AcDbEntity
  8
L-ZISSEN
100
AcDbLine
 10
542.8575118133656
 20
474.9779190940074
 30
0.0
 11
542.8575118133656
 21
430.9779190940069
 31
0.0
  0
LINE
  5
BD
330
2
100
AcDbEntity
  8
L-ZISSEN
100
AcDbLine
 10
565.8575118133655
 20
430.9779190940069
 30
0.0
 11
539.8905204023565
 21
430.9779190940069
 31
0.0
  0
LINE
  5
BE
330
2
100
AcDbEntity
  8
L-TYUSIN
100
AcDbLine
 10
552.3575192341936
 20
398.9779190940072
 30
0.0
 11
520.3575192341954
 21
398.9779190940072
 31
0.0
  0
ARC
  5
BF
330
2
100
AcDbEntity
  8
L-HASEN
100
AcDbCircle
 10
545.8575192341936
 20
398.9779190940069
 30
0.0
 40
4.0
100
AcDbArc
 50
270.0
 51
90.00000000000003
  0
LINE
  5
C2
330
2
100
AcDbEntity
  8
L-TYUSIN
100
AcDbLine
 10
536.3575192341945
 20
412.104957624857
 30
0.0
 11
536.3575192341945
 21
386.0470028721694
 31
0.0
  0
LINE
  5
C3
330
2
100
AcDbEntity
  8
L-HASEN
100
AcDbLine
 10
526.8575192341936
 20
402.9779190940074
 30
0.0
 11
545.8575192341936
 21
402.9779190940072
 31
0.0
  0
LINE
  5
C4
330
2
100
AcDbEntity
  8
L-HASEN
100
AcDbLine
 10
545.8575192341936
 20
394.9779190940071
 30
0.0
 11
526.8575192341936
 21
394.9779190940072
 31
0.0
  0
ARC
  5
C5
330
2
100
AcDbEntity
  8
L-HASEN
100
AcDbCircle
 10
526.8575192341936
 20
398.9779190940072
 30
0.0
 40
4.0
100
AcDbArc
 50
90.0
 51
270.0
  0
LINE
  5
C6
330
2
100
AcDbEntity
  8
L-TYUSIN
100
AcDbLine
 10
526.8575192341936
 20
405.5149948287775
 30
0.0
 11
526.8575192341936
 21
392.4408433592369
 31
0.0
  0
LINE
  5
C7
330
2
100
AcDbEntity
  8
L-TYUSIN
100
AcDbLine
 10
545.8575192341936
 20
392.4408433592367
 30
0.0
 11
545.8575192341936
 21
405.5149948287772
 31
0.0
  0
LINE
  5
C8
330
2
100
AcDbEntity
  8
L-ZISSEN
100
AcDbLine
 10
578.3575191013508
 20
430.4779151280725
 30
0.0
 11
561.8574818133659
 21
430.4779151280725
 31
0.0
  0
CIRCLE
  5
C9
330
2
100
AcDbEntity
  8
L-ZISSEN
100
AcDbCircle
 10
553.3575118133655
 20
436.977919094007
 30
0.0
 40
3.5
  0
LINE
  5
CA
330
2
100
AcDbEntity
  8
L-ZISSEN
100
AcDbLine
 10
571.3574918133656
 20
438.6035824796457
 30
0.0
 11
571.3574918133656
 21
430.4779151280725
 31
0.0
  0
LINE
  5
CB
330
2
100
AcDbEntity
  8
L-ZISSEN
100
AcDbLine
 10
574.357496813366
 20
418.5300630940072
 30
0.0
 11
577.5632925108573
 21
417.9778787394615
 31
0.0
  0
LINE
  5
CC
330
2
100
AcDbEntity
  8
L-ZISSEN
100
AcDbLine
 10
582.4601931597783
 20
427.9779630940073
 30
0.0
 11
572.3574468133659
 21
427.9779630940073
 31
0.0
  0
LINE
  5
CD
330
2
100
AcDbEntity
  8
L-ZISSEN
100
AcDbLine
 10
574.357496813366
 20
425.4779530940071
 30
0.0
 11
574.357496813366
 21
418.5300630940072
 31
0.0
  0
LINE
  5
CE
330
2
100
AcDbEntity
  8
L-ZISSEN
100
AcDbLine
 10
572.313806813366
 20
430.4779930940075
 30
0.0
 11
572.4010868133657
 21
425.4779530940071
 31
0.0
  0
LINE
  5
CF
330
2
100
AcDbEntity
  8
L-ZISSEN
100
AcDbLine
 10
567.7761815005808
 20
536.2779190940067
 30
0.0
 11
514.3575192341918
 21
536.2779190940072
 31
0.0
  0
LINE
  5
D0
330
2
100
AcDbEntity
  8
L-ZISSEN
100
AcDbLine
 10
565.8575118133655
 20
474.977919094007
 30
0.0
 11
539.8905204023565
 21
474.977919094007
 31
0.0
  0
LINE
  5
D1
330
2
100
AcDbEntity
  8
L-ZISSEN
100
AcDbLine
 10
555.8573718133659
 20
499.1779130940074
 30
0.0
 11
555.8573718133659
 21
492.9779130940072
 31
0.0
  0
LINE
  5
D2
330
2
100
AcDbEntity
  8
L-ZISSEN
100
AcDbLine
 10
553.357511813366
 20
474.977919094007
 30
0.0
 11
553.3575118133655
 21
476.4779130940072
 31
0.0
  0
CIRCLE
  5
D3
330
2
100
AcDbEntity
  8
L-ZISSEN
100
AcDbCircle
 10
553.3575118133655
 20
468.977919094007
 30
0.0
 40
3.5
  0
ARC
  5
D4
330
2
100
AcDbEntity
  8
L-ZISSEN
100
AcDbCircle
 10
554.8426763442883
 20
492.4779230940074
 30
0.0
 40
0.5
100
AcDbArc
 50
90.0
 51
178.2643687617725
  0
ARC
  5
D5
330
2
100
AcDbEntity
  8
L-ZISSEN
100
AcDbCircle
 10
556.8575118133655
 20
475.9779130940072
 30
0.0
 40
0.5
100
AcDbArc
 50
180.0
 51
270.0
  0
LINE
  5
D6
330
2
100
AcDbEntity
  8
L-ZISSEN
100
AcDbLine
 10
556.3575118133655
 20
476.4779130940072
 30
0.0
 11
556.3575118133655
 21
475.9779130940072
 31
0.0
  0
LINE
  5
D7
330
2
100
AcDbEntity
  8
L-ZISSEN
100
AcDbLine
 10
553.3575118133655
 20
475.4779130940072
 30
0.0
 11
553.3575118133655
 21
476.4779130940072
 31
0.0
  0
LINE
  5
D8
330
2
100
AcDbEntity
  8
L-ZISSEN
100
AcDbLine
 10
553.3575118133655
 20
476.4779130940072
 30
0.0
 11
556.3575118133655
 21
476.4779130940072
 31
0.0
  0
LINE
  5
D9
330
2
100
AcDbEntity
  8
L-ZISSEN
100
AcDbLine
 10
553.8576185622821
 20
476.4779130940072
 30
0.0
 11
554.342905735328
 21
492.4930670175156
 31
0.0
  0
LINE
  5
DA
330
2
100
AcDbEntity
  8
L-ZISSEN
100
AcDbLine
 10
577.3574918133656
 20
469.6873241355687
 30
0.0
 11
577.3574918133656
 21
475.4779130940072
 31
0.0
  0
LINE
  5
DB
330
2
100
AcDbEntity
  8
L-ZISSEN
100
AcDbLine
 10
577.4961268133658
 20
475.4779130940072
 30
0.0
 11
577.4961268133658
 21
492.9778930940073
 31
0.0
  0
LINE
  5
DC
330
2
100
AcDbEntity
  8
L-ZISSEN
100
AcDbLine
 10
565.8574315005819
 20
499.177913094007
 30
0.0
 11
565.8574315005819
 21
519.177913094007
 31
0.0
  0
ARC
  5
DD
330
2
100
AcDbEntity
  8
L-ZISSEN
100
AcDbCircle
 10
564.4074315005807
 20
522.5779130940071
 30
0.0
 40
0.8000000000000001
100
AcDbArc
 50
180.0
 51
270.0
  0
LINE
  5
DE
330
2
100
AcDbEntity
  8
L-ZISSEN
100
AcDbLine
 10
563.6074315005806
 20
533.8779130940073
 30
0.0
 11
563.6074315005806
 21
522.5779130940071
 31
0.0
  0
LINE
  5
DF
330
2
100
AcDbEntity
  8
L-ZISSEN
100
AcDbLine
 10
568.1074315005819
 20
519.177913094007
 30
0.0
 11
568.1074315005819
 21
521.7779130940074
 31
0.0
  0
LINE
  5
E0
330
2
100
AcDbEntity
  8
L-ZISSEN
100
AcDbLine
 10
703.3573669293491
 20
425.995371500444
 30
0.0
 11
705.5919198730483
 21
297.9779190940067
 31
0.0
  0
LINE
  5
E1
330
2
100
AcDbEntity
  8
L-ZISSEN
100
AcDbLine
 10
692.4619449908743
 20
425.995371500444
 30
0.0
 11
694.6964979345734
 21
297.9779190940067
 31
0.0
  0
LINE
  5
E2
330
2
100
AcDbEntity
  8
L-ZISSEN
100
AcDbLine
 10
673.8575192341945
 20
308.9779190940072
 30
0.0
 11
673.8575192341946
 21
430.4779151280727
 31
0.0
  0
LINE
  5
E3
330
2
100
AcDbEntity
  8
L-ZISSEN
100
AcDbLine
 10
714.3575192341925
 20
289.9779190940067
 30
0.0
 11
714.2178787147672
 21
297.9779190940067
 31
0.0
  0
LINE
  5
E4
330
2
100
AcDbEntity
  8
L-ZISSEN
100
AcDbLine
 10
658.7573718133655
 20
525.7232125556278
 30
0.0
 11
633.2573718133655
 21
525.7232125556278
 31
0.0
  0
CIRCLE
  5
E5
330
2
100
AcDbEntity
  8
L-ZISSEN
  6
CONTINUOUS
 62
     7
100
AcDbCircle
 10
654.357515523779
 20
404.7623339354557
 30
0.0
 40
13.50000000000002
  0
CIRCLE
  5
E6
330
2
100
AcDbEntity
  8
L-ZISSEN
  6
CONTINUOUS
 62
     7
100
AcDbCircle
 10
654.357515523779
 20
404.7623339354557
 30
0.0
 40
19.00000000000001
  0
LINE
  5
E7
330
2
100
AcDbEntity
  8
L-ZISSEN
100
AcDbLine
 10
632.8574315738108
 20
430.4779151280725
 30
0.0
 11
687.8575192341929
 21
430.4779151280728
 31
0.0
  0
LINE
  5
E8
330
2
100
AcDbEntity
  8
L-ZISSEN
100
AcDbLine
 10
646.8245032243742
 20
474.9779190940074
 30
0.0
 11
646.8245032243742
 21
430.9779190940069
 31
0.0
  0
LINE
  5
E9
330
2
100
AcDbEntity
  8
L-ZISSEN
100
AcDbLine
 10
643.8575118133655
 20
474.977919094007
 30
0.0
 11
643.8575118133655
 21
430.9779190940069
 31
0.0
  0
LINE
  5
EA
330
2
100
AcDbEntity
  8
L-ZISSEN
100
AcDbLine
 10
643.8575118133655
 20
474.9779190940074
 30
0.0
 11
643.8575118133655
 21
430.9779190940069
 31
0.0
  0
LINE
  5
EB
330
2
100
AcDbEntity
  8
L-ZISSEN
100
AcDbLine
 10
622.8575118133655
 20
474.9779190940074
 30
0.0
 11
622.8575118133655
 21
430.9779190940069
 31
0.0
  0
LINE
  5
EC
330
2
100
AcDbEntity
  8
L-ZISSEN
100
AcDbLine
 10
619.8905204023569
 20
474.977919094007
 30
0.0
 11
619.8905204023569
 21
430.9779190940069
 31
0.0
  0
LINE
  5
ED
330
2
100
AcDbEntity
  8
L-ZISSEN
 62
     7
100
AcDbLine
 10
601.0945416138122
 20
438.0718280057334
 30
0.0
 11
585.437641197149
 21
463.1771410709824
 31
0.0
  0
LINE
  5
EE
330
2
100
AcDbEntity
  8
L-ZISSEN
100
AcDbLine
 10
624.8574818133659
 20
430.4779151280725
 30
0.0
 11
608.3574445253809
 21
430.4779151280725
 31
0.0
  0
LINE
  5
EF
330
2
100
AcDbEntity
  8
L-ZISSEN
100
AcDbLine
 10
632.8574315738108
 20
430.4779151280725
 30
0.0
 11
608.3574445253809
 21
430.4779151280725
 31
0.0
  0
LINE
  5
F0
330
2
100
AcDbEntity
  8
L-ZISSEN
100
AcDbLine
 10
615.3574918133656
 20
438.6036195343303
 30
0.0
 11
615.3574918133656
 21
430.4779151280725
 31
0.0
  0
LINE
  5
F1
330
2
100
AcDbEntity
  8
L-ZISSEN
100
AcDbLine
 10
612.3574168133657
 20
418.5300630940072
 30
0.0
 11
609.1516211158739
 21
417.9778787394615
 31
0.0
  0
LINE
  5
F2
330
2
100
AcDbEntity
  8
L-ZISSEN
100
AcDbLine
 10
614.3575168133659
 20
427.9779630940073
 30
0.0
 11
604.254770466953
 21
427.9779630940073
 31
0.0
  0
LINE
  5
F3
330
2
100
AcDbEntity
  8
L-ZISSEN
100
AcDbLine
 10
612.3574168133657
 20
425.4779430940073
 30
0.0
 11
612.3574168133657
 21
418.5300630940072
 31
0.0
  0
LINE
  5
F4
330
2
100
AcDbEntity
  8
L-ZISSEN
100
AcDbLine
 10
614.4011368133654
 20
430.4778730940073
 30
0.0
 11
614.3138968133655
 21
425.4779530940071
 31
0.0
  0
LINE
  5
F5
330
2
100
AcDbEntity
  8
L-ZISSEN
100
AcDbLine
 10
646.8245032243742
 20
430.9779190940072
 30
0.0
 11
619.8905204023569
 21
430.9779190940069
 31
0.0
  0
CIRCLE
  5
F6
330
2
100
AcDbEntity
  8
L-ZISSEN
100
AcDbCircle
 10
633.3575118133656
 20
436.977919094007
 30
0.0
 40
3.5
  0
ARC
  5
F7
330
2
100
AcDbEntity
  8
L-ZISSEN
  6
CONTINUOUS
 62
     7
100
AcDbCircle
 10
632.8574317308905
 20
430.9779150680728
 30
0.0
 40
0.49999994
100
AcDbArc
 50
269.9999820000007
 51
359.9999600000025
  0
LINE
  5
F8
330
2
100
AcDbEntity
  8
L-ZISSEN
100
AcDbLine
 10
630.257371813366
 20
517.3779130940073
 30
0.0
 11
603.2573718133664
 21
517.3779130940073
 31
0.0
  0
LINE
  5
F9
330
2
100
AcDbEntity
  8
L-ZISSEN
100
AcDbLine
 10
630.2573718133665
 20
514.3779130940073
 30
0.0
 11
603.2573718133664
 21
514.3779130940073
 31
0.0
  0
LINE
  5
FA
330
2
100
AcDbEntity
  8
L-ZISSEN
 62
     7
100
AcDbLine
 10
585.437641197149
 20
463.1771410709824
 30
0.0
 11
590.5671090863696
 21
459.3326119844562
 31
0.0
  0
LINE
  5
FB
330
2
100
AcDbEntity
  8
L-ZISSEN
 62
     7
100
AcDbLine
 10
585.437641197149
 20
463.1771410709824
 30
0.0
 11
586.6334104383975
 21
456.8793652218927
 31
0.0
  0
LINE
  5
FC
330
2
100
AcDbEntity
  8
L-ZISSEN
100
AcDbLine
 10
609.3574618133654
 20
469.6873324648225
 30
0.0
 11
609.3574618133654
 21
475.4779130940072
 31
0.0
  0
LINE
  5
FD
330
2
100
AcDbEntity
  8
L-ZISSEN
100
AcDbLine
 10
609.2189668133653
 20
475.4779130940072
 30
0.0
 11
609.2189668133653
 21
492.9779230940074
 31
0.0
  0
LINE
  5
FE
330
2
100
AcDbEntity
  8
L-ZISSEN
100
AcDbLine
 10
597.9386815005808
 20
536.2779190940067
 30
0.0
 11
606.257371813366
 21
536.2779190940067
 31
0.0
  0
LINE
  5
FF
330
2
100
AcDbEntity
  8
L-ZISSEN
100
AcDbLine
 10
599.8574315005819
 20
499.177913094007
 30
0.0
 11
599.8574315005819
 21
519.177913094007
 31
0.0
1001
ACAD
1000
ASC_BOUNDS
1002
{
1070
    19
1002
}
  0
LINE
  5
100
330
2
100
AcDbEntity
  8
L-ZISSEN
100
AcDbLine
 10
597.6074315005819
 20
519.177913094007
 30
0.0
 11
597.6074315005819
 21
521.7779130940074
 31
0.0
  0
LINE
  5
101
330
2
100
AcDbEntity
  8
L-ZISSEN
100
AcDbLine
 10
603.2573718133664
 20
517.3779130940073
 30
0.0
 11
603.2573718133664
 21
499.177913094007
 31
0.0
  0
ARC
  5
102
330
2
100
AcDbEntity
  8
L-ZISSEN
100
AcDbCircle
 10
601.307431500583
 20
522.5779130940071
 30
0.0
 40
0.8000000000000001
100
AcDbArc
 50
270.0
 51
0.0
  0
LINE
  5
103
330
2
100
AcDbEntity
  8
L-ZISSEN
100
AcDbLine
 10
602.1074315005828
 20
533.8779130940073
 30
0.0
 11
602.1074315005828
 21
522.5779130940071
 31
0.0
  0
LINE
  5
104
330
2
100
AcDbEntity
  8
L-ZISSEN
100
AcDbLine
 10
630.8573718133659
 20
499.1779130940074
 30
0.0
 11
630.8573718133659
 21
492.9779130940072
 31
0.0
  0
LINE
  5
105
330
2
100
AcDbEntity
  8
L-ZISSEN
100
AcDbLine
 10
646.8245032243742
 20
474.977919094007
 30
0.0
 11
619.8905204023569
 21
474.977919094007
 31
0.0
  0
CIRCLE
  5
106
330
2
100
AcDbEntity
  8
L-ZISSEN
100
AcDbCircle
 10
633.3575118133656
 20
468.977919094007
 30
0.0
 40
3.5
  0
LINE
  5
107
330
2
100
AcDbEntity
  8
L-ZISSEN
100
AcDbLine
 10
633.3574218133655
 20
474.9779190940072
 30
0.0
 11
633.3574218133655
 21
476.4779130940074
 31
0.0
  0
ARC
  5
108
330
2
100
AcDbEntity
  8
L-ZISSEN
100
AcDbCircle
 10
631.8721693180907
 20
492.4779230940074
 30
0.0
 40
0.5
100
AcDbArc
 50
1.735692694249281
 51
90.0
  0
ARC
  5
109
330
2
100
AcDbEntity
  8
L-ZISSEN
100
AcDbCircle
 10
629.8574218133656
 20
475.9779130940074
 30
0.0
 40
0.5
100
AcDbArc
 50
270.0
 51
0.0
  0
LINE
  5
10A
330
2
100
AcDbEntity
  8
L-ZISSEN
100
AcDbLine
 10
630.3574218133656
 20
476.4779130940074
 30
0.0
 11
630.3574218133656
 21
475.9779130940074
 31
0.0
  0
LINE
  5
10B
330
2
100
AcDbEntity
  8
L-ZISSEN
100
AcDbLine
 10
633.3574218133655
 20
476.4779130940074
 30
0.0
 11
630.3574218133656
 21
476.4779130940074
 31
0.0
  0
LINE
  5
10C
330
2
100
AcDbEntity
  8
L-ZISSEN
100
AcDbLine
 10
632.8572442938828
 20
476.4779130940074
 30
0.0
 11
632.3719399108074
 21
492.4930675535748
 31
0.0
  0
LINE
  5
10D
330
2
100
AcDbEntity
  8
L-ZISSEN
100
AcDbLine
 10
630.257371813366
 20
517.3779130940073
 30
0.0
 11
630.2573718133665
 21
499.177913094007
 31
0.0
  0
LINE
  5
10E
330
2
100
AcDbEntity
  8
L-ZISSEN
100
AcDbLine
 10
630.257371813366
 20
524.8779130940073
 30
0.0
 11
632.257371813366
 21
526.8779130940073
 31
0.0
  0
LINE
  5
10F
330
2
100
AcDbEntity
  8
L-ZISSEN
100
AcDbLine
 10
633.257371813366
 20
526.1232125556278
 30
0.0
 11
632.257371813366
 21
526.1232125556278
 31
0.0
  0
LINE
  5
110
330
2
100
AcDbEntity
  8
L-ZISSEN
 62
     7
100
AcDbLine
 10
712.4376786179759
 20
455.1471170709825
 30
0.0
 11
713.6334478592243
 21
448.8493412218928
 31
0.0
  0
LINE
  5
111
330
2
100
AcDbEntity
  8
L-ZISSEN
 62
     7
100
AcDbLine
 10
712.4376786179759
 20
455.1471170709825
 30
0.0
 11
717.5671465071964
 21
451.3025879844564
 31
0.0
  0
LINE
  5
112
330
2
100
AcDbEntity
  8
L-ZISSEN
  6
CONTINUOUS
 62
     7
100
AcDbLine
 10
687.8575192341929
 20
480.9779190940069
 30
0.0
 11
687.8575192341927
 21
430.9779190940069
 31
0.0
  0
LINE
  5
113
330
2
100
AcDbEntity
  8
L-ZISSEN
100
AcDbLine
 10
661.8905278231839
 20
474.977919094007
 30
0.0
 11
661.8905278231839
 21
430.9779190940069
 31
0.0
  0
LINE
  5
114
330
2
100
AcDbEntity
  8
L-ZISSEN
  6
CONTINUOUS
 62
     7
100
AcDbLine
 10
687.8575192341929
 20
480.9779190940069
 30
0.0
 11
687.8575192341929
 21
430.9779190940069
 31
0.0
  0
LINE
  5
115
330
2
100
AcDbEntity
  8
L-ZISSEN
100
AcDbLine
 10
664.8575192341925
 20
474.9779190940074
 30
0.0
 11
664.8575192341925
 21
430.9779190940069
 31
0.0
  0
LINE
  5
116
330
2
100
AcDbEntity
  8
L-ZISSEN
100
AcDbLine
 10
685.8575192341925
 20
474.9779190940074
 30
0.0
 11
685.8575192341925
 21
430.9779190940069
 31
0.0
  0
LINE
  5
117
330
2
100
AcDbEntity
  8
L-ZISSEN
  6
CONTINUOUS
 62
     7
100
AcDbLine
 10
687.8575192341929
 20
430.9779190940069
 30
0.0
 11
706.4852771659475
 21
430.9779190940069
 31
0.0
  0
LINE
  5
118
330
2
100
AcDbEntity
  8
L-ZISSEN
100
AcDbLine
 10
687.8575192341929
 20
430.9779190940069
 30
0.0
 11
661.8905278231839
 21
430.9779190940069
 31
0.0
  0
CIRCLE
  5
119
330
2
100
AcDbEntity
  8
L-ZISSEN
100
AcDbCircle
 10
675.3575192341925
 20
436.977919094007
 30
0.0
 40
3.5
  0
LINE
  5
11A
330
2
100
AcDbEntity
  8
L-ZISSEN
100
AcDbLine
 10
690.3575192341927
 20
430.9779190940072
 30
0.0
 11
707.5101368100654
 21
430.9779190940072
 31
0.0
  0
LINE
  5
11B
330
2
100
AcDbEntity
  8
L-ZISSEN
100
AcDbLine
 10
706.9143388069281
 20
430.4779190940069
 30
0.0
 11
689.3575192341927
 21
430.4779190940069
 31
0.0
  0
LINE
  5
11C
330
2
100
AcDbEntity
  8
L-ZISSEN
100
AcDbLine
 10
711.1553944795521
 20
426.9779190940063
 30
0.0
 11
689.3575192341927
 21
426.9779190940063
 31
0.0
  0
ARC
  5
11D
330
2
100
AcDbEntity
  8
L-ZISSEN
100
AcDbCircle
 10
691.4620972957179
 20
425.9779190940069
 30
0.0
 40
1.0
100
AcDbArc
 50
0.9999999999985053
 51
90.0
  0
LINE
  5
11E
330
2
100
AcDbEntity
  8
L-ZISSEN
100
AcDbLine
 10
689.3575192341927
 20
430.4779190940069
 30
0.0
 11
689.3575192341927
 21
426.9779190940069
 31
0.0
  0
ARC
  5
11F
330
2
100
AcDbEntity
  8
L-ZISSEN
100
AcDbCircle
 10
702.3575192341927
 20
425.9779190940068
 30
0.0
 40
1.0
100
AcDbArc
 50
0.9999999999985053
 51
90.0
  0
LINE
  5
120
330
2
100
AcDbEntity
  8
L-ZISSEN
100
AcDbLine
 10
660.3575192341931
 20
535.977919094007
 30
0.0
 11
699.3575192341929
 21
535.9779190940071
 31
0.0
  0
LINE
  5
121
330
2
100
AcDbEntity
  8
L-ZISSEN
100
AcDbLine
 10
687.8575192341929
 20
474.977919094007
 30
0.0
 11
661.8905278231839
 21
474.977919094007
 31
0.0
  0
CIRCLE
  5
122
330
2
100
AcDbEntity
  8
L-ZISSEN
100
AcDbCircle
 10
675.3575192341925
 20
468.977919094007
 30
0.0
 40
3.5
  0
ARC
  5
123
330
2
100
AcDbEntity
  8
L-ZISSEN
100
AcDbCircle
 10
658.7573718133655
 20
526.2232125556278
 30
0.0
 40
0.5
100
AcDbArc
 50
270.0
 51
0.0
  0
LINE
  5
124
330
2
100
AcDbEntity
  8
L-ZISSEN
100
AcDbLine
 10
685.3575192341931
 20
516.477919094007
 30
0.0
 11
685.3575192341931
 21
517.9779190940069
 31
0.0
  0
LINE
  5
125
330
2
100
AcDbEntity
  8
L-ZISSEN
100
AcDbLine
 10
675.3575192341931
 20
516.477919094007
 30
0.0
 11
675.3575192341931
 21
517.9779190940069
 31
0.0
  0
LINE
  5
126
330
2
100
AcDbEntity
  8
L-ZISSEN
100
AcDbLine
 10
673.4293160039168
 20
513.4779190940069
 30
0.0
 11
687.2857224644684
 21
513.4779190940069
 31
0.0
  0
LINE
  5
127
330
2
100
AcDbEntity
  8
L-ZISSEN
100
AcDbLine
 10
673.4293160039177
 20
516.477919094007
 30
0.0
 11
687.2857224644684
 21
516.477919094007
 31
0.0
  0
LINE
  5
128
330
2
100
AcDbEntity
  8
L-ZISSEN
100
AcDbLine
 10
673.4293160039168
 20
516.477919094007
 30
0.0
 11
673.4293160039168
 21
513.4779190940069
 31
0.0
  0
LINE
  5
129
330
2
100
AcDbEntity
  8
L-ZISSEN
100
AcDbLine
 10
687.2857224644684
 20
516.4779190940067
 30
0.0
 11
687.2857224644684
 21
513.4779190940069
 31
0.0
  0
LINE
  5
12A
330
2
100
AcDbEntity
  8
L-ZISSEN
100
AcDbLine
 10
673.4293160039177
 20
532.977919094007
 30
0.0
 11
687.2857224644684
 21
532.977919094007
 31
0.0
  0
LINE
  5
12B
330
2
100
AcDbEntity
  8
L-ZISSEN
100
AcDbLine
 10
673.4293160039168
 20
517.9779190940072
 30
0.0
 11
687.2857224644684
 21
517.9779190940069
 31
0.0
  0
LINE
  5
12C
330
2
100
AcDbEntity
  8
L-ZISSEN
100
AcDbLine
 10
675.4925192341933
 20
535.977919094007
 30
0.0
 11
675.4925192341933
 21
532.977919094007
 31
0.0
  0
LINE
  5
12D
330
2
100
AcDbEntity
  8
L-ZISSEN
100
AcDbLine
 10
673.4293160039177
 20
532.977919094007
 30
0.0
 11
673.4293160039168
 21
517.9779190940074
 31
0.0
  0
LINE
  5
12E
330
2
100
AcDbEntity
  8
L-ZISSEN
100
AcDbLine
 10
685.2225192341928
 20
535.977919094007
 30
0.0
 11
685.2225192341928
 21
532.977919094007
 31
0.0
  0
LINE
  5
12F
330
2
100
AcDbEntity
  8
L-ZISSEN
100
AcDbLine
 10
687.2857224644684
 20
532.977919094007
 30
0.0
 11
687.2857224644684
 21
517.9779190940069
 31
0.0
  0
LINE
  5
130
330
2
100
AcDbEntity
  8
L-ZISSEN
  6
CONTINUOUS
 62
     7
100
AcDbLine
 10
699.8575192341923
 20
492.9779190940068
 30
0.0
 11
699.8575192341927
 21
496.1779190940068
 31
0.0
  0
LINE
  5
131
330
2
100
AcDbEntity
  8
L-ZISSEN
100
AcDbLine
 10
699.3575192341928
 20
492.9779190940069
 30
0.0
 11
699.3575192341928
 21
480.9779190940069
 31
0.0
  0
LINE
  5
132
330
2
100
AcDbEntity
  8
L-ZISSEN
  6
CONTINUOUS
 62
     7
100
AcDbLine
 10
710.3575192341925
 20
496.1779190940068
 30
0.0
 11
710.3575192341925
 21
518.9779677480568
 31
0.0
  0
LINE
  5
133
330
2
100
AcDbEntity
  8
L-ZISSEN
100
AcDbLine
 10
710.3575192341925
 20
498.9779190940067
 30
0.0
 11
707.3575192341925
 21
498.9779190940067
 31
0.0
  0
LINE
  5
134
330
2
100
AcDbEntity
  8
L-ZISSEN
100
AcDbLine
 10
707.3575192341929
 20
496.1779190940068
 30
0.0
 11
707.3575192341927
 21
498.9779190940067
 31
0.0
  0
ARC
  5
135
330
2
100
AcDbEntity
  8
L-ZISSEN
  6
CONTINUOUS
 62
     7
100
AcDbCircle
 10
712.3575192341925
 20
518.9779677480568
 30
0.0
 40
2.0
100
AcDbArc
 50
90.0
 51
180.0
  0
LINE
  5
136
330
2
100
AcDbEntity
  8
L-ZISSEN
100
AcDbLine
 10
716.3575192341925
 20
533.1779677480566
 30
-0.0000000000000009
 11
716.6575192341924
 21
533.4779677480566
 31
-0.0000000000000009
  0
LINE
  5
137
330
2
100
AcDbEntity
  8
L-ZISSEN
100
AcDbLine
 10
716.3575192341925
 20
520.9779677480566
 30
-0.0000000000000009
 11
716.3575192341925
 21
533.1779677480566
 31
-0.0000000000000009
  0
LINE
  5
138
330
2
100
AcDbEntity
  8
L-ZISSEN
100
AcDbLine
 10
888.3575192341933
 20
480.4779190940068
 30
0.0
 11
796.8575192341923
 21
480.4779190940068
 31
0.0
  0
LINE
  5
139
330
2
100
AcDbEntity
  8
L-ZISSEN
  6
CONTINUOUS
 62
     7
100
AcDbLine
 10
888.3575192341933
 20
475.9779190940068
 30
0.0
 11
796.8575192341923
 21
475.9779190940069
 31
0.0
  0
LINE
  5
13A
330
2
100
AcDbEntity
  8
L-ZISSEN
  6
CONTINUOUS
 62
     7
100
AcDbLine
 10
874.8575192341927
 20
472.9779190940067
 30
0.0
 11
796.8575192341923
 21
472.977919094007
 31
0.0
  0
LINE
  5
13B
330
2
100
AcDbEntity
  8
L-ZISSEN
  6
CONTINUOUS
 62
     7
100
AcDbLine
 10
768.5826020165568
 20
430.9779190940069
 30
0.0
 11
885.8575192341927
 21
430.9779190940069
 31
0.0
  0
LINE
  5
13C
330
2
100
AcDbEntity
  8
L-ZISSEN
  6
CONTINUOUS
 62
     7
100
AcDbLine
 10
746.3575192341927
 20
436.977919094007
 30
0.0
 11
874.8575192341927
 21
436.977919094007
 31
0.0
  0
LINE
  5
13D
330
2
100
AcDbEntity
  8
L-ZISSEN
100
AcDbLine
 10
852.0031814161507
 20
411.677919094007
 30
0.0
 11
883.8575192341945
 21
411.6779190940072
 31
0.0
  0
LINE
  5
13E
330
2
100
AcDbEntity
  8
L-ZISSEN
100
AcDbLine
 10
851.6069514422802
 20
388.977919094007
 30
0.0
 11
883.8575192341945
 21
388.9779190940072
 31
0.0
  0
LINE
  5
13F
330
2
100
AcDbEntity
  8
L-ZISSEN
100
AcDbLine
 10
851.8575192341936
 20
402.9779190940072
 30
0.0
 11
870.8575192341937
 21
402.9779190940072
 31
0.0
  0
LINE
  5
140
330
2
100
AcDbEntity
  8
L-TYUSIN
100
AcDbLine
 10
877.3575192341937
 20
398.9779190940072
 30
0.0
 11
845.3575192341954
 21
398.9779190940072
 31
0.0
  0
LINE
  5
141
330
2
100
AcDbEntity
  8
L-ZISSEN
100
AcDbLine
 10
870.8575192341937
 20
394.9779190940072
 30
0.0
 11
851.8575192341936
 21
394.9779190940072
 31
0.0
  0
LINE
  5
142
330
2
100
AcDbEntity
  8
L-ZISSEN
100
AcDbLine
 10
856.8812486202396
 20
427.1780598699019
 30
0.0
 11
885.8812486202397
 21
427.1780598699019
 31
0.0
  0
LINE
  5
143
330
2
100
AcDbEntity
  8
L-ZISSEN
100
AcDbLine
 10
882.3812486202397
 20
417.2780598699019
 30
0.0
 11
860.3812486202397
 21
417.2780598699019
 31
0.0
  0
LINE
  5
144
330
2
100
AcDbEntity
  8
L-ZISSEN
100
AcDbLine
 10
776.8405972623177
 20
425.9691925585078
 30
0.0
 11
777.957560184212
 21
297.9779190940067
 31
0.0
  0
LINE
  5
145
330
2
100
AcDbEntity
  8
L-ZISSEN
100
AcDbLine
 10
767.8746696662337
 20
425.9953715004436
 30
0.0
 11
766.7574782841734
 21
297.9779190940067
 31
0.0
  0
LINE
  5
146
330
2
100
AcDbEntity
  8
L-ZISSEN
100
AcDbLine
 10
852.2530934775113
 20
425.9953715004436
 30
0.0
 11
850.0185405338125
 21
297.9779190940067
 31
0.0
  0
LINE
  5
147
330
2
100
AcDbEntity
  8
L-ZISSEN
100
AcDbLine
 10
841.3576715390362
 20
425.9953715004436
 30
0.0
 11
839.1231185953369
 21
297.9779190940067
 31
0.0
  0
LINE
  5
148
330
2
100
AcDbEntity
  8
L-ZISSEN
100
AcDbLine
 10
730.4971597536185
 20
297.9779190940067
 30
0.0
 11
730.357519234193
 21
289.9779190940069
 31
0.0
  0
LINE
  5
149
330
2
100
AcDbEntity
  8
L-ZISSEN
100
AcDbLine
 10
780.3575192341932
 20
292.9779190940067
 30
0.0
 11
764.3575192341923
 21
292.9779190940067
 31
0.0
  0
LINE
  5
14A
330
2
100
AcDbEntity
  8
L-ZISSEN
100
AcDbLine
 10
764.3575192341923
 20
292.9779190940067
 30
0.0
 11
764.2702439095519
 21
297.9779190940067
 31
0.0
  0
LINE
  5
14B
330
2
100
AcDbEntity
  8
L-ZISSEN
100
AcDbLine
 10
780.4447945588336
 20
297.9779190940067
 30
0.0
 11
780.3575192341932
 21
292.9779190940067
 31
0.0
  0
LINE
  5
14C
330
2
100
AcDbEntity
  8
L-ZISSEN
100
AcDbLine
 10
814.3575192341927
 20
289.9779190940067
 30
0.0
 11
830.3575192341932
 21
289.9779190940067
 31
0.0
  0
LINE
  5
14D
330
2
100
AcDbEntity
  8
L-ZISSEN
100
AcDbLine
 10
814.2178787147667
 20
297.9779190940067
 30
0.0
 11
814.3575192341927
 21
289.9779190940067
 31
0.0
  0
LINE
  5
14E
330
2
100
AcDbEntity
  8
L-ZISSEN
100
AcDbLine
 10
830.3575192341932
 20
289.9779190940067
 30
0.0
 11
830.4971597536187
 21
297.9779190940067
 31
0.0
  0
LINE
  5
14F
330
2
100
AcDbEntity
  8
L-ZISSEN
100
AcDbLine
 10
762.8575192341923
 20
498.2817666713
 30
0.0
 11
796.8575192341923
 21
498.2817666713
 31
0.0
  0
LINE
  5
150
330
2
100
AcDbEntity
  8
L-ZISSEN
100
AcDbLine
 10
763.8575192341914
 20
506.2817666713
 30
0.0
 11
795.8575192341923
 21
506.2817666713
 31
0.0
  0
LINE
  5
151
330
2
100
AcDbEntity
  8
L-ZISSEN
100
AcDbLine
 10
855.3575192341922
 20
430.4779190940069
 30
0.0
 11
768.5826020165568
 21
430.4779190940069
 31
0.0
  0
LINE
  5
152
330
2
100
AcDbEntity
  8
L-ZISSEN
100
AcDbLine
 10
855.3575192341922
 20
426.9779190940063
 30
0.0
 11
729.5596439888334
 21
426.9779190940063
 31
0.0
  0
ARC
  5
153
330
2
100
AcDbEntity
  8
L-ZISSEN
100
AcDbCircle
 10
779.8575192341923
 20
454.9779190940069
 30
0.0
 40
17.0
100
AcDbArc
 50
180.0
 51
0.0
  0
LINE
  5
154
330
2
100
AcDbEntity
  8
L-ZISSEN
100
AcDbLine
 10
801.3575192341923
 20
437.477919094007
 30
0.0
 11
758.3575192341923
 21
437.477919094007
 31
0.0
  0
LINE
  5
155
330
2
100
AcDbEntity
  8
L-ZISSEN
  6
CONTINUOUS
 62
     7
100
AcDbLine
 10
746.3575192341927
 20
430.9779190940069
 30
0.0
 11
746.3575192341927
 21
480.9779190940069
 31
0.0
  0
LINE
  5
156
330
2
100
AcDbEntity
  8
L-ZISSEN
100
AcDbLine
 10
755.3575192341923
 20
469.477919094007
 30
0.0
 11
755.3575192341923
 21
440.477919094007
 31
0.0
  0
ARC
  5
157
330
2
100
AcDbEntity
  8
L-ZISSEN
100
AcDbCircle
 10
758.3575192341923
 20
440.477919094007
 30
0.0
 40
3.0
100
AcDbArc
 50
180.0
 51
270.0
  0
LINE
  5
158
330
2
100
AcDbEntity
  8
L-ZISSEN
100
AcDbLine
 10
768.5826020165568
 20
430.4779190940069
 30
0.0
 11
733.8006996614576
 21
430.4779190940069
 31
0.0
  0
LINE
  5
159
330
2
100
AcDbEntity
  8
L-ZISSEN
  6
CONTINUOUS
 62
     7
100
AcDbLine
 10
734.2297613024379
 20
430.9779190940069
 30
0.0
 11
773.8575192341922
 21
430.9779190940069
 31
0.0
  0
LINE
  5
15A
330
2
100
AcDbEntity
  8
L-ZISSEN
100
AcDbLine
 10
775.0467981165465
 20
437.477919094007
 30
0.0
 11
758.3575192341923
 21
437.477919094007
 31
0.0
  0
LINE
  5
15B
330
2
100
AcDbEntity
  8
L-ZISSEN
100
AcDbLine
 10
768.5826020165568
 20
430.9779190940069
 30
0.0
 11
768.5826020165568
 21
430.4779190940069
 31
0.0
  0
ARC
  5
15C
330
2
100
AcDbEntity
  8
L-ZISSEN
100
AcDbCircle
 10
766.8748219710769
 20
425.9779190940063
 30
0.0
 40
1.0
100
AcDbArc
 50
0.9999999999985053
 51
90.0
  0
ARC
  5
15D
330
2
100
AcDbEntity
  8
L-ZISSEN
100
AcDbCircle
 10
777.8405591853815
 20
425.9779190940063
 30
0.0
 40
1.0
100
AcDbArc
 50
90.0
 51
180.5000000000013
  0
LINE
  5
15E
330
2
100
AcDbEntity
  8
L-ZISSEN
100
AcDbLine
 10
746.3575192341936
 20
536.2779190940072
 30
0.0
 11
771.1360544336135
 21
536.2779190940072
 31
0.0
  0
LINE
  5
15F
330
2
100
AcDbEntity
  8
L-ZISSEN
  6
CONTINUOUS
 62
     7
100
AcDbLine
 10
762.8575192341923
 20
472.9779190940067
 30
0.0
 11
746.3575192341927
 21
472.977919094007
 31
0.0
  0
ARC
  5
160
330
2
100
AcDbEntity
  8
L-ZISSEN
100
AcDbCircle
 10
758.3575192341923
 20
469.477919094007
 30
0.0
 40
3.0
100
AcDbArc
 50
90.0
 51
180.0
  0
CIRCLE
  5
161
330
2
100
AcDbEntity
  8
L-ZISSEN
100
AcDbCircle
 10
759.3575192341923
 20
467.4779190940069
 30
0.0
 40
2.25
  0
LINE
  5
162
330
2
100
AcDbEntity
  8
L-ZISSEN
  6
CONTINUOUS
 62
     7
100
AcDbLine
 10
762.8575192341923
 20
475.9779190940069
 30
0.0
 11
746.3575192341927
 21
475.9779190940069
 31
0.0
  0
LINE
  5
163
330
2
100
AcDbEntity
  8
L-ZISSEN
  6
CONTINUOUS
 62
     7
100
AcDbLine
 10
740.8575192341932
 20
492.9779190940068
 30
0.0
 11
740.8575192341932
 21
496.1779190940068
 31
0.0
  0
LINE
  5
164
330
2
100
AcDbEntity
  8
L-ZISSEN
100
AcDbLine
 10
724.3575192341928
 20
490.9779190940067
 30
0.0
 11
744.3575192341931
 21
490.9779190940067
 31
0.0
  0
LINE
  5
165
330
2
100
AcDbEntity
  8
L-ZISSEN
100
AcDbLine
 10
724.3575192341928
 20
483.9779190940068
 30
0.0
 11
744.3575192341927
 21
483.9779190940068
 31
0.0
  0
LINE
  5
166
330
2
100
AcDbEntity
  8
L-ZISSEN
100
AcDbLine
 10
724.3575192341928
 20
490.9779190940067
 30
0.0
 11
724.3575192341928
 21
483.9779190940068
 31
0.0
  0
ARC
  5
167
330
2
100
AcDbEntity
  8
L-ZISSEN
  6
CONTINUOUS
 62
     7
100
AcDbCircle
 10
748.3575192341927
 20
477.977919094007
 30
0.0
 40
2.0
100
AcDbArc
 50
180.0
 51
270.0
  0
LINE
  5
168
330
2
100
AcDbEntity
  8
L-ZISSEN
100
AcDbLine
 10
744.3575192341931
 20
490.9779190940067
 30
0.0
 11
744.3575192341927
 21
483.9779190940068
 31
0.0
  0
LINE
  5
169
330
2
100
AcDbEntity
  8
L-ZISSEN
100
AcDbLine
 10
746.3575192341927
 20
492.9779190940068
 30
0.0
 11
746.3575192341927
 21
480.9779190940069
 31
0.0
  0
LINE
  5
16A
330
2
100
AcDbEntity
  8
L-ZISSEN
  6
CONTINUOUS
 62
     7
100
AcDbLine
 10
730.3575192341924
 20
496.1779190940068
 30
0.0
 11
730.3575192341923
 21
518.977967748057
 31
0.0
  0
LINE
  5
16B
330
2
100
AcDbEntity
  8
L-ZISSEN
100
AcDbLine
 10
739.3575192341927
 20
498.9779190940067
 30
0.0
 11
730.3575192341924
 21
498.9779190940067
 31
0.0
  0
LINE
  5
16C
330
2
100
AcDbEntity
  8
L-ZISSEN
100
AcDbLine
 10
739.3575192341923
 20
496.1779190940068
 30
0.0
 11
739.3575192341927
 21
498.9779190940067
 31
0.0
  0
LINE
  5
16D
330
2
100
AcDbEntity
  8
L-ZISSEN
100
AcDbLine
 10
724.0575192341926
 20
533.4779677480566
 30
-0.0000000000000009
 11
724.3575192341925
 21
533.1779677480566
 31
-0.0000000000000009
  0
ARC
  5
16E
330
2
100
AcDbEntity
  8
L-ZISSEN
100
AcDbCircle
 10
728.3575192341922
 20
518.977967748057
 30
0.0
 40
2.0
100
AcDbArc
 50
0.0
 51
90.0
  0
LINE
  5
16F
330
2
100
AcDbEntity
  8
L-ZISSEN
100
AcDbLine
 10
724.3575192341925
 20
520.9779677480566
 30
-0.0000000000000009
 11
724.3575192341928
 21
533.1779677480564
 31
-0.0000000000000009
  0
LINE
  5
170
330
2
100
AcDbEntity
  8
L-ZISSEN
100
AcDbLine
 10
762.8575192341923
 20
454.9779190940069
 30
0.0
 11
762.8575192341923
 21
498.2817666713
 31
0.0
  0
LINE
  5
171
330
2
100
AcDbEntity
  8
L-ZISSEN
100
AcDbLine
 10
762.8575192341923
 20
472.4779190940069
 30
0.0
 11
758.3575192341923
 21
472.4779190940069
 31
0.0
  0
LINE
  5
172
330
2
100
AcDbEntity
  8
L-ZISSEN
100
AcDbLine
 10
762.8575192341923
 20
454.9779190940069
 30
0.0
 11
762.8575192341923
 21
464.7751003845036
 31
0.0
  0
LINE
  5
173
330
2
100
AcDbEntity
  8
L-ZISSEN
100
AcDbLine
 10
763.8575192341914
 20
506.2817666712998
 30
0.0
 11
763.8575192341914
 21
498.2817666713
 31
0.0
  0
LINE
  5
174
330
2
100
AcDbEntity
  8
L-ZISSEN
100
AcDbLine
 10
804.3575192341922
 20
440.477919094007
 30
0.0
 11
804.3575192341922
 21
469.4779190940067
 31
0.0
  0
LINE
  5
175
330
2
100
AcDbEntity
  8
L-ZISSEN
100
AcDbLine
 10
808.1702286034984
 20
430.9779190940069
 30
0.0
 11
808.1702286034984
 21
430.4779190940069
 31
0.0
  0
CIRCLE
  5
176
330
2
100
AcDbEntity
  8
L-ZISSEN
100
AcDbCircle
 10
800.3575192341923
 20
442.4779190940069
 30
0.0
 40
2.25
  0
ARC
  5
177
330
2
100
AcDbEntity
  8
L-ZISSEN
100
AcDbCircle
 10
801.3575192341923
 20
440.477919094007
 30
0.0
 40
3.0
100
AcDbArc
 50
270.0
 51
0.0
  0
LINE
  5
178
330
2
100
AcDbEntity
  8
L-TYUSIN
100
AcDbLine
 10
861.3575192341945
 20
412.104957624857
 30
0.0
 11
861.3575192341945
 21
386.0470028721694
 31
0.0
  0
ARC
  5
179
330
2
100
AcDbEntity
  8
L-ZISSEN
100
AcDbCircle
 10
842.3575192341923
 20
425.9779190940063
 30
0.0
 40
1.0
100
AcDbArc
 50
90.0
 51
178.9999999999982
  0
ARC
  5
17A
330
2
100
AcDbEntity
  8
L-ZISSEN
100
AcDbCircle
 10
853.2529411726672
 20
425.9779190940063
 30
0.0
 40
1.0
100
AcDbArc
 50
90.0
 51
178.9999999999982
  0
LINE
  5
17B
330
2
100
AcDbEntity
  8
L-ZISSEN
100
AcDbLine
 10
860.3812486202397
 20
417.2780598699019
 30
0.0
 11
860.3812486202397
 21
427.1780598699019
 31
0.0
  0
LINE
  5
17C
330
2
100
AcDbEntity
  8
L-ZISSEN
100
AcDbLine
 10
855.3575192341922
 20
430.4779190940069
 30
0.0
 11
855.3575192341922
 21
426.9779190940069
 31
0.0
  0
LINE
  5
17D
330
2
100
AcDbEntity
  8
L-ZISSEN
100
AcDbLine
 10
856.8812486202396
 20
430.9780598699019
 30
0.0
 11
856.8812486202396
 21
427.1780598699019
 31
0.0
  0
LINE
  5
17E
330
2
100
AcDbEntity
  8
L-ZISSEN
100
AcDbLine
 10
796.8575192341923
 20
454.9779190940069
 30
0.0
 11
796.8575192341923
 21
498.2817666713
 31
0.0
  0
LINE
  5
17F
330
2
100
AcDbEntity
  8
L-ZISSEN
100
AcDbLine
 10
801.3575192341923
 20
472.4779190940068
 30
0.0
 11
796.8575192341923
 21
472.4779190940068
 31
0.0
  0
ARC
  5
180
330
2
100
AcDbEntity
  8
L-ZISSEN
100
AcDbCircle
 10
801.3575192341923
 20
469.4779190940067
 30
0.0
 40
3.0
100
AcDbArc
 50
0.0
 51
90.0
  0
LINE
  5
181
330
2
100
AcDbEntity
  8
L-ZISSEN
100
AcDbLine
 10
795.8575192341923
 20
506.2817666713
 30
0.0
 11
795.8575192341923
 21
498.2817666713
 31
0.0
  0
LINE
  5
182
330
2
100
AcDbEntity
  8
L-ZISSEN
  6
CONTINUOUS
 62
     7
100
AcDbLine
 10
887.8575192341926
 20
432.977919094007
 30
0.0
 11
887.8575192341926
 21
473.9779190940067
 31
0.0
  0
LINE
  5
183
330
2
100
AcDbEntity
  8
L-ZISSEN
  6
CONTINUOUS
 62
     7
100
AcDbLine
 10
874.8575192341927
 20
436.977919094007
 30
0.0
 11
874.8575192341927
 21
472.9779190940067
 31
0.0
  0
LINE
  5
184
330
2
100
AcDbEntity
  8
L-ZISSEN
100
AcDbLine
 10
883.8575192341945
 20
388.9779190940072
 30
0.0
 11
883.8575192341945
 21
427.1780598699018
 31
0.0
  0
ARC
  5
185
330
2
100
AcDbEntity
  8
L-ZISSEN
100
AcDbCircle
 10
870.8575192341927
 20
398.9779190940072
 30
0.0
 40
4.0
100
AcDbArc
 50
270.0
 51
90.0
  0
LINE
  5
186
330
2
100
AcDbEntity
  8
L-TYUSIN
100
AcDbLine
 10
870.8575192341937
 20
405.5149948287775
 30
0.0
 11
870.8575192341937
 21
392.4408433592369
 31
0.0
  0
ARC
  5
187
330
2
100
AcDbEntity
  8
L-ZISSEN
  6
CONTINUOUS
 62
     7
100
AcDbCircle
 10
885.8575192341927
 20
432.977919094007
 30
0.0
 40
2.0
100
AcDbArc
 50
270.0
 51
0.0
  0
LINE
  5
188
330
2
100
AcDbEntity
  8
L-ZISSEN
100
AcDbLine
 10
882.3812486202397
 20
417.2780598699019
 30
0.0
 11
882.3812486202397
 21
427.1780598699019
 31
0.0
  0
LINE
  5
189
330
2
100
AcDbEntity
  8
L-ZISSEN
100
AcDbLine
 10
885.8812486202397
 20
427.1780598699019
 30
0.0
 11
885.8812486202397
 21
430.9780598699019
 31
0.0
  0
LINE
  5
18A
330
2
100
AcDbEntity
  8
L-ZISSEN
100
AcDbLine
 10
887.0269751969253
 20
480.4779190940068
 30
0.0
 11
886.8518894879885
 21
500.540754138013
 31
0.0
  0
ARC
  5
18B
330
2
100
AcDbEntity
  8
L-ZISSEN
  6
CONTINUOUS
 62
     7
100
AcDbCircle
 10
885.8575192341927
 20
473.9779190940067
 30
0.0
 40
2.0
100
AcDbArc
 50
0.0
 51
90.0
  0
LINE
  5
18C
330
2
100
AcDbEntity
  8
L-ZISSEN
100
AcDbLine
 10
888.3575192341933
 20
475.9779190940068
 30
0.0
 11
888.3575192341933
 21
480.4779190940068
 31
0.0
  0
LINE
  5
18D
330
2
100
AcDbEntity
  8
L-ZISSEN
100
AcDbLine
 10
738.3575192341932
 20
809.3417223779677
 30
-2.309423799016662
 11
702.3575192341937
 21
809.3417223779677
 31
-2.309423799016662
  0
LINE
  5
18E
330
2
100
AcDbEntity
  8
L-ZISSEN
100
AcDbLine
 10
738.3575192341932
 20
831.3417223779676
 30
-2.309423799016662
 11
702.3575192341937
 21
831.3417223779676
 31
-2.309423799016662
  0
LINE
  5
18F
330
2
100
AcDbEntity
  8
L-ZISSEN
100
AcDbLine
 10
720.3575192341932
 20
831.3417223779676
 30
-2.309423799016662
 11
726.3575192341932
 21
831.3417223779676
 31
-2.309423799016662
  0
LINE
  5
190
330
2
100
AcDbEntity
  8
L-ZISSEN
100
AcDbLine
 10
726.3575192341932
 20
837.3417223779677
 30
-2.309423799016662
 11
714.3575192341931
 21
837.3417223779677
 31
-2.309423799016662
  0
LINE
  5
191
330
2
100
AcDbEntity
  8
L-ZISSEN
100
AcDbLine
 10
714.3575192341931
 20
831.3417223779676
 30
-2.309423799016662
 11
714.3575192341931
 21
837.3417223779677
 31
-2.309423799016662
  0
LINE
  5
192
330
2
100
AcDbEntity
  8
L-ZISSEN
100
AcDbLine
 10
702.3575192341937
 20
809.3417223779677
 30
-2.309423799016662
 11
702.3575192341937
 21
831.3417223779678
 31
-2.309423799016662
  0
LINE
  5
193
330
2
100
AcDbEntity
  8
L-ZISSEN
100
AcDbLine
 10
726.3575192341932
 20
831.3417223779676
 30
-2.309423799016662
 11
726.3575192341932
 21
837.3417223779677
 31
-2.309423799016662
  0
LINE
  5
194
330
2
100
AcDbEntity
  8
L-ZISSEN
100
AcDbLine
 10
738.3575192341932
 20
809.3417223779677
 30
-2.309423799016662
 11
738.3575192341932
 21
831.3417223779678
 31
-2.309423799016662
  0
LINE
  5
195
330
2
100
AcDbEntity
  8
L-ZISSEN
100
AcDbLine
 10
746.3575192341932
 20
846.8417223779677
 30
0.0
 11
699.3575192341932
 21
846.8417223779677
 31
0.0
  0
LINE
  5
196
330
2
100
AcDbEntity
  8
L-ZISSEN
100
AcDbLine
 10
699.3575192341932
 20
887.8417223779676
 30
0.0
 11
746.3575192341932
 21
887.8417223779674
 31
0.0
  0
LINE
  5
197
330
2
100
AcDbEntity
  8
L-TYUSIN
 48
0.5
100
AcDbLine
 10
696.1010447591648
 20
937.3417223779677
 30
0.0
 11
750.613993709222
 21
937.3417223779672
 31
0.0
  0
LINE
  5
198
330
2
100
AcDbEntity
  8
L-ZISSEN
100
AcDbLine
 10
744.3575192341931
 20
840.8417223779677
 30
0.0
 11
689.8575192341931
 21
840.8417223779677
 31
0.0
  0
LINE
  5
199
330
2
100
AcDbEntity
  8
L-ZISSEN
  6
CONTINUOUS
 62
     7
100
AcDbLine
 10
884.8575231299847
 20
958.3417223779674
 30
0.0
 11
513.8575192341944
 21
958.3417223779679
 31
0.0
  0
CIRCLE
  5
19A
330
2
100
AcDbEntity
  8
L-ZISSEN
100
AcDbCircle
 10
720.3575192341932
 20
867.3417223779678
 30
0.0
 40
10.15
  0
CIRCLE
  5
19B
330
2
100
AcDbEntity
  8
L-ZISSEN
100
AcDbCircle
 10
723.3575192341931
 20
937.3417223779675
 30
0.0
 40
9.599999999999999
  0
LINE
  5
19C
330
2
100
AcDbEntity
  8
L-ZISSEN
100
AcDbLine
 10
746.3575192341934
 20
916.8417223779675
 30
0.0
 11
700.3575192341933
 21
916.8417223779675
 31
0.0
  0
CIRCLE
  5
19D
330
2
100
AcDbEntity
  8
L-ZISSEN
100
AcDbCircle
 10
723.3575192341931
 20
902.8417223779676
 30
0.0
 40
4.75
  0
CIRCLE
  5
19E
330
2
100
AcDbEntity
  8
L-ZISSEN
100
AcDbCircle
 10
723.3575192341931
 20
902.8417223779676
 30
0.0
 40
5.0
  0
LINE
  5
19F
330
2
100
AcDbEntity
  8
L-ZISSEN
100
AcDbLine
 10
718.3825820486604
 20
895.3417223779677
 30
0.0
 11
728.3324564197264
 21
895.3417223779677
 31
0.0
  0
LINE
  5
1A0
330
2
100
AcDbEntity
  8
L-ZISSEN
100
AcDbLine
 10
718.3825820486609
 20
910.3417223779677
 30
0.0
 11
728.3324564197264
 21
910.3417223779677
 31
0.0
  0
CIRCLE
  5
1A1
330
2
100
AcDbEntity
  8
L-ZISSEN
100
AcDbCircle
 10
723.3575192341937
 20
902.8417223779676
 30
0.0
 40
9.0
  0
LINE
  5
1A2
330
2
100
AcDbEntity
  8
L-ZISSEN
100
AcDbLine
 10
721.3575192341932
 20
969.3417223779672
 30
0.0
 11
757.3575192341936
 21
969.3417223779672
 31
0.0
  0
LINE
  5
1A3
330
2
100
AcDbEntity
  8
L-ZISSEN
100
AcDbLine
 10
721.3575192341932
 20
967.0417223779672
 30
0.0
 11
757.3575192341936
 21
967.0417223779672
 31
0.0
  0
LINE
  5
1A4
330
2
100
AcDbEntity
  8
L-ZISSEN
100
AcDbLine
 10
746.3575192341936
 20
957.8417223779679
 30
0.0
 11
700.3575192341932
 21
957.8417223779675
 31
0.0
  0
LINE
  5
1A5
330
2
100
AcDbEntity
  8
L-ZISSEN
100
AcDbLine
 10
700.3575192341932
 20
690.9778704399577
 30
0.0
 11
746.3575192341935
 21
690.9778704399569
 31
0.0
  0
LINE
  5
1A6
330
2
100
AcDbEntity
  8
L-ZISSEN
  6
CONTINUOUS
 62
     7
100
AcDbLine
 10
883.857519234195
 20
969.3417223779674
 30
0.0
 11
513.8575192341944
 21
969.3417223779672
 31
0.0
  0
LINE
  5
1A7
330
2
100
AcDbEntity
  8
L-ZISSEN
  6
CONTINUOUS
 62
     7
100
AcDbLine
 10
883.857519234195
 20
967.0417223779677
 30
0.0
 11
513.8575192341944
 21
967.0417223779676
 31
0.0
  0
LINE
  5
1A8
330
2
100
AcDbEntity
  8
L-ZISSEN
100
AcDbLine
 10
678.8575192341934
 20
879.3417253068945
 30
0.0
 11
685.857519234193
 21
872.3417253068944
 31
0.0
  0
LINE
  5
1A9
330
2
100
AcDbEntity
  8
L-ZISSEN
100
AcDbLine
 10
670.3905392341925
 20
879.3417323779674
 30
0.0
 11
663.3905292341924
 21
872.3417223779676
 31
0.0
  0
LINE
  5
1AA
330
2
100
AcDbEntity
  8
L-ZISSEN
  6
CONTINUOUS
 62
     7
100
AcDbLine
 10
687.8575192341933
 20
897.3417223779676
 30
0.0
 11
687.8575192341932
 21
842.8417223779677
 31
0.0
  0
LINE
  5
1AB
330
2
100
AcDbEntity
  8
L-ZISSEN
100
AcDbLine
 10
699.8575192341932
 20
887.8417223779676
 30
0.0
 11
699.8575192341932
 21
846.8417223779677
 31
0.0
  0
LINE
  5
1AC
330
2
100
AcDbEntity
  8
L-ZISSEN
100
AcDbLine
 10
699.3575192341932
 20
846.8417223779677
 30
0.0
 11
699.3575192341932
 21
887.8417223779676
 31
0.0
  0
LINE
  5
1AD
330
2
100
AcDbEntity
  8
L-ZISSEN
100
AcDbLine
 10
636.8575192341934
 20
879.3417253068945
 30
0.0
 11
643.857519234193
 21
872.3417253068944
 31
0.0
  0
LINE
  5
1AE
330
2
100
AcDbEntity
  8
L-ZISSEN
100
AcDbLine
 10
638.3245192341924
 20
879.3417223779677
 30
0.0
 11
645.3245092341924
 21
872.3417323779674
 31
0.0
  0
LINE
  5
1AF
330
2
100
AcDbEntity
  8
L-ZISSEN
100
AcDbLine
 10
632.8575192341925
 20
881.8087167179035
 30
0.0
 11
608.8905278231834
 21
857.8417253068945
 31
0.0
  0
LINE
  5
1B0
330
2
100
AcDbEntity
  8
L-ZISSEN
100
AcDbLine
 10
548.3905392341923
 20
879.3417323779674
 30
0.0
 11
541.3905292341921
 21
872.3417223779676
 31
0.0
  0
LINE
  5
1B1
330
2
100
AcDbEntity
  8
L-ZISSEN
100
AcDbLine
 10
516.3245192341921
 20
879.3417223779677
 30
0.0
 11
523.3245092341921
 21
872.3417323779674
 31
0.0
  0
LINE
  5
1B2
330
2
100
AcDbEntity
  8
L-ZISSEN
100
AcDbLine
 10
577.8245106452013
 20
857.8417253068945
 30
0.0
 11
553.8575192341925
 21
881.8087167179035
 31
0.0
  0
LINE
  5
1B3
330
2
100
AcDbEntity
  8
L-ZISSEN
  6
BYBLOCK
 62
     0
100
AcDbLine
 10
487.7189192341923
 20
857.8417053068941
 30
0.0
 11
509.2189392341924
 21
879.3417253068945
 31
0.0
  0
LINE
  5
1B4
330
2
100
AcDbEntity
  8
L-ZISSEN
  6
BYBLOCK
 62
     0
100
AcDbLine
 10
486.8905492341923
 20
859.8417253068944
 30
0.0
 11
506.3905592341923
 21
879.3417253068945
 31
0.0
  0
ARC
  5
1B5
330
2
100
AcDbEntity
  8
L-ZISSEN
100
AcDbCircle
 10
593.3575192341925
 20
897.3417253068944
 30
0.0
 40
37.5
100
AcDbArc
 50
13.88654036262922
 51
346.1134596373707
1001
ACAD
1000
ASC_BOUNDS
1002
{
1070
    19
1002
}
  0
LINE
  5
1B6
330
2
100
AcDbEntity
  8
L-ZISSEN
 48
0.5
100
AcDbLine
 10
618.3574953464947
 20
822.3417253068944
 30
0.0
 11
568.3574953464947
 21
822.3417253068944
 31
0.0
  0
LINE
  5
1B7
330
2
100
AcDbEntity
  8
L-ZISSEN
 62
     7
 48
5.0
100
AcDbLine
 10
618.3574953464947
 20
849.3417253068944
 30
0.0
 11
568.3574953464949
 21
849.3417253068944
 31
0.0
  0
LINE
  5
1B8
330
2
100
AcDbEntity
  8
L-ZISSEN
100
AcDbLine
 10
608.8905278231834
 20
857.8417253068945
 30
0.0
 11
577.8245106452013
 21
857.8417253068945
 31
0.0
  0
LINE
  5
1B9
330
2
100
AcDbEntity
  8
L-ZISSEN
100
AcDbLine
 10
673.8575192341945
 20
817.6417223779674
 30
0.0
 11
513.8575192341945
 21
817.6417223779674
 31
0.0
  0
LINE
  5
1BA
330
2
100
AcDbEntity
  8
L-ZISSEN
100
AcDbLine
 10
597.9386815005807
 20
546.8779130940073
 30
0.0
 11
567.7761815005808
 21
546.8779130940073
 31
0.0
  0
LINE
  5
1BB
330
2
100
AcDbEntity
  8
L-ZISSEN
100
AcDbLine
 10
569.6074315005819
 20
550.7975344902014
 30
0.0
 11
596.1074315005819
 21
550.7975344902014
 31
0.0
  0
LINE
  5
1BC
330
2
100
AcDbEntity
  8
L-ZISSEN
100
AcDbLine
 10
569.6074315005819
 20
559.9984963845243
 30
0.0
 11
596.1074315005819
 21
559.9984963845249
 31
0.0
  0
LINE
  5
1BD
330
2
100
AcDbEntity
  8
L-ZISSEN
100
AcDbLine
 10
570.1074315005818
 20
548.5975344902016
 30
0.0
 11
595.6074315005819
 21
548.5975344902016
 31
0.0
  0
LINE
  5
1BE
330
2
100
AcDbEntity
  8
L-ZISSEN
100
AcDbLine
 10
570.1074315005818
 20
550.2975344902014
 30
0.0
 11
595.6074315005819
 21
550.2975344902014
 31
0.0
  0
LINE
  5
1BF
330
2
100
AcDbEntity
  8
L-ZISSEN
100
AcDbLine
 10
594.3574315005819
 20
567.1779130940071
 30
0.0
 11
571.3574315005819
 21
567.1779130940071
 31
0.0
  0
LINE
  5
1C0
330
2
100
AcDbEntity
  8
L-ZISSEN
100
AcDbLine
 10
595.3574315005819
 20
565.5779130940072
 30
0.0
 11
570.3574315005819
 21
565.5779130940072
 31
0.0
  0
LINE
  5
1C1
330
2
100
AcDbEntity
  8
L-ZISSEN
100
AcDbLine
 10
595.3574315005819
 20
563.7975344902014
 30
0.0
 11
570.3574315005823
 21
563.7975344902014
 31
0.0
  0
LINE
  5
1C2
330
2
100
AcDbEntity
  8
L-ZISSEN
100
AcDbLine
 10
569.6074315005818
 20
558.9779190940074
 30
0.0
 11
513.8575192341945
 21
558.977919094007
 31
0.0
  0
LINE
  5
1C3
330
2
100
AcDbEntity
  8
L-TYUSIN
100
AcDbLine
 10
552.3575192341936
 20
548.9779190940072
 30
0.0
 11
520.3575192341954
 21
548.9779190940072
 31
0.0
  0
ARC
  5
1C4
330
2
100
AcDbEntity
  8
L-ZISSEN
100
AcDbCircle
 10
545.8575192341936
 20
548.9779190940072
 30
0.0
 40
4.0
100
AcDbArc
 50
270.0
 51
90.0
  0
LINE
  5
1C5
330
2
100
AcDbEntity
  8
L-ZISSEN
100
AcDbLine
 10
526.8575192341936
 20
552.9779190940074
 30
0.0
 11
545.8575192341936
 21
552.9779190940072
 31
0.0
  0
LINE
  5
1C6
330
2
100
AcDbEntity
  8
L-ZISSEN
100
AcDbLine
 10
545.8575192341936
 20
544.9779190940072
 30
0.0
 11
526.8575192341936
 21
544.9779190940072
 31
0.0
  0
ARC
  5
1C7
330
2
100
AcDbEntity
  8
L-ZISSEN
100
AcDbCircle
 10
526.8575192341936
 20
548.9779190940072
 30
0.0
 40
4.0
100
AcDbArc
 50
90.0
 51
270.0
  0
LINE
  5
1C8
330
2
100
AcDbEntity
  8
L-TYUSIN
100
AcDbLine
 10
526.8575192341936
 20
555.5149948287775
 30
0.0
 11
526.8575192341936
 21
542.4408433592369
 31
0.0
  0
ARC
  5
1C9
330
2
100
AcDbEntity
  8
L-ZISSEN
100
AcDbCircle
 10
545.8575192341927
 20
548.9779190940072
 30
0.0
 40
4.0
100
AcDbArc
 50
82.81924421854155
 51
90.0
  0
ARC
  5
1CA
330
2
100
AcDbEntity
  8
L-ZISSEN
100
AcDbCircle
 10
545.8575192341927
 20
548.9779190940072
 30
0.0
 40
4.0
100
AcDbArc
 50
270.0
 51
277.1807557814584
  0
LINE
  5
1CB
330
2
100
AcDbEntity
  8
L-TYUSIN
100
AcDbLine
 10
545.8575192341936
 20
555.5149948287775
 30
0.0
 11
545.8575192341936
 21
542.4408433592369
 31
0.0
  0
LINE
  5
1CC
330
2
100
AcDbEntity
  8
L-ZISSEN
100
AcDbLine
 10
569.6074315005819
 20
559.9984963845243
 30
0.0
 11
569.6074315005819
 21
550.7975344902014
 31
0.0
  0
LINE
  5
1CD
330
2
100
AcDbEntity
  8
L-ZISSEN
100
AcDbLine
 10
569.6074315005819
 20
550.7975344902014
 30
0.0
 11
570.1074315005818
 21
550.2975344902014
 31
0.0
  0
LINE
  5
1CE
330
2
100
AcDbEntity
  8
L-ZISSEN
100
AcDbLine
 10
570.1074315005818
 20
548.5975344902016
 30
0.0
 11
570.1074315005818
 21
550.2975344902014
 31
0.0
  0
LINE
  5
1CF
330
2
100
AcDbEntity
  8
L-ZISSEN
100
AcDbLine
 10
572.8574315005805
 20
546.8779130940073
 30
0.0
 11
572.8574315005805
 21
548.5975344902016
 31
0.0
  0
LINE
  5
1D0
330
2
100
AcDbEntity
  8
L-ZISSEN
100
AcDbLine
 10
570.3574315005819
 20
566.177913094007
 30
0.0
 11
570.3574315005819
 21
565.5779130940072
 31
0.0
  0
LINE
  5
1D1
330
2
100
AcDbEntity
  8
L-ZISSEN
100
AcDbLine
 10
570.3574315005819
 20
563.7975344902014
 30
0.0
 11
569.1074315005819
 21
563.4625979996625
 31
0.0
  0
LINE
  5
1D2
330
2
100
AcDbEntity
  8
L-ZISSEN
100
AcDbLine
 10
571.1074315005819
 20
563.7975344902014
 30
0.0
 11
570.8574315005819
 21
563.7975344902014
 31
0.0
  0
ARC
  5
1D3
330
2
100
AcDbEntity
  8
L-ZISSEN
100
AcDbCircle
 10
571.3574315005819
 20
566.177913094007
 30
0.0
 40
1.0
100
AcDbArc
 50
90.0
 51
180.0
  0
LINE
  5
1D4
330
2
100
AcDbEntity
  8
L-ZISSEN
100
AcDbLine
 10
571.1074315005819
 20
565.5779130940072
 30
0.0
 11
571.1074315005819
 21
563.7975344902014
 31
0.0
  0
LINE
  5
1D5
330
2
100
AcDbEntity
  8
L-ZISSEN
100
AcDbLine
 10
569.6074315005819
 20
559.9984963845243
 30
0.0
 11
569.1074315005819
 21
560.1324709807403
 31
0.0
  0
LINE
  5
1D6
330
2
100
AcDbEntity
  8
L-ZISSEN
100
AcDbLine
 10
569.1074315005819
 20
563.4625979996625
 30
0.0
 11
569.1074315005819
 21
560.1324709807403
 31
0.0
  0
LINE
  5
1D7
330
2
100
AcDbEntity
  8
L-ZISSEN
100
AcDbLine
 10
523.3245192341922
 20
872.3417223779676
 30
0.0
 11
502.2189392341922
 21
872.3417253068944
 31
0.0
  0
LINE
  5
1D8
330
2
100
AcDbEntity
  8
L-ZISSEN
  6
BYBLOCK
 62
     0
100
AcDbLine
 10
455.8245292341923
 20
859.8417253068944
 30
0.0
 11
486.8905492341923
 21
859.8417253068944
 31
0.0
  0
LINE
  5
1D9
330
2
100
AcDbEntity
  8
L-ZISSEN
  6
BYBLOCK
 62
     0
100
AcDbLine
 10
454.9961392341924
 20
857.8417053068941
 30
0.0
 11
487.7189092341922
 21
857.8417053068941
 31
0.0
  0
LINE
  5
1DA
330
2
100
AcDbEntity
  8
L-ZISSEN
  6
BYBLOCK
 62
     0
100
AcDbLine
 10
464.8575492341924
 20
854.8417253068944
 30
0.0
 11
477.8575492341924
 21
854.8417253068944
 31
0.0
  0
LINE
  5
1DB
330
2
100
AcDbEntity
  8
L-ZISSEN
  6
BYBLOCK
 62
     0
100
AcDbLine
 10
464.8575492341924
 20
857.8417053068941
 30
0.0
 11
464.8575492341924
 21
854.8417253068944
 31
0.0
  0
LINE
  5
1DC
330
2
100
AcDbEntity
  8
L-ZISSEN
  6
BYBLOCK
 62
     0
100
AcDbLine
 10
477.8575492341924
 20
857.8417053068941
 30
0.0
 11
477.8575492341924
 21
854.8417253068944
 31
0.0
  0
LINE
  5
1DD
330
2
100
AcDbEntity
  8
L-ZISSEN
100
AcDbLine
 10
513.8575192341945
 20
817.6417223779674
 30
0.0
 11
513.8575192341947
 21
872.3417236917503
 31
0.0
  0
LINE
  5
1DE
330
2
100
AcDbEntity
  8
L-ZISSEN
100
AcDbLine
 10
563.3245106452011
 20
872.3417253068944
 30
0.0
 11
541.3905292341921
 21
872.3417223779676
 31
0.0
  0
LINE
  5
1DF
330
2
100
AcDbEntity
  8
L-ZISSEN
100
AcDbLine
 10
523.3245192341922
 20
872.3417223779676
 30
0.0
 11
541.3905192341921
 21
872.3417223779676
 31
0.0
  0
LINE
  5
1E0
330
2
100
AcDbEntity
  8
L-ZISSEN
 62
     7
 48
5.0
100
AcDbLine
 10
568.3574953464947
 20
822.3417253068944
 30
0.0
 11
568.3574953464947
 21
849.3417253068944
 31
0.0
  0
LINE
  5
1E1
330
2
100
AcDbEntity
  8
L-ZISSEN
100
AcDbLine
 10
633.2573718133655
 20
541.5232125556279
 30
0.0
 11
659.2573718133656
 21
541.5232125556279
 31
0.0
  0
LINE
  5
1E2
330
2
100
AcDbEntity
  8
L-ZISSEN
100
AcDbLine
 10
658.7629253128309
 20
563.7232125556278
 30
0.0
 11
644.7518183139011
 21
563.7232125556278
 31
0.0
  0
LINE
  5
1E3
330
2
100
AcDbEntity
  8
L-ZISSEN
100
AcDbLine
 10
644.2518183139011
 20
559.2232125556278
 30
0.0
 11
659.2629253128309
 21
559.2232125556278
 31
0.0
  0
LINE
  5
1E4
330
2
100
AcDbEntity
  8
L-ZISSEN
100
AcDbLine
 10
658.7573718133655
 20
553.7232125556278
 30
0.0
 11
644.7573718133655
 21
553.7232125556278
 31
0.0
  0
LINE
  5
1E5
330
2
100
AcDbEntity
  8
L-ZISSEN
100
AcDbLine
 10
608.257371813366
 20
546.3779130940073
 30
0.0
 11
628.2573718133669
 21
546.3779130940073
 31
0.0
  0
LINE
  5
1E6
330
2
100
AcDbEntity
  8
L-ZISSEN
100
AcDbLine
 10
606.257371813366
 20
544.3779130940073
 30
0.0
 11
630.257371813366
 21
544.3779130940073
 31
0.0
  0
LINE
  5
1E7
330
2
100
AcDbEntity
  8
L-ZISSEN
100
AcDbLine
 10
596.1074315005819
 20
558.9779190940074
 30
0.0
 11
645.4573706489757
 21
558.9779190940074
 31
0.0
  0
LINE
  5
1E8
330
2
100
AcDbEntity
  8
L-ZISSEN
100
AcDbLine
 10
596.1074315005819
 20
559.9984963845249
 30
0.0
 11
596.1074315005819
 21
550.7975344902014
 31
0.0
  0
LINE
  5
1E9
330
2
100
AcDbEntity
  8
L-ZISSEN
100
AcDbLine
 10
596.1074315005819
 20
550.7975344902014
 30
0.0
 11
595.6074315005819
 21
550.2975344902014
 31
0.0
  0
LINE
  5
1EA
330
2
100
AcDbEntity
  8
L-ZISSEN
100
AcDbLine
 10
595.6074315005819
 20
548.5975344902016
 30
0.0
 11
595.6074315005819
 21
550.2975344902014
 31
0.0
  0
LINE
  5
1EB
330
2
100
AcDbEntity
  8
L-ZISSEN
100
AcDbLine
 10
592.8574315005805
 20
546.8779130940073
 30
0.0
 11
592.8574315005805
 21
548.5975344902016
 31
0.0
  0
LINE
  5
1EC
330
2
100
AcDbEntity
  8
L-ZISSEN
100
AcDbLine
 10
595.3574315005819
 20
563.7975344902014
 30
0.0
 11
596.6074315005819
 21
563.4625979996625
 31
0.0
  0
LINE
  5
1ED
330
2
100
AcDbEntity
  8
L-ZISSEN
100
AcDbLine
 10
595.3574315005819
 20
566.177913094007
 30
0.0
 11
595.3574315005819
 21
565.5779130940072
 31
0.0
  0
LINE
  5
1EE
330
2
100
AcDbEntity
  8
L-ZISSEN
100
AcDbLine
 10
594.6074315005819
 20
563.7975344902014
 30
0.0
 11
594.8574315005819
 21
563.7975344902014
 31
0.0
  0
ARC
  5
1EF
330
2
100
AcDbEntity
  8
L-ZISSEN
100
AcDbCircle
 10
594.3574315005819
 20
566.177913094007
 30
0.0
 40
1.0
100
AcDbArc
 50
0.0
 51
90.0
  0
LINE
  5
1F0
330
2
100
AcDbEntity
  8
L-ZISSEN
100
AcDbLine
 10
594.6074315005819
 20
565.5779130940072
 30
0.0
 11
594.6074315005819
 21
563.7975344902014
 31
0.0
  0
LINE
  5
1F1
330
2
100
AcDbEntity
  8
L-ZISSEN
100
AcDbLine
 10
596.1074315005819
 20
559.9984963845249
 30
0.0
 11
596.6074315005819
 21
560.1324709807403
 31
0.0
  0
LINE
  5
1F2
330
2
100
AcDbEntity
  8
L-ZISSEN
100
AcDbLine
 10
596.6074315005819
 20
563.4625979996625
 30
0.0
 11
596.6074315005819
 21
560.1324709807403
 31
0.0
  0
LINE
  5
1F3
330
2
100
AcDbEntity
  8
L-ZISSEN
100
AcDbLine
 10
606.257371813366
 20
544.3779130940073
 30
0.0
 11
608.257371813366
 21
546.3779130940073
 31
0.0
  0
LINE
  5
1F4
330
2
100
AcDbEntity
  8
L-ZISSEN
100
AcDbLine
 10
606.257371813366
 20
542.3779130940073
 30
0.0
 11
606.257371813366
 21
544.3779130940073
 31
0.0
  0
LINE
  5
1F5
330
2
100
AcDbEntity
  8
L-ZISSEN
100
AcDbLine
 10
630.2573718133669
 20
544.3779130940073
 30
0.0
 11
628.2573718133669
 21
546.3779130940073
 31
0.0
  0
LINE
  5
1F6
330
2
100
AcDbEntity
  8
L-ZISSEN
100
AcDbLine
 10
630.257371813366
 20
542.3779130940073
 30
0.0
 11
632.257371813366
 21
541.2232125556283
 31
0.0
  0
LINE
  5
1F7
330
2
100
AcDbEntity
  8
L-ZISSEN
100
AcDbLine
 10
633.2573718133655
 20
541.1232125556279
 30
0.0
 11
632.2573718133655
 21
541.1232125556279
 31
0.0
  0
LINE
  5
1F8
330
2
100
AcDbEntity
  8
L-ZISSEN
100
AcDbLine
 10
630.257371813366
 20
542.3779130940073
 30
0.0
 11
630.257371813366
 21
544.3779130940073
 31
0.0
  0
LINE
  5
1F9
330
2
100
AcDbEntity
  8
L-ZISSEN
100
AcDbLine
 10
645.4573706489757
 20
559.2232125556278
 30
0.0
 11
645.4573706489757
 21
553.7232125556278
 31
0.0
  0
ARC
  5
1FA
330
2
100
AcDbEntity
  8
L-ZISSEN
100
AcDbCircle
 10
644.7573718133655
 20
553.2232125556277
 30
0.0
 40
0.5
100
AcDbArc
 50
90.0
 51
180.0
  0
LINE
  5
1FB
330
2
100
AcDbEntity
  8
L-ZISSEN
100
AcDbLine
 10
644.2573718133655
 20
553.2232125556277
 30
0.0
 11
644.2573718133655
 21
541.5232125556279
 31
0.0
  0
ARC
  5
1FC
330
2
100
AcDbEntity
  8
L-ZISSEN
100
AcDbCircle
 10
644.7518183139011
 20
563.2232125556278
 30
0.0
 40
0.5
100
AcDbArc
 50
90.0
 51
180.0
  0
LINE
  5
1FD
330
2
100
AcDbEntity
  8
L-ZISSEN
100
AcDbLine
 10
644.2518183139011
 20
563.2232125556278
 30
0.0
 11
644.2518183139011
 21
559.2232125556278
 31
0.0
  0
LINE
  5
1FE
330
2
100
AcDbEntity
  8
L-ZISSEN
100
AcDbLine
 10
658.0573706489761
 20
559.2232125556278
 30
0.0
 11
658.0573706489761
 21
553.7232125556283
 31
0.0
  0
ARC
  5
1FF
330
2
100
AcDbEntity
  8
L-ZISSEN
100
AcDbCircle
 10
658.7573718133655
 20
553.2232125556277
 30
0.0
 40
0.5
100
AcDbArc
 50
0.0
 51
90.0
  0
LINE
  5
200
330
2
100
AcDbEntity
  8
L-ZISSEN
100
AcDbLine
 10
659.2573718133656
 20
553.2232125556277
 30
0.0
 11
659.2573718133656
 21
541.5232125556279
 31
0.0
  0
ARC
  5
201
330
2
100
AcDbEntity
  8
L-ZISSEN
100
AcDbCircle
 10
658.7629253128309
 20
563.2232125556278
 30
0.0
 40
0.5
100
AcDbArc
 50
0.0
 51
90.0
  0
LINE
  5
202
330
2
100
AcDbEntity
  8
L-ZISSEN
100
AcDbLine
 10
659.2629253128309
 20
563.2232125556278
 30
0.0
 11
659.2629253128309
 21
559.2232125556278
 31
0.0
  0
LINE
  5
203
330
2
100
AcDbEntity
  8
L-ZISSEN
100
AcDbLine
 10
660.3575192341931
 20
670.977919094007
 30
0.0
 11
700.3575192341932
 21
670.977919094007
 31
0.0
  0
LINE
  5
204
330
2
100
AcDbEntity
  8
L-ZISSEN
100
AcDbLine
 10
660.3575192341931
 20
635.977919094007
 30
0.0
 11
700.3575192341932
 21
635.977919094007
 31
0.0
  0
LINE
  5
205
330
2
100
AcDbEntity
  8
L-ZISSEN
  6
CONTINUOUS
 62
     7
100
AcDbLine
 10
640.6075155237791
 20
790.7417223779678
 30
0.0
 11
668.107515523779
 21
790.7417223779678
 31
0.0
  0
LINE
  5
206
330
2
100
AcDbEntity
  8
L-ZISSEN
  6
CONTINUOUS
 62
     7
100
AcDbLine
 10
641.107515523779
 20
802.9417223779677
 30
0.0
 11
667.607515523779
 21
802.9417223779677
 31
0.0
  0
LINE
  5
207
330
2
100
AcDbEntity
  8
L-ZISSEN
  6
CONTINUOUS
 62
     7
100
AcDbLine
 10
639.3575155237788
 20
804.7417223779678
 30
0.0
 11
669.3575155237788
 21
804.7417223779678
 31
0.0
  0
LINE
  5
208
330
2
100
AcDbEntity
  8
L-ZISSEN
100
AcDbLine
 10
645.3245192341924
 20
872.3417223779676
 30
0.0
 11
663.3905192341924
 21
872.3417223779676
 31
0.0
  0
LINE
  5
209
330
2
100
AcDbEntity
  8
L-ZISSEN
  6
CONTINUOUS
 62
     7
100
AcDbLine
 10
641.857515523779
 20
784.7417223779678
 30
0.0
 11
666.857515523779
 21
784.7417223779678
 31
0.0
  0
LINE
  5
20A
330
2
100
AcDbEntity
  8
L-ZISSEN
  6
CONTINUOUS
 62
     7
100
AcDbLine
 10
640.6075155237791
 20
786.7417223779678
 30
0.0
 11
668.107515523779
 21
786.7417223779678
 31
0.0
  0
LINE
  5
20B
330
2
100
AcDbEntity
  8
L-ZISSEN
100
AcDbLine
 10
640.6075155237791
 20
786.7417223779678
 30
0.0
 11
640.6075155237791
 21
790.7417223779678
 31
0.0
  0
LINE
  5
20C
330
2
100
AcDbEntity
  8
L-ZISSEN
  6
CONTINUOUS
 62
     7
100
AcDbLine
 10
641.857515523779
 20
786.7417223779678
 30
0.0
 11
641.857515523779
 21
784.7417223779678
 31
0.0
  0
LINE
  5
20D
330
2
100
AcDbEntity
  8
L-ZISSEN
 62
     7
 48
5.0
100
AcDbLine
 10
618.3574953464947
 20
822.3417253068944
 30
0.0
 11
618.3574953464947
 21
849.3417253068944
 31
0.0
  0
LINE
  5
20E
330
2
100
AcDbEntity
  8
L-ZISSEN
 62
     7
 48
5.0
100
AcDbLine
 10
600.6574953464949
 20
849.3417253068944
 30
0.0
 11
600.6574953464949
 21
857.8417253068945
 31
0.0
  0
LINE
  5
20F
330
2
100
AcDbEntity
  8
L-ZISSEN
 62
     7
 48
5.0
100
AcDbLine
 10
586.6574953464948
 20
849.3417253068944
 30
0.0
 11
586.6574953464948
 21
857.8417253068945
 31
0.0
  0
CIRCLE
  5
210
330
2
100
AcDbEntity
  8
L-ZISSEN
100
AcDbCircle
 10
593.3575192341925
 20
867.3417253068944
 30
0.0
 40
4.5
  0
LINE
  5
211
330
2
100
AcDbEntity
  8
L-ZISSEN
  6
CONTINUOUS
 62
     7
100
AcDbLine
 10
639.357515523779
 20
817.6417223779674
 30
0.0
 11
639.357515523779
 21
804.7417223779678
 31
0.0
  0
LINE
  5
212
330
2
100
AcDbEntity
  8
L-ZISSEN
100
AcDbLine
 10
641.107515523779
 20
790.7417223779678
 30
0.0
 11
641.107515523779
 21
802.9417223779677
 31
0.0
  0
LINE
  5
213
330
2
100
AcDbEntity
  8
L-ZISSEN
  6
CONTINUOUS
 62
     7
100
AcDbLine
 10
644.357515523779
 20
804.7417223779678
 30
0.0
 11
644.357515523779
 21
802.9417223779677
 31
0.0
  0
LINE
  5
214
330
2
100
AcDbEntity
  8
L-ZISSEN
100
AcDbLine
 10
645.8575192341934
 20
872.3417253068944
 30
0.0
 11
623.3905278231839
 21
872.3417253068944
 31
0.0
  0
LINE
  5
215
330
2
100
AcDbEntity
  8
L-ZISSEN
100
AcDbLine
 10
668.107515523779
 20
786.7417223779678
 30
0.0
 11
668.107515523779
 21
790.7417223779678
 31
0.0
  0
LINE
  5
216
330
2
100
AcDbEntity
  8
L-ZISSEN
  6
CONTINUOUS
 62
     7
100
AcDbLine
 10
666.857515523779
 20
786.7417223779678
 30
0.0
 11
666.857515523779
 21
784.7417223779678
 31
0.0
  0
ARC
  5
217
330
2
100
AcDbEntity
  8
L-ZISSEN
100
AcDbCircle
 10
689.8575192341931
 20
842.8417223779677
 30
0.0
 40
2.0
100
AcDbArc
 50
180.0
 51
270.0
  0
LINE
  5
218
330
2
100
AcDbEntity
  8
L-ZISSEN
100
AcDbLine
 10
673.8575192341945
 20
817.6417223779674
 30
0.0
 11
673.8575192341945
 21
872.3417253068944
 31
0.0
  0
LINE
  5
219
330
2
100
AcDbEntity
  8
L-ZISSEN
  6
CONTINUOUS
 62
     7
100
AcDbLine
 10
669.357515523779
 20
817.6417223779676
 30
0.0
 11
669.357515523779
 21
804.7417223779678
 31
0.0
  0
LINE
  5
21A
330
2
100
AcDbEntity
  8
L-ZISSEN
100
AcDbLine
 10
667.607515523779
 20
790.7417223779678
 30
0.0
 11
667.607515523779
 21
802.9417223779677
 31
0.0
  0
LINE
  5
21B
330
2
100
AcDbEntity
  8
L-ZISSEN
  6
CONTINUOUS
 62
     7
100
AcDbLine
 10
664.357515523779
 20
804.7417223779678
 30
0.0
 11
664.357515523779
 21
802.9417223779677
 31
0.0
  0
LINE
  5
21C
330
2
100
AcDbEntity
  8
L-ZISSEN
100
AcDbLine
 10
687.8575192341934
 20
872.3417253068944
 30
0.0
 11
663.3905321631191
 21
872.3417253068944
 31
0.0
  0
LINE
  5
21D
330
2
100
AcDbEntity
  8
L-ZISSEN
100
AcDbLine
 10
715.3575192341932
 20
837.3417223779677
 30
0.0
 11
715.3575192341932
 21
840.8417223779677
 31
0.0
  0
CIRCLE
  5
21E
330
2
100
AcDbEntity
  8
L-ZISSEN
  6
CONTINUOUS
 62
     7
100
AcDbCircle
 10
582.8574789214087
 20
897.3417253068944
 30
0.0
 40
19.00000000000001
  0
CIRCLE
  5
21F
330
2
100
AcDbEntity
  8
L-ZISSEN
 62
     7
100
AcDbCircle
 10
582.8574789214087
 20
897.3417253068944
 30
0.0
 40
14.0
  0
LINE
  5
220
330
2
100
AcDbEntity
  8
L-ZISSEN
100
AcDbLine
 10
577.8245106452013
 20
936.8417253068944
 30
0.0
 11
608.8905278231834
 21
936.8417253068944
 31
0.0
  0
LINE
  5
221
330
2
100
AcDbEntity
  8
L-ZISSEN
100
AcDbLine
 10
514.3245106452013
 20
879.3417253068945
 30
0.0
 11
506.3905592341921
 21
879.3417253068945
 31
0.0
  0
LINE
  5
222
330
2
100
AcDbEntity
  8
L-ZISSEN
100
AcDbLine
 10
511.3575192341922
 20
879.3417253068945
 30
0.0
 11
514.3245106452011
 21
879.3417253068945
 31
0.0
  0
LINE
  5
223
330
2
100
AcDbEntity
  8
L-ZISSEN
100
AcDbLine
 10
516.3245092341922
 20
879.3417223779677
 30
0.0
 11
511.3575192341922
 21
879.3417223779677
 31
0.0
  0
LINE
  5
224
330
2
100
AcDbEntity
  8
L-ZISSEN
100
AcDbLine
 10
523.3245092341921
 20
922.3417123779679
 30
0.0
 11
502.2189792341923
 21
922.3417253068944
 31
0.0
  0
LINE
  5
225
330
2
100
AcDbEntity
  8
L-ZISSEN
100
AcDbLine
 10
514.3245106452011
 20
915.3417253068944
 30
0.0
 11
506.3904992342022
 21
915.3417253068944
 31
0.0
  0
LINE
  5
226
330
2
100
AcDbEntity
  8
L-ZISSEN
100
AcDbLine
 10
511.3575192341922
 20
915.3417253068944
 30
0.0
 11
514.3245106452011
 21
915.3417253068944
 31
0.0
  0
LINE
  5
227
330
2
100
AcDbEntity
  8
L-ZISSEN
100
AcDbLine
 10
516.3245092341922
 20
915.3417223779676
 30
0.0
 11
511.3575192341922
 21
915.3417223779676
 31
0.0
  0
LINE
  5
228
330
2
100
AcDbEntity
  8
L-ZISSEN
100
AcDbLine
 10
513.8575192341945
 20
958.3417223779679
 30
0.0
 11
513.8575192341945
 21
969.3417223779674
 31
0.0
  0
LINE
  5
229
330
2
100
AcDbEntity
  8
L-ZISSEN
  6
BYBLOCK
 62
     0
100
AcDbLine
 10
487.7189992341923
 20
936.841705306894
 30
0.0
 11
454.9962792341923
 21
936.841705306894
 31
0.0
  0
LINE
  5
22A
330
2
100
AcDbEntity
  8
L-ZISSEN
  6
BYBLOCK
 62
     0
100
AcDbLine
 10
455.8245592341923
 20
934.8416953068943
 30
0.0
 11
486.8905492341923
 21
934.8416953068943
 31
0.0
  0
LINE
  5
22B
330
2
100
AcDbEntity
  8
L-ZISSEN
  6
BYBLOCK
 62
     0
100
AcDbLine
 10
509.2189792341925
 20
915.3417253068944
 30
0.0
 11
487.7189992341923
 21
936.841705306894
 31
0.0
  0
LINE
  5
22C
330
2
100
AcDbEntity
  8
L-ZISSEN
  6
BYBLOCK
 62
     0
100
AcDbLine
 10
486.8905492341923
 20
934.8416853068945
 30
0.0
 11
506.3905192341922
 21
915.341705306894
 31
0.0
  0
LINE
  5
22D
330
2
100
AcDbEntity
  8
L-ZISSEN
  6
BYBLOCK
100
AcDbLine
 10
511.3575192341921
 20
915.3417253068944
 30
0.0
 11
511.3575192341922
 21
879.3417253068945
 31
0.0
  0
LINE
  5
22E
330
2
100
AcDbEntity
  8
L-ZISSEN
100
AcDbLine
 10
513.8575192341945
 20
922.3417181773019
 30
0.0
 11
513.8575192341945
 21
958.3417223779681
 31
0.0
  0
LINE
  5
22F
330
2
100
AcDbEntity
  8
L-ZISSEN
100
AcDbLine
 10
548.3905292341922
 20
879.3417223779677
 30
0.0
 11
553.3575192341922
 21
879.3417223779677
 31
0.0
  0
LINE
  5
230
330
2
100
AcDbEntity
  8
L-ZISSEN
100
AcDbLine
 10
548.3905292341922
 20
915.3417223779676
 30
0.0
 11
553.3575192341922
 21
915.3417223779676
 31
0.0
  0
LINE
  5
231
330
2
100
AcDbEntity
  8
L-ZISSEN
100
AcDbLine
 10
563.3245106452013
 20
922.3417253068944
 30
0.0
 11
541.3905292341921
 21
922.3417223779676
 31
0.0
  0
LINE
  5
232
330
2
100
AcDbEntity
  8
L-ZISSEN
100
AcDbLine
 10
548.3905392341923
 20
915.3417123779679
 30
0.0
 11
541.3905292341921
 21
922.3417223779676
 31
0.0
  0
LINE
  5
233
330
2
100
AcDbEntity
  8
L-ZISSEN
100
AcDbLine
 10
516.3245192341921
 20
915.3417223779676
 30
0.0
 11
523.3245092341921
 21
922.3417123779679
 31
0.0
  0
CIRCLE
  5
234
330
2
100
AcDbEntity
  8
L-ZISSEN
100
AcDbCircle
 10
532.3575192341922
 20
897.3417223779676
 30
0.0
 40
8.330999999999999
  0
LINE
  5
235
330
2
100
AcDbEntity
  8
L-ZISSEN
100
AcDbLine
 10
523.3245192341922
 20
922.3417223779676
 30
0.0
 11
541.3905192341921
 21
922.3417223779676
 31
0.0
  0
LINE
  5
236
330
2
100
AcDbEntity
  8
L-ZISSEN
100
AcDbLine
 10
553.8575192341925
 20
912.8747338958854
 30
0.0
 11
577.8245106452013
 21
936.8417253068944
 31
0.0
  0
ARC
  5
237
330
2
100
AcDbEntity
  8
L-ZISSEN
100
AcDbCircle
 10
567.3767571206592
 20
912.3417253068945
 30
0.0
 40
4.5
100
AcDbArc
 50
6.211096851361661
 51
265.5960156677603
  0
ARC
  5
238
330
2
100
AcDbEntity
  8
L-ZISSEN
100
AcDbCircle
 10
567.3767571206592
 20
882.3417253068944
 30
0.0
 40
4.5
100
AcDbArc
 50
94.40398433223963
 51
353.7889031486447
  0
LINE
  5
239
330
2
100
AcDbEntity
  8
L-ZISSEN
100
AcDbLine
 10
553.357519234192
 20
915.3417253068944
 30
0.0
 11
553.3575192341922
 21
879.3417253068945
 31
0.0
  0
LINE
  5
23A
330
2
100
AcDbEntity
  8
L-ZISSEN
100
AcDbLine
 10
553.8575192341925
 20
881.8087167179035
 30
0.0
 11
553.8575192341925
 21
912.8747338958854
 31
0.0
  0
LINE
  5
23B
330
2
100
AcDbEntity
  8
L-ZISSEN
100
AcDbLine
 10
553.3575192341922
 20
879.3417253068945
 30
0.0
 11
556.3245106452011
 21
879.3417253068945
 31
0.0
  0
LINE
  5
23C
330
2
100
AcDbEntity
  8
L-ZISSEN
100
AcDbLine
 10
553.3575192341922
 20
915.3417253068944
 30
0.0
 11
556.3245106452011
 21
915.3417253068944
 31
0.0
  0
LINE
  5
23D
330
2
100
AcDbEntity
  8
L-TYUSIN
 48
0.5
100
AcDbLine
 10
536.3575192341945
 20
972.3417223779673
 30
0.0
 11
536.3575192341945
 21
962.2446216935902
 31
0.0
  0
LINE
  5
23E
330
2
100
AcDbEntity
  8
L-ZISSEN
100
AcDbLine
 10
645.3245192341924
 20
922.3417223779676
 30
0.0
 11
660.3575192341933
 21
922.3417223779676
 31
0.0
  0
CIRCLE
  5
23F
330
2
100
AcDbEntity
  8
L-ZISSEN
100
AcDbCircle
 10
651.7573792341929
 20
897.3417253068939
 30
0.0
 40
4.2
  0
POLYLINE
  5
240
330
2
100
AcDbEntity
  8
L-ZISSEN
100
AcDb2dPolyline
 66
     1
 10
0.0
 20
0.0
 30
0.0
 70
     1
  0
VERTEX
  5
2FC
330
240
100
AcDbEntity
  8
L-ZISSEN
100
AcDbVertex
100
AcDb2dVertex
 10
648.0046024844603
 20
903.841725306894
 30
0.0
  0
VERTEX
  5
2FD
330
240
100
AcDbEntity
  8
L-ZISSEN
100
AcDbVertex
100
AcDb2dVertex
 10
644.2518257347281
 20
897.3417253068939
 30
0.0
  0
VERTEX
  5
2FE
330
240
100
AcDbEntity
  8
L-ZISSEN
100
AcDbVertex
100
AcDb2dVertex
 10
648.0046024844603
 20
890.841725306894
 30
0.0
  0
VERTEX
  5
2FF
330
240
100
AcDbEntity
  8
L-ZISSEN
100
AcDbVertex
100
AcDb2dVertex
 10
655.5101559839256
 20
890.841725306894
 30
0.0
  0
VERTEX
  5
300
330
240
100
AcDbEntity
  8
L-ZISSEN
100
AcDbVertex
100
AcDb2dVertex
 10
659.2629327336578
 20
897.3417253068939
 30
0.0
  0
VERTEX
  5
301
330
240
100
AcDbEntity
  8
L-ZISSEN
100
AcDbVertex
100
AcDb2dVertex
 10
655.5101559839256
 20
903.841725306894
 30
0.0
  0
SEQEND
  5
302
330
240
100
AcDbEntity
  8
L-ZISSEN
  0
LINE
  5
241
330
2
100
AcDbEntity
  8
L-ZISSEN
100
AcDbLine
 10
633.2573792341929
 20
889.4417253068938
 30
0.0
 11
658.7573792341929
 21
889.4417253068938
 31
0.0
  0
LINE
  5
242
330
2
100
AcDbEntity
  8
L-ZISSEN
100
AcDbLine
 10
658.7573792341929
 20
905.241725306894
 30
0.0
 11
633.2573792341929
 21
905.241725306894
 31
0.0
  0
CIRCLE
  5
243
330
2
100
AcDbEntity
  8
L-ZISSEN
100
AcDbCircle
 10
620.8381413477261
 20
882.3417253068944
 30
0.0
 40
4.5
  0
LINE
  5
244
330
2
100
AcDbEntity
  8
L-ZISSEN
100
AcDbLine
 10
630.2573792341929
 20
888.3417253068945
 30
0.0
 11
603.257379234193
 21
888.3417253068945
 31
0.0
  0
LINE
  5
245
330
2
100
AcDbEntity
  8
L-ZISSEN
100
AcDbLine
 10
633.2573792341929
 20
889.8417253068943
 30
0.0
 11
606.2573792341934
 21
889.8417253068943
 31
0.0
  0
CIRCLE
  5
246
330
2
100
AcDbEntity
  8
L-ZISSEN
100
AcDbCircle
 10
620.8381413477261
 20
912.3417253068945
 30
0.0
 40
4.5
  0
POLYLINE
  5
247
330
2
100
AcDbEntity
  8
L-ZISSEN
100
AcDb2dPolyline
 66
     1
 10
0.0
 20
0.0
 30
0.0
  0
VERTEX
  5
303
330
247
100
AcDbEntity
  8
L-ZISSEN
100
AcDbVertex
100
AcDb2dVertex
 10
608.8905278231834
 20
936.8417253068944
 30
0.0
  0
VERTEX
  5
304
330
247
100
AcDbEntity
  8
L-ZISSEN
100
AcDbVertex
100
AcDb2dVertex
 10
632.8575192341925
 20
912.8747338958854
 30
0.0
  0
VERTEX
  5
305
330
247
100
AcDbEntity
  8
L-ZISSEN
100
AcDbVertex
100
AcDb2dVertex
 10
632.8575192341925
 20
905.241725306894
 30
0.0
  0
SEQEND
  5
306
330
247
100
AcDbEntity
  8
L-ZISSEN
  0
LINE
  5
248
330
2
100
AcDbEntity
  8
L-ZISSEN
100
AcDbLine
 10
633.2573792341929
 20
904.8417253068944
 30
0.0
 11
606.2573792341934
 21
904.8417253068944
 31
0.0
  0
LINE
  5
249
330
2
100
AcDbEntity
  8
L-ZISSEN
100
AcDbLine
 10
630.2573792341929
 20
906.3417253068944
 30
0.0
 11
603.257379234193
 21
906.3417253068944
 31
0.0
  0
LINE
  5
24A
330
2
100
AcDbEntity
  8
L-ZISSEN
100
AcDbLine
 10
606.2573792341934
 20
904.8417253068944
 30
0.0
 11
606.2573792341934
 21
889.8417253068943
 31
0.0
  0
LINE
  5
24B
330
2
100
AcDbEntity
  8
L-ZISSEN
100
AcDbLine
 10
603.257379234193
 20
888.3417253068945
 30
0.0
 11
603.2573792341934
 21
906.3417253068944
 31
0.0
  0
LINE
  5
24C
330
2
100
AcDbEntity
  8
L-ZISSEN
100
AcDbLine
 10
603.257379234193
 20
888.3417253068945
 30
0.0
 11
603.257379234193
 21
890.6917253068943
 31
0.0
  0
LINE
  5
24D
330
2
100
AcDbEntity
  8
L-ZISSEN
100
AcDbLine
 10
603.257379234193
 20
893.0417253068942
 30
0.0
 11
603.257379234193
 21
890.6917253068943
 31
0.0
  0
LINE
  5
24E
330
2
100
AcDbEntity
  8
L-ZISSEN
100
AcDbLine
 10
603.257379234193
 20
893.0417253068942
 30
0.0
 11
603.257379234193
 21
888.3417253068945
 31
0.0
  0
LINE
  5
24F
330
2
100
AcDbEntity
  8
L-ZISSEN
100
AcDbLine
 10
603.2573792341934
 20
906.3417253068944
 30
0.0
 11
603.2573792341934
 21
901.3417253068944
 31
0.0
  0
LINE
  5
250
330
2
100
AcDbEntity
  8
L-ZISSEN
100
AcDbLine
 10
603.2573792341934
 20
899.2881261328163
 30
0.0
 11
603.257379234193
 21
906.3417253068944
 31
0.0
  0
CIRCLE
  5
251
330
2
100
AcDbEntity
  8
L-ZISSEN
100
AcDbCircle
 10
593.3575192341925
 20
927.3417253068943
 30
0.0
 40
4.5
  0
LINE
  5
252
330
2
100
AcDbEntity
  8
L-ZISSEN
100
AcDbLine
 10
636.8575192341934
 20
915.3417253068944
 30
0.0
 11
643.8575192341934
 21
922.3417253068944
 31
0.0
  0
LINE
  5
253
330
2
100
AcDbEntity
  8
L-ZISSEN
100
AcDbLine
 10
638.3245192341924
 20
915.3417223779676
 30
0.0
 11
645.3245092341924
 21
922.3417123779679
 31
0.0
  0
LINE
  5
254
330
2
100
AcDbEntity
  8
L-ZISSEN
100
AcDbLine
 10
636.8575192341934
 20
915.3417253068944
 30
0.0
 11
630.3905278231834
 21
915.3417253068944
 31
0.0
  0
LINE
  5
255
330
2
100
AcDbEntity
  8
L-ZISSEN
100
AcDbLine
 10
638.3245092341923
 20
915.3417223779676
 30
0.0
 11
633.3575192341925
 21
915.3417223779676
 31
0.0
  0
LINE
  5
256
330
2
100
AcDbEntity
  8
L-ZISSEN
100
AcDbLine
 10
636.8575192341934
 20
879.3417253068945
 30
0.0
 11
630.3905278231838
 21
879.3417253068945
 31
0.0
  0
LINE
  5
257
330
2
100
AcDbEntity
  8
L-ZISSEN
100
AcDbLine
 10
638.3245092341923
 20
879.3417223779677
 30
0.0
 11
633.3575192341925
 21
879.3417223779677
 31
0.0
  0
LINE
  5
258
330
2
100
AcDbEntity
  8
L-ZISSEN
100
AcDbLine
 10
630.2573792341929
 20
906.3417253068944
 30
0.0
 11
630.2573792341929
 21
888.3417253068945
 31
0.0
  0
LINE
  5
259
330
2
100
AcDbEntity
  8
L-ZISSEN
100
AcDbLine
 10
632.257379234193
 20
904.8417253068944
 30
0.0
 11
632.257379234193
 21
889.8417253068943
 31
0.0
  0
LINE
  5
25A
330
2
100
AcDbEntity
  8
L-ZISSEN
100
AcDbLine
 10
633.2573792341929
 20
905.241725306894
 30
0.0
 11
633.2573792341929
 21
889.4417253068938
 31
0.0
  0
LINE
  5
25B
330
2
100
AcDbEntity
  8
L-ZISSEN
100
AcDbLine
 10
633.2573792341929
 20
904.8417253068944
 30
0.0
 11
633.2573792341929
 21
889.8417253068943
 31
0.0
  0
LINE
  5
25C
330
2
100
AcDbEntity
  8
L-ZISSEN
100
AcDbLine
 10
632.8575192341925
 20
889.4417253068938
 30
0.0
 11
632.8575192341925
 21
881.8087167179035
 31
0.0
  0
LINE
  5
25D
330
2
100
AcDbEntity
  8
L-ZISSEN
100
AcDbLine
 10
633.3575192341925
 20
879.3417253068945
 30
0.0
 11
633.3575192341925
 21
889.4417253068947
 31
0.0
  0
LINE
  5
25E
330
2
100
AcDbEntity
  8
L-ZISSEN
100
AcDbLine
 10
633.3575192341925
 20
905.241725306894
 30
0.0
 11
633.3575192341925
 21
915.3417253068944
 31
0.0
  0
LINE
  5
25F
330
2
100
AcDbEntity
  8
L-ZISSEN
100
AcDbLine
 10
644.257379234193
 20
889.4417253068938
 30
0.0
 11
644.257379234193
 21
889.4417253068938
 31
0.0
  0
LINE
  5
260
330
2
100
AcDbEntity
  8
L-ZISSEN
100
AcDbLine
 10
645.8575192341934
 20
922.3417253068944
 30
0.0
 11
623.3905278231834
 21
922.3417253068944
 31
0.0
  0
LINE
  5
261
330
2
100
AcDbEntity
  8
L-ZISSEN
100
AcDbLine
 10
660.3575192341941
 20
957.341722377968
 30
0.0
 11
700.3575192341933
 21
957.3417223779676
 31
0.0
  0
LINE
  5
262
330
2
100
AcDbEntity
  8
L-ZISSEN
100
AcDbLine
 10
700.3575192341932
 20
917.3417223779679
 30
0.0
 11
660.3575192341931
 21
917.3417223779679
 31
0.0
  0
LINE
  5
263
330
2
100
AcDbEntity
  8
L-ZISSEN
100
AcDbLine
 10
678.8575192341934
 20
915.3417253068944
 30
0.0
 11
680.857516305267
 21
917.3417223779679
 31
0.0
  0
LINE
  5
264
330
2
100
AcDbEntity
  8
L-ZISSEN
100
AcDbLine
 10
670.3905392341925
 20
915.3417123779679
 30
0.0
 11
668.3905292341927
 21
917.3417223779679
 31
0.0
  0
LINE
  5
265
330
2
100
AcDbEntity
  8
L-ZISSEN
  6
BYBLOCK
 62
     0
100
AcDbLine
 10
687.8575192341933
 20
917.3417223779679
 30
0.0
 11
687.8575192341933
 21
897.3417223779676
 31
0.0
  0
LINE
  5
266
330
2
100
AcDbEntity
  8
L-ZISSEN
100
AcDbLine
 10
670.3905292341923
 20
915.3417223779676
 30
0.0
 11
675.3575192341925
 21
915.3417223779676
 31
0.0
  0
LINE
  5
267
330
2
100
AcDbEntity
  8
L-ZISSEN
100
AcDbLine
 10
670.3905292341923
 20
879.3417223779677
 30
0.0
 11
675.3575192341925
 21
879.3417223779677
 31
0.0
  0
LINE
  5
268
330
2
100
AcDbEntity
  8
L-ZISSEN
100
AcDbLine
 10
659.2573792341929
 20
889.9417253068939
 30
0.0
 11
659.2573792341929
 21
904.7417253068941
 31
0.0
  0
ARC
  5
269
330
2
100
AcDbEntity
  8
L-ZISSEN
100
AcDbCircle
 10
658.7573792341929
 20
889.9417253068939
 30
0.0
 40
0.5
100
AcDbArc
 50
270.0
 51
0.0
  0
ARC
  5
26A
330
2
100
AcDbEntity
  8
L-ZISSEN
100
AcDbCircle
 10
658.7573792341929
 20
904.7417253068941
 30
0.0
 40
0.5
100
AcDbArc
 50
0.0
 51
90.0
  0
LINE
  5
26B
330
2
100
AcDbEntity
  8
L-ZISSEN
100
AcDbLine
 10
675.3575192341925
 20
915.3417253068944
 30
0.0
 11
675.3575192341925
 21
879.3417253068945
 31
0.0
  0
LINE
  5
26C
330
2
100
AcDbEntity
  8
L-ZISSEN
100
AcDbLine
 10
675.3575192341925
 20
879.3417253068945
 30
0.0
 11
675.3575192341925
 21
915.3417253068944
 31
0.0
  0
LINE
  5
26D
330
2
100
AcDbEntity
  8
L-ZISSEN
100
AcDbLine
 10
678.8575192341934
 20
879.3417253068945
 30
0.0
 11
672.3905278231839
 21
879.3417253068945
 31
0.0
  0
LINE
  5
26E
330
2
100
AcDbEntity
  8
L-ZISSEN
100
AcDbLine
 10
678.8575192341934
 20
915.3417253068944
 30
0.0
 11
672.3905278231834
 21
915.3417253068944
 31
0.0
  0
LINE
  5
26F
330
2
100
AcDbEntity
  8
L-ZISSEN
100
AcDbLine
 10
660.3575192341941
 20
957.341722377968
 30
0.0
 11
660.3575192341931
 21
917.3417223779679
 31
0.0
  0
CIRCLE
  5
270
330
2
100
AcDbEntity
  8
L-ZISSEN
100
AcDbCircle
 10
704.6075192341931
 20
883.0917223779673
 30
0.0
 40
4.0
  0
POLYLINE
  5
271
330
2
100
AcDbEntity
  8
L-ZISSEN
100
AcDb2dPolyline
 66
     1
 10
0.0
 20
0.0
 30
0.0
 70
     1
  0
VERTEX
  5
307
330
271
100
AcDbEntity
  8
L-ZISSEN
100
AcDbVertex
100
AcDb2dVertex
 10
699.33679329203
 20
914.8417223779674
 30
0.0
  0
VERTEX
  5
308
330
271
100
AcDbEntity
  8
L-ZISSEN
100
AcDbVertex
100
AcDb2dVertex
 10
697.316067349866
 20
911.3417223779675
 30
0.0
  0
VERTEX
  5
309
330
271
100
AcDbEntity
  8
L-ZISSEN
100
AcDbVertex
100
AcDb2dVertex
 10
699.33679329203
 20
907.8417223779675
 30
0.0
  0
VERTEX
  5
30A
330
271
100
AcDbEntity
  8
L-ZISSEN
100
AcDbVertex
100
AcDb2dVertex
 10
703.3782451763572
 20
907.8417223779675
 30
0.0
  0
VERTEX
  5
30B
330
271
100
AcDbEntity
  8
L-ZISSEN
100
AcDbVertex
100
AcDb2dVertex
 10
705.3989711185209
 20
911.3417223779675
 30
0.0
  0
VERTEX
  5
30C
330
271
100
AcDbEntity
  8
L-ZISSEN
100
AcDbVertex
100
AcDb2dVertex
 10
703.3782451763572
 20
914.8417223779674
 30
0.0
  0
SEQEND
  5
30D
330
271
100
AcDbEntity
  8
L-ZISSEN
  0
LINE
  5
272
330
2
100
AcDbEntity
  8
L-ZISSEN
100
AcDbLine
 10
700.3575192341932
 20
952.8417223779676
 30
0.0
 11
700.3575192341932
 21
921.8417223779674
 31
0.0
  0
LINE
  5
273
330
2
100
AcDbEntity
  8
L-ZISSEN
100
AcDbLine
 10
700.3575192341933
 20
957.8417223779675
 30
0.0
 11
700.3575192341932
 21
916.8417223779677
 31
0.0
  0
ARC
  5
274
330
2
100
AcDbEntity
  8
L-ZISSEN
  6
CONTINUOUS
 62
     7
100
AcDbCircle
 10
690.8575192341932
 20
955.3417223779675
 30
0.0
 40
3.0
100
AcDbArc
 50
90.0
 51
138.1896851042157
  0
ARC
  5
275
330
2
100
AcDbEntity
  8
L-ZISSEN
  6
CONTINUOUS
 62
     7
100
AcDbCircle
 10
690.8575192341932
 20
955.3417223779675
 30
0.0
 40
3.0
100
AcDbArc
 50
90.0
 51
138.1896851042157
  0
LINE
  5
276
330
2
100
AcDbEntity
  8
L-ZISSEN
100
AcDbLine
 10
888.3575192341933
 20
951.8417223779673
 30
0.0
 11
888.3575192341933
 21
842.8417223779671
 31
0.0
  0
LINE
  5
277
330
2
100
AcDbEntity
  8
L-ZISSEN
100
AcDbLine
 10
882.8459874179539
 20
947.1301905617274
 30
0.0
 11
882.8459874179539
 21
847.5532541942069
 31
0.0
  0
LINE
  5
278
330
2
100
AcDbEntity
  8
L-ZISSEN
100
AcDbLine
 10
740.8575192341932
 20
887.8417223779676
 30
0.0
 11
740.8575192341932
 21
846.8417223779677
 31
0.0
  0
ARC
  5
279
330
2
100
AcDbEntity
  8
L-ZISSEN
100
AcDbCircle
 10
758.0575192341934
 20
874.3417223779673
 30
0.0
 40
17.19999999999999
100
AcDbArc
 50
304.3296511933936
 51
55.67034880660634
  0
ARC
  5
27A
330
2
100
AcDbEntity
  8
L-ZISSEN
100
AcDbCircle
 10
758.0575192341934
 20
874.3417223779673
 30
0.0
 40
20.21932389542945
100
AcDbArc
 50
318.7923045248794
 51
41.20769547512059
  0
LINE
  5
27B
330
2
100
AcDbEntity
  8
L-ZISSEN
100
AcDbLine
 10
746.3575192341932
 20
838.8417223779677
 30
0.0
 11
746.3575192341936
 21
958.3417223779676
 31
0.0
  0
LINE
  5
27C
330
2
100
AcDbEntity
  8
L-ZISSEN
  6
CONTINUOUS
 62
     7
100
AcDbLine
 10
748.3575192341931
 20
836.3417223779677
 30
0.0
 11
884.8575192341932
 21
836.3417223779677
 31
0.0
  0
LINE
  5
27D
330
2
100
AcDbEntity
  8
L-ZISSEN
100
AcDbLine
 10
773.5575192341935
 20
837.041722377967
 30
0.0
 11
882.5575192341934
 21
837.041722377967
 31
0.0
  0
LINE
  5
27E
330
2
100
AcDbEntity
  8
L-ZISSEN
100
AcDbLine
 10
877.8459874179539
 20
842.553254194207
 30
0.0
 11
778.2690510504335
 21
842.553254194207
 31
0.0
  0
LINE
  5
27F
330
2
100
AcDbEntity
  8
L-ZISSEN
100
AcDbLine
 10
773.2690510504326
 20
576.9779190940067
 30
0.0
 11
882.8459874179534
 21
576.9779190940067
 31
0.0
  0
LINE
  5
280
330
2
100
AcDbEntity
  8
L-HASEN
100
AcDbLine
 10
851.8575192341936
 20
552.9779190940074
 30
0.0
 11
870.8575192341937
 21
552.9779190940072
 31
0.0
  0
LINE
  5
281
330
2
100
AcDbEntity
  8
L-HASEN
100
AcDbLine
 10
870.8575192341937
 20
544.9779190940072
 30
0.0
 11
851.8575192341936
 21
544.9779190940072
 31
0.0
  0
LINE
  5
282
330
2
100
AcDbEntity
  8
L-TYUSIN
100
AcDbLine
 10
877.3575192341937
 20
548.9779190940072
 30
0.0
 11
845.3575192341954
 21
548.9779190940072
 31
0.0
  0
LINE
  5
283
330
2
100
AcDbEntity
  8
L-ZISSEN
100
AcDbLine
 10
759.4247372774807
 20
649.9196399448246
 30
0.0
 11
759.4247372774807
 21
574.1484414565129
 31
0.0
  0
LINE
  5
284
330
2
100
AcDbEntity
  8
L-ZISSEN
100
AcDbLine
 10
759.4247372774807
 20
574.1484414565129
 30
0.0
 11
746.3575192341936
 21
574.1484414565129
 31
0.0
  0
LINE
  5
285
330
2
100
AcDbEntity
  8
L-ZISSEN
100
AcDbLine
 10
746.3575192341936
 20
558.9779190940072
 30
0.0
 11
772.3257110233385
 21
558.977919094007
 31
0.0
  0
LINE
  5
286
330
2
100
AcDbEntity
  8
L-ZISSEN
100
AcDbLine
 10
746.3575192341936
 20
649.9196399448246
 30
0.0
 11
759.4247372774807
 21
649.9196399448246
 31
0.0
  0
ARC
  5
287
330
2
100
AcDbEntity
  8
L-HASEN
100
AcDbCircle
 10
851.8575192341936
 20
548.9779190940072
 30
0.0
 40
4.0
100
AcDbArc
 50
90.0
 51
270.0
  0
LINE
  5
288
330
2
100
AcDbEntity
  8
L-TYUSIN
100
AcDbLine
 10
851.8575192341936
 20
555.5149948287775
 30
0.0
 11
851.8575192341936
 21
542.4408433592369
 31
0.0
  0
LINE
  5
289
330
2
100
AcDbEntity
  8
L-ZISSEN
100
AcDbLine
 10
755.3575192341932
 20
822.3417223779675
 30
0.0
 11
804.3575192341931
 21
822.3417223779675
 31
0.0
  0
LINE
  5
28A
330
2
100
AcDbEntity
  8
L-ZISSEN
100
AcDbLine
 10
790.8119703842967
 20
817.3417223779674
 30
0.0
 11
803.8575192341932
 21
817.3417223779674
 31
0.0
  0
CIRCLE
  5
28B
330
2
100
AcDbEntity
  8
L-ZISSEN
100
AcDbCircle
 10
779.8575192341932
 20
804.3417223779675
 30
0.0
 40
17.0
  0
LINE
  5
28C
330
2
100
AcDbEntity
  8
L-ZISSEN
100
AcDbLine
 10
755.8575192341931
 20
817.3417223779674
 30
0.0
 11
768.9030680840897
 21
817.3417223779674
 31
0.0
  0
LINE
  5
28D
330
2
100
AcDbEntity
  8
L-ZISSEN
100
AcDbLine
 10
755.3575192341932
 20
822.3417223779675
 30
0.0
 11
755.3575192341932
 21
836.3417223779674
 31
0.0
  0
LINE
  5
28E
330
2
100
AcDbEntity
  8
L-ZISSEN
100
AcDbLine
 10
755.3575192341932
 20
822.3417223779675
 30
0.0
 11
755.3575192341932
 21
817.8417223779675
 31
0.0
  0
ARC
  5
28F
330
2
100
AcDbEntity
  8
L-ZISSEN
100
AcDbCircle
 10
755.8575192341931
 20
817.8417223779675
 30
0.0
 40
0.5
100
AcDbArc
 50
180.0
 51
270.0
  0
CIRCLE
  5
290
330
2
100
AcDbEntity
  8
L-ZISSEN
100
AcDbCircle
 10
736.1075192341932
 20
851.5917223779672
 30
0.0
 40
4.0
  0
LINE
  5
291
330
2
100
AcDbEntity
  8
L-ZISSEN
100
AcDbLine
 10
725.3575192341932
 20
837.3417223779677
 30
0.0
 11
725.3575192341932
 21
840.8417223779677
 31
0.0
  0
ARC
  5
292
330
2
100
AcDbEntity
  8
L-ZISSEN
100
AcDbCircle
 10
744.3575192341931
 20
838.8417223779677
 30
0.0
 40
2.0
100
AcDbArc
 50
0.0
 51
90.0
  0
ARC
  5
293
330
2
100
AcDbEntity
  8
L-ZISSEN
  6
CONTINUOUS
 62
     7
100
AcDbCircle
 10
748.3575192341931
 20
838.3417223779677
 30
0.0
 40
2.0
100
AcDbArc
 50
180.0
 51
270.0
  0
LINE
  5
294
330
2
100
AcDbEntity
  8
L-ZISSEN
  6
CONTINUOUS
 62
     7
100
AcDbLine
 10
746.3575192341932
 20
838.8417223779677
 30
0.0
 11
746.3575192341932
 21
838.3417223779677
 31
0.0
  0
LINE
  5
295
330
2
100
AcDbEntity
  8
L-ZISSEN
100
AcDbLine
 10
762.8575192341932
 20
804.3417223779677
 30
0.0
 11
762.8575192341932
 21
817.3417223779674
 31
0.0
  0
ARC
  5
296
330
2
100
AcDbEntity
  8
L-ZISSEN
100
AcDbCircle
 10
778.2690510504335
 20
847.5532541942071
 30
0.0
 40
5.0
100
AcDbArc
 50
180.0
 51
270.0
  0
LINE
  5
297
330
2
100
AcDbEntity
  8
L-ZISSEN
100
AcDbLine
 10
773.2690510504335
 20
861.0214236353783
 30
0.0
 11
773.2690510504335
 21
847.5532541942071
 31
0.0
  0
LINE
  5
298
330
2
100
AcDbEntity
  8
L-ZISSEN
100
AcDbLine
 10
767.7575192341937
 20
860.1378496666255
 30
0.0
 11
767.7575192341937
 21
842.8417223779671
 31
0.0
  0
ARC
  5
299
330
2
100
AcDbEntity
  8
L-ZISSEN
100
AcDbCircle
 10
773.5575192341935
 20
842.8417223779671
 30
0.0
 40
5.799999999999999
100
AcDbArc
 50
180.0
 51
270.0
  0
LINE
  5
29A
330
2
100
AcDbEntity
  8
L-ZISSEN
100
AcDbLine
 10
804.3575192341931
 20
822.3417223779675
 30
0.0
 11
804.3575192341931
 21
836.3417223779674
 31
0.0
  0
LINE
  5
29B
330
2
100
AcDbEntity
  8
L-ZISSEN
100
AcDbLine
 10
796.8575192341932
 20
804.3417223779675
 30
0.0
 11
796.8575192341932
 21
817.3417223779679
 31
0.0
  0
LINE
  5
29C
330
2
100
AcDbEntity
  8
L-ZISSEN
100
AcDbLine
 10
804.3575192341931
 20
822.3417223779675
 30
0.0
 11
804.3575192341931
 21
817.8417223779675
 31
0.0
  0
ARC
  5
29D
330
2
100
AcDbEntity
  8
L-ZISSEN
100
AcDbCircle
 10
803.8575192341932
 20
817.8417223779675
 30
0.0
 40
0.5
100
AcDbArc
 50
270.0
 51
0.0
  0
ARC
  5
29E
330
2
100
AcDbEntity
  8
L-HASEN
100
AcDbCircle
 10
870.8575192341927
 20
548.9779190940072
 30
0.0
 40
4.0
100
AcDbArc
 50
270.0
 51
90.0
  0
LINE
  5
29F
330
2
100
AcDbEntity
  8
L-TYUSIN
100
AcDbLine
 10
870.8575192341937
 20
555.5149948287775
 30
0.0
 11
870.8575192341937
 21
542.4408433592369
 31
0.0
  0
ARC
  5
2A0
330
2
100
AcDbEntity
  8
L-ZISSEN
100
AcDbCircle
 10
877.8459874179539
 20
847.5532541942069
 30
0.0
 40
5.0
100
AcDbArc
 50
270.0
 51
0.0
  0
ARC
  5
2A1
330
2
100
AcDbEntity
  8
L-ZISSEN
  6
CONTINUOUS
 62
     7
100
AcDbCircle
 10
884.8575192341932
 20
839.3417223779676
 30
0.0
 40
3.0
100
AcDbArc
 50
270.0
 51
0.0
  0
ARC
  5
2A2
330
2
100
AcDbEntity
  8
L-ZISSEN
100
AcDbCircle
 10
882.5575192341934
 20
842.8417223779671
 30
0.0
 40
5.799999999999999
100
AcDbArc
 50
270.0
 51
0.0
  0
LINE
  5
2A3
330
2
100
AcDbEntity
  8
L-ZISSEN
  6
CONTINUOUS
 62
     7
100
AcDbLine
 10
887.8575192341932
 20
839.3417223779676
 30
0.0
 11
887.8575192341932
 21
840.4858785800886
 31
0.0
  0
LINE
  5
2A4
330
2
100
AcDbEntity
  8
L-ZISSEN
100
AcDbLine
 10
773.5575192341935
 20
957.6417223779674
 30
0.0
 11
882.5575192341934
 21
957.6417223779674
 31
0.0
  0
LINE
  5
2A5
330
2
100
AcDbEntity
  8
L-ZISSEN
100
AcDbLine
 10
877.8459874179539
 20
952.1301905617274
 30
0.0
 11
778.269051050433
 21
952.1301905617272
 31
0.0
  0
LINE
  5
2A6
330
2
100
AcDbEntity
  8
L-ZISSEN
100
AcDbLine
 10
730.3126474278078
 20
950.6318010763946
 30
0.0
 11
788.3269321719863
 21
1061.487329316833
 31
0.0
1001
ACAD
1000
DSTYLE
1002
{
1070
    40
1040
3.0
1070
    41
1040
5.0
1070
    42
1040
1.0
1070
    43
1040
8.0
1070
    44
1040
0.8
1070
    73
1070
     0
1070
    74
1070
     0
1070
    77
1070
     0
1070
    78
1070
     8
1070
    79
1070
     2
1070
   140
1040
3.5
1070
   141
1040
0.0
1070
   145
1040
1.0
1070
   147
1040
1.5
1070
   172
1070
     1
1070
   174
1070
     1
1070
   271
1070
     3
1070
   272
1070
     3
1070
   341
1005
27
1070
   342
1005
27
1002
}
  0
ARC
  5
2A7
330
2
100
AcDbEntity
  8
L-ZISSEN
100
AcDbCircle
 10
773.5575192341935
 20
951.8417223779673
 30
0.0
 40
5.799999999999999
100
AcDbArc
 50
90.0
 51
180.0
  0
LINE
  5
2A8
330
2
100
AcDbEntity
  8
L-TYUSIN
 48
0.5
100
AcDbLine
 10
723.3575192341931
 20
960.3417223779672
 30
0.0
 11
723.3575192341931
 21
914.3417223779675
 31
0.0
  0
INSERT
  5
2A9
330
2
100
AcDbEntity
  8
L-ZISSEN
100
AcDbBlockReference
  2
_OPEN
 10
723.3575192341934
 20
937.3417223779675
 30
0.0
 41
15.0
 42
15.0
 43
15.0
 50
242.3754822498608
1001
ACAD
1000
DSTYLE
1002
{
1070
    40
1040
3.0
1070
    41
1040
5.0
1070
    42
1040
1.0
1070
    43
1040
8.0
1070
    44
1040
0.8
1070
    73
1070
     0
1070
    74
1070
     0
1070
    77
1070
     0
1070
    78
1070
     8
1070
    79
1070
     2
1070
   140
1040
3.5
1070
   141
1040
0.0
1070
   145
1040
1.0
1070
   147
1040
1.5
1070
   172
1070
     1
1070
   174
1070
     1
1070
   271
1070
     3
1070
   272
1070
     3
1070
   341
1005
27
1070
   342
1005
27
1002
}
  0
LINE
  5
2AA
330
2
100
AcDbEntity
  8
L-ZISSEN
100
AcDbLine
 10
767.7575192341937
 20
951.8417223779673
 30
0.0
 11
767.7575192341937
 21
888.545595089309
 31
0.0
  0
LINE
  5
2AB
330
2
100
AcDbEntity
  8
L-ZISSEN
100
AcDbLine
 10
773.2690510504331
 20
947.1301905617272
 30
0.0
 11
773.2690510504335
 21
887.6620211205558
 31
0.0
  0
ARC
  5
2AC
330
2
100
AcDbEntity
  8
L-ZISSEN
100
AcDbCircle
 10
778.269051050433
 20
947.1301905617272
 30
0.0
 40
5.0
100
AcDbArc
 50
90.0
 51
180.0
  0
LINE
  5
2AD
330
2
100
AcDbEntity
  8
L-TYUSIN
 48
0.5
100
AcDbLine
 10
861.3575192341944
 20
972.3417223779673
 30
0.0
 11
861.3575192341944
 21
962.4108704647595
 31
0.0
  0
TEXT
  5
2AE
330
2
100
AcDbEntity
  8
L-ZISSEN
100
AcDbText
 10
791.7736112483053
 20
1044.026352042016
 30
0.0
 40
11.19999999999999
  1
Rc1/2
 41
0.8
100
AcDbText
  0
TEXT
  5
2AF
330
2
100
AcDbEntity
  8
L-ZISSEN
100
AcDbText
 10
791.7736112483053
 20
1065.082013124887
 30
0.0
 40
11.19999999999999
  1
FOG OUT
 41
0.8
100
AcDbText
  0
LINE
  5
2B0
330
2
100
AcDbEntity
  8
L-ZISSEN
100
AcDbLine
 10
788.3269321719863
 20
1061.487329316833
 30
0.0
 11
850.7730807305716
 21
1061.487329316833
 31
0.0
1001
ACAD
1000
DSTYLE
1002
{
1070
    40
1040
3.0
1070
    41
1040
5.0
1070
    42
1040
1.0
1070
    43
1040
8.0
1070
    44
1040
0.8
1070
    73
1070
     0
1070
    74
1070
     0
1070
    77
1070
     0
1070
    78
1070
     8
1070
    79
1070
     2
1070
   140
1040
3.5
1070
   141
1040
0.0
1070
   145
1040
1.0
1070
   147
1040
1.5
1070
   172
1070
     1
1070
   174
1070
     1
1070
   271
1070
     3
1070
   272
1070
     3
1070
   341
1005
27
1070
   342
1005
27
1002
}
  0
ARC
  5
2B1
330
2
100
AcDbEntity
  8
L-ZISSEN
100
AcDbCircle
 10
882.5575192341934
 20
951.8417223779673
 30
0.0
 40
5.799999999999999
100
AcDbArc
 50
0.0
 51
90.0
  0
ARC
  5
2B2
330
2
100
AcDbEntity
  8
L-ZISSEN
  6
CONTINUOUS
 62
     7
100
AcDbCircle
 10
884.8575192341932
 20
955.3417223779675
 30
0.0
 40
3.0
100
AcDbArc
 50
0.0
 51
90.0
  0
LINE
  5
2B3
330
2
100
AcDbEntity
  8
L-ZISSEN
100
AcDbLine
 10
883.857519234195
 20
969.341722377967
 30
0.0
 11
883.857519234195
 21
958.3417223779674
 31
0.0
  0
ARC
  5
2B4
330
2
100
AcDbEntity
  8
L-ZISSEN
100
AcDbCircle
 10
877.8459874179539
 20
947.1301905617274
 30
0.0
 40
5.0
100
AcDbArc
 50
0.0
 51
90.0
  0
LINE
  5
2B5
330
2
100
AcDbEntity
  8
L-ZISSEN
  6
CONTINUOUS
 62
     7
100
AcDbLine
 10
887.8575192341932
 20
954.1975661758458
 30
0.0
 11
887.8575192341932
 21
955.3417223779675
 31
0.0
  0
ENDSEC
  0
SECTION
  2
OBJECTS
  0
DICTIONARY
  5
9
330
0
100
AcDbDictionary
  3
ACAD_GROUP
350
23
  3
ACAD_LAYOUT
350
E
  3
ACAD_MLINESTYLE
350
24
  3
ACAD_PLOTSETTINGS
350
25
1001
ACAD
1000
TREAT_AS_HARD
1070
     0
  0
DICTIONARY
  5
3
330
2
100
AcDbDictionary
  3
ACAD_LAYOUTSELFREF
350
2FA
1001
ACAD
1000
TREAT_AS_HARD
1070
     1
  0
DICTIONARY
  5
10
330
F
100
AcDbDictionary
  3
ACAD_LAYOUTSELFREF
350
2FB
1001
ACAD
1000
TREAT_AS_HARD
1070
     1
  0
DICTIONARY
  5
23
102
{ACAD_REACTORS
330
9
102
}
330
9
100
AcDbDictionary
1001
ACAD
1000
TREAT_AS_HARD
1070
     0
  0
DICTIONARY
  5
E
102
{ACAD_REACTORS
330
9
102
}
330
9
100
AcDbDictionary
1001
ACAD
1000
TREAT_AS_HARD
1070
     0
  0
DICTIONARY
  5
24
102
{ACAD_REACTORS
330
9
102
}
330
9
100
AcDbDictionary
  3
STANDARD
350
2D
1001
ACAD
1000
TREAT_AS_HARD
1070
     0
  0
DICTIONARY
  5
25
102
{ACAD_REACTORS
330
9
102
}
330
9
100
AcDbDictionary
1001
ACAD
1000
TREAT_AS_HARD
1070
     0
  0
XRECORD
  5
2FA
102
{ACAD_REACTORS
330
3
102
}
330
3
100
AcDbXrecord
340
2
  0
XRECORD
  5
2FB
102
{ACAD_REACTORS
330
10
102
}
330
10
100
AcDbXrecord
340
F
  0
MLINESTYLE
  5
2D
102
{ACAD_REACTORS
330
24
102
}
330
24
100
AcDbMlineStyle
  2
STANDARD
 70
     0
  3

 62
   256
 51
90.0
 52
90.0
 71
     2
 49
0.5
 62
   256
  6
BYLAYER
 49
-0.5
 62
   256
  6
BYLAYER
  0
ENDSEC
  0
EOF
