  0
SECTION
  2
HEADER
  9
$ACADVER
  1
AC1012
  9
$DWGCODEPAGE
  3
dos932
  9
$INSBASE
 10
0.0
 20
0.0
 30
0.0
  9
$EXTMIN
 10
202.7128417987328
 20
138.2976666974001
 30
0.0
  9
$EXTMAX
 10
771.3528417987329
 20
693.2086443655054
 30
0.0
  9
$LIMMIN
 10
0.0
 20
0.0
  9
$LIMMAX
 10
12.0
 20
9.0
  9
$ORTHOMODE
 70
     1
  9
$REGENMODE
 70
     1
  9
$FILLMODE
 70
     1
  9
$QTEXTMODE
 70
     0
  9
$MIRRTEXT
 70
     1
  9
$DRAGMODE
 70
     2
  9
$LTSCALE
 40
10.0
  9
$OSMODE
 70
   167
  9
$ATTMODE
 70
     1
  9
$TEXTSIZE
 40
4.5
  9
$TRACEWID
 40
0.05
  9
$TEXTSTYLE
  7
STANDARD
  9
$CLAYER
  8
L-ZISSEN
  9
$CELTYPE
  6
BYLAYER
  9
$CECOLOR
 62
   256
  9
$CELTSCALE
 40
1.0
  9
$DELOBJ
 70
     1
  9
$DISPSILH
 70
     0
  9
$DIMSCALE
 40
1.0
  9
$DIMASZ
 40
4.5
  9
$DIMEXO
 40
1.0
  9
$DIMDLI
 40
0.38
  9
$DIMRND
 40
0.0
  9
$DIMDLE
 40
0.0
  9
$DIMEXE
 40
1.0
  9
$DIMTP
 40
0.0
  9
$DIMTM
 40
0.0
  9
$DIMTXT
 40
4.5
  9
$DIMCEN
 40
0.09
  9
$DIMTSZ
 40
0.0
  9
$DIMTOL
 70
     0
  9
$DIMLIM
 70
     0
  9
$DIMTIH
 70
     1
  9
$DIMTOH
 70
     1
  9
$DIMSE1
 70
     0
  9
$DIMSE2
 70
     0
  9
$DIMTAD
 70
     0
  9
$DIMZIN
 70
     0
  9
$DIMBLK
  1

  9
$DIMASO
 70
     1
  9
$DIMSHO
 70
     0
  9
$DIMPOST
  1

  9
$DIMAPOST
  1

  9
$DIMALT
 70
     0
  9
$DIMALTD
 70
     2
  9
$DIMALTF
 40
25.4
  9
$DIMLFAC
 40
1.0
  9
$DIMTOFL
 70
     0
  9
$DIMTVP
 40
0.0
  9
$DIMTIX
 70
     0
  9
$DIMSOXD
 70
     0
  9
$DIMSAH
 70
     1
  9
$DIMBLK1
  1
OPEN
  9
$DIMBLK2
  1
OPEN
  9
$DIMSTYLE
  2
STANDARD
  9
$DIMCLRD
 70
     0
  9
$DIMCLRE
 70
     0
  9
$DIMCLRT
 70
     0
  9
$DIMTFAC
 40
1.0
  9
$DIMGAP
 40
1.0
  9
$DIMJUST
 70
     0
  9
$DIMSD1
 70
     0
  9
$DIMSD2
 70
     0
  9
$DIMTOLJ
 70
     1
  9
$DIMTZIN
 70
     0
  9
$DIMALTZ
 70
     0
  9
$DIMALTTZ
 70
     0
  9
$DIMFIT
 70
     3
  9
$DIMUPT
 70
     0
  9
$DIMUNIT
 70
     2
  9
$DIMDEC
 70
     4
  9
$DIMTDEC
 70
     4
  9
$DIMALTU
 70
     2
  9
$DIMALTTD
 70
     2
  9
$DIMTXSTY
  7
STANDARD
  9
$DIMAUNIT
 70
     0
  9
$LUNITS
 70
     2
  9
$LUPREC
 70
     4
  9
$SKETCHINC
 40
0.1
  9
$FILLETRAD
 40
0.0
  9
$AUNITS
 70
     0
  9
$AUPREC
 70
     0
  9
$MENU
  1
acad
  9
$ELEVATION
 40
0.0
  9
$PELEVATION
 40
0.0
  9
$THICKNESS
 40
0.0
  9
$LIMCHECK
 70
     0
  9
$BLIPMODE
 70
     0
  9
$CHAMFERA
 40
0.0
  9
$CHAMFERB
 40
0.0
  9
$CHAMFERC
 40
0.0
  9
$CHAMFERD
 40
0.0
  9
$SKPOLY
 70
     0
  9
$TDCREATE
 40
2450856.679258565
  9
$TDUPDATE
 40
2452181.498398981
  9
$TDINDWG
 40
0.0338810764
  9
$TDUSRTIMER
 40
0.0338810764
  9
$USRTIMER
 70
     1
  9
$ANGBASE
 50
0.0
  9
$ANGDIR
 70
     0
  9
$PDMODE
 70
     0
  9
$PDSIZE
 40
0.0
  9
$PLINEWID
 40
0.0
  9
$COORDS
 70
     1
  9
$SPLFRAME
 70
     0
  9
$SPLINETYPE
 70
     6
  9
$SPLINESEGS
 70
     8
  9
$ATTDIA
 70
     0
  9
$ATTREQ
 70
     1
  9
$HANDLING
 70
-16383
  9
$HANDSEED
  5
3E4
  9
$SURFTAB1
 70
     6
  9
$SURFTAB2
 70
     6
  9
$SURFTYPE
 70
     6
  9
$SURFU
 70
     6
  9
$SURFV
 70
     6
  9
$UCSNAME
  2

  9
$UCSORG
 10
0.0
 20
0.0
 30
0.0
  9
$UCSXDIR
 10
1.0
 20
0.0
 30
0.0
  9
$UCSYDIR
 10
0.0
 20
1.0
 30
0.0
  9
$PUCSNAME
  2

  9
$PUCSORG
 10
0.0
 20
0.0
 30
0.0
  9
$PUCSXDIR
 10
1.0
 20
0.0
 30
0.0
  9
$PUCSYDIR
 10
0.0
 20
1.0
 30
0.0
  9
$USERI1
 70
     0
  9
$USERI2
 70
     0
  9
$USERI3
 70
     0
  9
$USERI4
 70
     0
  9
$USERI5
 70
     0
  9
$USERR1
 40
0.0
  9
$USERR2
 40
0.0
  9
$USERR3
 40
0.0
  9
$USERR4
 40
0.0
  9
$USERR5
 40
0.0
  9
$WORLDVIEW
 70
     1
  9
$SHADEDGE
 70
     3
  9
$SHADEDIF
 70
    70
  9
$TILEMODE
 70
     1
  9
$MAXACTVP
 70
    16
  9
$PINSBASE
 10
0.0
 20
0.0
 30
0.0
  9
$PLIMCHECK
 70
     0
  9
$PEXTMIN
 10
1.000000000000000E+20
 20
1.000000000000000E+20
 30
1.000000000000000E+20
  9
$PEXTMAX
 10
-1.000000000000000E+20
 20
-1.000000000000000E+20
 30
-1.000000000000000E+20
  9
$PLIMMIN
 10
0.0
 20
0.0
  9
$PLIMMAX
 10
12.0
 20
9.0
  9
$UNITMODE
 70
     0
  9
$VISRETAIN
 70
     0
  9
$PLINEGEN
 70
     0
  9
$PSLTSCALE
 70
     0
  9
$TREEDEPTH
 70
  3020
  9
$PICKSTYLE
 70
     1
  9
$CMLSTYLE
  2
STANDARD
  9
$CMLJUST
 70
     0
  9
$CMLSCALE
 40
1.0
  9
$SAVEIMAGES
 70
     1
  0
ENDSEC
  0
SECTION
  2
CLASSES
  0
CLASS
  1
ACDBDICTIONARYWDFLT
  2
AcDbDictionaryWithDefault
  3
AutoCAD 2000
 90
    32768
280
     0
281
     0
  0
CLASS
  1
ACDBPLACEHOLDER
  2
AcDbPlaceHolder
  3
AutoCAD 2000
 90
    32768
280
     0
281
     0
  0
CLASS
  1
LAYOUT
  2
AcDbLayout
  3
AutoCAD 2000
 90
    32768
280
     0
281
     0
  0
CLASS
  1
LONG_TRANSACTION
  2
AcDbLongTransaction
  3
AutoCAD 2000
 90
    32768
280
     0
281
     0
  0
CLASS
  1
LWPOLYLINE
  2
AcDbPolyline
  3
AutoCAD 2000
 90
    32768
280
     0
281
     1
  0
CLASS
  1
HATCH
  2
AcDbHatch
  3
AutoCAD 2000
 90
    32768
280
     0
281
     1
  0
CLASS
  1
XRECORD
  2
AcDbXrecord
  3
AutoCAD 2000
 90
    32768
280
     0
281
     0
  0
CLASS
  1
LONG_TRANSACTION
  2
AcDbLongTransaction
  3
AutoCAD 2000
 90
    32768
280
     0
281
     0
  0
CLASS
  1
LWPOLYLINE
  2
AcDbPolyline
  3
AutoCAD 2000
 90
    32768
280
     0
281
     1
  0
CLASS
  1
HATCH
  2
AcDbHatch
  3
AutoCAD 2000
 90
    32768
280
     0
281
     1
  0
CLASS
  1
XRECORD
  2
AcDbXrecord
  3
AutoCAD 2000
 90
    32768
280
     0
281
     0
  0
CLASS
  1
LONG_TRANSACTION
  2
AcDbLongTransaction
  3
AutoCAD 2000
 90
    32768
280
     0
281
     0
  0
CLASS
  1
LWPOLYLINE
  2
AcDbPolyline
  3
AutoCAD 2000
 90
    32768
280
     0
281
     1
  0
CLASS
  1
HATCH
  2
AcDbHatch
  3
AutoCAD 2000
 90
    32768
280
     0
281
     1
  0
CLASS
  1
XRECORD
  2
AcDbXrecord
  3
AutoCAD 2000
 90
    32768
280
     0
281
     0
  0
CLASS
  1
LONG_TRANSACTION
  2
AcDbLongTransaction
  3
AutoCAD 2000
 90
    32768
280
     0
281
     0
  0
CLASS
  1
LWPOLYLINE
  2
AcDbPolyline
  3
AutoCAD 2000
 90
    32768
280
     0
281
     1
  0
CLASS
  1
HATCH
  2
AcDbHatch
  3
AutoCAD 2000
 90
    32768
280
     0
281
     1
  0
CLASS
  1
XRECORD
  2
AcDbXrecord
  3
AutoCAD 2000
 90
    32768
280
     0
281
     0
  0
CLASS
  1
LONG_TRANSACTION
  2
AcDbLongTransaction
  3
AutoCAD 2000
 90
    32768
280
     0
281
     0
  0
CLASS
  1
LWPOLYLINE
  2
AcDbPolyline
  3
AutoCAD 2000
 90
    32768
280
     0
281
     1
  0
CLASS
  1
HATCH
  2
AcDbHatch
  3
AutoCAD 2000
 90
    32768
280
     0
281
     1
  0
CLASS
  1
XRECORD
  2
AcDbXrecord
  3
AutoCAD 2000
 90
    32768
280
     0
281
     0
  0
ENDSEC
  0
SECTION
  2
TABLES
  0
TABLE
  2
VPORT
  5
8
330
0
100
AcDbSymbolTable
 70
     2
  0
VPORT
  5
3DA
330
8
100
AcDbSymbolTableRecord
100
AcDbViewportTableRecord
  2
*ACTIVE
 70
     0
 10
0.0
 20
0.0
 11
1.0
 21
1.0
 12
606.3012990523587
 22
415.7538227322696
 13
0.0
 23
0.0
 14
1.0
 24
1.0
 15
0.0
 25
0.0
 16
0.0
 26
0.0
 36
1.0
 17
0.0
 27
0.0
 37
0.0
 40
561.5638828770038
 41
1.530214424951267
 42
50.0
 43
0.0
 44
0.0
 50
0.0
 51
0.0
 71
     0
 72
   100
 73
     1
 74
     1
 75
     0
 76
     0
 77
     0
 78
     0
  0
ENDTAB
  0
TABLE
  2
LTYPE
  5
5
330
0
100
AcDbSymbolTable
 70
     3
  0
LTYPE
  5
12
330
5
100
AcDbSymbolTableRecord
100
AcDbLinetypeTableRecord
  2
BYBLOCK
 70
     0
  3

 72
    65
 73
     0
 40
0.0
  0
LTYPE
  5
13
330
5
100
AcDbSymbolTableRecord
100
AcDbLinetypeTableRecord
  2
BYLAYER
 70
     0
  3

 72
    65
 73
     0
 40
0.0
  0
LTYPE
  5
14
330
5
100
AcDbSymbolTableRecord
100
AcDbLinetypeTableRecord
  2
CONTINUOUS
 70
     0
  3
実線
 72
    65
 73
     0
 40
0.0
  0
LTYPE
  5
1E
330
5
100
AcDbSymbolTableRecord
100
AcDbLinetypeTableRecord
  2
DASHED
 70
     0
  3
__ __ __ __ __ __ __ __ __ __ __ __ __ __ __
 72
    65
 73
     2
 40
0.75
 49
0.5
 74
     0
 49
-0.25
 74
     0
  0
LTYPE
  5
20
330
5
100
AcDbSymbolTableRecord
100
AcDbLinetypeTableRecord
  2
CENTER
 70
     0
  3
____ _ ____ _ ____ _ ____ _ ____ _ ____ _ ____
 72
    65
 73
     4
 40
2.0
 49
1.25
 74
     0
 49
-0.25
 74
     0
 49
0.25
 74
     0
 49
-0.25
 74
     0
  0
ENDTAB
  0
TABLE
  2
LAYER
  5
2
330
0
100
AcDbSymbolTable
 70
     4
  0
LAYER
  5
F
330
2
100
AcDbSymbolTableRecord
100
AcDbLayerTableRecord
  2
0
 70
     0
 62
     7
  6
CONTINUOUS
  0
LAYER
  5
29
330
2
100
AcDbSymbolTableRecord
100
AcDbLayerTableRecord
  2
PV
 70
     0
 62
     7
  6
CONTINUOUS
  0
LAYER
  5
1CF
330
2
100
AcDbSymbolTableRecord
100
AcDbLayerTableRecord
  2
L-ZISSEN
 70
     0
 62
     7
  6
CONTINUOUS
  0
LAYER
  5
234
330
2
100
AcDbSymbolTableRecord
100
AcDbLayerTableRecord
  2
L-HASEN
 70
     0
 62
     5
  6
DASHED
  0
ENDTAB
  0
TABLE
  2
STYLE
  5
3
330
0
100
AcDbSymbolTable
 70
     1
  0
STYLE
  5
10
330
3
100
AcDbSymbolTableRecord
100
AcDbTextStyleTableRecord
  2
STANDARD
 70
     0
 40
0.0
 41
1.0
 50
0.0
 71
     0
 42
4.5
  3
txt
  4

  0
ENDTAB
  0
TABLE
  2
VIEW
  5
6
330
0
100
AcDbSymbolTable
 70
     0
  0
ENDTAB
  0
TABLE
  2
UCS
  5
7
330
0
100
AcDbSymbolTable
 70
     0
  0
ENDTAB
  0
TABLE
  2
APPID
  5
9
330
0
100
AcDbSymbolTable
 70
     1
  0
APPID
  5
11
330
9
100
AcDbSymbolTableRecord
100
AcDbRegAppTableRecord
  2
ACAD
 70
     0
  0
ENDTAB
  0
TABLE
  2
DIMSTYLE
  5
A
330
0
100
AcDbSymbolTable
 70
     1
  0
DIMSTYLE
105
1B3
330
A
100
AcDbSymbolTableRecord
100
AcDbDimStyleTableRecord
  2
STANDARD
 70
     0
  3

  4

  5

  6

  7

 40
1.0
 41
0.18
 42
0.0625
 43
0.38
 44
0.18
 45
0.0
 46
0.0
 47
0.0
 48
0.0
140
0.18
141
0.09
142
0.0
143
25.4
144
1.0
145
0.0
146
1.0
147
0.09
 71
     0
 72
     0
 73
     1
 74
     1
 75
     0
 76
     0
 77
     0
 78
     0
170
     0
171
     2
172
     0
173
     0
174
     0
175
     0
176
     0
177
     0
178
     0
270
     2
271
     4
272
     4
273
     2
274
     2
340
10
275
     0
280
     0
281
     0
282
     0
283
     1
284
     0
285
     0
286
     0
287
     3
288
     0
  0
ENDTAB
  0
TABLE
  2
BLOCK_RECORD
  5
1
330
0
100
AcDbSymbolTable
 70
     1
  0
BLOCK_RECORD
  5
18
102
{ACAD_XDICTIONARY
360
32D
102
}
330
1
100
AcDbSymbolTableRecord
100
AcDbBlockTableRecord
  2
*MODEL_SPACE
  0
BLOCK_RECORD
  5
15
102
{ACAD_XDICTIONARY
360
32B
102
}
330
1
100
AcDbSymbolTableRecord
100
AcDbBlockTableRecord
  2
*PAPER_SPACE
  0
BLOCK_RECORD
  5
1C9
330
1
100
AcDbSymbolTableRecord
100
AcDbBlockTableRecord
  2
_OPEN
  0
ENDTAB
  0
ENDSEC
  0
SECTION
  2
BLOCKS
  0
BLOCK
  5
2C
330
18
100
AcDbEntity
  8
0
100
AcDbBlockBegin
  2
*MODEL_SPACE
 70
     0
 10
0.0
 20
0.0
 30
0.0
  3
*MODEL_SPACE
  1

  0
ENDBLK
  5
2D
330
18
100
AcDbEntity
  8
0
100
AcDbBlockEnd
  0
BLOCK
  5
2A
330
15
100
AcDbEntity
 67
     1
  8
0
100
AcDbBlockBegin
  2
*PAPER_SPACE
 70
     0
 10
0.0
 20
0.0
 30
0.0
  3
*PAPER_SPACE
  1

  0
ENDBLK
  5
2B
330
15
100
AcDbEntity
 67
     1
  8
0
100
AcDbBlockEnd
  0
BLOCK
  5
1CD
330
1C9
100
AcDbEntity
  8
0
100
AcDbBlockBegin
  2
_OPEN
 70
     0
 10
0.0
 20
0.0
 30
0.0
  3
_OPEN
  1

  0
LINE
  5
1CA
330
1C9
100
AcDbEntity
  8
0
  6
BYBLOCK
 62
     0
100
AcDbLine
 10
-1.0
 20
0.166667
 30
0.0
 11
0.0
 21
0.0
 31
0.0
  0
LINE
  5
1CB
330
1C9
100
AcDbEntity
  8
0
  6
BYBLOCK
 62
     0
100
AcDbLine
 10
0.0
 20
0.0
 30
0.0
 11
-1.0
 21
-0.166667
 31
0.0
  0
LINE
  5
1CC
330
1C9
100
AcDbEntity
  8
0
  6
BYBLOCK
 62
     0
100
AcDbLine
 10
0.0
 20
0.0
 30
0.0
 11
-1.0
 21
0.0
 31
0.0
  0
ENDBLK
  5
1CE
330
1C9
100
AcDbEntity
  8
0
100
AcDbBlockEnd
  0
ENDSEC
  0
SECTION
  2
ENTITIES
  0
LINE
  5
2E
330
18
100
AcDbEntity
  8
PV
 62
     7
100
AcDbLine
 10
627.4198417987328
 20
536.7526666974002
 30
0.0
 11
763.9198417987328
 21
536.7526666974002
 31
0.0
  0
LINE
  5
2F
330
18
100
AcDbEntity
  8
PV
  6
CENTER
 62
     1
100
AcDbLine
 10
676.6058417987328
 20
304.6676666974001
 30
0.0
 11
557.8578417987329
 21
304.6676666974001
 31
0.0
  0
LINE
  5
30
330
18
100
AcDbEntity
  8
PV
 62
     7
100
AcDbLine
 10
566.9198417987329
 20
332.6676666974001
 30
0.0
 11
625.4198417987328
 21
332.6676666974001
 31
0.0
  0
LINE
  5
31
330
18
100
AcDbEntity
  8
PV
 62
     7
100
AcDbLine
 10
625.4198417987328
 20
539.2526666974001
 30
0.0
 11
625.4198417987328
 21
538.7526666974001
 31
0.0
  0
LINE
  5
32
330
18
100
AcDbEntity
  8
PV
 62
     7
100
AcDbLine
 10
625.4198417987328
 20
282.6676666974001
 30
0.0
 11
625.4198417987328
 21
344.6676666974001
 31
0.0
  0
LINE
  5
33
330
18
100
AcDbEntity
  8
PV
 62
     7
100
AcDbLine
 10
566.9198417987329
 20
282.6676666974001
 30
0.0
 11
585.5478417987328
 21
282.6676666974001
 31
0.0
  0
LINE
  5
34
330
18
100
AcDbEntity
  8
PV
 62
     7
100
AcDbLine
 10
766.9198417987328
 20
284.6676666974001
 30
0.0
 11
766.9198417987328
 21
325.6676666974001
 31
0.0
  0
LINE
  5
35
330
18
100
AcDbEntity
  8
PV
 62
     7
100
AcDbLine
 10
767.4198417987327
 20
327.6676666974001
 30
0.0
 11
675.9198417987327
 21
327.6676666974001
 31
0.0
  0
LINE
  5
36
330
18
100
AcDbEntity
  8
PV
 62
     7
100
AcDbLine
 10
566.9198417987329
 20
332.6676666974001
 30
0.0
 11
566.9198417987329
 21
282.6676666974001
 31
0.0
  0
LINE
  5
37
330
18
100
AcDbEntity
  8
PV
 62
     7
100
AcDbLine
 10
766.9198417987328
 20
539.7526666974001
 30
0.0
 11
766.9198417987328
 21
540.8966666974001
 31
0.0
  0
LINE
  5
38
330
18
100
AcDbEntity
  8
PV
 62
     7
100
AcDbLine
 10
763.9198417987328
 20
658.7526666974001
 30
0.0
 11
642.2498417987328
 21
658.7526666974001
 31
0.0
  0
LINE
  5
39
330
18
100
AcDbEntity
  8
PV
 62
     7
100
AcDbLine
 10
566.9198417987329
 20
655.7526666974001
 30
0.0
 11
566.9198417987329
 21
587.5026666974001
 31
0.0
  0
LINE
  5
3A
330
18
100
AcDbEntity
  8
PV
  6
CENTER
 62
     1
100
AcDbLine
 10
577.4198417987328
 20
637.7526666974001
 30
0.0
 11
627.4198417987328
 21
637.7526666974001
 31
0.0
  0
ARC
  5
3B
330
18
100
AcDbEntity
  8
PV
 62
     7
100
AcDbCircle
 10
763.9198417987328
 20
655.7526666974001
 30
0.0
 40
3.0
100
AcDbArc
 50
0.0
 51
90.0
  0
ARC
  5
3C
330
18
100
AcDbEntity
  8
PV
 62
     7
100
AcDbCircle
 10
763.9198417987328
 20
539.7526666974001
 30
0.0
 40
3.0
100
AcDbArc
 50
270.0
 51
0.0
  0
ARC
  5
3D
330
18
100
AcDbEntity
  8
PV
 62
     7
100
AcDbCircle
 10
569.9198417987329
 20
655.7526666974001
 30
0.0
 40
3.0
100
AcDbArc
 50
90.0
 51
180.0
  0
ARC
  5
3E
330
18
100
AcDbEntity
  8
PV
 62
     7
100
AcDbCircle
 10
764.9198417987328
 20
325.6676666974001
 30
0.0
 40
2.0
100
AcDbArc
 50
0.0
 51
90.0
  0
ARC
  5
3F
330
18
100
AcDbEntity
  8
PV
 62
     7
100
AcDbCircle
 10
764.9198417987328
 20
284.6676666974001
 30
0.0
 40
2.0
100
AcDbArc
 50
270.0
 51
0.0
  0
CIRCLE
  5
41
330
18
100
AcDbEntity
  8
PV
 62
     7
100
AcDbCircle
 10
620.1698417987328
 20
653.5026666974001
 30
0.0
 40
4.0
  0
CIRCLE
  5
42
330
18
100
AcDbEntity
  8
PV
 62
     7
100
AcDbCircle
 10
620.1698417987328
 20
622.0026666974002
 30
0.0
 40
4.0
  0
CIRCLE
  5
43
330
18
100
AcDbEntity
  8
PV
 62
     7
100
AcDbCircle
 10
584.6698417987328
 20
622.0026666974002
 30
0.0
 40
4.0
  0
CIRCLE
  5
44
330
18
100
AcDbEntity
  8
PV
 62
     7
100
AcDbCircle
 10
602.4198417987328
 20
637.7526666974001
 30
0.0
 40
5.0
  0
CIRCLE
  5
45
330
18
100
AcDbEntity
  8
PV
 62
     7
100
AcDbCircle
 10
602.4198417987328
 20
637.7526666974001
 30
0.0
 40
9.599999999999999
  0
LINE
  5
46
330
18
100
AcDbEntity
  8
PV
  6
CENTER
 62
     1
100
AcDbLine
 10
602.4198417987328
 20
662.7526666974001
 30
0.0
 11
602.4198417987328
 21
612.7526666974001
 31
0.0
  0
LINE
  5
47
330
18
100
AcDbEntity
  8
PV
 62
     7
100
AcDbLine
 10
620.4198417987328
 20
617.2526666974001
 30
0.0
 11
584.4198417987327
 21
617.2526666974001
 31
0.0
  0
LINE
  5
48
330
18
100
AcDbEntity
  8
PV
 62
     7
100
AcDbLine
 10
620.4198417987328
 20
658.2526666974001
 30
0.0
 11
584.4198417987327
 21
658.2526666974001
 31
0.0
  0
CIRCLE
  5
49
330
18
100
AcDbEntity
  8
PV
 62
     7
100
AcDbCircle
 10
602.4198417987328
 20
637.7526666974001
 30
0.0
 40
16.0
  0
ARC
  5
4A
330
18
100
AcDbEntity
  8
PV
 62
     7
100
AcDbCircle
 10
584.4198417987327
 20
622.2526666974001
 30
0.0
 40
5.0
100
AcDbArc
 50
180.0
 51
270.0
  0
ARC
  5
4B
330
18
100
AcDbEntity
  8
PV
 62
     7
100
AcDbCircle
 10
584.4198417987327
 20
653.2526666974002
 30
0.0
 40
5.0
100
AcDbArc
 50
90.0
 51
180.0
  0
LINE
  5
4C
330
18
100
AcDbEntity
  8
PV
 62
     7
100
AcDbLine
 10
579.4198417987328
 20
653.2526666974002
 30
0.0
 11
579.4198417987328
 21
622.2526666974001
 31
0.0
  0
CIRCLE
  5
4D
330
18
100
AcDbEntity
  8
PV
 62
     7
100
AcDbCircle
 10
584.6698417987328
 20
653.5026666974001
 30
0.0
 40
4.0
  0
LINE
  5
4E
330
18
100
AcDbEntity
  8
PV
  6
CENTER
 62
     1
100
AcDbLine
 10
618.4198417987328
 20
377.2046666974001
 30
0.0
 11
618.4198417987328
 21
364.1296666974001
 31
0.0
  0
CIRCLE
  5
4F
330
18
100
AcDbEntity
  8
PV
 62
     7
100
AcDbCircle
 10
599.4198417987328
 20
294.1676666974001
 30
0.0
 40
18.0
  0
LINE
  5
50
330
18
100
AcDbEntity
  8
PV
 62
     7
100
AcDbLine
 10
600.4198417987328
 20
667.4526666974002
 30
0.0
 11
636.4198417987328
 21
667.4526666974002
 31
0.0
  0
LINE
  5
51
330
18
100
AcDbEntity
  8
PV
 62
     7
100
AcDbLine
 10
600.4198417987328
 20
669.7526666974002
 30
0.0
 11
636.4198417987328
 21
669.7526666974002
 31
0.0
  0
LINE
  5
52
330
18
100
AcDbEntity
  8
PV
 62
     7
100
AcDbLine
 10
346.4028417987329
 20
282.6676666974001
 30
0.0
 11
346.4028417987329
 21
288.1376666974001
 31
0.0
  0
LINE
  5
53
330
18
100
AcDbEntity
  8
PV
 62
     7
100
AcDbLine
 10
346.4028417987329
 20
282.6676666974001
 30
0.0
 11
224.4028417987328
 21
282.6676666974001
 31
0.0
  0
LINE
  5
54
330
18
100
AcDbEntity
  8
PV
 62
     7
100
AcDbLine
 10
341.9028417987328
 20
332.6676666974001
 30
0.0
 11
224.4028417987328
 21
332.6676666974001
 31
0.0
  0
LINE
  5
55
330
18
100
AcDbEntity
  8
PV
 62
     7
100
AcDbLine
 10
229.4028417987328
 20
339.6676666974001
 30
0.0
 11
229.4028417987328
 21
350.6676666974001
 31
0.0
  0
LINE
  5
56
330
18
100
AcDbEntity
  8
PV
 62
     7
100
AcDbLine
 10
265.9028417987328
 20
339.6676666974001
 30
0.0
 11
265.9028417987328
 21
332.6676666974001
 31
0.0
  0
LINE
  5
57
330
18
100
AcDbEntity
  8
PV
 62
     7
100
AcDbLine
 10
265.9028417987328
 20
339.6676666974001
 30
0.0
 11
224.9028417987328
 21
339.6676666974001
 31
0.0
  0
LINE
  5
58
330
18
100
AcDbEntity
  8
PV
 62
     7
100
AcDbLine
 10
261.4028417987328
 20
350.6676666974001
 30
0.0
 11
229.4028417987328
 21
350.6676666974001
 31
0.0
  0
LINE
  5
59
330
18
100
AcDbEntity
  8
PV
 62
     7
100
AcDbLine
 10
261.4028417987328
 20
339.6676666974001
 30
0.0
 11
261.4028417987328
 21
350.6676666974001
 31
0.0
  0
LINE
  5
5D
330
18
100
AcDbEntity
  8
PV
 62
     7
100
AcDbLine
 10
224.9028417987328
 20
339.6676666974001
 30
0.0
 11
224.9028417987328
 21
332.6676666974001
 31
0.0
  0
LINE
  5
5E
330
18
100
AcDbEntity
  8
PV
  6
CENTER
 62
     1
100
AcDbLine
 10
300.4028417987328
 20
304.6676666974001
 30
0.0
 11
270.4028417987328
 21
304.6676666974001
 31
0.0
  0
CIRCLE
  5
5F
330
18
100
AcDbEntity
  8
PV
 62
     7
100
AcDbCircle
 10
285.4028417987328
 20
304.6676666974001
 30
0.0
 40
8.65
  0
LINE
  5
60
330
18
100
AcDbEntity
  8
PV
 62
     7
100
AcDbLine
 10
284.9028417987328
 20
349.6676666974001
 30
0.0
 11
284.9028417987328
 21
342.6676666974001
 31
0.0
  0
LINE
  5
61
330
18
100
AcDbEntity
  8
PV
 62
     7
100
AcDbLine
 10
274.9028417987328
 20
349.6676666974001
 30
0.0
 11
274.9028417987328
 21
344.1446666974001
 31
0.0
  0
LINE
  5
62
330
18
100
AcDbEntity
  8
PV
 62
     7
100
AcDbLine
 10
284.9028417987328
 20
349.6676666974001
 30
0.0
 11
274.9028417987328
 21
349.6676666974001
 31
0.0
  0
LINE
  5
63
330
18
100
AcDbEntity
  8
PV
 62
     7
100
AcDbLine
 10
287.4028417987328
 20
342.1676666974001
 30
0.0
 11
286.9028417987328
 21
342.6676666974001
 31
0.0
  0
LINE
  5
64
330
18
100
AcDbEntity
  8
PV
 62
     7
100
AcDbLine
 10
287.4028417987328
 20
337.6676666974001
 30
0.0
 11
288.9028417987328
 21
336.8006666974001
 31
0.0
  0
LINE
  5
65
330
18
100
AcDbEntity
  8
PV
 62
     7
100
AcDbLine
 10
287.4028417987328
 20
342.1676666974001
 30
0.0
 11
287.4028417987328
 21
337.6676666974001
 31
0.0
  0
LINE
  5
66
330
18
100
AcDbEntity
  8
PV
 62
     7
100
AcDbLine
 10
597.4448417987328
 20
595.7526666974001
 30
0.0
 11
607.3948417987328
 21
595.7526666974001
 31
0.0
  0
LINE
  5
67
330
18
100
AcDbEntity
  8
PV
 62
     7
100
AcDbLine
 10
597.4448417987328
 20
610.7526666974002
 30
0.0
 11
607.3948417987328
 21
610.7526666974002
 31
0.0
  0
CIRCLE
  5
68
330
18
100
AcDbEntity
  8
PV
 62
     7
100
AcDbCircle
 10
602.4198417987328
 20
603.2526666974002
 30
0.0
 40
4.75
  0
CIRCLE
  5
69
330
18
100
AcDbEntity
  8
PV
 62
     7
100
AcDbCircle
 10
602.4198417987328
 20
603.2526666974002
 30
0.0
 40
9.0
  0
LINE
  5
6A
330
18
100
AcDbEntity
  8
PV
 62
     7
100
AcDbLine
 10
288.9028417987328
 20
336.8006666974001
 30
0.0
 11
288.9028417987328
 21
332.6676666974001
 31
0.0
  0
LINE
  5
6B
330
18
100
AcDbEntity
  8
PV
 62
     7
100
AcDbLine
 10
286.9028417987328
 20
342.6676666974001
 30
0.0
 11
275.4448417987329
 21
342.6676666974001
 31
0.0
  0
LINE
  5
6C
330
18
100
AcDbEntity
  8
PV
 62
     7
100
AcDbLine
 10
373.4028417987328
 20
312.1676666974001
 30
0.0
 11
373.4028417987328
 21
276.1676666974001
 31
0.0
  0
LINE
  5
6D
330
18
100
AcDbEntity
  8
PV
 62
     7
100
AcDbLine
 10
373.4028417987328
 20
276.1676666974001
 30
0.0
 11
351.4028417987328
 21
276.1676666974001
 31
0.0
  0
LINE
  5
6E
330
18
100
AcDbEntity
  8
PV
 62
     7
100
AcDbLine
 10
373.4028417987328
 20
312.1676666974001
 30
0.0
 11
351.4028417987328
 21
312.1676666974001
 31
0.0
  0
LINE
  5
6F
330
18
100
AcDbEntity
  8
PV
  6
CENTER
 62
     1
100
AcDbLine
 10
633.2018417987328
 20
370.6676666974001
 30
0.0
 11
603.4198417987328
 21
370.6676666974001
 31
0.0
  0
LINE
  5
70
330
18
100
AcDbEntity
  8
PV
  6
DASHED
 62
     5
100
AcDbLine
 10
608.4198417987328
 20
374.6676666974001
 30
0.0
 11
628.4198417987328
 21
374.6676666974001
 31
0.0
  0
LINE
  5
71
330
18
100
AcDbEntity
  8
PV
  6
DASHED
 62
     5
100
AcDbLine
 10
633.4198417987328
 20
380.6676666974001
 30
0.0
 11
603.4198417987328
 21
380.6676666974001
 31
0.0
  0
LINE
  5
72
330
18
100
AcDbEntity
  8
PV
  6
DASHED
 62
     5
100
AcDbLine
 10
600.4198417987328
 20
345.4586666974001
 30
0.0
 11
600.4198417987328
 21
377.6676666974001
 31
0.0
  0
LINE
  5
73
330
18
100
AcDbEntity
  8
PV
  6
DASHED
 62
     5
100
AcDbLine
 10
603.4198417987328
 20
380.6676666974001
 30
0.0
 11
600.4198417987328
 21
377.6676666974001
 31
0.0
  0
LINE
  5
74
330
18
100
AcDbEntity
  8
PV
 62
     7
100
AcDbLine
 10
213.4028417987329
 20
319.3676666974001
 30
0.0
 11
213.4028417987329
 21
380.6676666974001
 31
0.0
  0
LINE
  5
75
330
18
100
AcDbEntity
  8
PV
 62
     7
100
AcDbLine
 10
213.4028417987329
 20
380.6676666974001
 30
0.0
 11
215.7028417987328
 21
380.6676666974001
 31
0.0
  0
LINE
  5
76
330
18
100
AcDbEntity
  8
PV
 62
     7
100
AcDbLine
 10
215.7028417987328
 20
380.6676666974001
 30
0.0
 11
215.7028417987328
 21
321.6676666974001
 31
0.0
  0
LINE
  5
77
330
18
100
AcDbEntity
  8
PV
  6
CENTER
 62
     1
100
AcDbLine
 10
225.4578417987328
 20
370.6676666974001
 30
0.0
 11
202.7128417987328
 21
370.6676666974001
 31
0.0
  0
LINE
  5
78
330
18
100
AcDbEntity
  8
PV
 62
     7
100
AcDbLine
 10
636.4198417987328
 20
662.7526666974001
 30
0.0
 11
636.4198417987328
 21
669.7526666974002
 31
0.0
  0
LINE
  5
79
330
18
100
AcDbEntity
  8
PV
 62
     7
100
AcDbLine
 10
702.4198417987328
 20
669.7526666974002
 30
0.0
 11
738.4198417987327
 21
669.7526666974002
 31
0.0
  0
LINE
  5
7A
330
18
100
AcDbEntity
  8
PV
 62
     7
100
AcDbLine
 10
702.4198417987328
 20
667.4526666974002
 30
0.0
 11
738.4198417987327
 21
667.4526666974002
 31
0.0
  0
LINE
  5
7B
330
18
100
AcDbEntity
  8
PV
 62
     7
100
AcDbLine
 10
738.4198417987327
 20
658.7526666974001
 30
0.0
 11
738.4198417987327
 21
669.7526666974002
 31
0.0
  0
LINE
  5
7C
330
18
100
AcDbEntity
  8
PV
 62
     7
100
AcDbLine
 10
702.4198417987328
 20
658.7526666974001
 30
0.0
 11
702.4198417987328
 21
669.7526666974002
 31
0.0
  0
LINE
  5
7D
330
18
100
AcDbEntity
  8
PV
 62
     7
100
AcDbLine
 10
607.1568417987328
 20
281.7606666974001
 30
0.0
 11
591.4998417987328
 21
306.8666666974001
 31
0.0
  0
LINE
  5
80
330
18
100
AcDbEntity
  8
PV
 62
     7
100
AcDbLine
 10
600.4198417987328
 20
658.7526666974001
 30
0.0
 11
600.4198417987328
 21
669.7526666974002
 31
0.0
  0
LINE
  5
81
330
18
100
AcDbEntity
  8
PV
 62
     7
100
AcDbLine
 10
684.9198417987328
 20
658.7526666974001
 30
0.0
 11
684.9198417987328
 21
668.7526666974001
 31
0.0
  0
LINE
  5
82
330
18
100
AcDbEntity
  8
PV
 62
     7
100
AcDbLine
 10
684.9198417987328
 20
668.7526666974001
 30
0.0
 11
674.9198417987328
 21
668.7526666974001
 31
0.0
  0
LINE
  5
83
330
18
100
AcDbEntity
  8
PV
 62
     7
100
AcDbLine
 10
674.9198417987328
 20
668.7526666974001
 30
0.0
 11
674.9198417987328
 21
658.7526666974001
 31
0.0
  0
LINE
  5
84
330
18
100
AcDbEntity
  8
PV
 62
     7
100
AcDbLine
 10
341.9028417987328
 20
282.6676666974001
 30
0.0
 11
341.9028417987328
 21
332.6676666974001
 31
0.0
  0
LINE
  5
85
330
18
100
AcDbEntity
  8
PV
 62
     7
100
AcDbLine
 10
734.4198417987328
 20
282.1676666974001
 30
0.0
 11
612.8362496637315
 21
282.1676666974001
 31
0.0
  0
LINE
  5
86
330
18
100
AcDbEntity
  8
PV
 62
     7
100
AcDbLine
 10
734.4198417987328
 20
282.1676666974001
 30
0.0
 11
734.4198417987328
 21
278.6676666974001
 31
0.0
  0
LINE
  5
87
330
18
100
AcDbEntity
  8
PV
 62
     7
100
AcDbLine
 10
734.4198417987328
 20
278.6676666974001
 30
0.0
 11
608.5713444075944
 21
278.6676666974001
 31
0.0
  0
LINE
  5
88
330
18
100
AcDbEntity
  8
PV
 62
     7
100
AcDbLine
 10
568.4198417987329
 20
282.1676666974001
 30
0.0
 11
568.4198417987329
 21
278.6676666974001
 31
0.0
  0
LINE
  5
89
330
18
100
AcDbEntity
  8
PV
 62
     7
100
AcDbLine
 10
727.6419312928963
 20
148.1676666974001
 30
0.0
 11
575.1977523045695
 21
148.1676666974001
 31
0.0
  0
LINE
  5
8B
330
18
100
AcDbEntity
  8
PV
 62
     7
100
AcDbLine
 10
655.894126640997
 20
278.6676666974002
 30
0.0
 11
657.0333004004096
 21
148.1676666974001
 31
0.0
  0
LINE
  5
8D
330
18
100
AcDbEntity
  8
PV
 62
     7
100
AcDbLine
 10
646.9458417987328
 20
278.6676666974001
 30
0.0
 11
645.8063787637134
 21
148.1676666974001
 31
0.0
  0
LINE
  5
8E
330
18
100
AcDbEntity
  8
PV
 62
     7
100
AcDbLine
 10
227.9028417987329
 20
282.1676666974001
 30
0.0
 11
227.9028417987329
 21
278.6676666974001
 31
0.0
  0
LINE
  5
8F
330
18
100
AcDbEntity
  8
PV
 62
     7
100
AcDbLine
 10
342.9028417987328
 20
278.6676666974001
 30
0.0
 11
227.9028417987329
 21
278.6676666974001
 31
0.0
  0
LINE
  5
90
330
18
100
AcDbEntity
  8
PV
 62
     7
100
AcDbLine
 10
342.9028417987328
 20
282.1676666974001
 30
0.0
 11
227.9028417987329
 21
282.1676666974001
 31
0.0
  0
LINE
  5
91
330
18
100
AcDbEntity
  8
PV
 62
     7
100
AcDbLine
 10
342.9028417987328
 20
282.1676666974001
 30
0.0
 11
342.9028417987328
 21
278.6676666974001
 31
0.0
  0
LINE
  5
92
330
18
100
AcDbEntity
  8
PV
 62
     7
100
AcDbLine
 10
351.4028417987328
 20
312.1676666974001
 30
0.0
 11
351.4028417987328
 21
276.1676666974001
 31
0.0
  0
LINE
  5
93
330
18
100
AcDbEntity
  8
PV
 62
     7
100
AcDbLine
 10
351.4028417987328
 20
300.1676666974001
 30
0.0
 11
345.4028417987328
 21
300.1676666974001
 31
0.0
  0
LINE
  5
94
330
18
100
AcDbEntity
  8
PV
 62
     7
100
AcDbLine
 10
345.4028417987328
 20
300.1676666974001
 30
0.0
 11
345.4028417987328
 21
288.1676666974001
 31
0.0
  0
LINE
  5
95
330
18
100
AcDbEntity
  8
PV
 62
     7
100
AcDbLine
 10
351.4028417987328
 20
288.1676666974001
 30
0.0
 11
345.4028417987328
 21
288.1676666974001
 31
0.0
  0
LINE
  5
96
330
18
100
AcDbEntity
  8
PV
 62
     7
100
AcDbLine
 10
345.4028417987328
 20
299.1676666974001
 30
0.0
 11
341.9028417987328
 21
299.1676666974001
 31
0.0
  0
LINE
  5
97
330
18
100
AcDbEntity
  8
PV
 62
     7
100
AcDbLine
 10
345.4028417987328
 20
289.1676666974001
 30
0.0
 11
341.9028417987328
 21
289.1676666974001
 31
0.0
  0
LINE
  5
98
330
18
100
AcDbEntity
  8
PV
  6
CENTER
 62
     1
100
AcDbLine
 10
245.4028417987328
 20
355.4026666974001
 30
0.0
 11
245.4028417987328
 21
328.9186666974001
 31
0.0
  0
LINE
  5
99
330
18
100
AcDbEntity
  8
PV
  6
CENTER
 62
     1
100
AcDbLine
 10
771.3528417987329
 20
597.7526666974001
 30
0.0
 11
557.3798417987328
 21
597.7526666974001
 31
0.0
  0
ARC
  5
9A
330
18
100
AcDbEntity
  8
PV
 62
     7
100
AcDbCircle
 10
620.4198417987328
 20
653.2526666974002
 30
0.0
 40
5.0
100
AcDbArc
 50
0.0
 51
90.0
  0
ARC
  5
9B
330
18
100
AcDbEntity
  8
PV
 62
     7
100
AcDbCircle
 10
620.4198417987328
 20
622.2526666974001
 30
0.0
 40
5.0
100
AcDbArc
 50
270.0
 51
0.0
  0
LINE
  5
9C
330
18
100
AcDbEntity
  8
PV
 62
     7
100
AcDbLine
 10
581.4198417987328
 20
509.7526666974001
 30
0.0
 11
581.4198417987328
 21
531.7526666974002
 31
0.0
  0
LINE
  5
9D
330
18
100
AcDbEntity
  8
PV
 62
     7
100
AcDbLine
 10
617.4198417987327
 20
509.7526666974001
 30
0.0
 11
617.4198417987327
 21
531.7526666974002
 31
0.0
  0
LINE
  5
9E
330
18
100
AcDbEntity
  8
PV
 62
     7
100
AcDbLine
 10
617.4198417987327
 20
531.7526666974002
 30
0.0
 11
581.4198417987328
 21
531.7526666974002
 31
0.0
  0
LINE
  5
9F
330
18
100
AcDbEntity
  8
PV
 62
     7
100
AcDbLine
 10
605.4198417987328
 20
537.7526666974001
 30
0.0
 11
593.4198417987328
 21
537.7526666974001
 31
0.0
  0
LINE
  5
A0
330
18
100
AcDbEntity
  8
PV
 62
     7
100
AcDbLine
 10
593.4198417987328
 20
531.7526666974002
 30
0.0
 11
593.4198417987328
 21
537.7526666974001
 31
0.0
  0
LINE
  5
A1
330
18
100
AcDbEntity
  8
PV
 62
     7
100
AcDbLine
 10
605.4198417987328
 20
531.7526666974002
 30
0.0
 11
605.4198417987328
 21
537.7526666974001
 31
0.0
  0
LINE
  5
A2
330
18
100
AcDbEntity
  8
PV
 62
     7
100
AcDbLine
 10
617.4198417987327
 20
509.7526666974001
 30
0.0
 11
581.4198417987328
 21
509.7526666974001
 31
0.0
  0
LINE
  5
A3
330
18
100
AcDbEntity
  8
PV
 62
     7
100
AcDbLine
 10
594.4198417987328
 20
537.7526666974001
 30
0.0
 11
594.4198417987328
 21
541.2526666974001
 31
0.0
  0
LINE
  5
A4
330
18
100
AcDbEntity
  8
PV
 62
     7
100
AcDbLine
 10
604.4198417987328
 20
537.7526666974001
 30
0.0
 11
604.4198417987328
 21
541.2526666974001
 31
0.0
  0
LINE
  5
A5
330
18
100
AcDbEntity
  8
PV
 62
     7
100
AcDbLine
 10
623.4198417987328
 20
541.2526666974001
 30
0.0
 11
568.9198417987329
 21
541.2526666974001
 31
0.0
  0
ARC
  5
A6
330
18
100
AcDbEntity
  8
PV
 62
     7
100
AcDbCircle
 10
568.9198417987329
 20
543.2526666974001
 30
0.0
 40
2.0
100
AcDbArc
 50
180.0
 51
270.0
  0
ARC
  5
A7
330
18
100
AcDbEntity
  8
PV
 62
     7
100
AcDbCircle
 10
627.4198417987328
 20
538.7526666974001
 30
0.0
 40
2.0
100
AcDbArc
 50
180.0
 51
270.0
  0
ARC
  5
A8
330
18
100
AcDbEntity
  8
PV
 62
     7
100
AcDbCircle
 10
623.4198417987328
 20
539.2526666974001
 30
0.0
 40
2.0
100
AcDbArc
 50
0.0
 51
90.0
  0
LINE
  5
A9
330
18
100
AcDbEntity
  8
PV
 62
     7
100
AcDbLine
 10
625.4198417987328
 20
539.2526666974001
 30
0.0
 11
625.4198417987328
 21
548.0026666974001
 31
0.0
  0
LINE
  5
AA
330
18
100
AcDbEntity
  8
PV
 62
     7
100
AcDbLine
 10
224.4028417987328
 20
332.6676666974001
 30
0.0
 11
224.4028417987328
 21
282.6676666974001
 31
0.0
  0
LINE
  5
AB
330
18
100
AcDbEntity
  8
PV
 62
     7
100
AcDbLine
 10
224.4028417987328
 20
312.6676666974001
 30
0.0
 11
224.4028417987328
 21
306.6676666974001
 31
0.0
  0
LINE
  5
AC
330
18
100
AcDbEntity
  8
PV
 62
     7
100
AcDbLine
 10
224.4028417987328
 20
306.6676666974001
 30
0.0
 11
222.1028417987329
 21
306.6676666974001
 31
0.0
  0
LINE
  5
AD
330
18
100
AcDbEntity
  8
PV
 62
     7
100
AcDbLine
 10
222.1028417987329
 20
306.6676666974001
 30
0.0
 11
222.1028417987329
 21
319.3676666974001
 31
0.0
  0
LINE
  5
AE
330
18
100
AcDbEntity
  8
PV
 62
     7
100
AcDbLine
 10
222.1028417987329
 20
319.3676666974001
 30
0.0
 11
213.4028417987329
 21
319.3676666974001
 31
0.0
  0
LINE
  5
AF
330
18
100
AcDbEntity
  8
PV
 62
     7
100
AcDbLine
 10
224.4028417987328
 20
321.6676666974001
 30
0.0
 11
215.7028417987328
 21
321.6676666974001
 31
0.0
  0
LINE
  5
B1
330
18
100
AcDbEntity
  8
PV
 62
     7
100
AcDbLine
 10
585.9768417987328
 20
282.1676666974001
 30
0.0
 11
568.4198417987329
 21
282.1676666974001
 31
0.0
  0
LINE
  5
B2
330
18
100
AcDbEntity
  8
PV
 62
     7
100
AcDbLine
 10
590.2178417987329
 20
278.6676666974001
 30
0.0
 11
568.4198417987329
 21
278.6676666974001
 31
0.0
  0
LINE
  5
B4
330
18
100
AcDbEntity
  8
PV
  6
CENTER
 62
     1
100
AcDbLine
 10
285.4028417987328
 20
438.6686666974001
 30
0.0
 11
285.4028417987328
 21
138.2976666974001
 31
0.0
  0
LINE
  5
B5
330
18
100
AcDbEntity
  8
PV
 62
     7
100
AcDbLine
 10
346.4028417987329
 20
324.6676666974001
 30
0.0
 11
346.4028417987329
 21
327.6676666974001
 31
0.0
  0
LINE
  5
B6
330
18
100
AcDbEntity
  8
PV
  6
CENTER
 62
     1
100
AcDbLine
 10
219.4028417987329
 20
321.6676666974001
 30
0.0
 11
219.4028417987329
 21
206.0276666974001
 31
0.0
  0
LINE
  5
B7
330
18
100
AcDbEntity
  8
PV
 62
     7
100
AcDbLine
 10
221.4028417987328
 20
219.8996666974001
 30
0.0
 11
221.4028417987328
 21
302.6786666974
 31
0.0
  0
LINE
  5
B8
330
18
100
AcDbEntity
  8
PV
 62
     7
100
AcDbLine
 10
217.4028417987329
 20
219.0566666974001
 30
0.0
 11
217.4028417987329
 21
302.6786666974
 31
0.0
  0
LINE
  5
B9
330
18
100
AcDbEntity
  8
PV
 62
     7
100
AcDbLine
 10
214.8788417987328
 20
218.5246666974001
 30
0.0
 11
223.0608417987328
 21
220.2496666974001
 31
0.0
  0
LINE
  5
BA
330
18
100
AcDbEntity
  8
PV
 62
     7
100
AcDbLine
 10
680.4198417987328
 20
324.1676666974001
 30
0.0
 11
675.9198417987327
 21
324.1676666974001
 31
0.0
  0
LINE
  5
BB
330
18
100
AcDbEntity
  8
PV
 62
     7
100
AcDbLine
 10
634.4198417987328
 20
321.1676666974001
 30
0.0
 11
634.4198417987328
 21
292.1676666974001
 31
0.0
  0
LINE
  5
BC
330
18
100
AcDbEntity
  8
PV
 62
     7
100
AcDbLine
 10
680.4198417987328
 20
289.1676666974001
 30
0.0
 11
637.4198417987328
 21
289.1676666974001
 31
0.0
  0
LINE
  5
BD
330
18
100
AcDbEntity
  8
PV
 62
     7
100
AcDbLine
 10
683.4198417987328
 20
292.1676666974001
 30
0.0
 11
683.4198417987328
 21
321.1676666974001
 31
0.0
  0
ARC
  5
BE
330
18
100
AcDbEntity
  8
PV
 62
     7
100
AcDbCircle
 10
658.9198417987327
 20
306.6676666974001
 30
0.0
 40
17.0
100
AcDbArc
 50
180.0
 51
0.0
  0
LINE
  5
BF
330
18
100
AcDbEntity
  8
PV
 62
     7
100
AcDbLine
 10
675.9198417987327
 20
306.6676666974001
 30
0.0
 11
675.9198417987327
 21
349.1676666974001
 31
0.0
  0
LINE
  5
C0
330
18
100
AcDbEntity
  8
PV
 62
     7
100
AcDbLine
 10
641.9198417987328
 20
306.6676666974001
 30
0.0
 11
641.9198417987328
 21
316.4646666974001
 31
0.0
  0
LINE
  5
C1
330
18
100
AcDbEntity
  8
PV
 62
     7
100
AcDbLine
 10
641.9198417987328
 20
324.1676666974001
 30
0.0
 11
637.4198417987328
 21
324.1676666974001
 31
0.0
  0
ARC
  5
C2
330
18
100
AcDbEntity
  8
PV
 62
     7
100
AcDbCircle
 10
638.4198417987327
 20
319.1676666974001
 30
0.0
 40
4.5
100
AcDbArc
 50
321.058
 51
38.94239999999999
  0
LINE
  5
C3
330
18
100
AcDbEntity
  8
PV
 62
     7
100
AcDbLine
 10
641.9198417987328
 20
322.1216666974001
 30
0.0
 11
641.9198417987328
 21
349.1676666974001
 31
0.0
  0
ARC
  5
C4
330
18
100
AcDbEntity
  8
PV
 62
     7
100
AcDbCircle
 10
680.4198417987328
 20
292.1676666974001
 30
0.0
 40
3.0
100
AcDbArc
 50
270.0
 51
0.0
  0
ARC
  5
C5
330
18
100
AcDbEntity
  8
PV
 62
     7
100
AcDbCircle
 10
637.4198417987328
 20
292.1676666974001
 30
0.0
 40
3.0
100
AcDbArc
 50
180.0
 51
270.0
  0
ARC
  5
C6
330
18
100
AcDbEntity
  8
PV
 62
     7
100
AcDbCircle
 10
680.4198417987328
 20
321.1676666974001
 30
0.0
 40
3.0
100
AcDbArc
 50
0.0
 51
90.0
  0
ARC
  5
C7
330
18
100
AcDbEntity
  8
PV
 62
     7
100
AcDbCircle
 10
637.4198417987328
 20
321.1676666974001
 30
0.0
 40
3.0
100
AcDbArc
 50
90.0
 51
180.0
  0
LINE
  5
C8
330
18
100
AcDbEntity
  8
PV
 62
     7
100
AcDbLine
 10
753.9198417987328
 20
324.6676666974001
 30
0.0
 11
675.9198417987327
 21
324.6676666974001
 31
0.0
  0
LINE
  5
CA
330
18
100
AcDbEntity
  8
PV
 62
     7
100
AcDbLine
 10
641.9198417987328
 20
327.6676666974001
 30
0.0
 11
625.4198417987328
 21
327.6676666974001
 31
0.0
  0
LINE
  5
CB
330
18
100
AcDbEntity
  8
PV
 62
     7
100
AcDbLine
 10
641.9198417987328
 20
324.6676666974001
 30
0.0
 11
625.4198417987328
 21
324.6676666974001
 31
0.0
  0
LINE
  5
CC
330
18
100
AcDbEntity
  8
PV
 62
     7
100
AcDbLine
 10
753.9198417987328
 20
288.6676666974001
 30
0.0
 11
753.9198417987328
 21
324.6676666974001
 31
0.0
  0
LINE
  5
CD
330
18
100
AcDbEntity
  8
PV
 62
     7
100
AcDbLine
 10
346.4028417987329
 20
324.6676666974001
 30
0.0
 11
341.9028417987328
 21
324.6676666974001
 31
0.0
  0
LINE
  5
CE
330
18
100
AcDbEntity
  8
PV
 62
     7
100
AcDbLine
 10
345.4028417987328
 20
288.6676666974001
 30
0.0
 11
341.9028417987328
 21
288.6676666974001
 31
0.0
  0
LINE
  5
D0
330
18
100
AcDbEntity
  8
PV
 62
     7
100
AcDbLine
 10
634.4198417987328
 20
518.2526666974001
 30
0.0
 11
634.4198417987328
 21
536.7526666974002
 31
0.0
  0
LINE
  5
D1
330
18
100
AcDbEntity
  8
PV
 62
     7
100
AcDbLine
 10
683.4198417987328
 20
518.2526666974001
 30
0.0
 11
683.4198417987328
 21
536.7526666974002
 31
0.0
  0
LINE
  5
D2
330
18
100
AcDbEntity
  8
PV
 62
     7
100
AcDbLine
 10
361.4028417987328
 20
324.1676666974001
 30
0.0
 11
341.9028417987328
 21
324.1676666974001
 31
0.0
  0
LINE
  5
D3
330
18
100
AcDbEntity
  8
PV
 62
     7
100
AcDbLine
 10
361.4028417987328
 20
324.1676666974001
 30
0.0
 11
361.4028417987328
 21
349.1676666974001
 31
0.0
  0
LINE
  5
D4
330
18
100
AcDbEntity
  8
PV
 62
     7
100
AcDbLine
 10
395.4028417987328
 20
306.6676666974001
 30
0.0
 11
395.4028417987328
 21
349.1676666974001
 31
0.0
  0
ARC
  5
D5
330
18
100
AcDbEntity
  8
PV
 62
     7
100
AcDbCircle
 10
378.4028417987328
 20
306.6676666974001
 30
0.0
 40
17.0
100
AcDbArc
 50
270.0
 51
0.0
  0
ARC
  5
D6
330
18
100
AcDbEntity
  8
PV
 62
     7
100
AcDbCircle
 10
634.9198417987328
 20
518.2526666974001
 30
0.0
 40
0.5
100
AcDbArc
 50
180.0
 51
270.0
  0
LINE
  5
D7
330
18
100
AcDbEntity
  8
PV
 62
     7
100
AcDbLine
 10
378.4028417987328
 20
289.6676666974001
 30
0.0
 11
373.4028417987328
 21
289.6676666974001
 31
0.0
  0
LINE
  5
D8
330
18
100
AcDbEntity
  8
PV
 62
     7
100
AcDbLine
 10
346.4028417987329
 20
327.6676666974001
 30
0.0
 11
341.9028417987328
 21
327.6676666974001
 31
0.0
  0
LINE
  5
D9
330
18
100
AcDbEntity
  8
PV
 62
     7
100
AcDbLine
 10
634.9198417987328
 20
517.7526666974001
 30
0.0
 11
647.9658417987328
 21
517.7526666974001
 31
0.0
  0
LINE
  5
DA
330
18
100
AcDbEntity
  8
PV
 62
     7
100
AcDbLine
 10
766.0888417987328
 20
332.1676666974001
 30
0.0
 11
765.9138417987328
 21
352.2296666974002
 31
0.0
  0
LINE
  5
DB
330
18
100
AcDbEntity
  8
PV
 62
     7
100
AcDbLine
 10
765.9138417987328
 20
352.2296666974002
 30
0.0
 11
761.9085200229756
 21
428.6676666974001
 31
0.0
  0
LINE
  5
DC
330
18
100
AcDbEntity
  8
PV
 62
     7
100
AcDbLine
 10
652.3311510864616
 20
428.6676666974002
 30
0.0
 11
761.9085200229756
 21
428.6676666974001
 31
0.0
  0
LINE
  5
DE
330
18
100
AcDbEntity
  8
PV
 62
     7
100
AcDbLine
 10
648.6268417987328
 20
357.9706666974002
 30
0.0
 11
652.3311510864616
 21
428.6676666974002
 31
0.0
  0
LINE
  5
E6
330
18
100
AcDbEntity
  8
PV
 62
     7
100
AcDbLine
 10
756.9078417987328
 20
542.9636666974001
 30
0.0
 11
657.3318417987328
 21
542.9636666974001
 31
0.0
  0
LINE
  5
E7
330
18
100
AcDbEntity
  8
PV
 62
     7
100
AcDbLine
 10
652.3318417987328
 20
647.5406666974
 30
0.0
 11
652.3318417987328
 21
588.0726666974001
 31
0.0
  0
LINE
  5
E9
330
18
100
AcDbEntity
  8
PV
 62
     7
100
AcDbLine
 10
761.9078417987329
 20
647.5406666974
 30
0.0
 11
761.9078417987329
 21
547.9636666974001
 31
0.0
  0
LINE
  5
EA
330
18
100
AcDbEntity
  8
PV
 62
     7
100
AcDbLine
 10
756.9078417987328
 20
652.5406666974
 30
0.0
 11
657.3318417987328
 21
652.5406666974
 31
0.0
  0
ARC
  5
EB
330
18
100
AcDbEntity
  8
PV
 62
     7
100
AcDbCircle
 10
756.9078417987328
 20
547.9636666974001
 30
0.0
 40
5.0
100
AcDbArc
 50
270.0
 51
0.0
  0
ARC
  5
EC
330
18
100
AcDbEntity
  8
PV
 62
     7
100
AcDbCircle
 10
756.9078417987328
 20
647.5406666974
 30
0.0
 40
5.0
100
AcDbArc
 50
0.0
 51
90.0
  0
ARC
  5
ED
330
18
100
AcDbEntity
  8
PV
 62
     7
100
AcDbCircle
 10
657.3318417987328
 20
647.5406666974
 30
0.0
 40
5.0
100
AcDbArc
 50
90.0
 51
180.0
  0
ARC
  5
EE
330
18
100
AcDbEntity
  8
PV
 62
     7
100
AcDbCircle
 10
657.3318417987328
 20
547.9636666974001
 30
0.0
 40
5.0
100
AcDbArc
 50
180.0
 51
270.0
  0
ARC
  5
EF
330
18
100
AcDbEntity
  8
PV
 62
     7
100
AcDbCircle
 10
637.1198417987328
 20
574.7526666974001
 30
0.0
 40
20.2193
100
AcDbArc
 50
318.792
 51
41.2077
  0
LINE
  5
F0
330
18
100
AcDbEntity
  8
PV
 62
     7
100
AcDbLine
 10
652.3318417987328
 20
561.4316666974001
 30
0.0
 11
652.3318417987328
 21
547.9636666974001
 31
0.0
  0
LINE
  5
F1
330
18
100
AcDbEntity
  8
PV
 62
     7
100
AcDbLine
 10
767.4198417987327
 20
652.2526666974002
 30
0.0
 11
767.4198417987327
 21
543.2526666974001
 31
0.0
  0
LINE
  5
F2
330
18
100
AcDbEntity
  8
PV
 62
     7
100
AcDbLine
 10
652.6198417987329
 20
537.4526666974
 30
0.0
 11
761.6198417987328
 21
537.4526666974
 31
0.0
  0
ARC
  5
F3
330
18
100
AcDbEntity
  8
PV
 62
     7
100
AcDbCircle
 10
761.6198417987328
 20
543.2526666974001
 30
0.0
 40
5.799999999999999
100
AcDbArc
 50
270.0
 51
0.0
  0
ARC
  5
F4
330
18
100
AcDbEntity
  8
PV
 62
     7
100
AcDbCircle
 10
652.6198417987329
 20
543.2526666974001
 30
0.0
 40
5.799999999999999
100
AcDbArc
 50
180.0
 51
270.0
  0
ARC
  5
F5
330
18
100
AcDbEntity
  8
PV
 62
     7
100
AcDbCircle
 10
761.6198417987328
 20
652.2526666974002
 30
0.0
 40
5.799999999999999
100
AcDbArc
 50
0.0
 51
90.0
  0
LINE
  5
F6
330
18
100
AcDbEntity
  8
PV
 62
     7
100
AcDbLine
 10
652.6198417987329
 20
658.0526666974002
 30
0.0
 11
761.6198417987328
 21
658.0526666974002
 31
0.0
  0
ARC
  5
F7
330
18
100
AcDbEntity
  8
PV
 62
     7
100
AcDbCircle
 10
652.6198417987329
 20
652.2526666974002
 30
0.0
 40
5.799999999999999
100
AcDbArc
 50
90.0
 51
180.0
  0
LINE
  5
F8
330
18
100
AcDbEntity
  8
PV
 62
     7
100
AcDbLine
 10
646.8198417987329
 20
652.2526666974002
 30
0.0
 11
646.8198417987329
 21
588.9556666974001
 31
0.0
  0
ARC
  5
FA
330
18
100
AcDbEntity
  8
PV
 62
     7
100
AcDbCircle
 10
637.1198417987328
 20
574.7526666974001
 30
0.0
 40
17.19999999999999
100
AcDbArc
 50
304.3299999999999
 51
55.67029999999999
  0
LINE
  5
FB
330
18
100
AcDbEntity
  8
PV
 62
     7
100
AcDbLine
 10
646.8198417987329
 20
560.5486666974001
 30
0.0
 11
646.8198417987329
 21
543.2526666974001
 31
0.0
  0
LINE
  5
FC
330
18
100
AcDbEntity
  8
PV
 62
     7
100
AcDbLine
 10
767.4198417987327
 20
327.6676666974001
 30
0.0
 11
767.4198417987327
 21
332.1676666974001
 31
0.0
  0
LINE
  5
FD
330
18
100
AcDbEntity
  8
PV
 62
     7
100
AcDbLine
 10
767.4198417987327
 20
332.1676666974001
 30
0.0
 11
675.9198417987327
 21
332.1676666974001
 31
0.0
  0
LINE
  5
FE
330
18
100
AcDbEntity
  8
PV
 62
     7
100
AcDbLine
 10
344.1978417987328
 20
352.1436666974001
 30
0.0
 11
340.1915063407766
 21
428.5806666974001
 31
0.0
  0
LINE
  5
FF
330
18
100
AcDbEntity
  8
PV
 62
     7
100
AcDbLine
 10
344.3728417987328
 20
332.0806666974001
 30
0.0
 11
344.1978417987328
 21
352.1436666974001
 31
0.0
  0
LINE
  5
101
330
18
100
AcDbEntity
  8
PV
 62
     7
100
AcDbLine
 10
230.6141111748747
 20
428.5806666974001
 30
0.0
 11
340.1915063407767
 21
428.5806666974001
 31
0.0
  0
LINE
  5
103
330
18
100
AcDbEntity
  8
PV
 62
     7
100
AcDbLine
 10
227.4222934228838
 20
367.6676666974001
 30
0.0
 11
230.6141111748747
 21
428.5806666974001
 31
0.0
  0
LINE
  5
104
330
18
100
AcDbEntity
  8
PV
 62
     7
100
AcDbLine
 10
345.7028417987328
 20
327.6676666974001
 30
0.0
 11
345.7028417987328
 21
332.0876666974001
 31
0.0
  0
LINE
  5
105
330
18
100
AcDbEntity
  8
PV
 62
     7
100
AcDbLine
 10
345.7028417987328
 20
332.0876666974001
 30
0.0
 11
341.9028417987328
 21
332.0876666974001
 31
0.0
  0
LINE
  5
107
330
18
100
AcDbEntity
  8
PV
  6
CENTER
 62
     1
100
AcDbLine
 10
580.4198417987328
 20
611.7526666974002
 30
0.0
 11
599.4198417987328
 21
567.7526666974001
 31
0.0
  0
LINE
  5
108
330
18
100
AcDbEntity
  8
PV
  6
CENTER
 62
     1
100
AcDbLine
 10
618.4198417987328
 20
383.6966666974001
 30
0.0
 11
618.4198417987328
 21
357.6386666974001
 31
0.0
  0
ARC
  5
109
330
18
100
AcDbEntity
  8
PV
  6
DASHED
 62
     5
100
AcDbCircle
 10
628.4198417987328
 20
370.6676666974001
 30
0.0
 40
4.0
100
AcDbArc
 50
270.0
 51
90.0
  0
LINE
  5
10A
330
18
100
AcDbEntity
  8
PV
  6
DASHED
 62
     5
100
AcDbLine
 10
633.4198417987328
 20
380.6676666974001
 30
0.0
 11
636.4198417987328
 21
377.6676666974001
 31
0.0
  0
LINE
  5
10B
330
18
100
AcDbEntity
  8
PV
  6
DASHED
 62
     5
100
AcDbLine
 10
636.4198417987328
 20
345.4586666974001
 30
0.0
 11
636.4198417987328
 21
377.6676666974001
 31
0.0
  0
LINE
  5
10C
330
18
100
AcDbEntity
  8
PV
 62
     7
100
AcDbLine
 10
267.3618417987329
 20
344.1446666974001
 30
0.0
 11
267.3618417987329
 21
332.6676666974001
 31
0.0
  0
LINE
  5
10D
330
18
100
AcDbEntity
  8
PV
 62
     7
100
AcDbLine
 10
275.4448417987329
 20
344.1446666974001
 30
0.0
 11
275.4448417987329
 21
332.6676666974001
 31
0.0
  0
LINE
  5
10E
330
18
100
AcDbEntity
  8
PV
 62
     7
100
AcDbLine
 10
275.4448417987329
 20
344.1446666974001
 30
0.0
 11
267.3618417987329
 21
344.1446666974001
 31
0.0
  0
LINE
  5
10F
330
18
100
AcDbEntity
  8
PV
  6
CENTER
 62
     1
100
AcDbLine
 10
315.4028417987329
 20
374.4676666974001
 30
0.0
 11
281.4028417987328
 21
374.4676666974001
 31
0.0
  0
LINE
  5
110
330
18
100
AcDbEntity
  8
PV
  6
CENTER
 62
     1
100
AcDbLine
 10
271.4028417987328
 20
364.4676666974001
 30
0.0
 11
271.4028417987328
 21
330.6866666974001
 31
0.0
  0
ARC
  5
111
330
18
100
AcDbEntity
  8
PV
  6
CENTER
 62
     1
100
AcDbCircle
 10
281.4028417987328
 20
364.4676666974001
 30
0.0
 40
10.0
100
AcDbArc
 50
90.0
 51
180.0
  0
LINE
  5
112
330
18
100
AcDbEntity
  8
PV
  6
CENTER
 62
     1
100
AcDbLine
 10
628.4198417987328
 20
377.2046666974001
 30
0.0
 11
628.4198417987328
 21
364.1296666974001
 31
0.0
  0
LINE
  5
113
330
18
100
AcDbEntity
  8
PV
  6
CENTER
 62
     1
100
AcDbLine
 10
608.4198417987328
 20
377.2046666974001
 30
0.0
 11
608.4198417987328
 21
364.1296666974001
 31
0.0
  0
LINE
  5
114
330
18
100
AcDbEntity
  8
PV
 62
     7
100
AcDbLine
 10
766.9198417987328
 20
654.6076666974002
 30
0.0
 11
766.9198417987328
 21
655.7526666974001
 31
0.0
  0
ARC
  5
115
330
18
100
AcDbEntity
  8
PV
 62
     7
100
AcDbCircle
 10
682.9198417987328
 20
518.2526666974001
 30
0.0
 40
0.5
100
AcDbArc
 50
270.0
 51
0.0
  0
LINE
  5
116
330
18
100
AcDbEntity
  8
PV
 62
     7
100
AcDbLine
 10
641.9198417987328
 20
349.1676666974001
 30
0.0
 11
675.9198417987327
 21
349.1676666974001
 31
0.0
  0
LINE
  5
117
330
18
100
AcDbEntity
  8
PV
 62
     7
100
AcDbLine
 10
361.4028417987328
 20
349.1676666974001
 30
0.0
 11
395.4028417987328
 21
349.1676666974001
 31
0.0
  0
LINE
  5
118
330
18
100
AcDbEntity
  8
PV
 62
     7
100
AcDbLine
 10
644.4198417987328
 20
357.1676666974001
 30
0.0
 11
673.4198417987328
 21
357.1676666974001
 31
0.0
  0
LINE
  5
119
330
18
100
AcDbEntity
  8
PV
 62
     7
100
AcDbLine
 10
674.9198417987328
 20
355.6676666974001
 30
0.0
 11
674.9198417987328
 21
349.1676666974001
 31
0.0
  0
LINE
  5
11A
330
18
100
AcDbEntity
  8
PV
 62
     7
100
AcDbLine
 10
642.9198417987328
 20
355.6676666974001
 30
0.0
 11
642.9198417987328
 21
349.1676666974001
 31
0.0
  0
ARC
  5
11B
330
18
100
AcDbEntity
  8
PV
 62
     7
100
AcDbCircle
 10
673.4198417987328
 20
355.6676666974001
 30
0.0
 40
1.5
100
AcDbArc
 50
0.0
 51
90.0
  0
ARC
  5
11C
330
18
100
AcDbEntity
  8
PV
 62
     7
100
AcDbCircle
 10
644.4198417987328
 20
355.6676666974001
 30
0.0
 40
1.5
100
AcDbArc
 50
90.0
 51
180.0
  0
LINE
  5
11D
330
18
100
AcDbEntity
  8
PV
 62
     7
100
AcDbLine
 10
362.4028417987328
 20
355.6676666974001
 30
0.0
 11
362.4028417987328
 21
349.1676666974001
 31
0.0
  0
LINE
  5
11E
330
18
100
AcDbEntity
  8
PV
 62
     7
100
AcDbLine
 10
394.4028417987329
 20
355.6676666974001
 30
0.0
 11
394.4028417987329
 21
349.1676666974001
 31
0.0
  0
LINE
  5
11F
330
18
100
AcDbEntity
  8
PV
 62
     7
100
AcDbLine
 10
363.9028417987328
 20
357.1676666974001
 30
0.0
 11
392.9028417987328
 21
357.1676666974001
 31
0.0
  0
ARC
  5
120
330
18
100
AcDbEntity
  8
PV
 62
     7
100
AcDbCircle
 10
363.9028417987328
 20
355.6676666974001
 30
0.0
 40
1.5
100
AcDbArc
 50
90.0
 51
180.0
  0
ARC
  5
121
330
18
100
AcDbEntity
  8
PV
 62
     7
100
AcDbCircle
 10
392.9028417987328
 20
355.6676666974001
 30
0.0
 40
1.5
100
AcDbArc
 50
0.0
 51
90.0
  0
CIRCLE
  5
122
330
18
100
AcDbEntity
  8
PV
 62
     7
100
AcDbCircle
 10
658.9198417987327
 20
504.7526666974001
 30
0.0
 40
17.0
  0
LINE
  5
123
330
18
100
AcDbEntity
  8
PV
 62
     7
100
AcDbLine
 10
669.8738417987328
 20
517.7526666974001
 30
0.0
 11
682.9198417987328
 21
517.7526666974001
 31
0.0
  0
LINE
  5
13B
330
18
100
AcDbEntity
  8
PV
 62
     7
100
AcDbLine
 10
625.4198417987328
 20
288.6676666974001
 30
0.0
 11
753.9198417987328
 21
288.6676666974001
 31
0.0
  0
LINE
  5
13D
330
18
100
AcDbEntity
  8
PV
 62
     7
100
AcDbLine
 10
613.267224222859
 20
282.6676666974001
 30
0.0
 11
764.9198417987328
 21
282.6676666974001
 31
0.0
  0
LINE
  5
14A
330
18
100
AcDbEntity
  8
PV
 62
     7
100
AcDbLine
 10
578.3988417987329
 20
615.2526666974002
 30
0.0
 11
576.3788417987329
 21
611.7526666974002
 31
0.0
  0
LINE
  5
14B
330
18
100
AcDbEntity
  8
PV
 62
     7
100
AcDbLine
 10
576.3788417987329
 20
611.7526666974002
 30
0.0
 11
578.3988417987329
 21
608.2526666974001
 31
0.0
  0
LINE
  5
14C
330
18
100
AcDbEntity
  8
PV
 62
     7
100
AcDbLine
 10
578.3988417987329
 20
608.2526666974001
 30
0.0
 11
582.4408417987329
 21
608.2526666974001
 31
0.0
  0
LINE
  5
14D
330
18
100
AcDbEntity
  8
PV
 62
     7
100
AcDbLine
 10
582.4408417987329
 20
608.2526666974001
 30
0.0
 11
584.4608417987329
 21
611.7526666974002
 31
0.0
  0
LINE
  5
14E
330
18
100
AcDbEntity
  8
PV
 62
     7
100
AcDbLine
 10
584.4608417987329
 20
611.7526666974002
 30
0.0
 11
582.4408417987329
 21
615.2526666974002
 31
0.0
  0
LINE
  5
14F
330
18
100
AcDbEntity
  8
PV
 62
     7
100
AcDbLine
 10
582.4408417987329
 20
615.2526666974002
 30
0.0
 11
578.3988417987329
 21
615.2526666974002
 31
0.0
  0
CIRCLE
  5
150
330
18
100
AcDbEntity
  8
PV
 62
     7
100
AcDbCircle
 10
679.4198417987328
 20
294.1676666974001
 30
0.0
 40
3.799999999999999
  0
CIRCLE
  5
151
330
18
100
AcDbEntity
  8
PV
 62
     7
100
AcDbCircle
 10
638.4198417987327
 20
319.1676666974001
 30
0.0
 40
3.799999999999999
  0
LINE
  5
152
330
18
100
AcDbEntity
  8
PV
 62
     7
100
AcDbLine
 10
572.9198417987329
 20
278.6676666974001
 30
0.0
 11
575.1977523045694
 21
148.1676666974001
 31
0.0
  0
LINE
  5
153
330
18
100
AcDbEntity
  8
PV
 62
     7
100
AcDbLine
 10
581.9198417987328
 20
278.6676666974001
 30
0.0
 11
584.1977523045694
 21
148.1676666974001
 31
0.0
  0
LINE
  5
154
330
18
100
AcDbEntity
  8
PV
 62
     7
100
AcDbLine
 10
729.9198417987327
 20
278.6676666974001
 30
0.0
 11
727.6419312928963
 21
148.1676666974001
 31
0.0
  0
LINE
  5
155
330
18
100
AcDbEntity
  8
PV
 62
     7
100
AcDbLine
 10
720.9198417987328
 20
278.6676666974001
 30
0.0
 11
718.6419312928962
 21
148.1676666974001
 31
0.0
  0
LINE
  5
156
330
18
100
AcDbEntity
  8
PV
 62
     7
100
AcDbLine
 10
609.4198417987328
 20
140.1676666974001
 30
0.0
 11
609.4198417987328
 21
148.1676666974001
 31
0.0
  0
LINE
  5
157
330
18
100
AcDbEntity
  8
PV
 62
     7
100
AcDbLine
 10
593.4198417987328
 20
140.1676666974001
 30
0.0
 11
593.4198417987328
 21
148.1676666974001
 31
0.0
  0
LINE
  5
159
330
18
100
AcDbEntity
  8
PV
 62
     7
100
AcDbLine
 10
693.4198417987328
 20
140.1676666974001
 30
0.0
 11
693.4198417987328
 21
148.1676666974001
 31
0.0
  0
LINE
  5
15A
330
18
100
AcDbEntity
  8
PV
 62
     7
100
AcDbLine
 10
709.4198417987328
 20
140.1676666974001
 30
0.0
 11
709.4198417987328
 21
148.1676666974001
 31
0.0
  0
LINE
  5
15B
330
18
100
AcDbEntity
  8
PV
 62
     7
100
AcDbLine
 10
659.4198417987328
 20
143.1676666974001
 30
0.0
 11
643.4198417987328
 21
143.1676666974001
 31
0.0
  0
LINE
  5
15C
330
18
100
AcDbEntity
  8
PV
 62
     7
100
AcDbLine
 10
643.4198417987328
 20
143.1676666974001
 30
0.0
 11
643.4198417987328
 21
148.1676666974001
 31
0.0
  0
LINE
  5
15D
330
18
100
AcDbEntity
  8
PV
 62
     7
100
AcDbLine
 10
659.4198417987328
 20
143.1676666974001
 30
0.0
 11
659.4198417987328
 21
148.1676666974001
 31
0.0
  0
ARC
  5
15F
330
18
100
AcDbEntity
  8
PV
  6
DASHED
 62
     5
100
AcDbCircle
 10
608.4198417987328
 20
370.6676666974001
 30
0.0
 40
4.0
100
AcDbArc
 50
90.0
 51
270.0
  0
LINE
  5
160
330
18
100
AcDbEntity
  8
PV
  6
DASHED
 62
     5
100
AcDbLine
 10
608.4198417987328
 20
366.6676666974001
 30
0.0
 11
628.4198417987328
 21
366.6676666974001
 31
0.0
  0
LINE
  5
161
330
18
100
AcDbEntity
  8
PV
 62
     7
100
AcDbLine
 10
232.4028417987328
 20
278.6676666974001
 30
0.0
 11
234.6807523045693
 21
148.1676666974001
 31
0.0
  0
LINE
  5
162
330
18
100
AcDbEntity
  8
PV
 62
     7
100
AcDbLine
 10
241.4028417987328
 20
278.6676666974001
 30
0.0
 11
243.6807523045694
 21
148.1676666974001
 31
0.0
  0
LINE
  5
163
330
18
100
AcDbEntity
  8
PV
 62
     7
100
AcDbLine
 10
336.1249312928964
 20
148.1676666974001
 30
0.0
 11
234.6807523045693
 21
148.1676666974001
 31
0.0
  0
LINE
  5
164
330
18
100
AcDbEntity
  8
PV
 62
     7
100
AcDbLine
 10
329.4028417987328
 20
278.6676666974001
 30
0.0
 11
327.1249312928962
 21
148.1676666974001
 31
0.0
  0
LINE
  5
165
330
18
100
AcDbEntity
  8
PV
 62
     7
100
AcDbLine
 10
338.4028417987329
 20
278.6676666974001
 30
0.0
 11
336.1249312928963
 21
148.1676666974001
 31
0.0
  0
LINE
  5
167
330
18
100
AcDbEntity
  8
PV
 62
     7
100
AcDbLine
 10
308.9028417987329
 20
140.1676666974001
 30
0.0
 11
308.9028417987329
 21
148.1676666974001
 31
0.0
  0
LINE
  5
168
330
18
100
AcDbEntity
  8
PV
 62
     7
100
AcDbLine
 10
324.9028417987328
 20
140.1676666974001
 30
0.0
 11
324.9028417987328
 21
148.1676666974001
 31
0.0
  0
LINE
  5
169
330
18
100
AcDbEntity
  8
PV
 62
     7
100
AcDbLine
 10
293.4028417987328
 20
143.2976666974001
 30
0.0
 11
277.4028417987328
 21
143.2976666974001
 31
0.0
  0
LINE
  5
16A
330
18
100
AcDbEntity
  8
PV
 62
     7
100
AcDbLine
 10
277.4028417987328
 20
143.2976666974001
 30
0.0
 11
277.4028417987328
 21
148.2976666974001
 31
0.0
  0
LINE
  5
16B
330
18
100
AcDbEntity
  8
PV
 62
     7
100
AcDbLine
 10
293.4028417987328
 20
143.2976666974001
 30
0.0
 11
293.4028417987328
 21
148.2976666974001
 31
0.0
  0
LINE
  5
16D
330
18
100
AcDbEntity
  8
PV
 62
     7
100
AcDbLine
 10
261.9028417987328
 20
140.1676666974001
 30
0.0
 11
261.9028417987328
 21
148.1676666974001
 31
0.0
  0
LINE
  5
16E
330
18
100
AcDbEntity
  8
PV
 62
     7
100
AcDbLine
 10
245.9028417987328
 20
140.1676666974001
 30
0.0
 11
245.9028417987328
 21
148.1676666974001
 31
0.0
  0
LINE
  5
170
330
18
100
AcDbEntity
  8
PV
  6
CENTER
 62
     1
100
AcDbLine
 10
618.4198417987328
 20
673.6026666974002
 30
0.0
 11
618.4198417987328
 21
663.6026666974002
 31
0.0
  0
LINE
  5
171
330
18
100
AcDbEntity
  8
PV
  6
CENTER
 62
     1
100
AcDbLine
 10
720.4198417987328
 20
673.6026666974002
 30
0.0
 11
720.4198417987328
 21
663.6026666974002
 31
0.0
  0
LINE
  5
172
330
18
100
AcDbEntity
  8
PV
 62
     7
100
AcDbLine
 10
764.4198417987328
 20
282.6676666974001
 30
0.0
 11
764.4198417987328
 21
274.6676666974001
 31
0.0
  0
LINE
  5
173
330
18
100
AcDbEntity
  8
PV
 62
     7
100
AcDbLine
 10
764.4198417987328
 20
274.6676666974001
 30
0.0
 11
737.4198417987328
 21
274.6676666974001
 31
0.0
  0
LINE
  5
174
330
18
100
AcDbEntity
  8
PV
 62
     7
100
AcDbLine
 10
738.9198417987328
 20
269.6676666974001
 30
0.0
 11
762.9198417987328
 21
269.6676666974001
 31
0.0
  0
LINE
  5
175
330
18
100
AcDbEntity
  8
PV
 62
     7
100
AcDbLine
 10
762.9198417987328
 20
269.6676666974001
 30
0.0
 11
762.9198417987328
 21
254.6676666974001
 31
0.0
  0
LINE
  5
176
330
18
100
AcDbEntity
  8
PV
 62
     7
100
AcDbLine
 10
762.9198417987328
 20
254.6676666974001
 30
0.0
 11
738.9198417987328
 21
254.6676666974001
 31
0.0
  0
LINE
  5
177
330
18
100
AcDbEntity
  8
PV
 62
     7
100
AcDbLine
 10
737.4198417987328
 20
282.6676666974001
 30
0.0
 11
737.4198417987328
 21
274.6676666974001
 31
0.0
  0
LINE
  5
178
330
18
100
AcDbEntity
  8
PV
 62
     7
100
AcDbLine
 10
738.9198417987328
 20
269.6676666974001
 30
0.0
 11
738.9198417987328
 21
254.6676666974001
 31
0.0
  0
LINE
  5
179
330
18
100
AcDbEntity
  8
PV
 62
     7
100
AcDbLine
 10
760.4198417987328
 20
274.6676666974001
 30
0.0
 11
760.4198417987328
 21
269.6676666974001
 31
0.0
  0
LINE
  5
17A
330
18
100
AcDbEntity
  8
PV
 62
     7
100
AcDbLine
 10
740.9198417987328
 20
269.6676666974001
 30
0.0
 11
740.9198417987328
 21
274.6676666974001
 31
0.0
  0
LINE
  5
17E
330
18
100
AcDbEntity
  8
PV
 62
     7
100
AcDbLine
 10
625.4198417987328
 20
587.5026666974001
 30
0.0
 11
625.4198417987328
 21
658.7526666974001
 31
0.0
  0
LINE
  5
17F
330
18
100
AcDbEntity
  8
PV
 62
     7
100
AcDbLine
 10
566.9198417987329
 20
548.0026666974001
 30
0.0
 11
566.9198417987329
 21
543.2526666974001
 31
0.0
  0
LINE
  5
180
330
18
100
AcDbEntity
  8
PV
 62
     7
100
AcDbLine
 10
295.6528417987328
 20
348.8676666974001
 30
0.0
 11
335.1528417987328
 21
348.8676666974001
 31
0.0
  0
LINE
  5
181
330
18
100
AcDbEntity
  8
PV
 62
     7
100
AcDbLine
 10
328.9468417987328
 20
398.8676666974001
 30
0.0
 11
301.8588417987329
 21
398.8676666974001
 31
0.0
  0
LINE
  5
182
330
18
100
AcDbEntity
  8
PV
 62
     7
100
AcDbLine
 10
332.9458417987328
 20
394.9726666974001
 30
0.0
 11
334.1528417987329
 21
348.8676666974001
 31
0.0
  0
ARC
  5
187
330
18
100
AcDbEntity
  8
PV
 62
     7
100
AcDbCircle
 10
328.9468417987328
 20
394.8676666974002
 30
0.0
 40
4.0
100
AcDbArc
 50
1.5
 51
90.0
  0
LINE
  5
189
330
18
100
AcDbEntity
  8
PV
 62
     7
100
AcDbLine
 10
297.8598417987328
 20
394.9726666974001
 30
0.0
 11
296.6528417987328
 21
348.8676666974001
 31
0.0
  0
ARC
  5
18A
330
18
100
AcDbEntity
  8
PV
 62
     7
100
AcDbCircle
 10
301.8588417987329
 20
394.8676666974002
 30
0.0
 40
4.0
100
AcDbArc
 50
90.0
 51
178.5
  0
LINE
  5
18B
330
18
100
AcDbEntity
  8
PV
 62
     7
100
AcDbLine
 10
564.9198417987329
 20
587.5026666974001
 30
0.0
 11
639.9198417987328
 21
587.5026666974001
 31
0.0
  0
LINE
  5
18C
330
18
100
AcDbEntity
  8
PV
 62
     7
100
AcDbLine
 10
564.9198417987329
 20
548.0026666974001
 30
0.0
 11
639.9198417987328
 21
548.0026666974001
 31
0.0
  0
LINE
  5
18D
330
18
100
AcDbEntity
  8
PV
 62
     7
100
AcDbLine
 10
558.9198417987329
 20
344.6676666974001
 30
0.0
 11
558.9198417987329
 21
348.8676666974001
 31
0.0
  0
ARC
  5
18E
330
18
100
AcDbEntity
  8
PV
 62
     7
100
AcDbCircle
 10
564.9198417987329
 20
581.5026666974001
 30
0.0
 40
6.0
100
AcDbArc
 50
90.0
 51
180.0
  0
LINE
  5
18F
330
18
100
AcDbEntity
  8
PV
 62
     7
100
AcDbLine
 10
558.9198417987329
 20
554.0026666974001
 30
0.0
 11
558.9198417987329
 21
581.5026666974001
 31
0.0
  0
ARC
  5
190
330
18
100
AcDbEntity
  8
PV
 62
     7
100
AcDbCircle
 10
564.9198417987329
 20
554.0026666974001
 30
0.0
 40
6.0
100
AcDbArc
 50
180.0
 51
270.0
  0
LINE
  5
191
330
18
100
AcDbEntity
  8
PV
 62
     7
100
AcDbLine
 10
558.9198417987329
 20
348.8676666974001
 30
0.0
 11
641.9198417987328
 21
348.8676666974001
 31
0.0
  0
ARC
  5
192
330
18
100
AcDbEntity
  8
PV
 62
     7
100
AcDbCircle
 10
639.9198417987328
 20
581.5026666974001
 30
0.0
 40
6.0
100
AcDbArc
 50
0.0
 51
90.0
  0
LINE
  5
193
330
18
100
AcDbEntity
  8
PV
 62
     7
100
AcDbLine
 10
645.9198417987328
 20
554.0026666974001
 30
0.0
 11
645.9198417987328
 21
581.5026666974001
 31
0.0
  0
ARC
  5
194
330
18
100
AcDbEntity
  8
PV
 62
     7
100
AcDbCircle
 10
639.9198417987328
 20
554.0026666974001
 30
0.0
 40
6.0
100
AcDbArc
 50
270.0
 51
0.0
  0
LINE
  5
195
330
18
100
AcDbEntity
  8
PV
 62
     7
100
AcDbLine
 10
565.1258417987328
 20
398.8676666974001
 30
0.0
 11
639.7138417987329
 21
398.8676666974001
 31
0.0
  0
LINE
  5
196
330
18
100
AcDbEntity
  8
PV
 62
     7
100
AcDbLine
 10
643.7128417987329
 20
394.9726666974001
 30
0.0
 11
644.7021193370883
 21
357.1676666974001
 31
0.0
  0
ARC
  5
199
330
18
100
AcDbEntity
  8
PV
 62
     7
100
AcDbCircle
 10
565.1258417987328
 20
394.8676666974002
 30
0.0
 40
4.0
100
AcDbArc
 50
90.0
 51
178.5
  0
ARC
  5
19B
330
18
100
AcDbEntity
  8
PV
 62
     7
100
AcDbCircle
 10
639.7138417987329
 20
394.8676666974002
 30
0.0
 40
4.0
100
AcDbArc
 50
1.5
 51
90.0
  0
LINE
  5
19C
330
18
100
AcDbEntity
  8
PV
 62
     7
100
AcDbLine
 10
561.1268417987328
 20
394.9726666974001
 30
0.0
 11
559.9198417987329
 21
348.8676666974001
 31
0.0
  0
LINE
  5
1A5
330
18
100
AcDbEntity
  8
PV
 62
     7
100
AcDbLine
 10
558.9198417987329
 20
344.6676666974001
 30
0.0
 11
641.9198417987328
 21
344.6676666974001
 31
0.0
  0
LINE
  5
1A6
330
18
100
AcDbEntity
  8
PV
 62
     7
100
AcDbLine
 10
295.6528417987328
 20
332.6676666974001
 30
0.0
 11
295.6528417987328
 21
348.8676666974001
 31
0.0
  0
LINE
  5
1A7
330
18
100
AcDbEntity
  8
PV
 62
     7
100
AcDbLine
 10
295.6528417987328
 20
344.6676666974001
 30
0.0
 11
335.1528417987328
 21
344.6676666974001
 31
0.0
  0
LINE
  5
1A8
330
18
100
AcDbEntity
  8
PV
 62
     7
100
AcDbLine
 10
335.1528417987328
 20
332.6676666974001
 30
0.0
 11
335.1528417987328
 21
348.8676666974001
 31
0.0
  0
LINE
  5
1A9
330
18
100
AcDbEntity
  8
PV
 62
     7
100
AcDbLine
 10
642.9198417987328
 20
656.2526666974001
 30
0.0
 11
642.9198417987328
 21
596.2526666974001
 31
0.0
  0
LINE
  5
1AA
330
18
100
AcDbEntity
  8
PV
 62
     7
100
AcDbLine
 10
632.9198417987328
 20
596.2526666974001
 30
0.0
 11
632.9198417987328
 21
656.2526666974001
 31
0.0
  0
LINE
  5
1AB
330
18
100
AcDbEntity
  8
PV
 62
     7
100
AcDbLine
 10
642.9198417987328
 20
596.2526666974001
 30
0.0
 11
632.9198417987328
 21
596.2526666974001
 31
0.0
  0
LINE
  5
1AC
330
18
100
AcDbEntity
  8
PV
 62
     7
100
AcDbLine
 10
642.9198417987328
 20
656.2526666974001
 30
0.0
 11
641.1778417987328
 21
662.7526666974001
 31
0.0
  0
LINE
  5
1AD
330
18
100
AcDbEntity
  8
PV
 62
     7
100
AcDbLine
 10
632.9198417987328
 20
656.2526666974001
 30
0.0
 11
642.9198417987328
 21
656.2526666974001
 31
0.0
  0
LINE
  5
1AE
330
18
100
AcDbEntity
  8
PV
 62
     7
100
AcDbLine
 10
634.6618417987329
 20
662.7526666974001
 30
0.0
 11
641.1778417987328
 21
662.7526666974001
 31
0.0
  0
LINE
  5
1AF
330
18
100
AcDbEntity
  8
PV
 62
     7
100
AcDbLine
 10
632.9198417987328
 20
656.2526666974001
 30
0.0
 11
634.6618417987329
 21
662.7526666974001
 31
0.0
  0
LINE
  5
1B0
330
18
100
AcDbEntity
  8
PV
 62
     7
100
AcDbLine
 10
633.5898417987329
 20
658.7526666974001
 30
0.0
 11
569.9198417987329
 21
658.7526666974001
 31
0.0
  0
LINE
  5
1EA
330
18
100
AcDbEntity
  8
PV
  6
DASHED
 62
     5
100
AcDbLine
 10
735.4198417987328
 20
380.6676666974001
 30
0.0
 11
705.4198417987328
 21
380.6676666974001
 31
0.0
  0
LINE
  5
1EB
330
18
100
AcDbEntity
  8
PV
  6
CENTER
 62
     1
100
AcDbLine
 10
735.2018417987328
 20
370.6676666974001
 30
0.0
 11
705.4198417987328
 21
370.6676666974001
 31
0.0
  0
LINE
  5
1EC
330
18
100
AcDbEntity
  8
PV
  6
DASHED
 62
     5
100
AcDbLine
 10
702.4198417987328
 20
345.4586666974001
 30
0.0
 11
702.4198417987328
 21
377.6676666974001
 31
0.0
  0
LINE
  5
1ED
330
18
100
AcDbEntity
  8
PV
  6
DASHED
 62
     5
100
AcDbLine
 10
705.4198417987328
 20
380.6676666974001
 30
0.0
 11
702.4198417987328
 21
377.6676666974001
 31
0.0
  0
LINE
  5
1EE
330
18
100
AcDbEntity
  8
PV
  6
CENTER
 62
     1
100
AcDbLine
 10
730.4198417987328
 20
377.2046666974001
 30
0.0
 11
730.4198417987328
 21
364.1296666974001
 31
0.0
  0
LINE
  5
1EF
330
18
100
AcDbEntity
  8
PV
  6
DASHED
 62
     5
100
AcDbLine
 10
738.4198417987327
 20
345.4586666974001
 30
0.0
 11
738.4198417987327
 21
377.6676666974001
 31
0.0
  0
LINE
  5
1F0
330
18
100
AcDbEntity
  8
PV
  6
CENTER
 62
     1
100
AcDbLine
 10
720.4198417987328
 20
377.2046666974001
 30
0.0
 11
720.4198417987328
 21
364.1296666974001
 31
0.0
  0
LINE
  5
1F1
330
18
100
AcDbEntity
  8
PV
  6
CENTER
 62
     1
100
AcDbLine
 10
720.4198417987328
 20
383.6966666974001
 30
0.0
 11
720.4198417987328
 21
357.6386666974001
 31
0.0
  0
LINE
  5
1F2
330
18
100
AcDbEntity
  8
PV
  6
CENTER
 62
     1
100
AcDbLine
 10
710.4198417987328
 20
377.2046666974001
 30
0.0
 11
710.4198417987328
 21
364.1296666974001
 31
0.0
  0
LINE
  5
1F3
330
18
100
AcDbEntity
  8
PV
  6
DASHED
 62
     5
100
AcDbLine
 10
710.4198417987328
 20
374.6676666974001
 30
0.0
 11
730.4198417987328
 21
374.6676666974001
 31
0.0
  0
ARC
  5
1F4
330
18
100
AcDbEntity
  8
PV
  6
DASHED
 62
     5
100
AcDbCircle
 10
710.4198417987328
 20
370.6676666974001
 30
0.0
 40
4.0
100
AcDbArc
 50
90.0
 51
270.0
  0
ARC
  5
1F5
330
18
100
AcDbEntity
  8
PV
  6
DASHED
 62
     5
100
AcDbCircle
 10
730.4198417987328
 20
370.6676666974001
 30
0.0
 40
4.0
100
AcDbArc
 50
270.0
 51
90.0
  0
LINE
  5
1F6
330
18
100
AcDbEntity
  8
PV
  6
DASHED
 62
     5
100
AcDbLine
 10
735.4198417987328
 20
380.6676666974001
 30
0.0
 11
738.4198417987327
 21
377.6676666974001
 31
0.0
  0
LINE
  5
1F9
330
18
100
AcDbEntity
  8
L-ZISSEN
100
AcDbLine
 10
531.5645027987329
 20
340.0230056974001
 30
0.0
 11
501.5645027987329
 21
340.0230056974001
 31
0.0
  0
LINE
  5
20A
330
18
100
AcDbEntity
  8
L-ZISSEN
100
AcDbLine
 10
286.9028417987328
 20
367.6676666974001
 30
0.0
 11
286.9028417987328
 21
342.6676666974001
 31
0.0
  0
LINE
  5
20C
330
18
100
AcDbEntity
  8
L-ZISSEN
100
AcDbLine
 10
286.9028417987328
 20
367.6676666974001
 30
0.0
 11
226.9028417987328
 21
367.6676666974001
 31
0.0
  0
LINE
  5
20D
330
18
100
AcDbEntity
  8
L-ZISSEN
100
AcDbLine
 10
226.9028417987328
 20
367.6676666974001
 30
0.0
 11
226.9028417987328
 21
339.6676666974002
 31
0.0
  0
TEXT
  5
20E
330
18
100
AcDbEntity
  8
L-ZISSEN
100
AcDbText
 10
470.4516238456026
 20
661.2832895346161
 30
0.0
 40
4.5
  1
MODEL NO.
100
AcDbText
  0
TEXT
  5
20F
330
18
100
AcDbEntity
  8
L-ZISSEN
100
AcDbText
 10
470.2387580138065
 20
653.2036439784794
 30
0.0
 40
4.5
  1
MC9-01L3-*B22
100
AcDbText
  0
TEXT
  5
210
330
18
100
AcDbEntity
  8
L-ZISSEN
100
AcDbText
 10
470.2387580138065
 20
645.2036439784794
 30
0.0
 40
4.5
  1
MC9-01L3-*B23
100
AcDbText
  0
TEXT
  5
212
330
18
100
AcDbEntity
  8
L-ZISSEN
100
AcDbText
 10
470.2387580138065
 20
637.2036439784794
 30
0.0
 40
4.5
  1
MC9-01L3-*B24
100
AcDbText
  0
TEXT
  5
226
330
18
100
AcDbEntity
  8
L-ZISSEN
100
AcDbText
 10
501.737034092489
 20
340.3953604778362
 30
0.0
 40
4.5
  1
AIR IN
100
AcDbText
  0
TEXT
  5
227
330
18
100
AcDbEntity
  8
L-ZISSEN
100
AcDbText
 10
501.737034092489
 20
332.3128278703679
 30
0.0
 40
4.5
  1
Rc3/8
100
AcDbText
  0
LINE
  5
229
330
18
100
AcDbEntity
  8
L-ZISSEN
100
AcDbLine
 10
675.9198417987327
 20
504.7526666974001
 30
0.0
 11
675.9198417987327
 21
517.7526666974001
 31
0.0
  0
LINE
  5
22A
330
18
100
AcDbEntity
  8
L-ZISSEN
100
AcDbLine
 10
641.9198417987328
 20
504.7526666974001
 30
0.0
 11
641.9198417987328
 21
517.7526666974001
 31
0.0
  0
ARC
  5
22B
330
18
100
AcDbEntity
  8
PV
 62
     7
100
AcDbCircle
 10
634.9198417987328
 20
518.2526666974001
 30
0.0
 40
0.5
100
AcDbArc
 50
180.0
 51
270.0
  0
CIRCLE
  5
235
330
18
100
AcDbEntity
  8
L-HASEN
100
AcDbCircle
 10
750.9198417987327
 20
556.7526666974002
 30
0.0
 40
10.5
  0
LINE
  5
237
330
18
100
AcDbEntity
  8
PV
  6
CENTER
 62
     1
100
AcDbLine
 10
735.9198417987328
 20
556.7526666974002
 30
0.0
 11
765.9198417987328
 21
556.7526666974002
 31
0.0
  0
LINE
  5
238
330
18
100
AcDbEntity
  8
PV
  6
CENTER
 62
     1
100
AcDbLine
 10
750.9198417987327
 20
571.7526666974001
 30
0.0
 11
750.9198417987327
 21
541.7526666974001
 31
0.0
  0
LINE
  5
239
330
18
100
AcDbEntity
  8
PV
  6
CENTER
 62
     1
100
AcDbLine
 10
750.9198417987327
 20
285.7184618979833
 30
0.0
 11
750.9198417987327
 21
249.6676666974001
 31
0.0
  0
LINE
  5
2C7
330
18
100
AcDbEntity
  8
L-ZISSEN
100
AcDbLine
 10
566.3166911588442
 20
687.4456811445504
 30
0.0
 11
533.0207408438895
 21
687.4456811445504
 31
0.0
  0
TEXT
  5
2C8
330
18
100
AcDbEntity
  8
L-ZISSEN
100
AcDbText
 10
533.0207408438895
 20
688.7086443655054
 30
0.0
 40
4.5
  1
FOG OUT
100
AcDbText
  0
TEXT
  5
2C9
330
18
100
AcDbEntity
  8
L-ZISSEN
100
AcDbText
 10
533.4422081631487
 20
678.604940326634
 30
0.0
 40
4.5
  1
Rc1/2
100
AcDbText
  0
INSERT
  5
2D0
330
18
100
AcDbEntity
  8
L-ZISSEN
100
AcDbBlockReference
  2
_OPEN
 10
597.8906038340034
 20
646.217062922699
 30
0.0
 41
4.5
 42
4.5
 43
4.5
 50
307.4458006060808
  0
LINE
  5
2D1
330
18
100
AcDbEntity
  8
L-ZISSEN
100
AcDbLine
 10
595.1545557834143
 20
649.7897427383092
 30
0.0
 11
566.3166911588444
 21
687.4456811445504
 31
0.0
  0
INSERT
  5
2D2
330
18
100
AcDbEntity
  8
L-ZISSEN
100
AcDbBlockReference
  2
_OPEN
 10
566.9198417987329
 20
304.6676666974001
 30
0.0
 41
4.5
 42
4.5
 43
4.5
 50
314.9999999999999
  0
LINE
  5
2D3
330
18
100
AcDbEntity
  8
L-ZISSEN
100
AcDbLine
 10
563.7378612833933
 20
307.8496472127395
 30
0.0
 11
531.5645027987329
 21
340.0230056974001
 31
0.0
  0
LINE
  5
2DC
330
18
100
AcDbEntity
  8
L-ZISSEN
100
AcDbLine
 10
245.9028417987328
 20
140.1676666974001
 30
0.0
 11
245.9028417987328
 21
139.6676666974001
 31
0.0
  0
LINE
  5
2DD
330
18
100
AcDbEntity
  8
L-ZISSEN
100
AcDbLine
 10
245.9028417987328
 20
139.6676666974001
 30
0.0
 11
261.9028417987328
 21
139.6676666974001
 31
0.0
  0
LINE
  5
2DE
330
18
100
AcDbEntity
  8
L-ZISSEN
100
AcDbLine
 10
261.9028417987328
 20
140.1676666974001
 30
0.0
 11
261.9028417987328
 21
139.6676666974001
 31
0.0
  0
LINE
  5
2DF
330
18
100
AcDbEntity
  8
L-ZISSEN
100
AcDbLine
 10
308.9028417987329
 20
140.1676666974001
 30
0.0
 11
308.9028417987329
 21
139.6676666974001
 31
0.0
  0
LINE
  5
2E0
330
18
100
AcDbEntity
  8
L-ZISSEN
100
AcDbLine
 10
308.9028417987329
 20
139.6676666974001
 30
0.0
 11
324.9028417987328
 21
139.6676666974001
 31
0.0
  0
LINE
  5
2E1
330
18
100
AcDbEntity
  8
L-ZISSEN
100
AcDbLine
 10
324.9028417987328
 20
140.1676666974001
 30
0.0
 11
324.9028417987328
 21
139.6676666974001
 31
0.0
  0
LINE
  5
2E2
330
18
100
AcDbEntity
  8
L-ZISSEN
100
AcDbLine
 10
593.4198417987328
 20
140.1676666974001
 30
0.0
 11
593.4198417987328
 21
139.6676666974001
 31
0.0
  0
LINE
  5
2E3
330
18
100
AcDbEntity
  8
L-ZISSEN
100
AcDbLine
 10
593.4198417987328
 20
139.6676666974001
 30
0.0
 11
609.4198417987328
 21
139.6676666974001
 31
0.0
  0
LINE
  5
2E4
330
18
100
AcDbEntity
  8
L-ZISSEN
100
AcDbLine
 10
609.4198417987328
 20
140.1676666974001
 30
0.0
 11
609.4198417987328
 21
139.6676666974001
 31
0.0
  0
LINE
  5
2E5
330
18
100
AcDbEntity
  8
L-ZISSEN
100
AcDbLine
 10
693.4198417987328
 20
140.1676666974001
 30
0.0
 11
693.4198417987328
 21
139.6676666974001
 31
0.0
  0
LINE
  5
2E6
330
18
100
AcDbEntity
  8
L-ZISSEN
100
AcDbLine
 10
693.4198417987328
 20
139.6676666974001
 30
0.0
 11
709.4198417987328
 21
139.6676666974001
 31
0.0
  0
LINE
  5
2E7
330
18
100
AcDbEntity
  8
L-ZISSEN
100
AcDbLine
 10
709.4198417987328
 20
140.1676666974001
 30
0.0
 11
709.4198417987328
 21
139.6676666974001
 31
0.0
  0
LINE
  5
2FA
330
18
100
AcDbEntity
  8
PV
 62
     7
100
AcDbLine
 10
665.9198417987328
 20
363.1676666974001
 30
0.0
 11
651.9198417987328
 21
363.1676666974001
 31
0.0
  0
LINE
  5
2FB
330
18
100
AcDbEntity
  8
PV
 62
     7
100
AcDbLine
 10
662.5338417987328
 20
364.5786666974001
 30
0.0
 11
655.3058417987329
 21
364.5786666974001
 31
0.0
  0
LINE
  5
2FC
330
18
100
AcDbEntity
  8
PV
 62
     7
100
AcDbLine
 10
665.9198417987328
 20
357.1676666974001
 30
0.0
 11
651.9198417987328
 21
357.1676666974001
 31
0.0
  0
LINE
  5
2FD
330
18
100
AcDbEntity
  8
PV
 62
     7
100
AcDbLine
 10
650.8368417987328
 20
362.5426666974001
 30
0.0
 11
650.8368417987328
 21
357.7936666974001
 31
0.0
  0
LINE
  5
2FE
330
18
100
AcDbEntity
  8
PV
 62
     7
100
AcDbLine
 10
651.9198417987328
 20
363.1676666974001
 30
0.0
 11
650.8368417987328
 21
362.5426666974001
 31
0.0
  0
LINE
  5
2FF
330
18
100
AcDbEntity
  8
PV
 62
     7
100
AcDbLine
 10
653.9198417987328
 20
363.1676666974001
 30
0.0
 11
653.9198417987328
 21
363.7786666974001
 31
0.0
  0
LINE
  5
300
330
18
100
AcDbEntity
  8
PV
 62
     7
100
AcDbLine
 10
655.3058417987329
 20
364.5786666974001
 30
0.0
 11
653.9198417987328
 21
363.7786666974001
 31
0.0
  0
LINE
  5
301
330
18
100
AcDbEntity
  8
PV
 62
     7
100
AcDbLine
 10
651.9198417987328
 20
357.1676666974001
 30
0.0
 11
650.8368417987328
 21
357.7936666974001
 31
0.0
  0
LINE
  5
302
330
18
100
AcDbEntity
  8
PV
 62
     7
100
AcDbLine
 10
667.0028417987329
 20
362.5426666974001
 30
0.0
 11
667.0028417987329
 21
357.7936666974001
 31
0.0
  0
LINE
  5
303
330
18
100
AcDbEntity
  8
PV
 62
     7
100
AcDbLine
 10
663.9198417987328
 20
363.1676666974001
 30
0.0
 11
663.9198417987328
 21
363.7786666974001
 31
0.0
  0
LINE
  5
304
330
18
100
AcDbEntity
  8
PV
 62
     7
100
AcDbLine
 10
662.5338417987328
 20
364.5786666974001
 30
0.0
 11
663.9198417987328
 21
363.7786666974001
 31
0.0
  0
LINE
  5
305
330
18
100
AcDbEntity
  8
PV
 62
     7
100
AcDbLine
 10
665.9198417987328
 20
363.1676666974001
 30
0.0
 11
667.0028417987329
 21
362.5426666974001
 31
0.0
  0
LINE
  5
306
330
18
100
AcDbEntity
  8
PV
 62
     7
100
AcDbLine
 10
665.9198417987328
 20
357.1676666974001
 30
0.0
 11
667.0028417987329
 21
357.7936666974001
 31
0.0
  0
POLYLINE
  5
334
330
18
100
AcDbEntity
  8
L-ZISSEN
100
AcDb2dPolyline
 66
     1
 10
0.0
 20
0.0
 30
0.0
 70
     1
  0
VERTEX
  5
3DD
330
334
100
AcDbEntity
  8
L-ZISSEN
100
AcDbVertex
100
AcDb2dVertex
 10
665.9198417987328
 20
508.7941185817275
 30
0.0
  0
VERTEX
  5
3DE
330
334
100
AcDbEntity
  8
L-ZISSEN
100
AcDbVertex
100
AcDb2dVertex
 10
658.9198417987327
 20
512.8355704660549
 30
0.0
  0
VERTEX
  5
3DF
330
334
100
AcDbEntity
  8
L-ZISSEN
100
AcDbVertex
100
AcDb2dVertex
 10
651.9198417987328
 20
508.7941185817275
 30
0.0
  0
VERTEX
  5
3E0
330
334
100
AcDbEntity
  8
L-ZISSEN
100
AcDbVertex
100
AcDb2dVertex
 10
651.9198417987328
 20
500.7112148130728
 30
0.0
  0
VERTEX
  5
3E1
330
334
100
AcDbEntity
  8
L-ZISSEN
100
AcDbVertex
100
AcDb2dVertex
 10
658.9198417987327
 20
496.6697629287454
 30
0.0
  0
VERTEX
  5
3E2
330
334
100
AcDbEntity
  8
L-ZISSEN
100
AcDbVertex
100
AcDb2dVertex
 10
665.9198417987328
 20
500.7112148130727
 30
0.0
  0
SEQEND
  5
3E3
330
334
100
AcDbEntity
  8
L-ZISSEN
  0
LINE
  5
336
330
18
100
AcDbEntity
  8
PV
 62
     7
100
AcDbLine
 10
578.4198417987329
 20
332.6676666974002
 30
0.0
 11
578.4198417987328
 21
344.6676666974001
 31
0.0
  0
LINE
  5
337
330
18
100
AcDbEntity
  8
PV
 62
     7
100
AcDbLine
 10
385.4028417987328
 20
357.1676666974001
 30
0.0
 11
371.4028417987329
 21
357.1676666974001
 31
0.0
  0
LINE
  5
338
330
18
100
AcDbEntity
  8
PV
 62
     7
100
AcDbLine
 10
382.0168417987328
 20
364.5786666974001
 30
0.0
 11
374.7888417987329
 21
364.5786666974001
 31
0.0
  0
LINE
  5
339
330
18
100
AcDbEntity
  8
PV
 62
     7
100
AcDbLine
 10
385.4028417987328
 20
363.1676666974001
 30
0.0
 11
371.4028417987329
 21
363.1676666974001
 31
0.0
  0
LINE
  5
33A
330
18
100
AcDbEntity
  8
PV
 62
     7
100
AcDbLine
 10
370.3198417987329
 20
362.5426666974001
 30
0.0
 11
370.3198417987329
 21
357.7936666974001
 31
0.0
  0
LINE
  5
33B
330
18
100
AcDbEntity
  8
PV
 62
     7
100
AcDbLine
 10
371.4028417987329
 20
357.1676666974001
 30
0.0
 11
370.3198417987329
 21
357.7936666974001
 31
0.0
  0
LINE
  5
33C
330
18
100
AcDbEntity
  8
PV
 62
     7
100
AcDbLine
 10
374.7888417987329
 20
364.5786666974001
 30
0.0
 11
373.4028417987328
 21
363.7786666974001
 31
0.0
  0
LINE
  5
33D
330
18
100
AcDbEntity
  8
PV
 62
     7
100
AcDbLine
 10
373.4028417987328
 20
363.1676666974001
 30
0.0
 11
373.4028417987328
 21
363.7786666974001
 31
0.0
  0
LINE
  5
33E
330
18
100
AcDbEntity
  8
PV
 62
     7
100
AcDbLine
 10
371.4028417987329
 20
363.1676666974001
 30
0.0
 11
370.3198417987329
 21
362.5426666974001
 31
0.0
  0
LINE
  5
33F
330
18
100
AcDbEntity
  8
PV
 62
     7
100
AcDbLine
 10
386.4858417987329
 20
362.5426666974001
 30
0.0
 11
386.4858417987329
 21
357.7936666974001
 31
0.0
  0
LINE
  5
340
330
18
100
AcDbEntity
  8
PV
 62
     7
100
AcDbLine
 10
385.4028417987328
 20
357.1676666974001
 30
0.0
 11
386.4858417987329
 21
357.7936666974001
 31
0.0
  0
LINE
  5
341
330
18
100
AcDbEntity
  8
PV
 62
     7
100
AcDbLine
 10
382.0168417987328
 20
364.5786666974001
 30
0.0
 11
383.4028417987328
 21
363.7786666974001
 31
0.0
  0
LINE
  5
342
330
18
100
AcDbEntity
  8
PV
 62
     7
100
AcDbLine
 10
383.4028417987328
 20
363.1676666974001
 30
0.0
 11
383.4028417987328
 21
363.7786666974001
 31
0.0
  0
LINE
  5
343
330
18
100
AcDbEntity
  8
PV
 62
     7
100
AcDbLine
 10
385.4028417987328
 20
363.1676666974001
 30
0.0
 11
386.4858417987329
 21
362.5426666974001
 31
0.0
  0
ENDSEC
  0
SECTION
  2
OBJECTS
  0
DICTIONARY
  5
C
330
0
100
AcDbDictionary
  3
ACAD_GROUP
350
D
  3
ACAD_LAYOUT
350
2F4
  3
ACAD_MLINESTYLE
350
E
  3
ACAD_PLOTSETTINGS
350
2F5
1001
ACAD
1000
TREAT_AS_HARD
1070
     0
  0
DICTIONARY
  5
32D
330
18
100
AcDbDictionary
  3
ACAD_LAYOUTSELFREF
350
3DC
1001
ACAD
1000
TREAT_AS_HARD
1070
     1
  0
DICTIONARY
  5
32B
330
15
100
AcDbDictionary
  3
ACAD_LAYOUTSELFREF
350
3DB
1001
ACAD
1000
TREAT_AS_HARD
1070
     1
  0
DICTIONARY
  5
D
102
{ACAD_REACTORS
330
C
102
}
330
0
100
AcDbDictionary
1001
ACAD
1000
TREAT_AS_HARD
1070
     0
  0
DICTIONARY
  5
2F4
102
{ACAD_REACTORS
330
C
102
}
330
C
100
AcDbDictionary
1001
ACAD
1000
TREAT_AS_HARD
1070
     0
  0
DICTIONARY
  5
E
102
{ACAD_REACTORS
330
C
102
}
330
0
100
AcDbDictionary
  3
STANDARD
350
1B
1001
ACAD
1000
TREAT_AS_HARD
1070
     0
  0
DICTIONARY
  5
2F5
102
{ACAD_REACTORS
330
C
102
}
330
C
100
AcDbDictionary
1001
ACAD
1000
TREAT_AS_HARD
1070
     0
  0
XRECORD
  5
3DC
102
{ACAD_REACTORS
330
32D
102
}
330
32D
100
AcDbXrecord
340
18
  0
XRECORD
  5
3DB
102
{ACAD_REACTORS
330
32B
102
}
330
32B
100
AcDbXrecord
340
15
  0
MLINESTYLE
  5
1B
102
{ACAD_REACTORS
330
E
102
}
330
0
100
AcDbMlineStyle
  2
STANDARD
 70
     0
  3

 62
     0
 51
90.0
 52
90.0
 71
     2
 49
0.5
 62
   256
  6
BYLAYER
 49
-0.5
 62
   256
  6
BYLAYER
  0
ENDSEC
  0
EOF
