  0
SECTION
  2
HEADER
  9
$ACADVER
  1
AC1012
  9
$DWGCODEPAGE
  3
dos932
  9
$INSBASE
 10
0.0
 20
0.0
 30
0.0
  9
$EXTMIN
 10
111.9655501521697
 20
353.3805421059969
 30
-0.0000000349181948
  9
$EXTMAX
 10
1151.419748740388
 20
1254.053162451284
 30
0.0000000814935746
  9
$LIMMIN
 10
0.0
 20
0.0
  9
$LIMMAX
 10
420.0
 20
297.0
  9
$ORTHOMODE
 70
     1
  9
$REGENMODE
 70
     1
  9
$FILLMODE
 70
     1
  9
$QTEXTMODE
 70
     0
  9
$MIRRTEXT
 70
     1
  9
$DRAGMODE
 70
     2
  9
$LTSCALE
 40
2.0
  9
$OSMODE
 70
    39
  9
$ATTMODE
 70
     1
  9
$TEXTSIZE
 40
15.0
  9
$TRACEWID
 40
0.05
  9
$TEXTSTYLE
  7
STANDARD
  9
$CLAYER
  8
SUNPOU
  9
$CELTYPE
  6
BYLAYER
  9
$CECOLOR
 62
   256
  9
$CELTSCALE
 40
1.0
  9
$DELOBJ
 70
     1
  9
$DISPSILH
 70
     0
  9
$DIMSCALE
 40
5.0
  9
$DIMASZ
 40
2.0
  9
$DIMEXO
 40
1.0
  9
$DIMDLI
 40
8.0
  9
$DIMRND
 40
0.0
  9
$DIMDLE
 40
0.0
  9
$DIMEXE
 40
1.0
  9
$DIMTP
 40
0.0
  9
$DIMTM
 40
0.0
  9
$DIMTXT
 40
11.19999999999999
  9
$DIMCEN
 40
2.0
  9
$DIMTSZ
 40
0.0
  9
$DIMTOL
 70
     0
  9
$DIMLIM
 70
     0
  9
$DIMTIH
 70
     0
  9
$DIMTOH
 70
     0
  9
$DIMSE1
 70
     0
  9
$DIMSE2
 70
     0
  9
$DIMTAD
 70
     0
  9
$DIMZIN
 70
     0
  9
$DIMBLK
  1

  9
$DIMASO
 70
     0
  9
$DIMSHO
 70
     0
  9
$DIMPOST
  1

  9
$DIMAPOST
  1

  9
$DIMALT
 70
     0
  9
$DIMALTD
 70
     2
  9
$DIMALTF
 40
25.4
  9
$DIMLFAC
 40
1.0
  9
$DIMTOFL
 70
     1
  9
$DIMTVP
 40
1.0
  9
$DIMTIX
 70
     1
  9
$DIMSOXD
 70
     0
  9
$DIMSAH
 70
     0
  9
$DIMBLK1
  1

  9
$DIMBLK2
  1

  9
$DIMSTYLE
  2
STANDARD
  9
$DIMCLRD
 70
     0
  9
$DIMCLRE
 70
     0
  9
$DIMCLRT
 70
     0
  9
$DIMTFAC
 40
1.0
  9
$DIMGAP
 40
0.8
  9
$DIMJUST
 70
     0
  9
$DIMSD1
 70
     0
  9
$DIMSD2
 70
     0
  9
$DIMTOLJ
 70
     1
  9
$DIMTZIN
 70
     0
  9
$DIMALTZ
 70
     0
  9
$DIMALTTZ
 70
     0
  9
$DIMFIT
 70
     5
  9
$DIMUPT
 70
     0
  9
$DIMUNIT
 70
     2
  9
$DIMDEC
 70
     4
  9
$DIMTDEC
 70
     4
  9
$DIMALTU
 70
     2
  9
$DIMALTTD
 70
     2
  9
$DIMTXSTY
  7
STANDARD
  9
$DIMAUNIT
 70
     0
  9
$LUNITS
 70
     2
  9
$LUPREC
 70
     4
  9
$SKETCHINC
 40
0.1
  9
$FILLETRAD
 40
10.0
  9
$AUNITS
 70
     0
  9
$AUPREC
 70
     0
  9
$MENU
  1
acad
  9
$ELEVATION
 40
0.0
  9
$PELEVATION
 40
0.0
  9
$THICKNESS
 40
0.0
  9
$LIMCHECK
 70
     0
  9
$BLIPMODE
 70
     0
  9
$CHAMFERA
 40
0.0
  9
$CHAMFERB
 40
0.0
  9
$CHAMFERC
 40
0.0
  9
$CHAMFERD
 40
0.0
  9
$SKPOLY
 70
     0
  9
$TDCREATE
 40
2450274.358600462
  9
$TDUPDATE
 40
2452635.807860532
  9
$TDINDWG
 40
0.2360391204
  9
$TDUSRTIMER
 40
0.2360391204
  9
$USRTIMER
 70
     1
  9
$ANGBASE
 50
0.0
  9
$ANGDIR
 70
     0
  9
$PDMODE
 70
     0
  9
$PDSIZE
 40
0.0
  9
$PLINEWID
 40
0.0
  9
$COORDS
 70
     1
  9
$SPLFRAME
 70
     0
  9
$SPLINETYPE
 70
     6
  9
$SPLINESEGS
 70
     8
  9
$ATTDIA
 70
     0
  9
$ATTREQ
 70
     1
  9
$HANDLING
 70
-16383
  9
$HANDSEED
  5
949
  9
$SURFTAB1
 70
     6
  9
$SURFTAB2
 70
     6
  9
$SURFTYPE
 70
     6
  9
$SURFU
 70
     6
  9
$SURFV
 70
     6
  9
$UCSNAME
  2

  9
$UCSORG
 10
0.0
 20
0.0
 30
0.0
  9
$UCSXDIR
 10
1.0
 20
0.0
 30
0.0
  9
$UCSYDIR
 10
0.0
 20
1.0
 30
0.0
  9
$PUCSNAME
  2

  9
$PUCSORG
 10
0.0
 20
0.0
 30
0.0
  9
$PUCSXDIR
 10
1.0
 20
0.0
 30
0.0
  9
$PUCSYDIR
 10
0.0
 20
1.0
 30
0.0
  9
$USERI1
 70
     0
  9
$USERI2
 70
     0
  9
$USERI3
 70
     0
  9
$USERI4
 70
     0
  9
$USERI5
 70
     0
  9
$USERR1
 40
0.0
  9
$USERR2
 40
0.0
  9
$USERR3
 40
0.0
  9
$USERR4
 40
0.0
  9
$USERR5
 40
0.0
  9
$WORLDVIEW
 70
     1
  9
$SHADEDGE
 70
     3
  9
$SHADEDIF
 70
    70
  9
$TILEMODE
 70
     1
  9
$MAXACTVP
 70
    48
  9
$PINSBASE
 10
0.0
 20
0.0
 30
0.0
  9
$PLIMCHECK
 70
     0
  9
$PEXTMIN
 10
1.000000000000000E+20
 20
1.000000000000000E+20
 30
1.000000000000000E+20
  9
$PEXTMAX
 10
-1.000000000000000E+20
 20
-1.000000000000000E+20
 30
-1.000000000000000E+20
  9
$PLIMMIN
 10
0.0
 20
0.0
  9
$PLIMMAX
 10
12.0
 20
9.0
  9
$UNITMODE
 70
     0
  9
$VISRETAIN
 70
     0
  9
$PLINEGEN
 70
     0
  9
$PSLTSCALE
 70
     0
  9
$TREEDEPTH
 70
  3020
  9
$PICKSTYLE
 70
     1
  9
$CMLSTYLE
  2
STANDARD
  9
$CMLJUST
 70
     0
  9
$CMLSCALE
 40
1.0
  9
$SAVEIMAGES
 70
     1
  0
ENDSEC
  0
SECTION
  2
CLASSES
  0
CLASS
  1
DICTIONARYVAR
  2
AcDbDictionaryVar
  3
AutoCAD 2000
 90
    32768
280
     1
281
     0
  0
CLASS
  1
LWPOLYLINE
  2
AcDbPolyline
  3
AutoCAD 2000
 90
    32768
280
     1
281
     1
  0
CLASS
  1
HATCH
  2
AcDbHatch
  3
AutoCAD 2000
 90
    32768
280
     1
281
     1
  0
CLASS
  1
ACDBDICTIONARYWDFLT
  2
AcDbDictionaryWithDefault
  3
AutoCAD 2000
 90
    32768
280
     0
281
     0
  0
CLASS
  1
ACDBPLACEHOLDER
  2
AcDbPlaceHolder
  3
AutoCAD 2000
 90
    32768
280
     0
281
     0
  0
CLASS
  1
LAYOUT
  2
AcDbLayout
  3
AutoCAD 2000
 90
    32768
280
     0
281
     0
  0
CLASS
  1
LONG_TRANSACTION
  2
AcDbLongTransaction
  3
AutoCAD 2000
 90
    32768
280
     0
281
     0
  0
CLASS
  1
LWPOLYLINE
  2
AcDbPolyline
  3
AutoCAD 2000
 90
    32768
280
     0
281
     1
  0
CLASS
  1
HATCH
  2
AcDbHatch
  3
AutoCAD 2000
 90
    32768
280
     0
281
     1
  0
CLASS
  1
XRECORD
  2
AcDbXrecord
  3
AutoCAD 2000
 90
    32768
280
     0
281
     0
  0
CLASS
  1
LONG_TRANSACTION
  2
AcDbLongTransaction
  3
AutoCAD 2000
 90
    32768
280
     0
281
     0
  0
CLASS
  1
LWPOLYLINE
  2
AcDbPolyline
  3
AutoCAD 2000
 90
    32768
280
     0
281
     1
  0
CLASS
  1
HATCH
  2
AcDbHatch
  3
AutoCAD 2000
 90
    32768
280
     0
281
     1
  0
CLASS
  1
XRECORD
  2
AcDbXrecord
  3
AutoCAD 2000
 90
    32768
280
     0
281
     0
  0
ENDSEC
  0
SECTION
  2
TABLES
  0
TABLE
  2
VPORT
  5
12
330
0
100
AcDbSymbolTable
 70
     2
  0
VPORT
  5
8EA
330
12
100
AcDbSymbolTableRecord
100
AcDbViewportTableRecord
  2
*ACTIVE
 70
     0
 10
0.0
 20
0.0
 11
1.0
 21
1.0
 12
631.6926494462787
 22
803.7168522786405
 13
0.0
 23
0.0
 14
1.0
 24
1.0
 15
0.0
 25
0.0
 16
0.0
 26
0.0
 36
1.0
 17
0.0
 27
0.0
 37
0.0
 40
910.6615958019816
 41
1.287037037037036
 42
50.0
 43
0.0
 44
0.0
 50
0.0
 51
0.0
 71
     0
 72
   100
 73
     1
 74
     1
 75
     0
 76
     0
 77
     0
 78
     0
  0
ENDTAB
  0
TABLE
  2
LTYPE
  5
E
330
0
100
AcDbSymbolTable
 70
     2
  0
LTYPE
  5
F
330
E
100
AcDbSymbolTableRecord
100
AcDbLinetypeTableRecord
  2
BYBLOCK
 70
     0
  3

 72
    65
 73
     0
 40
0.0
  0
LTYPE
  5
6
330
E
100
AcDbSymbolTableRecord
100
AcDbLinetypeTableRecord
  2
BYLAYER
 70
     0
  3

 72
    65
 73
     0
 40
0.0
  0
LTYPE
  5
5
330
E
100
AcDbSymbolTableRecord
100
AcDbLinetypeTableRecord
  2
CONTINUOUS
 70
     0
  3
Solid line
 72
    65
 73
     0
 40
0.0
  0
LTYPE
  5
4D
330
E
100
AcDbSymbolTableRecord
100
AcDbLinetypeTableRecord
  2
CENTER
 70
     0
  3
----- - ----- - ----- - ----- - ----- - -----
 72
    65
 73
     4
 40
35.0
 49
30.0
 74
     0
 49
-1.5
 74
     0
 49
2.0
 74
     0
 49
-1.5
 74
     0
  0
ENDTAB
  0
TABLE
  2
LAYER
  5
B
330
0
100
AcDbSymbolTable
 70
     4
  0
LAYER
  5
4
330
B
100
AcDbSymbolTableRecord
100
AcDbLayerTableRecord
  2
0
 70
     0
 62
     7
  6
CONTINUOUS
  0
LAYER
  5
27
330
B
100
AcDbSymbolTableRecord
100
AcDbLayerTableRecord
  2
L-ZISSEN
 70
     0
 62
     7
  6
CONTINUOUS
  0
LAYER
  5
4C
330
B
100
AcDbSymbolTableRecord
100
AcDbLayerTableRecord
  2
L-TYUSIN
 70
     0
 62
     1
  6
CENTER
  0
LAYER
  5
1B
330
B
100
AcDbSymbolTableRecord
100
AcDbLayerTableRecord
  2
SUNPOU
 70
     0
 62
     3
  6
CONTINUOUS
  0
ENDTAB
  0
TABLE
  2
STYLE
  5
C
330
0
100
AcDbSymbolTable
 70
     2
  0
STYLE
  5
D
330
C
100
AcDbSymbolTableRecord
100
AcDbTextStyleTableRecord
  2
STANDARD
 70
     0
 40
0.0
 41
1.0
 50
0.0
 71
     0
 42
15.0
  3
txt.shx
  4

  0
STYLE
  5
B3
330
C
100
AcDbSymbolTableRecord
100
AcDbTextStyleTableRecord
  2
STAVDARD
 70
     0
 40
15.0
 41
1.0
 50
0.0
 71
     0
 42
15.0
  3
SIMPLEX
  4
BIGFONT
  0
ENDTAB
  0
TABLE
  2
VIEW
  5
10
330
0
100
AcDbSymbolTable
 70
     0
  0
ENDTAB
  0
TABLE
  2
UCS
  5
11
330
0
100
AcDbSymbolTable
 70
     0
  0
ENDTAB
  0
TABLE
  2
APPID
  5
14
330
0
100
AcDbSymbolTable
 70
     1
  0
APPID
  5
15
330
14
100
AcDbSymbolTableRecord
100
AcDbRegAppTableRecord
  2
ACAD
 70
     0
  0
ENDTAB
  0
TABLE
  2
DIMSTYLE
  5
16
330
0
100
AcDbSymbolTable
 70
     1
  0
DIMSTYLE
105
1D
330
16
100
AcDbSymbolTableRecord
100
AcDbDimStyleTableRecord
  2
STANDARD
 70
     0
  3

  4

  5

  6

  7

 40
1.0
 41
0.18
 42
0.0625
 43
0.38
 44
0.18
 45
0.0
 46
0.0
 47
0.0
 48
0.0
140
0.18
141
0.09
142
0.0
143
25.4
144
1.0
145
0.0
146
1.0
147
0.09
 71
     0
 72
     0
 73
     1
 74
     1
 75
     0
 76
     0
 77
     0
 78
     0
170
     0
171
     2
172
     0
173
     0
174
     0
175
     0
176
     0
177
     0
178
     0
270
     2
271
     4
272
     4
273
     2
274
     2
340
D
275
     0
280
     0
281
     0
282
     0
283
     1
284
     0
285
     0
286
     0
287
     3
288
     0
  0
ENDTAB
  0
TABLE
  2
BLOCK_RECORD
  5
1
330
0
100
AcDbSymbolTable
 70
     0
  0
BLOCK_RECORD
  5
2
102
{ACAD_XDICTIONARY
360
817
102
}
330
1
100
AcDbSymbolTableRecord
100
AcDbBlockTableRecord
  2
*MODEL_SPACE
  0
BLOCK_RECORD
  5
8
102
{ACAD_XDICTIONARY
360
819
102
}
330
1
100
AcDbSymbolTableRecord
100
AcDbBlockTableRecord
  2
*PAPER_SPACE
  0
ENDTAB
  0
ENDSEC
  0
SECTION
  2
BLOCKS
  0
BLOCK
  5
3
330
2
100
AcDbEntity
  8
0
100
AcDbBlockBegin
  2
*MODEL_SPACE
 70
     0
 10
0.0
 20
0.0
 30
0.0
  3
*MODEL_SPACE
  1

  0
ENDBLK
  5
7
330
2
100
AcDbEntity
  8
0
100
AcDbBlockEnd
  0
BLOCK
  5
9
330
8
100
AcDbEntity
 67
     1
  8
0
100
AcDbBlockBegin
  2
*PAPER_SPACE
 70
     0
 10
0.0
 20
0.0
 30
0.0
  3
*PAPER_SPACE
  1

  0
ENDBLK
  5
A
330
8
100
AcDbEntity
 67
     1
  8
0
100
AcDbBlockEnd
  0
ENDSEC
  0
SECTION
  2
ENTITIES
  0
LINE
  5
26
330
2
100
AcDbEntity
  8
L-ZISSEN
  6
CONTINUOUS
 62
     7
100
AcDbLine
 10
1146.349469511706
 20
362.7838359146891
 30
0.0
 11
1036.349469511706
 21
362.7838359146892
 31
0.0
  0
LINE
  5
28
330
2
100
AcDbEntity
  8
L-ZISSEN
  6
CONTINUOUS
 62
     7
100
AcDbLine
 10
1151.349469511705
 20
1236.648299487705
 30
0.0
 11
1036.349469511705
 21
1236.648299487705
 31
0.0
  0
LINE
  5
29
330
2
100
AcDbEntity
  8
L-ZISSEN
  6
CONTINUOUS
 62
     7
100
AcDbLine
 10
1034.349469511706
 20
1238.648299487705
 30
0.0
 11
1151.349469511705
 21
1238.648299487705
 31
0.0
  0
LINE
  5
2A
330
2
100
AcDbEntity
  8
L-ZISSEN
  6
CONTINUOUS
 62
     7
100
AcDbLine
 10
1067.349469511706
 20
1076.148299487705
 30
0.0
 11
1047.349469511706
 21
1076.148299487705
 31
0.0
  0
LINE
  5
2B
330
2
100
AcDbEntity
  8
L-ZISSEN
  6
CONTINUOUS
 62
     7
100
AcDbLine
 10
1044.849469511706
 20
1089.148299487705
 30
0.0
 11
1067.849469511706
 21
1089.148299487705
 31
0.0
  0
LINE
  5
2C
330
2
100
AcDbEntity
  8
L-ZISSEN
  6
CONTINUOUS
 62
     7
100
AcDbLine
 10
1105.849469511706
 20
1208.648299487705
 30
0.0
 11
1044.849469511706
 21
1208.648299487705
 31
0.0
  0
LINE
  5
2D
330
2
100
AcDbEntity
  8
L-ZISSEN
  6
CONTINUOUS
 62
     7
100
AcDbLine
 10
1046.849469511705
 20
1091.648299487704
 30
0.0
 11
1067.849469511706
 21
1091.648299487703
 31
0.0
  0
CIRCLE
  5
2E
330
2
100
AcDbEntity
  8
L-ZISSEN
  6
CONTINUOUS
 62
     7
100
AcDbCircle
 10
1067.849469511706
 20
1119.148299487705
 30
0.0
 40
27.5
  0
CIRCLE
  5
2F
330
2
100
AcDbEntity
  8
L-ZISSEN
  6
CONTINUOUS
 62
     7
100
AcDbCircle
 10
1067.849469511706
 20
1119.148299487705
 30
0.0
 40
25.0
  0
LINE
  5
30
330
2
100
AcDbEntity
  8
L-ZISSEN
  6
CONTINUOUS
 62
     7
100
AcDbLine
 10
1093.349469511706
 20
603.5910387632516
 30
0.0
 11
1042.349469511706
 21
603.5910387632516
 31
0.0
  0
LINE
  5
31
330
2
100
AcDbEntity
  8
L-ZISSEN
  6
CONTINUOUS
 62
     7
100
AcDbLine
 10
1041.099469511706
 20
582.5910387632516
 30
0.0
 11
1067.849469511706
 21
582.5910387632516
 31
0.0
  0
LINE
  5
32
330
2
100
AcDbEntity
  8
L-ZISSEN
  6
CONTINUOUS
 62
     7
100
AcDbLine
 10
1094.599469511706
 20
585.5910387632516
 30
0.0
 11
1041.099469511706
 21
585.5910387632516
 31
0.0
  0
LINE
  5
33
330
2
100
AcDbEntity
  8
L-ZISSEN
  6
CONTINUOUS
 62
     7
100
AcDbLine
 10
1090.349469511706
 20
588.5910387632516
 30
0.0
 11
1045.349469511706
 21
588.5910387632516
 31
0.0
  0
LINE
  5
34
330
2
100
AcDbEntity
  8
L-ZISSEN
  6
CONTINUOUS
 62
     7
100
AcDbLine
 10
1095.849469511706
 20
464.5910387632516
 30
0.0
 11
1041.849469511706
 21
464.5910387632516
 31
0.0
  0
LINE
  5
35
330
2
100
AcDbEntity
  8
L-ZISSEN
  6
CONTINUOUS
 62
     7
100
AcDbLine
 10
1051.014489447479
 20
425.5910387632515
 30
0.0
 11
1047.222336340973
 21
424.2910387632516
 31
0.0
  0
LINE
  5
36
330
2
100
AcDbEntity
  8
L-ZISSEN
  6
CONTINUOUS
 62
     7
100
AcDbLine
 10
1043.249469511706
 20
424.2910387632516
 30
0.0
 11
1052.449469511706
 21
424.2910387632516
 31
0.0
  0
LINE
  5
37
330
2
100
AcDbEntity
  8
L-ZISSEN
  6
CONTINUOUS
 62
     7
100
AcDbLine
 10
1043.899469511706
 20
419.2910387632516
 30
0.0
 11
1051.799469511706
 21
419.2910387632516
 31
0.0
  0
LINE
  5
38
330
2
100
AcDbEntity
  8
L-ZISSEN
  6
CONTINUOUS
 62
     7
100
AcDbLine
 10
1052.099469511706
 20
419.5910387632515
 30
0.0
 11
1043.599469511706
 21
419.5910387632517
 31
0.0
  0
LINE
  5
39
330
2
100
AcDbEntity
  8
L-ZISSEN
  6
CONTINUOUS
 62
     7
100
AcDbLine
 10
1092.849469511706
 20
425.5910387632516
 30
0.0
 11
1042.849469511706
 21
425.5910387632516
 31
0.0
  0
LINE
  5
3A
330
2
100
AcDbEntity
  8
L-ZISSEN
  6
CONTINUOUS
 62
     7
100
AcDbLine
 10
1042.599469511706
 20
578.5910387632516
 30
0.0
 11
1051.099469511706
 21
578.5910387632513
 31
0.0
  0
LINE
  5
3B
330
2
100
AcDbEntity
  8
L-ZISSEN
  6
CONTINUOUS
 62
     7
100
AcDbLine
 10
1050.799469511706
 20
578.8910387632515
 30
0.0
 11
1042.899469511706
 21
578.8910387632515
 31
0.0
  0
LINE
  5
3C
330
2
100
AcDbEntity
  8
L-ZISSEN
  6
CONTINUOUS
 62
     7
100
AcDbLine
 10
1051.449469511706
 20
573.8910387632516
 30
0.0
 11
1042.249469511706
 21
573.8910387632516
 31
0.0
  0
LINE
  5
3D
330
2
100
AcDbEntity
  8
L-ZISSEN
  6
CONTINUOUS
 62
     7
100
AcDbLine
 10
1052.349469511706
 20
572.5910387632516
 30
0.0
 11
1041.849469511706
 21
572.5910387632516
 31
0.0
  0
LINE
  5
3E
330
2
100
AcDbEntity
  8
L-ZISSEN
  6
CONTINUOUS
 62
     7
100
AcDbLine
 10
1047.049469511706
 20
556.5910387632515
 30
0.0
 11
1052.349469511706
 21
556.5910387632515
 31
0.0
  0
LINE
  5
3F
330
2
100
AcDbEntity
  8
L-ZISSEN
  6
CONTINUOUS
 62
     7
100
AcDbLine
 10
1052.349469511706
 20
494.5910387632515
 30
0.0
 11
1047.049469511706
 21
494.5910387632515
 31
0.0
  0
ARC
  5
40
330
2
100
AcDbEntity
  8
L-ZISSEN
  6
CONTINUOUS
 62
     7
100
AcDbCircle
 10
1050.349469511706
 20
487.5910387632516
 30
0.0
 40
3.00000000000005
100
AcDbArc
 50
180.0
 51
269.9999999999999
  0
ARC
  5
41
330
2
100
AcDbEntity
  8
L-ZISSEN
  6
CONTINUOUS
 62
     7
100
AcDbCircle
 10
1050.349469511706
 20
563.5910387632513
 30
0.0
 40
3.00000000000005
100
AcDbArc
 50
90.0000000000001
 51
160.5287793655063
  0
LINE
  5
42
330
2
100
AcDbEntity
  8
L-ZISSEN
  6
CONTINUOUS
 62
     7
100
AcDbLine
 10
1067.849469511706
 20
567.5910387632516
 30
0.0
 11
1040.349469511706
 21
567.5910387632516
 31
0.0
  0
LINE
  5
43
330
2
100
AcDbEntity
  8
L-ZISSEN
  6
CONTINUOUS
 62
     7
100
AcDbLine
 10
1093.849469511706
 20
429.5910387632516
 30
0.0
 11
1041.849469511706
 21
429.5910387632516
 31
0.0
  0
LINE
  5
49
330
2
100
AcDbEntity
  8
L-ZISSEN
  6
CONTINUOUS
 62
     7
100
AcDbLine
 10
325.3750632040871
 20
748.2838359146892
 30
0.0
 11
325.3750632040871
 21
736.2838359146893
 31
0.0
  0
LINE
  5
4A
330
2
100
AcDbEntity
  8
L-ZISSEN
  6
CONTINUOUS
 62
     7
100
AcDbLine
 10
336.5588293881605
 20
748.2838359146893
 30
0.0
 11
336.5588293881605
 21
736.2838359146893
 31
0.0
  0
LINE
  5
4B
330
2
100
AcDbEntity
  8
L-TYUSIN
  6
CENTER
 62
     1
100
AcDbLine
 10
330.9669462961237
 20
758.2838359146892
 30
0.0
 11
330.9669462961237
 21
703.5910387632517
 31
0.0
  0
LINE
  5
4E
330
2
100
AcDbEntity
  8
L-ZISSEN
100
AcDbLine
 10
317.9669462961239
 20
748.2838359146892
 30
0.0
 11
317.9669462961239
 21
736.2838359146893
 31
0.0
  0
LINE
  5
4F
330
2
100
AcDbEntity
  8
L-ZISSEN
100
AcDbLine
 10
343.9669462961235
 20
748.2838359146893
 30
0.0
 11
343.9669462961235
 21
736.2838359146893
 31
0.0
  0
LINE
  5
53
330
2
100
AcDbEntity
  8
L-ZISSEN
 62
     7
100
AcDbLine
 10
963.3181494440911
 20
748.5910387632517
 30
0.0
 11
963.3181494440902
 21
736.5910387632517
 31
0.0
  0
LINE
  5
54
330
2
100
AcDbEntity
  8
L-ZISSEN
 62
     7
100
AcDbLine
 10
949.3807895793237
 20
748.5910387632517
 30
0.0
 11
949.3807895793237
 21
736.5910387632517
 31
0.0
  0
LINE
  5
55
330
2
100
AcDbEntity
  8
L-ZISSEN
100
AcDbLine
 10
941.5994695117067
 20
748.5910387632517
 30
0.0
 11
941.5994695117067
 21
736.5910387632517
 31
0.0
  0
LINE
  5
56
330
2
100
AcDbEntity
  8
L-ZISSEN
100
AcDbLine
 10
971.0994695117067
 20
748.5910387632517
 30
0.0
 11
971.0994695117067
 21
736.5910387632517
 31
0.0
  0
LINE
  5
57
330
2
100
AcDbEntity
  8
L-TYUSIN
  6
CENTER
 62
     1
100
AcDbLine
 10
956.3494695117062
 20
559.8436103427915
 30
0.0
 11
956.3494695117062
 21
758.5910387632516
 31
0.0
  0
ARC
  5
58
330
2
100
AcDbEntity
  8
L-ZISSEN
100
AcDbCircle
 10
391.5604314770262
 20
423.2838359146892
 30
0.0
 40
3.0
100
AcDbArc
 50
270.0
 51
347.4711922908484
  0
LINE
  5
59
330
2
100
AcDbEntity
  8
L-ZISSEN
100
AcDbLine
 10
351.9669462961237
 20
429.2838359146892
 30
0.0
 11
401.9669462961237
 21
429.2838359146892
 31
0.0
  0
LINE
  5
5A
330
2
100
AcDbEntity
  8
L-ZISSEN
100
AcDbLine
 10
404.4669462961242
 20
494.2838359146892
 30
0.0
 11
343.4669462961242
 21
494.2838359146892
 31
0.0
  0
LINE
  5
5B
330
2
100
AcDbEntity
  8
L-ZISSEN
100
AcDbLine
 10
404.4669462961239
 20
502.2838359146892
 30
0.0
 11
343.4669462961239
 21
502.2838359146892
 31
0.0
  0
LINE
  5
5C
330
2
100
AcDbEntity
  8
L-ZISSEN
100
AcDbLine
 10
404.4669462961242
 20
498.2838359146892
 30
0.0
 11
343.4669462961242
 21
498.2838359146892
 31
0.0
  0
LINE
  5
5D
330
2
100
AcDbEntity
  8
L-ZISSEN
  6
CONTINUOUS
 62
     7
100
AcDbLine
 10
347.1770774807073
 20
574.9261329221646
 30
0.0
 11
403.1981488654937
 21
574.9261329221646
 31
0.0
  0
LINE
  5
5E
330
2
100
AcDbEntity
  8
L-ZISSEN
  6
CONTINUOUS
 62
     7
100
AcDbLine
 10
303.9209677130252
 20
366.2838359146892
 30
0.0
 11
403.9669462961237
 21
366.2838359146893
 31
0.0
  0
LINE
  5
5F
330
2
100
AcDbEntity
  8
L-ZISSEN
  6
CONTINUOUS
 62
     7
100
AcDbLine
 10
293.9669462961237
 20
355.2838359146892
 30
0.0
 11
413.9669462961237
 21
355.2838359146892
 31
0.0
  0
LINE
  5
60
330
2
100
AcDbEntity
  8
L-ZISSEN
  6
CONTINUOUS
 62
     7
100
AcDbLine
 10
303.3581940841156
 20
703.5910387632518
 30
0.0
 11
404.2527832441187
 21
703.5910387632516
 31
0.0
  0
LINE
  5
61
330
2
100
AcDbEntity
  8
L-ZISSEN
100
AcDbLine
 10
406.466968303524
 20
515.6210039167515
 30
0.0
 11
343.966924288723
 21
515.6210039167515
 31
0.0
  0
LINE
  5
62
330
2
100
AcDbEntity
  8
L-ZISSEN
100
AcDbLine
 10
348.4803315530693
 20
566.5795993856369
 30
0.0
 11
403.1981488654937
 21
566.5795993856369
 31
0.0
  0
LINE
  5
63
330
2
100
AcDbEntity
  8
L-ZISSEN
100
AcDbLine
 10
347.2064106037305
 20
586.4035957851621
 30
0.0
 11
403.1981488654937
 21
586.4035957851622
 31
0.0
  0
LINE
  5
64
330
2
100
AcDbEntity
  8
L-TYUSIN
100
AcDbLine
 10
373.9669462961237
 20
538.7838359146892
 30
0.0
 11
401.6711466727652
 21
538.7838359146892
 31
0.0
  0
LINE
  5
65
330
2
100
AcDbEntity
  8
L-ZISSEN
100
AcDbLine
 10
395.7970733150459
 20
530.6236801466751
 30
0.0
 11
391.9669462961237
 21
528.41235528127
 31
0.0
  0
LINE
  5
66
330
2
100
AcDbEntity
  8
L-ZISSEN
100
AcDbLine
 10
391.9669462961237
 20
549.1553165481084
 30
0.0
 11
395.7970733150459
 21
546.9439916827033
 31
0.0
  0
LINE
  5
67
330
2
100
AcDbEntity
  8
L-ZISSEN
100
AcDbLine
 10
392.4374155189295
 20
591.9787666038309
 30
0.0
 11
402.3967494628127
 21
589.9611667147436
 31
0.0
  0
LINE
  5
68
330
2
100
AcDbEntity
  8
L-ZISSEN
100
AcDbLine
 10
393.5843781300805
 20
639.477801773992
 30
0.0
 11
394.9666042415297
 21
607.0562345605019
 31
0.0
  0
LINE
  5
69
330
2
100
AcDbEntity
  8
L-ZISSEN
100
AcDbLine
 10
394.9666042415297
 20
607.0562345605019
 30
0.0
 11
374.4043532466721
 21
607.0546306586404
 31
0.0
  0
LINE
  5
6A
330
2
100
AcDbEntity
  8
L-ZISSEN
  6
CONTINUOUS
 62
     7
100
AcDbLine
 10
382.4669462961237
 20
380.2838359146893
 30
0.0
 11
403.9669435987255
 21
380.2838359146893
 31
0.0
  0
LINE
  5
7E
330
2
100
AcDbEntity
  8
L-ZISSEN
100
AcDbLine
 10
387.9669462961237
 20
502.2838359146892
 30
0.0
 11
387.9669462961237
 21
515.2838359146892
 31
0.0
  0
LINE
  5
7F
330
2
100
AcDbEntity
  8
L-ZISSEN
100
AcDbLine
 10
359.9669462961237
 20
502.2838359146892
 30
0.0
 11
359.9669462961237
 21
515.2838359146892
 31
0.0
  0
LINE
  5
80
330
2
100
AcDbEntity
  8
L-ZISSEN
100
AcDbLine
 10
342.4669462961237
 20
516.2838359146892
 30
0.0
 11
343.4669462961239
 21
502.2838359146892
 31
0.0
  0
LINE
  5
81
330
2
100
AcDbEntity
  8
L-ZISSEN
  6
CONTINUOUS
 62
     7
100
AcDbLine
 10
283.9669462961237
 20
512.7838359146892
 30
0.0
 11
283.9669462961237
 21
508.2838359146893
 31
0.0
  0
LINE
  5
82
330
2
100
AcDbEntity
  8
L-ZISSEN
  6
CONTINUOUS
 62
     7
100
AcDbLine
 10
263.6669462961238
 20
512.7838359146892
 30
0.0
 11
263.6669462961238
 21
362.7838359146892
 31
0.0
  0
LINE
  5
83
330
2
100
AcDbEntity
  8
L-ZISSEN
  6
CONTINUOUS
 62
     7
100
AcDbLine
 10
265.9669462961237
 20
362.7838359146892
 30
0.0
 11
265.9669462961237
 21
512.7838359146892
 31
0.0
  0
LINE
  5
84
330
2
100
AcDbEntity
  8
L-ZISSEN
  6
CONTINUOUS
 62
     7
100
AcDbLine
 10
293.9669462961237
 20
515.2838359146892
 30
0.0
 11
293.9669462961237
 21
355.2838359146892
 31
0.0
  0
LINE
  5
88
330
2
100
AcDbEntity
  8
L-ZISSEN
100
AcDbLine
 10
365.4669462961237
 20
374.7838359146892
 30
0.0
 11
365.4669462961237
 21
413.2838359146892
 31
0.0
  0
LINE
  5
89
330
2
100
AcDbEntity
  8
L-ZISSEN
100
AcDbLine
 10
382.4669462961237
 20
374.7838359146892
 30
0.0
 11
382.4669462961237
 21
413.2838359146892
 31
0.0
  0
LINE
  5
8A
330
2
100
AcDbEntity
  8
L-ZISSEN
100
AcDbLine
 10
373.9669462961237
 20
413.2838359146892
 30
0.0
 11
373.9669462961237
 21
374.7838359146892
 31
0.0
  0
LINE
  5
8B
330
2
100
AcDbEntity
  8
L-ZISSEN
  6
CONTINUOUS
 62
     7
100
AcDbLine
 10
283.9669462961237
 20
492.2838359146892
 30
0.0
 11
283.9669462961237
 21
383.2838359146892
 31
0.0
  0
LINE
  5
8C
330
2
100
AcDbEntity
  8
L-ZISSEN
  6
CONTINUOUS
 62
     7
100
AcDbLine
 10
303.9669462961237
 20
380.2838359146892
 30
0.0
 11
365.4669462961237
 21
380.2838359146893
 31
0.0
  0
LINE
  5
8D
330
2
100
AcDbEntity
  8
L-ZISSEN
  6
CONTINUOUS
 62
     7
100
AcDbLine
 10
283.9669462961237
 20
362.7838359146892
 30
0.0
 11
265.9669462961237
 21
362.7838359146892
 31
0.0
  0
LINE
  5
8E
330
2
100
AcDbEntity
  8
L-ZISSEN
  6
CONTINUOUS
 62
     7
100
AcDbLine
 10
263.6669462961238
 20
362.7838359146892
 30
0.0
 11
265.9669462961237
 21
362.7838359146892
 31
0.0
  0
LINE
  5
8F
330
2
100
AcDbEntity
  8
L-ZISSEN
  6
CONTINUOUS
 62
     7
100
AcDbLine
 10
283.9669462961237
 20
367.2838359146892
 30
0.0
 11
283.9669462961237
 21
362.7838359146892
 31
0.0
  0
LINE
  5
90
330
2
100
AcDbEntity
  8
L-ZISSEN
  6
CONTINUOUS
 62
     7
100
AcDbLine
 10
283.9669462961237
 20
383.2838359146892
 30
0.0
 11
293.9669462961237
 21
383.2838359146892
 31
0.0
  0
LINE
  5
91
330
2
100
AcDbEntity
  8
L-ZISSEN
  6
CONTINUOUS
 62
     7
100
AcDbLine
 10
283.9669462961237
 20
367.2838359146892
 30
0.0
 11
293.9669462961237
 21
367.2838359146892
 31
0.0
  0
LINE
  5
92
330
2
100
AcDbEntity
  8
L-ZISSEN
  6
CONTINUOUS
 62
     7
100
AcDbLine
 10
283.9669462961237
 20
367.2838359146893
 30
0.0
 11
283.9669462961237
 21
383.2838359146892
 31
0.0
  0
LINE
  5
93
330
2
100
AcDbEntity
  8
L-ZISSEN
  6
CONTINUOUS
 62
     7
100
AcDbLine
 10
303.5566695959214
 20
380.2718022160727
 30
0.0
 11
303.9669462961237
 21
380.2838359146892
 31
0.0
  0
ARC
  5
94
330
2
100
AcDbEntity
  8
L-ZISSEN
  6
CONTINUOUS
 62
     7
100
AcDbCircle
 10
303.9669462961237
 20
373.2838359146892
 30
0.0
 40
7.0
100
AcDbArc
 50
93.36008614106431
 51
270.0
  0
LINE
  5
95
330
2
100
AcDbEntity
  8
L-ZISSEN
100
AcDbLine
 10
365.4669462961237
 20
374.7838359146892
 30
0.0
 11
382.4669462961237
 21
374.7838359146892
 31
0.0
  0
LINE
  5
96
330
2
100
AcDbEntity
  8
L-TYUSIN
  6
CENTER
 62
     1
100
AcDbLine
 10
373.9669462961237
 20
374.7838359146892
 30
0.0
 11
373.9669462961237
 21
369.1374236062177
 31
0.0
  0
LINE
  5
97
330
2
100
AcDbEntity
  8
L-ZISSEN
  6
CONTINUOUS
 62
     7
100
AcDbLine
 10
303.9669443887751
 20
486.2838359146892
 30
0.0
 11
350.6515616807391
 21
486.2838359146892
 31
0.0
  0
LINE
  5
98
330
2
100
AcDbEntity
  8
L-ZISSEN
  6
CONTINUOUS
 62
     7
100
AcDbLine
 10
303.9185237877049
 20
472.2838359146892
 30
0.0
 11
350.9746386038159
 21
472.2838359146894
 31
0.0
  0
ARC
  5
99
330
2
100
AcDbEntity
  8
L-ZISSEN
  6
CONTINUOUS
 62
     7
100
AcDbCircle
 10
303.9669462961237
 20
479.2838359146892
 30
0.0
 40
7.0
100
AcDbArc
 50
89.59774662856855
 51
270.0000156118609
  0
LINE
  5
9A
330
2
100
AcDbEntity
  8
L-ZISSEN
  6
CONTINUOUS
 62
     7
100
AcDbLine
 10
283.9669462961237
 20
508.2838359146892
 30
0.0
 11
293.9669462961237
 21
508.2838359146892
 31
0.0
  0
LINE
  5
9B
330
2
100
AcDbEntity
  8
L-ZISSEN
  6
CONTINUOUS
 62
     7
100
AcDbLine
 10
283.9669462961237
 20
492.2838359146892
 30
0.0
 11
293.9669462961237
 21
492.2838359146892
 31
0.0
  0
LINE
  5
9C
330
2
100
AcDbEntity
  8
L-ZISSEN
  6
CONTINUOUS
 62
     7
100
AcDbLine
 10
283.9669462961237
 20
492.2838359146892
 30
0.0
 11
283.9669462961237
 21
508.2838359146892
 31
0.0
  0
LINE
  5
9D
330
2
100
AcDbEntity
  8
L-ZISSEN
100
AcDbLine
 10
386.9669462961237
 20
494.2838359146892
 30
0.0
 11
383.9669462961237
 21
429.2838359146892
 31
0.0
  0
LINE
  5
9E
330
2
100
AcDbEntity
  8
L-ZISSEN
100
AcDbLine
 10
351.9669462961237
 20
429.2838359146892
 30
0.0
 11
350.5120353370104
 21
492.3299774762637
 31
0.0
  0
LINE
  5
9F
330
2
100
AcDbEntity
  8
L-ZISSEN
100
AcDbLine
 10
353.4448999346695
 20
422.6330445412332
 30
0.0
 11
351.9669462961237
 21
429.2838359146892
 31
0.0
  0
LINE
  5
A0
330
2
100
AcDbEntity
  8
L-ZISSEN
100
AcDbLine
 10
356.3734611152213
 20
420.2838359146892
 30
0.0
 11
391.5604314770262
 21
420.2838359146892
 31
0.0
  0
LINE
  5
A1
330
2
100
AcDbEntity
  8
L-ZISSEN
100
AcDbLine
 10
364.7867501988421
 20
415.2838359146892
 30
0.0
 11
383.1471423934049
 21
415.2838359146892
 31
0.0
  0
LINE
  5
A2
330
2
100
AcDbEntity
  8
L-ZISSEN
100
AcDbLine
 10
382.4669462961237
 20
413.2838359146892
 30
0.0
 11
365.4669462961237
 21
413.2838359146892
 31
0.0
  0
ARC
  5
A3
330
2
100
AcDbEntity
  8
L-ZISSEN
100
AcDbCircle
 10
356.3734611152213
 20
423.2838359146892
 30
0.0
 40
3.0
100
AcDbArc
 50
192.5288077091515
 51
270.0
  0
LINE
  5
A4
330
2
100
AcDbEntity
  8
L-ZISSEN
100
AcDbLine
 10
363.1277230690962
 20
419.4799520498275
 30
0.0
 11
363.8061695231513
 21
416.087719779551
 31
0.0
  0
ARC
  5
A5
330
2
100
AcDbEntity
  8
L-ZISSEN
100
AcDbCircle
 10
362.1471423934051
 20
419.2838359146892
 30
0.0
 40
1.0
100
AcDbArc
 50
11.30993247402028
 51
90.0
  0
ARC
  5
A6
330
2
100
AcDbEntity
  8
L-ZISSEN
100
AcDbCircle
 10
364.7867501988421
 20
416.2838359146892
 30
0.0
 40
1.0
100
AcDbArc
 50
191.3099324740207
 51
269.9999999999998
  0
LINE
  5
A7
330
2
100
AcDbEntity
  8
L-ZISSEN
100
AcDbLine
 10
367.9669462961237
 20
415.2838359146892
 30
0.0
 11
367.9669462961237
 21
413.2838359146892
 31
0.0
  0
ARC
  5
A8
330
2
100
AcDbEntity
  8
L-ZISSEN
100
AcDbCircle
 10
385.7867501988421
 20
419.2838359146892
 30
0.0
 40
1.0
100
AcDbArc
 50
89.99999999999998
 51
168.6900675259797
  0
LINE
  5
A9
330
2
100
AcDbEntity
  8
L-ZISSEN
100
AcDbLine
 10
384.8061695231513
 20
419.4799520498275
 30
0.0
 11
384.1277230690959
 21
416.0877197795509
 31
0.0
  0
ARC
  5
AA
330
2
100
AcDbEntity
  8
L-ZISSEN
100
AcDbCircle
 10
383.1471423934049
 20
416.2838359146892
 30
0.0
 40
1.0
100
AcDbArc
 50
269.9999999999999
 51
348.6900675259793
  0
LINE
  5
AB
330
2
100
AcDbEntity
  8
L-ZISSEN
100
AcDbLine
 10
379.9669462961237
 20
415.2838359146892
 30
0.0
 11
379.9669462961237
 21
413.2838359146892
 31
0.0
  0
LINE
  5
AC
330
2
100
AcDbEntity
  8
L-ZISSEN
100
AcDbLine
 10
345.9669462961242
 20
494.2838359146892
 30
0.0
 11
345.9669462961242
 21
498.2838359146892
 31
0.0
  0
ARC
  5
AD
330
2
100
AcDbEntity
  8
L-ZISSEN
100
AcDbCircle
 10
348.5125676687808
 20
492.2838359146892
 30
0.0
 40
2.0
100
AcDbArc
 50
1.321975659536992
 51
90.0
  0
LINE
  5
AE
330
2
100
AcDbEntity
  8
L-ZISSEN
100
AcDbLine
 10
343.4669462961239
 20
502.2838359146892
 30
0.0
 11
343.4669462961242
 21
494.2838359146892
 31
0.0
  0
LINE
  5
AF
330
2
100
AcDbEntity
  8
L-ZISSEN
  6
CONTINUOUS
100
AcDbLine
 10
274.5638433548815
 20
613.7286113329634
 30
0.0
 11
128.1065377521438
 21
613.7286113329633
 31
0.0
  0
TEXT
  5
B0
330
2
100
AcDbEntity
  8
L-ZISSEN
100
AcDbText
 10
133.0732789244013
 20
618.0475616131266
 30
0.0
 40
15.0
  1
CONNECTION
100
AcDbText
  0
LINE
  5
B1
330
2
100
AcDbEntity
  8
L-ZISSEN
  6
CONTINUOUS
100
AcDbLine
 10
274.5638433548813
 20
665.7286113329633
 30
0.0
 11
112.0089512503673
 21
665.7286113329632
 31
0.0
  0
TEXT
  5
B2
330
2
100
AcDbEntity
  8
L-ZISSEN
100
AcDbText
 10
123.7906592739277
 20
672.239417623347
 30
0.0
 40
15.0
  1
G1/2
  7
STAVDARD
100
AcDbText
  0
LINE
  5
B6
330
2
100
AcDbEntity
  8
L-ZISSEN
  6
CONTINUOUS
100
AcDbLine
 10
216.0652792283369
 20
639.7286113329633
 30
0.0
 11
112.0089512503673
 21
639.7286113329633
 31
0.0
  0
TEXT
  5
B7
330
2
100
AcDbEntity
  8
L-ZISSEN
100
AcDbText
 10
113.367622268588
 20
644.4378580141407
 30
0.0
 40
15.0
  1
CONDUIT
100
AcDbText
  0
LINE
  5
B8
330
2
100
AcDbEntity
  8
L-ZISSEN
  6
CONTINUOUS
100
AcDbLine
 10
315.1118150298841
 20
587.3326155657804
 30
0.0
 11
274.5638433548813
 21
665.7286113329633
 31
0.0
  0
LINE
  5
B9
330
2
100
AcDbEntity
  8
L-ZISSEN
  6
CONTINUOUS
 62
     7
100
AcDbLine
 10
295.4669462961235
 20
627.1910387632517
 30
0.0
 11
295.4669462961235
 21
607.0910387632517
 31
0.0
  0
LINE
  5
BA
330
2
100
AcDbEntity
  8
L-ZISSEN
100
AcDbLine
 10
352.9672883507176
 20
607.0562345605019
 30
0.0
 11
354.3495144621665
 21
639.4778017739918
 31
0.0
  0
SOLID
  5
BB
330
2
100
AcDbEntity
  8
L-ZISSEN
  6
CONTINUOUS
100
AcDbTrace
 10
311.9981118206978
 20
596.9805495468382
 30
0.0
 11
309.0373604327428
 21
595.4491899124501
 31
0.0
 12
315.1118150298846
 22
587.3326155657791
 32
0.0
 13
315.1118150298846
 23
587.3326155657791
 33
0.0
  0
LINE
  5
BC
330
2
100
AcDbEntity
  8
L-ZISSEN
  6
CENTER
 62
     1
100
AcDbLine
 10
293.9669462961237
 20
581.2838359146892
 30
0.0
 11
343.966924288723
 21
581.2838359146892
 31
0.0
  0
LINE
  5
BD
330
2
100
AcDbEntity
  8
L-ZISSEN
  6
CONTINUOUS
 62
     7
100
AcDbLine
 10
352.9687721555414
 20
607.0910387632515
 30
0.0
 11
294.1669462961235
 21
607.0910387632517
 31
0.0
  0
LINE
  5
BE
330
2
100
AcDbEntity
  8
L-ZISSEN
  6
CONTINUOUS
 62
     7
100
AcDbLine
 10
343.966924288723
 20
516.2838359146892
 30
0.0
 11
293.9669462961237
 21
516.2838359146892
 31
0.0
  0
LINE
  5
BF
330
2
100
AcDbEntity
  8
L-ZISSEN
  6
CONTINUOUS
 62
     7
100
AcDbLine
 10
293.9669462961237
 20
561.2838359146892
 30
0.0
 11
343.966924288723
 21
561.2838359146892
 31
0.0
  0
LINE
  5
C0
330
2
100
AcDbEntity
  8
L-ZISSEN
  6
CONTINUOUS
 62
     7
100
AcDbLine
 10
294.1669462961235
 20
607.0910387632517
 30
0.0
 11
294.1669462961235
 21
561.2838359146892
 31
0.0
  0
LINE
  5
C1
330
2
100
AcDbEntity
  8
L-ZISSEN
  6
CONTINUOUS
 62
     7
100
AcDbLine
 10
265.9669462961237
 20
512.7838359146892
 30
0.0
 11
283.9669462961237
 21
512.7838359146892
 31
0.0
  0
LINE
  5
C2
330
2
100
AcDbEntity
  8
L-ZISSEN
  6
CONTINUOUS
 62
     7
100
AcDbLine
 10
265.9669462961237
 20
512.7838359146892
 30
0.0
 11
263.6669462961238
 21
512.7838359146892
 31
0.0
  0
LINE
  5
C3
330
2
100
AcDbEntity
  8
L-ZISSEN
  6
CONTINUOUS
 62
     7
100
AcDbLine
 10
293.9669462961237
 20
516.2838359146892
 30
0.0
 11
293.9669462961237
 21
561.2838359146892
 31
0.0
  0
LINE
  5
C4
330
2
100
AcDbEntity
  8
L-TYUSIN
  6
CENTER
 62
     1
100
AcDbLine
 10
323.6669462961238
 20
561.2838359146892
 30
0.0
 11
323.6669462961238
 21
607.0910387632515
 31
0.0
  0
LINE
  5
C5
330
2
100
AcDbEntity
  8
L-ZISSEN
100
AcDbLine
 10
347.1770774807073
 20
574.9261329221646
 30
0.0
 11
347.1770774807073
 21
566.7100354921321
 31
0.0
  0
LINE
  5
C6
330
2
100
AcDbEntity
  8
L-TYUSIN
100
AcDbLine
 10
373.9669462961237
 20
538.7838359146892
 30
0.0
 11
346.2627459194823
 21
538.7838359146892
 31
0.0
  0
LINE
  5
C7
330
2
100
AcDbEntity
  8
L-ZISSEN
100
AcDbLine
 10
352.1368192772015
 20
530.6236801466751
 30
0.0
 11
355.9669462961237
 21
528.41235528127
 31
0.0
  0
LINE
  5
C8
330
2
100
AcDbEntity
  8
L-ZISSEN
100
AcDbLine
 10
355.9669462961237
 20
549.1553165481084
 30
0.0
 11
352.1368192772015
 21
546.9439916827033
 31
0.0
  0
LINE
  5
C9
330
2
100
AcDbEntity
  8
L-ZISSEN
  6
CONTINUOUS
 62
     7
100
AcDbLine
 10
343.966924288723
 20
555.1657717755688
 30
0.0
 11
343.966924288723
 21
525.0905698669305
 31
0.0
  0
LINE
  5
CA
330
2
100
AcDbEntity
  8
L-ZISSEN
100
AcDbLine
 10
345.4475342018117
 20
552.9513939157639
 30
0.0
 11
345.4475342018117
 21
526.2801277746791
 31
0.0
  0
LINE
  5
CB
330
2
100
AcDbEntity
  8
L-ZISSEN
100
AcDbLine
 10
351.6368192772015
 20
546.0779662789187
 30
0.0
 11
351.6368192772015
 21
538.7838359146892
 31
0.0
  0
ARC
  5
CC
330
2
100
AcDbEntity
  8
L-ZISSEN
100
AcDbCircle
 10
352.6368192772015
 20
531.4897055504596
 30
0.0
 40
1.0
100
AcDbArc
 50
180.0
 51
240.0000000000002
  0
LINE
  5
CD
330
2
100
AcDbEntity
  8
L-ZISSEN
100
AcDbLine
 10
343.966924288723
 20
525.0905698669305
 30
0.0
 11
343.966924288723
 21
515.088608025309
 31
0.0
  0
LINE
  5
CE
330
2
100
AcDbEntity
  8
L-ZISSEN
100
AcDbLine
 10
345.4475342018117
 20
526.2801277746791
 30
0.0
 11
343.966924288723
 21
525.0905698669305
 31
0.0
  0
LINE
  5
CF
330
2
100
AcDbEntity
  8
L-ZISSEN
100
AcDbLine
 10
351.6368192772015
 20
531.4897055504596
 30
0.0
 11
351.6368192772015
 21
538.7838359146892
 31
0.0
  0
LINE
  5
D0
330
2
100
AcDbEntity
  8
L-ZISSEN
  6
CONTINUOUS
 62
     7
100
AcDbLine
 10
343.966924288723
 20
566.0472034941943
 30
0.0
 11
347.1770774807073
 21
566.7100354921322
 31
0.0
  0
LINE
  5
D1
330
2
100
AcDbEntity
  8
L-ZISSEN
100
AcDbLine
 10
347.1770774807073
 20
566.7100354921321
 30
0.0
 11
348.4803315530693
 21
566.5795993856369
 31
0.0
  0
ARC
  5
D2
330
2
100
AcDbEntity
  8
L-ZISSEN
100
AcDbCircle
 10
352.6368192772015
 20
546.0779662789187
 30
0.0
 40
1.0
100
AcDbArc
 50
119.9999999999999
 51
180.0
  0
LINE
  5
D3
330
2
100
AcDbEntity
  8
L-ZISSEN
100
AcDbLine
 10
345.4475342018117
 20
552.9513939157639
 30
0.0
 11
343.966924288723
 21
555.1657717755688
 31
0.0
  0
LINE
  5
D4
330
2
100
AcDbEntity
  8
L-ZISSEN
100
AcDbLine
 10
343.966924288723
 20
566.0472034941943
 30
0.0
 11
343.966924288723
 21
555.1657717755688
 31
0.0
  0
LINE
  5
D5
330
2
100
AcDbEntity
  8
L-TYUSIN
100
AcDbLine
 10
373.9669462961237
 20
566.4880362913301
 30
0.0
 11
373.9669462961237
 21
511.0796355380484
 31
0.0
  0
CIRCLE
  5
D6
330
2
100
AcDbEntity
  8
L-ZISSEN
100
AcDbCircle
 10
373.9669462961235
 20
538.7838359146894
 30
0.0
 40
7.474999999999999
  0
LINE
  5
D9
330
2
100
AcDbEntity
  8
L-ZISSEN
100
AcDbLine
 10
373.9669462961237
 20
524.8797440300026
 30
0.0
 11
355.9669462961237
 21
524.8797440300026
 31
0.0
  0
LINE
  5
DA
330
2
100
AcDbEntity
  8
L-ZISSEN
100
AcDbLine
 10
355.9669462961237
 20
515.9766330661268
 30
0.0
 11
355.9669462961237
 21
515.6210039167515
 31
0.0
  0
LINE
  5
DB
330
2
100
AcDbEntity
  8
L-ZISSEN
100
AcDbLine
 10
355.9669462961237
 20
515.9766330661268
 30
0.0
 11
355.9669462961237
 21
528.41235528127
 31
0.0
  0
LINE
  5
DC
330
2
100
AcDbEntity
  8
L-ZISSEN
100
AcDbLine
 10
391.9669462961237
 20
515.9766330661268
 30
0.0
 11
391.9669462961237
 21
515.6210039167515
 31
0.0
  0
LINE
  5
DD
330
2
100
AcDbEntity
  8
L-ZISSEN
100
AcDbLine
 10
373.9669462961237
 20
524.8797440300026
 30
0.0
 11
391.9669462961237
 21
524.8797440300026
 31
0.0
  0
LINE
  5
DE
330
2
100
AcDbEntity
  8
L-ZISSEN
100
AcDbLine
 10
391.9669462961237
 20
515.9766330661268
 30
0.0
 11
391.9669462961237
 21
528.41235528127
 31
0.0
  0
LINE
  5
DF
330
2
100
AcDbEntity
  8
L-ZISSEN
100
AcDbLine
 10
373.9669462961237
 20
552.6879277993758
 30
0.0
 11
355.9669462961237
 21
552.6879277993758
 31
0.0
  0
LINE
  5
E0
330
2
100
AcDbEntity
  8
L-ZISSEN
100
AcDbLine
 10
373.9669462961237
 20
561.5910387632516
 30
0.0
 11
356.9669462961237
 21
561.5910387632516
 31
0.0
  0
ARC
  5
E1
330
2
100
AcDbEntity
  8
L-ZISSEN
100
AcDbCircle
 10
356.9669462961237
 20
560.5910387632516
 30
0.0
 40
1.0
100
AcDbArc
 50
90.00000000000003
 51
180.0
  0
LINE
  5
E2
330
2
100
AcDbEntity
  8
L-ZISSEN
100
AcDbLine
 10
355.9669462961237
 20
560.5910387632516
 30
0.0
 11
355.9669462961237
 21
549.1553165481084
 31
0.0
  0
ARC
  5
E3
330
2
100
AcDbEntity
  8
L-ZISSEN
100
AcDbCircle
 10
390.9669462961236
 20
560.5910387632516
 30
0.0
 40
1.0
100
AcDbArc
 50
0.0000000000000763
 51
90.00000000000003
  0
LINE
  5
E4
330
2
100
AcDbEntity
  8
L-ZISSEN
100
AcDbLine
 10
373.9669462961237
 20
552.6879277993758
 30
0.0
 11
391.9669462961237
 21
552.6879277993758
 31
0.0
  0
LINE
  5
E5
330
2
100
AcDbEntity
  8
L-ZISSEN
100
AcDbLine
 10
391.9669462961237
 20
560.5910387632516
 30
0.0
 11
391.9669462961237
 21
549.1553165481084
 31
0.0
  0
LINE
  5
E6
330
2
100
AcDbEntity
  8
L-ZISSEN
100
AcDbLine
 10
373.9669462961237
 20
561.5910387632516
 30
0.0
 11
390.9669462961237
 21
561.5910387632516
 31
0.0
  0
LINE
  5
E7
330
2
100
AcDbEntity
  8
L-ZISSEN
100
AcDbLine
 10
357.9378108272714
 20
591.9787666038309
 30
0.0
 11
347.9785269739816
 21
589.9611768622872
 31
0.0
  0
LINE
  5
E8
330
2
100
AcDbEntity
  8
L-ZISSEN
100
AcDbLine
 10
347.1770774807073
 20
574.9261329221646
 30
0.0
 11
353.5712727378149
 21
574.9261329221646
 31
0.0
  0
CIRCLE
  5
EA
330
2
100
AcDbEntity
  8
L-ZISSEN
  6
CONTINUOUS
 62
     7
100
AcDbCircle
 10
323.6669462961238
 20
581.2838359146892
 30
0.0
 40
9.3155
  0
ARC
  5
EB
330
2
100
AcDbEntity
  8
L-ZISSEN
100
AcDbCircle
 10
348.1770774807073
 20
588.9810862051136
 30
0.0
 40
1.0
100
AcDbArc
 50
101.4522094010331
 51
180.0
  0
LINE
  5
EC
330
2
100
AcDbEntity
  8
L-ZISSEN
100
AcDbLine
 10
347.2064106037305
 20
584.2494435218557
 30
0.0
 11
347.2064106037305
 21
586.8269339418072
 31
0.0
  0
ARC
  5
ED
330
2
100
AcDbEntity
  8
L-ZISSEN
100
AcDbCircle
 10
348.1770149807073
 20
588.9811373132359
 30
0.0
 40
0.9999375
100
AcDbArc
 50
101.4522094010332
 51
180.0
  0
LINE
  5
EE
330
2
100
AcDbEntity
  8
L-ZISSEN
100
AcDbLine
 10
347.1770774807073
 20
588.9811373132359
 30
0.0
 11
347.1770774807073
 21
574.9261329221646
 31
0.0
  0
LINE
  5
EF
330
2
100
AcDbEntity
  8
L-ZISSEN
100
AcDbLine
 10
392.4374155189295
 20
599.7398328661497
 30
0.0
 11
392.4374155189295
 21
591.9787666038309
 31
0.0
  0
LINE
  5
F0
330
2
100
AcDbEntity
  8
L-ZISSEN
100
AcDbLine
 10
357.9378108272714
 20
599.7398328661497
 30
0.0
 11
357.9378108272714
 21
591.9787666038309
 31
0.0
  0
LINE
  5
F1
330
2
100
AcDbEntity
  8
L-ZISSEN
100
AcDbLine
 10
392.4374155189295
 20
591.9787666038309
 30
0.0
 11
357.9378108272714
 21
591.9787666038309
 31
0.0
  0
LINE
  5
F2
330
2
100
AcDbEntity
  8
L-ZISSEN
100
AcDbLine
 10
359.3606153835983
 20
600.9452285092956
 30
0.0
 11
373.9082800500771
 21
600.9452285092956
 31
0.0
  0
LINE
  5
F3
330
2
100
AcDbEntity
  8
L-ZISSEN
100
AcDbLine
 10
352.9672883507176
 20
607.0562345605019
 30
0.0
 11
373.5295393455749
 21
607.0546306586404
 31
0.0
  0
LINE
  5
F4
330
2
100
AcDbEntity
  8
L-ZISSEN
100
AcDbLine
 10
359.3606153835983
 20
600.9452285092956
 30
0.0
 11
357.9378108272714
 21
599.7398328661497
 31
0.0
  0
LINE
  5
F5
330
2
100
AcDbEntity
  8
L-ZISSEN
100
AcDbLine
 10
363.3230138565259
 20
607.0554267906025
 30
0.0
 11
363.3230138565259
 21
600.9452285092956
 31
0.0
  0
LINE
  5
F6
330
2
100
AcDbEntity
  8
L-ZISSEN
100
AcDbLine
 10
391.0146109626028
 20
600.9452285092956
 30
0.0
 11
373.9669462961237
 21
600.9452285092956
 31
0.0
  0
LINE
  5
F7
330
2
100
AcDbEntity
  8
L-ZISSEN
100
AcDbLine
 10
387.1108787357211
 20
607.0556217962299
 30
0.0
 11
387.1108787357211
 21
600.9452285092956
 31
0.0
  0
LINE
  5
F8
330
2
100
AcDbEntity
  8
L-ZISSEN
100
AcDbLine
 10
388.1753369441082
 20
600.9452285092956
 30
0.0
 11
391.0146109626028
 21
600.9452285092956
 31
0.0
  0
LINE
  5
F9
330
2
100
AcDbEntity
  8
L-ZISSEN
100
AcDbLine
 10
391.0146109626028
 20
600.9452285092956
 30
0.0
 11
392.4374155189295
 21
599.7398328661497
 31
0.0
  0
LINE
  5
FA
330
2
100
AcDbEntity
  8
L-ZISSEN
  6
CONTINUOUS
 62
     7
100
AcDbLine
 10
351.9669462961237
 20
719.2838359146893
 30
0.0
 11
309.9669462961237
 21
719.2838359146893
 31
0.0
  0
LINE
  5
FB
330
2
100
AcDbEntity
  8
L-ZISSEN
  6
CONTINUOUS
 62
     7
100
AcDbLine
 10
351.9669462961237
 20
736.2838359146893
 30
0.0
 11
309.966946296124
 21
736.2838359146893
 31
0.0
  0
LINE
  5
FC
330
2
100
AcDbEntity
  8
L-ZISSEN
  6
CONTINUOUS
 62
     7
100
AcDbLine
 10
353.8256938662405
 20
627.1910387632517
 30
0.0
 11
295.4669462961235
 21
627.1910387632517
 31
0.0
  0
LINE
  5
FD
330
2
100
AcDbEntity
  8
L-ZISSEN
  6
CONTINUOUS
 62
     7
100
AcDbLine
 10
295.4669462961235
 20
627.1910387632516
 30
0.0
 11
299.689760025152
 21
698.8850318516467
 31
0.0
  0
ARC
  5
FE
330
2
100
AcDbEntity
  8
L-ZISSEN
  6
CONTINUOUS
 62
     7
100
AcDbCircle
 10
304.6811093481283
 20
698.5910387632515
 30
0.0
 40
5.000000000000048
100
AcDbArc
 50
90.0
 51
176.6291431285289
  0
POLYLINE
  5
FF
330
2
100
AcDbEntity
  8
L-ZISSEN
  6
CONTINUOUS
 62
     7
100
AcDb2dPolyline
 66
     1
 10
0.0
 20
0.0
 30
0.0
  0
VERTEX
  5
8ED
330
FF
100
AcDbEntity
  8
L-ZISSEN
  6
CONTINUOUS
 62
     7
100
AcDbVertex
100
AcDb2dVertex
 10
309.9669462961238
 20
736.2838359146893
 30
0.0
  0
VERTEX
  5
8EE
330
FF
100
AcDbEntity
  8
L-ZISSEN
  6
CONTINUOUS
 62
     7
100
AcDbVertex
100
AcDb2dVertex
 10
309.9669462961238
 20
719.2838359146893
 30
0.0
  0
SEQEND
  5
8EF
330
FF
100
AcDbEntity
  8
L-ZISSEN
  6
CONTINUOUS
 62
     7
  0
LINE
  5
103
330
2
100
AcDbEntity
  8
L-ZISSEN
100
AcDbLine
 10
359.6452414586235
 20
642.7838359146892
 30
0.0
 11
388.2886511336237
 21
642.7838359146892
 31
0.0
  0
LINE
  5
104
330
2
100
AcDbEntity
  8
L-ZISSEN
100
AcDbLine
 10
354.3495144621665
 20
639.4778017739918
 30
0.0
 11
393.5843781300805
 21
639.4778017739918
 31
0.0
  0
LINE
  5
105
330
2
100
AcDbEntity
  8
L-ZISSEN
100
AcDbLine
 10
359.6452414586235
 20
642.7838359146892
 30
0.0
 11
354.3495144621665
 21
639.4778017739918
 31
0.0
  0
LINE
  5
106
330
2
100
AcDbEntity
  8
L-ZISSEN
100
AcDbLine
 10
388.2886511336237
 20
642.7838359146892
 30
0.0
 11
393.5843781300805
 21
639.477801773992
 31
0.0
  0
LINE
  5
107
330
2
100
AcDbEntity
  8
L-ZISSEN
  6
CONTINUOUS
 62
     7
100
AcDbLine
 10
317.4669462961237
 20
707.2838359146894
 30
0.0
 11
317.4669462961237
 21
718.2838359146894
 31
0.0
  0
LINE
  5
108
330
2
100
AcDbEntity
  8
L-ZISSEN
  6
CONTINUOUS
 62
     7
100
AcDbLine
 10
344.4669462961237
 20
707.2838359146893
 30
0.0
 11
344.4669462961237
 21
718.2838359146893
 31
0.0
  0
LINE
  5
109
330
2
100
AcDbEntity
  8
L-ZISSEN
  6
CONTINUOUS
 62
     7
100
AcDbLine
 10
336.5588293881605
 20
719.2838359146893
 30
0.0
 11
336.5588293881605
 21
707.2838359146893
 31
0.0
  0
LINE
  5
10A
330
2
100
AcDbEntity
  8
L-ZISSEN
  6
CONTINUOUS
 62
     7
100
AcDbLine
 10
325.3750632040871
 20
719.2838359146893
 30
0.0
 11
325.3750632040871
 21
707.2838359146894
 31
0.0
  0
LINE
  5
10B
330
2
100
AcDbEntity
  8
L-ZISSEN
  6
CONTINUOUS
 62
     7
100
AcDbLine
 10
317.4669462961237
 20
707.2838359146894
 30
0.0
 11
344.4669462961237
 21
707.2838359146893
 31
0.0
  0
LINE
  5
10C
330
2
100
AcDbEntity
  8
L-ZISSEN
  6
CONTINUOUS
 62
     7
100
AcDbLine
 10
321.266946296123
 20
703.5910387632518
 30
0.0
 11
321.266946296123
 21
707.2838359146893
 31
0.0
  0
LINE
  5
10D
330
2
100
AcDbEntity
  8
L-ZISSEN
  6
CONTINUOUS
 62
     7
100
AcDbLine
 10
340.7343924930442
 20
703.5910387632518
 30
0.0
 11
340.7343924930442
 21
707.2838359146892
 31
0.0
  0
ARC
  5
10E
330
2
100
AcDbEntity
  8
L-ZISSEN
  6
CONTINUOUS
 62
     7
100
AcDbCircle
 10
316.4669462961237
 20
718.2838359146893
 30
0.0
 40
1.0
100
AcDbArc
 50
0.0
 51
90.0
  0
LINE
  5
10F
330
2
100
AcDbEntity
  8
L-ZISSEN
  6
CONTINUOUS
 62
     7
100
AcDbLine
 10
322.2684614862889
 20
719.2838359146893
 30
0.0
 11
322.2684614862889
 21
736.2838359146893
 31
0.0
  0
POLYLINE
  5
110
330
2
100
AcDbEntity
  8
L-ZISSEN
  6
CONTINUOUS
 62
     7
100
AcDb2dPolyline
 66
     1
 10
0.0
 20
0.0
 30
0.0
  0
VERTEX
  5
8F0
330
110
100
AcDbEntity
  8
L-ZISSEN
  6
CONTINUOUS
 62
     7
100
AcDbVertex
100
AcDb2dVertex
 10
351.9669462961238
 20
736.2838359146893
 30
0.0
  0
VERTEX
  5
8F1
330
110
100
AcDbEntity
  8
L-ZISSEN
  6
CONTINUOUS
 62
     7
100
AcDbVertex
100
AcDb2dVertex
 10
351.9669462961238
 20
719.2838359146893
 30
0.0
  0
SEQEND
  5
8F2
330
110
100
AcDbEntity
  8
L-ZISSEN
  6
CONTINUOUS
 62
     7
  0
ARC
  5
114
330
2
100
AcDbEntity
  8
L-ZISSEN
  6
CONTINUOUS
 62
     7
100
AcDbCircle
 10
345.4669462961237
 20
718.2838359146893
 30
0.0
 40
1.0
100
AcDbArc
 50
90.0
 51
180.0
  0
LINE
  5
115
330
2
100
AcDbEntity
  8
L-ZISSEN
  6
CONTINUOUS
 62
     7
100
AcDbLine
 10
339.6654311059587
 20
719.2838359146893
 30
0.0
 11
339.6654311059587
 21
736.2838359146893
 31
0.0
  0
LINE
  5
12B
330
2
100
AcDbEntity
  8
L-ZISSEN
100
AcDbLine
 10
736.4604317417042
 20
544.9290598756528
 30
0.0
 11
612.6177462350592
 21
641.3977683042515
 31
0.0
  0
LINE
  5
130
330
2
100
AcDbEntity
  8
L-ZISSEN
100
AcDbLine
 10
405.4669462961239
 20
516.2838359146892
 30
0.0
 11
404.4669462961237
 21
502.2838359146892
 31
0.0
  0
LINE
  5
131
330
2
100
AcDbEntity
  8
L-ZISSEN
  6
CONTINUOUS
 62
     7
100
AcDbLine
 10
413.9669462961237
 20
355.2838359146892
 30
0.0
 11
413.9669462961237
 21
516.2838359146892
 31
0.0
  0
LINE
  5
132
330
2
100
AcDbEntity
  8
L-ZISSEN
  6
CONTINUOUS
 62
     7
100
AcDbLine
 10
403.9669435987255
 20
380.2838359146893
 30
0.0
 11
403.9669435987255
 21
380.2838359146893
 31
0.0
  0
ARC
  5
133
330
2
100
AcDbEntity
  8
L-ZISSEN
  6
CONTINUOUS
 62
     7
100
AcDbCircle
 10
403.9669462961239
 20
373.2838359146893
 30
0.0
 40
7.0
100
AcDbArc
 50
270.0000220785053
 51
89.99999999999994
  0
LINE
  5
134
330
2
100
AcDbEntity
  8
L-ZISSEN
100
AcDbLine
 10
406.966946296124
 20
459.2838359146892
 30
0.0
 11
406.9669462961237
 21
445.2838359146893
 31
0.0
  0
LINE
  5
135
330
2
100
AcDbEntity
  8
L-ZISSEN
100
AcDbLine
 10
405.4669462961237
 20
445.2838359146893
 30
0.0
 11
405.4669462961237
 21
459.2838359146892
 31
0.0
  0
LINE
  5
136
330
2
100
AcDbEntity
  8
L-ZISSEN
100
AcDbLine
 10
395.9669462961239
 20
494.2838359146892
 30
0.0
 11
395.9669462961239
 21
429.2838359146892
 31
0.0
  0
LINE
  5
137
330
2
100
AcDbEntity
  8
L-ZISSEN
  6
CONTINUOUS
 62
     7
100
AcDbLine
 10
426.9669462961237
 20
482.5910387632516
 30
0.0
 11
426.9669462961237
 21
400.5910387632516
 31
0.0
  0
LINE
  5
138
330
2
100
AcDbEntity
  8
L-ZISSEN
100
AcDbLine
 10
394.4889926575779
 20
422.6330445412332
 30
0.0
 11
395.9669462961237
 21
429.2838359146892
 31
0.0
  0
LINE
  5
139
330
2
100
AcDbEntity
  8
L-ZISSEN
  6
CONTINUOUS
 62
     7
100
AcDbLine
 10
426.9669462961237
 20
400.5910387632516
 30
0.0
 11
413.9669462961237
 21
400.5910387632516
 31
0.0
  0
LINE
  5
13A
330
2
100
AcDbEntity
  8
L-ZISSEN
100
AcDbLine
 10
405.6238005456139
 20
444.2838359146898
 30
0.0
 11
404.9669462961237
 21
444.2838359146898
 31
0.0
  0
LINE
  5
13B
330
2
100
AcDbEntity
  8
L-ZISSEN
100
AcDbLine
 10
405.6238005456139
 20
438.2838359146886
 30
0.0
 11
404.9669462961237
 21
438.2838359146886
 31
0.0
  0
ARC
  5
13C
330
2
100
AcDbEntity
  8
L-ZISSEN
100
AcDbCircle
 10
399.9669462961235
 20
441.2838359146893
 30
0.0
 40
7.0
100
AcDbArc
 50
340.5287793654974
 51
19.4712206345026
  0
ARC
  5
13D
330
2
100
AcDbEntity
  8
L-ZISSEN
100
AcDbCircle
 10
405.6238005456139
 20
439.2838359146886
 30
0.0
 40
1.0
100
AcDbArc
 50
270.0
 51
340.5287793654973
  0
ARC
  5
13E
330
2
100
AcDbEntity
  8
L-ZISSEN
100
AcDbCircle
 10
405.6238005456139
 20
443.2838359146899
 30
0.0
 40
1.0
100
AcDbArc
 50
19.47122063450267
 51
90.0
  0
LINE
  5
13F
330
2
100
AcDbEntity
  8
L-ZISSEN
100
AcDbLine
 10
406.9669462961237
 20
437.2838359146893
 30
0.0
 11
406.9669462961237
 21
433.2838359146892
 31
0.0
  0
LINE
  5
140
330
2
100
AcDbEntity
  8
L-ZISSEN
100
AcDbLine
 10
404.9669462961237
 20
437.2838359146893
 30
0.0
 11
404.9669462961239
 21
445.2838359146893
 31
0.0
  0
LINE
  5
141
330
2
100
AcDbEntity
  8
L-ZISSEN
100
AcDbLine
 10
406.9669462961237
 20
437.2838359146892
 30
0.0
 11
404.9669462961237
 21
437.2838359146893
 31
0.0
  0
LINE
  5
142
330
2
100
AcDbEntity
  8
L-ZISSEN
100
AcDbLine
 10
406.9669462961237
 20
445.2838359146893
 30
0.0
 11
404.9669462961239
 21
445.2838359146893
 31
0.0
  0
LINE
  5
143
330
2
100
AcDbEntity
  8
L-ZISSEN
100
AcDbLine
 10
405.4669462961237
 20
432.0838359146892
 30
0.0
 11
405.4669462961237
 21
437.2838359146893
 31
0.0
  0
LINE
  5
144
330
2
100
AcDbEntity
  8
L-ZISSEN
100
AcDbLine
 10
401.9669462961237
 20
429.2838359146892
 30
0.0
 11
406.9669462961237
 21
433.2838359146892
 31
0.0
  0
LINE
  5
145
330
2
100
AcDbEntity
  8
L-ZISSEN
100
AcDbLine
 10
400.9669462961239
 20
483.2838359146895
 30
0.0
 11
404.4669462961244
 21
477.2838359146892
 31
0.0
  0
LINE
  5
146
330
2
100
AcDbEntity
  8
L-ZISSEN
100
AcDbLine
 10
408.4669462961244
 20
477.2838359146892
 30
0.0
 11
408.4669462961244
 21
484.2838359146892
 31
0.0
  0
LINE
  5
147
330
2
100
AcDbEntity
  8
L-ZISSEN
100
AcDbLine
 10
400.9669462961239
 20
472.2838359146892
 30
0.0
 11
400.9669462961239
 21
483.2838359146892
 31
0.0
  0
LINE
  5
148
330
2
100
AcDbEntity
  8
L-ZISSEN
100
AcDbLine
 10
408.4669462961244
 20
477.2838359146892
 30
0.0
 11
404.4669462961244
 21
477.2838359146892
 31
0.0
  0
ARC
  5
149
330
2
100
AcDbEntity
  8
L-ZISSEN
100
AcDbCircle
 10
405.6238005456139
 20
465.2838359146898
 30
0.0
 40
1.0
100
AcDbArc
 50
19.47122063450267
 51
90.0
  0
ARC
  5
14A
330
2
100
AcDbEntity
  8
L-ZISSEN
100
AcDbCircle
 10
405.6238005456139
 20
461.2838359146886
 30
0.0
 40
1.0
100
AcDbArc
 50
270.0
 51
340.5287793654973
  0
ARC
  5
14B
330
2
100
AcDbEntity
  8
L-ZISSEN
100
AcDbCircle
 10
399.9669462961235
 20
463.2838359146894
 30
0.0
 40
7.0
100
AcDbArc
 50
340.5287793654974
 51
19.4712206345026
  0
LINE
  5
14C
330
2
100
AcDbEntity
  8
L-ZISSEN
100
AcDbLine
 10
405.6238005456139
 20
460.2838359146886
 30
0.0
 11
404.9669462961237
 21
460.2838359146886
 31
0.0
  0
LINE
  5
14D
330
2
100
AcDbEntity
  8
L-ZISSEN
100
AcDbLine
 10
405.6238005456139
 20
466.2838359146899
 30
0.0
 11
404.9669462961237
 21
466.2838359146899
 31
0.0
  0
LINE
  5
14E
330
2
100
AcDbEntity
  8
L-ZISSEN
100
AcDbLine
 10
404.9669462961237
 20
459.2838359146892
 30
0.0
 11
404.9669462961237
 21
467.2838359146892
 31
0.0
  0
LINE
  5
14F
330
2
100
AcDbEntity
  8
L-ZISSEN
100
AcDbLine
 10
405.4669462961237
 20
467.2838359146892
 30
0.0
 11
405.4669462961237
 21
470.0338359146893
 31
0.0
  0
LINE
  5
150
330
2
100
AcDbEntity
  8
L-ZISSEN
100
AcDbLine
 10
406.966946296124
 20
459.2838359146892
 30
0.0
 11
404.9669462961237
 21
459.2838359146892
 31
0.0
  0
LINE
  5
151
330
2
100
AcDbEntity
  8
L-ZISSEN
100
AcDbLine
 10
406.966946296124
 20
467.2838359146892
 30
0.0
 11
404.9669462961237
 21
467.2838359146892
 31
0.0
  0
ARC
  5
152
330
2
100
AcDbEntity
  8
L-ZISSEN
100
AcDbCircle
 10
396.9669462961237
 20
475.4018699034392
 30
0.0
 40
1.0
100
AcDbArc
 50
180.0
 51
243.4349488229217
  0
LINE
  5
153
330
2
100
AcDbEntity
  8
L-ZISSEN
100
AcDbLine
 10
406.9669462961237
 20
469.2838359146892
 30
0.0
 11
396.5197327006237
 21
474.5074427124393
 31
0.0
  0
LINE
  5
154
330
2
100
AcDbEntity
  8
L-ZISSEN
100
AcDbLine
 10
406.9669462961237
 20
469.2838359146892
 30
0.0
 11
406.966946296124
 21
467.2838359146892
 31
0.0
  0
LINE
  5
155
330
2
100
AcDbEntity
  8
L-ZISSEN
  6
CONTINUOUS
 62
     7
100
AcDbLine
 10
413.9669462961237
 20
482.5910387632516
 30
0.0
 11
426.9669462961237
 21
482.5910387632516
 31
0.0
  0
LINE
  5
156
330
2
100
AcDbEntity
  8
L-ZISSEN
100
AcDbLine
 10
404.4669462961244
 20
486.2838359146874
 30
0.0
 11
408.4669462961244
 21
484.2838359146892
 31
0.0
  0
LINE
  5
157
330
2
100
AcDbEntity
  8
L-ZISSEN
100
AcDbLine
 10
400.9669462961239
 20
483.2838359146892
 30
0.0
 11
404.4669462961242
 21
489.2838359146892
 31
0.0
  0
LINE
  5
158
330
2
100
AcDbEntity
  8
L-ZISSEN
100
AcDbLine
 10
401.9669462961237
 20
494.2838359146892
 30
0.0
 11
401.9669462961237
 21
498.2838359146892
 31
0.0
  0
LINE
  5
159
330
2
100
AcDbEntity
  8
L-ZISSEN
100
AcDbLine
 10
404.4669462961239
 20
502.2838359146892
 30
0.0
 11
404.4669462961242
 21
486.2838359146875
 31
0.0
  0
LINE
  5
15E
330
2
100
AcDbEntity
  8
L-ZISSEN
  6
CONTINUOUS
100
AcDbLine
 10
612.617746235059
 20
615.3977683042515
 30
0.0
 11
472.0202856094593
 21
615.3977683042516
 31
0.0
  0
TEXT
  5
15F
330
2
100
AcDbEntity
  8
L-ZISSEN
100
AcDbText
 10
475.0899155406981
 20
620.6055990034594
 30
0.0
 40
15.0
  1
AIR IN PORT
100
AcDbText
  0
LINE
  5
160
330
2
100
AcDbEntity
  8
L-ZISSEN
  6
CONTINUOUS
100
AcDbLine
 10
612.617746235059
 20
641.3977683042515
 30
0.0
 11
472.0202856094593
 21
641.3977683042515
 31
0.0
  0
TEXT
  5
161
330
2
100
AcDbEntity
  8
L-ZISSEN
100
AcDbText
 10
526.645813633578
 20
650.9752457856797
 30
0.0
 40
15.0
  1
Rc 3/8
100
AcDbText
  0
LINE
  5
162
330
2
100
AcDbEntity
  8
L-ZISSEN
  6
CONTINUOUS
 62
     7
100
AcDbLine
 10
413.4669462961232
 20
607.0910387632517
 30
0.0
 11
413.4669462961232
 21
627.1910387632517
 31
0.0
  0
LINE
  5
163
330
2
100
AcDbEntity
  8
L-ZISSEN
  6
CONTINUOUS
 62
     7
100
AcDbLine
 10
414.7669462961235
 20
607.0910387632517
 30
0.0
 11
414.7669462961235
 21
561.2838359146892
 31
0.0
  0
LINE
  5
164
330
2
100
AcDbEntity
  8
L-ZISSEN
100
AcDbLine
 10
403.1981488654937
 20
574.9261329221646
 30
0.0
 11
403.1981488654937
 21
566.7100354921321
 31
0.0
  0
LINE
  5
165
330
2
100
AcDbEntity
  8
L-ZISSEN
100
AcDbLine
 10
451.4669683035235
 20
557.783835914692
 30
0.0
 11
420.4669683035235
 21
557.783835914692
 31
0.0
  0
LINE
  5
166
330
2
100
AcDbEntity
  8
L-ZISSEN
100
AcDbLine
 10
451.4669683035233
 20
519.7838359146865
 30
0.0
 11
420.4669683035235
 21
519.7838359146865
 31
0.0
  0
LINE
  5
167
330
2
100
AcDbEntity
  8
L-ZISSEN
  6
CONTINUOUS
 62
     7
100
AcDbLine
 10
420.4669683035235
 20
557.783835914692
 30
0.0
 11
420.4669683035235
 21
519.7838359146865
 31
0.0
  0
LINE
  5
168
330
2
100
AcDbEntity
  8
L-ZISSEN
  6
CONTINUOUS
 62
     7
100
AcDbLine
 10
406.4669683035242
 20
555.0353356690739
 30
0.0
 11
406.4669683035242
 21
524.9601337604356
 31
0.0
  0
LINE
  5
169
330
2
100
AcDbEntity
  8
L-ZISSEN
100
AcDbLine
 10
404.9863583904355
 20
552.8209578092687
 30
0.0
 11
404.9863583904355
 21
526.1496916681842
 31
0.0
  0
LINE
  5
16A
330
2
100
AcDbEntity
  8
L-ZISSEN
100
AcDbLine
 10
396.2970733150459
 20
546.0779662789187
 30
0.0
 11
396.2970733150459
 21
538.7838359146892
 31
0.0
  0
LINE
  5
16B
330
2
100
AcDbEntity
  8
L-ZISSEN
  6
CONTINUOUS
 62
     7
100
AcDbLine
 10
406.4669683035242
 20
531.7838359146892
 30
0.0
 11
420.4669683035235
 21
531.7838359146892
 31
0.0
  0
LINE
  5
16C
330
2
100
AcDbEntity
  8
L-ZISSEN
  6
CONTINUOUS
 62
     7
100
AcDbLine
 10
413.9669462961237
 20
516.2838359146892
 30
0.0
 11
413.9669462961237
 21
531.7838359146892
 31
0.0
  0
LINE
  5
16D
330
2
100
AcDbEntity
  8
L-ZISSEN
  6
CONTINUOUS
 62
     7
100
AcDbLine
 10
413.9669462961237
 20
516.2838359146892
 30
0.0
 11
406.4669683035242
 21
516.2838359146892
 31
0.0
  0
ARC
  5
16E
330
2
100
AcDbEntity
  8
L-ZISSEN
100
AcDbCircle
 10
395.2970733150458
 20
531.4897055504596
 30
0.0
 40
1.0
100
AcDbArc
 50
300.0
 51
0.0000000000000254
  0
LINE
  5
16F
330
2
100
AcDbEntity
  8
L-ZISSEN
100
AcDbLine
 10
406.4669683035242
 20
524.9601337604356
 30
0.0
 11
406.4669683035242
 21
514.9581719188138
 31
0.0
  0
LINE
  5
170
330
2
100
AcDbEntity
  8
L-ZISSEN
100
AcDbLine
 10
404.9863583904355
 20
526.1496916681842
 30
0.0
 11
406.4669683035242
 21
524.9601337604356
 31
0.0
  0
LINE
  5
171
330
2
100
AcDbEntity
  8
L-ZISSEN
100
AcDbLine
 10
396.2970733150459
 20
531.4897055504596
 30
0.0
 11
396.2970733150459
 21
538.7838359146892
 31
0.0
  0
LINE
  5
172
330
2
100
AcDbEntity
  8
L-ZISSEN
  6
CONTINUOUS
 62
     7
100
AcDbLine
 10
414.7669462961235
 20
561.2838359146892
 30
0.0
 11
406.4669683035242
 21
561.2838359146892
 31
0.0
  0
LINE
  5
173
330
2
100
AcDbEntity
  8
L-ZISSEN
  6
CONTINUOUS
 62
     7
100
AcDbLine
 10
406.4669683035242
 20
545.7838359146892
 30
0.0
 11
420.4669683035235
 21
545.7838359146892
 31
0.0
  0
LINE
  5
174
330
2
100
AcDbEntity
  8
L-ZISSEN
  6
CONTINUOUS
 62
     7
100
AcDbLine
 10
413.9669462961237
 20
545.7838359146892
 30
0.0
 11
413.9669462961237
 21
561.2838359146892
 31
0.0
  0
LINE
  5
175
330
2
100
AcDbEntity
  8
L-ZISSEN
  6
CONTINUOUS
 62
     7
100
AcDbLine
 10
406.4669683035242
 20
565.9167673876993
 30
0.0
 11
403.1981488654937
 21
566.5795993856369
 31
0.0
  0
LINE
  5
176
330
2
100
AcDbEntity
  8
L-ZISSEN
100
AcDbLine
 10
403.1981488654937
 20
566.7100354921321
 30
0.0
 11
403.1981488654937
 21
566.5795993856369
 31
0.0
  0
ARC
  5
177
330
2
100
AcDbEntity
  8
L-ZISSEN
100
AcDbCircle
 10
395.2970733150458
 20
546.0779662789187
 30
0.0
 40
1.0
100
AcDbArc
 50
0.0000000000000763
 51
60.00000000000014
  0
LINE
  5
178
330
2
100
AcDbEntity
  8
L-ZISSEN
100
AcDbLine
 10
404.9863583904355
 20
552.8209578092687
 30
0.0
 11
406.4669683035242
 21
555.0353356690739
 31
0.0
  0
LINE
  5
179
330
2
100
AcDbEntity
  8
L-ZISSEN
100
AcDbLine
 10
406.4669683035242
 20
565.9167673876993
 30
0.0
 11
406.4669683035242
 21
555.0353356690739
 31
0.0
  0
LINE
  5
17A
330
2
100
AcDbEntity
  8
L-ZISSEN
  6
CONTINUOUS
 62
     7
100
AcDbLine
 10
451.4669683035235
 20
519.7838359146865
 30
0.0
 11
451.4669683035235
 21
557.783835914692
 31
0.0
  0
LINE
  5
17B
330
2
100
AcDbEntity
  8
L-ZISSEN
  6
CONTINUOUS
 62
     7
100
AcDbLine
 10
440.5684886502472
 20
557.783835914692
 30
0.0
 11
440.5684886502472
 21
538.7838359146892
 31
0.0
  0
LINE
  5
17C
330
2
100
AcDbEntity
  8
L-ZISSEN
  6
CONTINUOUS
 62
     7
100
AcDbLine
 10
440.5684886502474
 20
519.7838359146865
 30
0.0
 11
440.5684886502472
 21
538.7838359146892
 31
0.0
  0
LINE
  5
17D
330
2
100
AcDbEntity
  8
L-ZISSEN
100
AcDbLine
 10
403.1981488654937
 20
588.9811373132361
 30
0.0
 11
403.1981488654937
 21
586.4035957851621
 31
0.0
  0
ARC
  5
17E
330
2
100
AcDbEntity
  8
L-ZISSEN
100
AcDbCircle
 10
402.1982113654937
 20
588.9811373132361
 30
0.0
 40
0.9999375
100
AcDbArc
 50
0.0000000000000763
 51
78.5477905989668
  0
LINE
  5
17F
330
2
100
AcDbEntity
  8
L-ZISSEN
100
AcDbLine
 10
403.1981488654937
 20
586.4035957851621
 30
0.0
 11
403.1981488654937
 21
574.9261329221646
 31
0.0
  0
LINE
  5
180
330
2
100
AcDbEntity
  8
L-ZISSEN
  6
CONTINUOUS
 62
     7
100
AcDbLine
 10
414.7669462961235
 20
607.0910387632517
 30
0.0
 11
394.9651204367055
 21
607.0910387632517
 31
0.0
  0
LINE
  5
181
330
2
100
AcDbEntity
  8
L-ZISSEN
  6
CONTINUOUS
 62
     7
100
AcDbLine
 10
413.4669462961232
 20
627.1910387632516
 30
0.0
 11
409.2441325670952
 21
698.8850318516467
 31
0.0
  0
LINE
  5
182
330
2
100
AcDbEntity
  8
L-ZISSEN
  6
CONTINUOUS
 62
     7
100
AcDbLine
 10
413.4669462961232
 20
627.1910387632517
 30
0.0
 11
394.1081987260067
 21
627.1910387632519
 31
0.0
  0
ARC
  5
183
330
2
100
AcDbEntity
  8
L-ZISSEN
  6
CONTINUOUS
 62
     7
100
AcDbCircle
 10
404.2527832441187
 20
698.5910387632515
 30
0.0
 40
5.000000000000048
100
AcDbArc
 50
3.370856871470882
 51
90.0
  0
LINE
  5
187
330
2
100
AcDbEntity
  8
L-ZISSEN
  6
CONTINUOUS
 62
     7
100
AcDbLine
 10
1037.849469511706
 20
467.5910387632517
 30
0.0
 11
1037.849469511706
 21
557.5910387632516
 31
0.0
  0
LINE
  5
188
330
2
100
AcDbEntity
  8
L-ZISSEN
  6
CONTINUOUS
 62
     7
100
AcDbLine
 10
1047.049469511706
 20
494.5910387632515
 30
0.0
 11
1047.049469511706
 21
556.5910387632515
 31
0.0
  0
LINE
  5
189
330
2
100
AcDbEntity
  8
L-ZISSEN
  6
CONTINUOUS
 62
     7
100
AcDbLine
 10
836.3494695117065
 20
515.5910387632515
 30
0.0
 11
836.3494695117065
 21
355.5910387632516
 31
0.0
  0
LINE
  5
18A
330
2
100
AcDbEntity
  8
0
  6
CONTINUOUS
 62
     7
100
AcDbLine
 10
1036.349469511706
 20
515.5910387632515
 30
0.0
 11
1036.349469511706
 21
355.5910387632516
 31
0.0
  0
LINE
  5
18B
330
2
100
AcDbEntity
  8
0
  6
CONTINUOUS
 62
     7
100
AcDbLine
 10
807.349469511706
 20
498.4016420751756
 30
0.0
 11
807.349469511706
 21
517.5910387632517
 31
0.0
  0
LINE
  5
18C
330
2
100
AcDbEntity
  8
L-ZISSEN
100
AcDbLine
 10
807.349469511706
 20
515.6210039167515
 30
0.0
 11
807.349469511706
 21
508.3075885252554
 31
0.0
  0
LINE
  5
18D
330
2
100
AcDbEntity
  8
L-ZISSEN
100
AcDbLine
 10
807.349469511706
 20
517.5910387632516
 30
0.0
 11
807.349469511706
 21
498.4016420751756
 31
0.0
  0
LINE
  5
18E
330
2
100
AcDbEntity
  8
L-ZISSEN
100
AcDbLine
 10
744.349425496905
 20
520.8108858270281
 30
0.0
 11
744.349425496905
 21
502.2838359146892
 31
0.0
  0
LINE
  5
18F
330
2
100
AcDbEntity
  8
L-ZISSEN
  6
CONTINUOUS
 62
     7
100
AcDbLine
 10
850.3494695117067
 20
362.7838359146892
 30
0.0
 11
896.3494695117066
 21
362.7838359146892
 31
0.0
  0
LINE
  5
190
330
2
100
AcDbEntity
  8
L-ZISSEN
  6
CONTINUOUS
 62
     7
100
AcDbLine
 10
880.3494695117066
 20
430.5910387632517
 30
0.0
 11
941.3494695117067
 21
430.5910387632517
 31
0.0
  0
LINE
  5
191
330
2
100
AcDbEntity
  8
L-ZISSEN
  6
CONTINUOUS
 62
     7
100
AcDbLine
 10
941.3494695117067
 20
483.5910387632517
 30
0.0
 11
872.8494695117062
 21
483.5910387632517
 31
0.0
  0
LINE
  5
192
330
2
100
AcDbEntity
  8
L-ZISSEN
  6
CONTINUOUS
 62
     7
100
AcDbLine
 10
850.3494695117067
 20
365.5910387632516
 30
0.0
 11
924.8603442186311
 21
365.5910387632516
 31
0.0
  0
LINE
  5
193
330
2
100
AcDbEntity
  8
L-ZISSEN
100
AcDbLine
 10
786.2407626311092
 20
413.2838359146892
 30
0.0
 11
786.2407626311092
 21
374.7838359146892
 31
0.0
  0
LINE
  5
194
330
2
100
AcDbEntity
  8
L-ZISSEN
100
AcDbLine
 10
781.3332853429974
 20
413.2838359146892
 30
0.0
 11
781.3332853429974
 21
374.7838359146892
 31
0.0
  0
LINE
  5
195
330
2
100
AcDbEntity
  8
L-ZISSEN
100
AcDbLine
 10
771.5183307667739
 20
413.2838359146892
 30
0.0
 11
771.5183307667739
 21
374.7838359146892
 31
0.0
  0
LINE
  5
196
330
2
100
AcDbEntity
  8
L-ZISSEN
100
AcDbLine
 10
766.6108534786622
 20
413.2838359146892
 30
0.0
 11
766.6108534786622
 21
374.7838359146892
 31
0.0
  0
LINE
  5
197
330
2
100
AcDbEntity
  8
L-ZISSEN
  6
CONTINUOUS
 62
     7
100
AcDbLine
 10
796.3494695117065
 20
367.7838359146893
 30
0.0
 11
796.349469511706
 21
421.3943178483253
 31
0.0
  0
LINE
  5
198
330
2
100
AcDbEntity
  8
L-ZISSEN
  6
CONTINUOUS
 62
     7
100
AcDbLine
 10
801.3494695117065
 20
362.7838359146892
 30
0.0
 11
836.3494695117065
 21
362.7838359146892
 31
0.0
  0
LINE
  5
199
330
2
100
AcDbEntity
  8
L-TYUSIN
  6
CENTER
 62
     1
100
AcDbLine
 10
821.3494695117033
 20
375.2838359146894
 30
0.0
 11
801.3494695117097
 21
375.2838359146894
 31
0.0
  0
LINE
  5
19F
330
2
100
AcDbEntity
  8
L-ZISSEN
  6
CONTINUOUS
 62
     7
100
AcDbLine
 10
796.3494695117065
 20
367.7838359146893
 30
0.0
 11
801.3494695117065
 21
362.7838359146892
 31
0.0
  0
LINE
  5
1A0
330
2
100
AcDbEntity
  8
L-ZISSEN
100
AcDbLine
 10
786.2407626311092
 20
374.7838359146892
 30
0.0
 11
766.6108534786622
 21
374.7838359146892
 31
0.0
  0
LINE
  5
1A3
330
2
100
AcDbEntity
  8
L-ZISSEN
  6
CONTINUOUS
 62
     7
100
AcDbLine
 10
836.3494695117065
 20
355.5910387632516
 30
0.0
 11
850.3494695117067
 21
355.5910387632516
 31
0.0
  0
LINE
  5
1A4
330
2
100
AcDbEntity
  8
L-TYUSIN
  6
CENTER
 62
     1
100
AcDbLine
 10
811.349469511706
 20
385.2838359146858
 30
0.0
 11
811.349469511706
 21
365.2838359146914
 31
0.0
  0
LINE
  5
1A5
330
2
100
AcDbEntity
  8
L-ZISSEN
  6
CONTINUOUS
 62
     7
100
AcDbLine
 10
836.3494695117065
 20
355.5910387632516
 30
0.0
 11
836.3494695117065
 21
366.5910387632516
 31
0.0
  0
CIRCLE
  5
1A6
330
2
100
AcDbEntity
  8
L-ZISSEN
  6
CONTINUOUS
 62
     7
100
AcDbCircle
 10
811.3494695117065
 20
375.2838359146893
 30
0.0
 40
3.5
  0
LINE
  5
1A7
330
2
100
AcDbEntity
  8
L-ZISSEN
  6
CONTINUOUS
 62
     7
100
AcDbLine
 10
826.3494695117065
 20
380.5910387632516
 30
0.0
 11
836.3494695117065
 21
380.5910387632516
 31
0.0
  0
LINE
  5
1A8
330
2
100
AcDbEntity
  8
L-ZISSEN
  6
CONTINUOUS
 62
     7
100
AcDbLine
 10
826.3494695117065
 20
366.5910387632516
 30
0.0
 11
826.3494695117065
 21
380.5910387632516
 31
0.0
  0
LINE
  5
1A9
330
2
100
AcDbEntity
  8
L-ZISSEN
  6
CONTINUOUS
 62
     7
100
AcDbLine
 10
836.3494695117065
 20
366.5910387632516
 30
0.0
 11
826.3494695117065
 21
366.5910387632516
 31
0.0
  0
LINE
  5
1AA
330
2
100
AcDbEntity
  8
L-ZISSEN
  6
CONTINUOUS
 62
     7
100
AcDbLine
 10
850.3494695117067
 20
355.5910387632516
 30
0.0
 11
850.3494695117067
 21
365.5910387632516
 31
0.0
  0
LINE
  5
1AB
330
2
100
AcDbEntity
  8
L-ZISSEN
100
AcDbLine
 10
782.9258080548856
 20
494.2838359146892
 30
0.0
 11
806.9258080548852
 21
494.2838359146892
 31
0.0
  0
LINE
  5
1AC
330
2
100
AcDbEntity
  8
L-ZISSEN
100
AcDbLine
 10
806.9258080548852
 20
498.2838359146892
 30
0.0
 11
782.9258080548852
 21
498.2838359146892
 31
0.0
  0
LINE
  5
1AD
330
2
100
AcDbEntity
  8
L-ZISSEN
100
AcDbLine
 10
806.9258080548857
 20
502.2838359146892
 30
0.0
 11
744.349425496905
 21
502.2838359146892
 31
0.0
  0
LINE
  5
1AE
330
2
100
AcDbEntity
  8
L-TYUSIN
  6
CENTER
 62
     1
100
AcDbLine
 10
821.3494695117033
 20
500.2838359146893
 30
0.0
 11
801.3494695117097
 21
500.2838359146893
 31
0.0
  0
LINE
  5
1AF
330
2
100
AcDbEntity
  8
L-ZISSEN
100
AcDbLine
 10
775.4258080548857
 20
444.3395640046897
 30
0.0
 11
775.4258080548857
 21
462.2281078246868
 31
0.0
  0
LINE
  5
1B0
330
2
100
AcDbEntity
  8
L-ZISSEN
100
AcDbLine
 10
777.4258080548857
 20
444.3395640046897
 30
0.0
 11
777.4258080548857
 21
462.2281078246868
 31
0.0
  0
LINE
  5
1B1
330
2
100
AcDbEntity
  8
L-ZISSEN
100
AcDbLine
 10
758.4258080548856
 20
433.2838359146892
 30
0.0
 11
758.4258080548856
 21
469.2838359146892
 31
0.0
  0
LINE
  5
1B2
330
2
100
AcDbEntity
  8
L-ZISSEN
100
AcDbLine
 10
794.4258080548856
 20
433.2838359146892
 30
0.0
 11
794.4258080548856
 21
469.2838359146892
 31
0.0
  0
CIRCLE
  5
1B3
330
2
100
AcDbEntity
  8
L-ZISSEN
100
AcDbCircle
 10
776.4258080548856
 20
453.2838359146892
 30
0.0
 40
11.0
  0
CIRCLE
  5
1B4
330
2
100
AcDbEntity
  8
L-ZISSEN
100
AcDbCircle
 10
776.4258080548856
 20
453.2838359146892
 30
0.0
 40
9.0
  0
LINE
  5
1B5
330
2
100
AcDbEntity
  8
L-ZISSEN
100
AcDbLine
 10
756.9258080548856
 20
429.2838359146892
 30
0.0
 11
756.9258080548856
 21
494.2838359146892
 31
0.0
  0
LINE
  5
1B6
330
2
100
AcDbEntity
  8
L-ZISSEN
100
AcDbLine
 10
795.9258080548857
 20
429.2838359146892
 30
0.0
 11
795.9258080548857
 21
494.2838359146892
 31
0.0
  0
LINE
  5
1B7
330
2
100
AcDbEntity
  8
L-ZISSEN
100
AcDbLine
 10
754.4258080548857
 20
429.2838359146892
 30
0.0
 11
752.9708970957722
 21
492.3299774762638
 31
0.0
  0
LINE
  5
1B8
330
2
100
AcDbEntity
  8
L-ZISSEN
100
AcDbLine
 10
798.4258080548856
 20
429.2838359146892
 30
0.0
 11
799.8807190139987
 21
492.3299774762637
 31
0.0
  0
LINE
  5
1B9
330
2
100
AcDbEntity
  8
L-ZISSEN
100
AcDbLine
 10
758.4258080548856
 20
445.2838359146893
 30
0.0
 11
763.9258080548857
 21
445.2838359146893
 31
0.0
  0
LINE
  5
1BA
330
2
100
AcDbEntity
  8
L-ZISSEN
100
AcDbLine
 10
763.9258080548857
 20
437.2838359146893
 30
0.0
 11
758.4258080548856
 21
437.2838359146893
 31
0.0
  0
CIRCLE
  5
1BB
330
2
100
AcDbEntity
  8
L-ZISSEN
100
AcDbCircle
 10
763.9258080548856
 20
441.2838359146892
 30
0.0
 40
3.0
  0
LINE
  5
1BC
330
2
100
AcDbEntity
  8
L-ZISSEN
100
AcDbLine
 10
794.4258080548856
 20
433.2838359146892
 30
0.0
 11
758.4258080548856
 21
433.2838359146892
 31
0.0
  0
LINE
  5
1BD
330
2
100
AcDbEntity
  8
L-ZISSEN
100
AcDbLine
 10
798.4258080548856
 20
429.2838359146892
 30
0.0
 11
754.4258080548857
 21
429.2838359146892
 31
0.0
  0
LINE
  5
1BE
330
2
100
AcDbEntity
  8
L-ZISSEN
100
AcDbLine
 10
794.0192932357882
 20
420.2838359146892
 30
0.0
 11
758.8323228739832
 21
420.2838359146892
 31
0.0
  0
LINE
  5
1BF
330
2
100
AcDbEntity
  8
L-ZISSEN
100
AcDbLine
 10
755.9037616934315
 20
422.6330445412332
 30
0.0
 11
754.4258080548857
 21
429.2838359146892
 31
0.0
  0
ARC
  5
1C0
330
2
100
AcDbEntity
  8
L-ZISSEN
100
AcDbCircle
 10
758.8323228739833
 20
423.2838359146892
 30
0.0
 40
3.0
100
AcDbArc
 50
192.5288077091515
 51
270.0
  0
LINE
  5
1C1
330
2
100
AcDbEntity
  8
L-ZISSEN
100
AcDbLine
 10
758.4258080548856
 20
433.2838359146892
 30
0.0
 11
757.0115944925123
 21
431.869622352316
 31
0.0
  0
LINE
  5
1C2
330
2
100
AcDbEntity
  8
L-ZISSEN
100
AcDbLine
 10
796.9478544163398
 20
422.6330445412332
 30
0.0
 11
798.4258080548856
 21
429.2838359146892
 31
0.0
  0
LINE
  5
1C3
330
2
100
AcDbEntity
  8
L-ZISSEN
100
AcDbLine
 10
785.6060041521673
 20
415.2838359146892
 30
0.0
 11
767.2456119576045
 21
415.2838359146892
 31
0.0
  0
LINE
  5
1C4
330
2
100
AcDbEntity
  8
L-ZISSEN
100
AcDbLine
 10
766.6108534786622
 20
413.2838359146892
 30
0.0
 11
786.2407626311092
 21
413.2838359146892
 31
0.0
  0
ARC
  5
1C5
330
2
100
AcDbEntity
  8
L-ZISSEN
100
AcDbCircle
 10
767.2456119576044
 20
416.2838359146892
 30
0.0
 40
1.0
100
AcDbArc
 50
191.3099324740207
 51
270.0000000000001
  0
LINE
  5
1C6
330
2
100
AcDbEntity
  8
L-ZISSEN
100
AcDbLine
 10
765.5865848278581
 20
419.4799520498275
 30
0.0
 11
766.2650312819132
 21
416.0877197795509
 31
0.0
  0
ARC
  5
1C7
330
2
100
AcDbEntity
  8
L-ZISSEN
100
AcDbCircle
 10
764.6060041521671
 20
419.2838359146892
 30
0.0
 40
1.0
100
AcDbArc
 50
11.30993247402029
 51
90.00000000000003
  0
LINE
  5
1C8
330
2
100
AcDbEntity
  8
L-ZISSEN
100
AcDbLine
 10
782.4258080548856
 20
415.2838359146892
 30
0.0
 11
782.4258080548856
 21
413.2838359146891
 31
0.0
  0
LINE
  5
1C9
330
2
100
AcDbEntity
  8
L-ZISSEN
100
AcDbLine
 10
770.4258080548856
 20
415.2838359146892
 30
0.0
 11
770.4258080548856
 21
413.2838359146891
 31
0.0
  0
ARC
  5
1CA
330
2
100
AcDbEntity
  8
L-ZISSEN
100
AcDbCircle
 10
785.6060041521672
 20
416.2838359146892
 30
0.0
 40
1.0
100
AcDbArc
 50
270.0000000000002
 51
348.6900675259793
  0
ARC
  5
1CB
330
2
100
AcDbEntity
  8
L-ZISSEN
100
AcDbCircle
 10
788.2456119576041
 20
419.2838359146892
 30
0.0
 40
1.0
100
AcDbArc
 50
90.0
 51
168.6900675259797
  0
LINE
  5
1CC
330
2
100
AcDbEntity
  8
L-ZISSEN
100
AcDbLine
 10
787.2650312819132
 20
419.4799520498275
 30
0.0
 11
786.5865848278581
 21
416.087719779551
 31
0.0
  0
ARC
  5
1CD
330
2
100
AcDbEntity
  8
L-ZISSEN
100
AcDbCircle
 10
794.019293235788
 20
423.2838359146892
 30
0.0
 40
3.0
100
AcDbArc
 50
270.0
 51
347.4711922908484
  0
ARC
  5
1CE
330
2
100
AcDbEntity
  8
L-ZISSEN
100
AcDbCircle
 10
763.9258080548856
 20
441.2838359146892
 30
0.0
 40
4.0
100
AcDbArc
 50
270.0000000000017
 51
89.9999999999984
  0
CIRCLE
  5
1CF
330
2
100
AcDbEntity
  8
L-ZISSEN
100
AcDbCircle
 10
788.9258080548858
 20
441.2838359146892
 30
0.0
 40
3.0
  0
ARC
  5
1D0
330
2
100
AcDbEntity
  8
L-ZISSEN
100
AcDbCircle
 10
788.9258080548858
 20
441.2838359146892
 30
0.0
 40
4.0
100
AcDbArc
 50
90.00000000000161
 51
269.9999999999983
  0
LINE
  5
1D1
330
2
100
AcDbEntity
  8
L-ZISSEN
100
AcDbLine
 10
788.9258080548857
 20
437.2838359146893
 30
0.0
 11
794.4258080548856
 21
437.2838359146893
 31
0.0
  0
LINE
  5
1D2
330
2
100
AcDbEntity
  8
L-ZISSEN
100
AcDbLine
 10
794.4258080548856
 20
445.2838359146893
 30
0.0
 11
788.9258080548857
 21
445.2838359146893
 31
0.0
  0
LINE
  5
1D3
330
2
100
AcDbEntity
  8
L-ZISSEN
100
AcDbLine
 10
794.4258080548856
 20
433.2838359146892
 30
0.0
 11
795.8400216172585
 21
431.869622352316
 31
0.0
  0
LINE
  5
1D4
330
2
100
AcDbEntity
  8
L-ZISSEN
100
AcDbLine
 10
758.4258080548856
 20
467.2838359146892
 30
0.0
 11
763.9258080548857
 21
467.2838359146892
 31
0.0
  0
LINE
  5
1D5
330
2
100
AcDbEntity
  8
L-ZISSEN
100
AcDbLine
 10
763.9258080548857
 20
459.2838359146892
 30
0.0
 11
758.4258080548856
 21
459.2838359146892
 31
0.0
  0
CIRCLE
  5
1D6
330
2
100
AcDbEntity
  8
L-ZISSEN
100
AcDbCircle
 10
763.9258080548856
 20
463.2838359146894
 30
0.0
 40
3.0
  0
LINE
  5
1D7
330
2
100
AcDbEntity
  8
L-ZISSEN
100
AcDbLine
 10
763.9258080548857
 20
489.2838359146892
 30
0.0
 11
761.4258080548852
 21
483.2838359146892
 31
0.0
  0
LINE
  5
1D8
330
2
100
AcDbEntity
  8
L-ZISSEN
100
AcDbLine
 10
769.4258080548856
 20
483.2838359146892
 30
0.0
 11
761.4258080548852
 21
483.2838359146892
 31
0.0
  0
LINE
  5
1D9
330
2
100
AcDbEntity
  8
L-ZISSEN
100
AcDbLine
 10
761.4258080548852
 20
472.2838359146892
 30
0.0
 11
791.4258080548856
 21
472.2838359146892
 31
0.0
  0
LINE
  5
1DA
330
2
100
AcDbEntity
  8
L-ZISSEN
100
AcDbLine
 10
795.9258080548857
 20
469.2838359146892
 30
0.0
 11
756.9258080548856
 21
469.2838359146892
 31
0.0
  0
LINE
  5
1DB
330
2
100
AcDbEntity
  8
L-ZISSEN
100
AcDbLine
 10
745.9258080548856
 20
494.2838359146892
 30
0.0
 11
769.9258080548856
 21
494.2838359146892
 31
0.0
  0
LINE
  5
1DC
330
2
100
AcDbEntity
  8
L-ZISSEN
100
AcDbLine
 10
769.9258080548856
 20
498.2838359146892
 30
0.0
 11
745.9258080548856
 21
498.2838359146892
 31
0.0
  0
LINE
  5
1DD
330
2
100
AcDbEntity
  8
L-ZISSEN
100
AcDbLine
 10
761.4258080548852
 20
472.2838359146892
 30
0.0
 11
761.4258080548852
 21
483.2838359146892
 31
0.0
  0
LINE
  5
1DE
330
2
100
AcDbEntity
  8
L-ZISSEN
100
AcDbLine
 10
756.9258080548852
 20
475.4018699034392
 30
0.0
 11
761.4258080548852
 21
472.2838359146892
 31
0.0
  0
ARC
  5
1DF
330
2
100
AcDbEntity
  8
L-ZISSEN
100
AcDbCircle
 10
750.9714294275428
 20
492.2838359146892
 30
0.0
 40
2.0
100
AcDbArc
 50
1.321975659536985
 51
90.0
  0
LINE
  5
1E0
330
2
100
AcDbEntity
  8
L-ZISSEN
100
AcDbLine
 10
745.9258080548856
 20
502.2838359146892
 30
0.0
 11
745.9258080548856
 21
494.2838359146892
 31
0.0
  0
LINE
  5
1E1
330
2
100
AcDbEntity
  8
L-ZISSEN
100
AcDbLine
 10
791.4258080548856
 20
472.2838359146892
 30
0.0
 11
791.4258080548856
 21
483.2838359146892
 31
0.0
  0
LINE
  5
1E2
330
2
100
AcDbEntity
  8
L-ZISSEN
100
AcDbLine
 10
769.4258080548856
 20
474.2838359146892
 30
0.0
 11
769.4258080548856
 21
494.2838359146892
 31
0.0
  0
LINE
  5
1E3
330
2
100
AcDbEntity
  8
L-ZISSEN
100
AcDbLine
 10
783.4258080548857
 20
474.2838359146892
 30
0.0
 11
783.4258080548857
 21
494.2838359146892
 31
0.0
  0
LINE
  5
1E4
330
2
100
AcDbEntity
  8
L-ZISSEN
100
AcDbLine
 10
769.9258080548856
 20
505.2838359146892
 30
0.0
 11
769.9258080548856
 21
477.2838359146892
 31
0.0
  0
LINE
  5
1E5
330
2
100
AcDbEntity
  8
L-ZISSEN
100
AcDbLine
 10
782.9258080548856
 20
477.2838359146892
 30
0.0
 11
782.9258080548856
 21
502.2838359146892
 31
0.0
  0
ARC
  5
1E6
330
2
100
AcDbEntity
  8
L-ZISSEN
100
AcDbCircle
 10
782.4258080548855
 20
474.2838359146892
 30
0.0
 40
1.0
100
AcDbArc
 50
270.0
 51
0.0
  0
ARC
  5
1E7
330
2
100
AcDbEntity
  8
L-ZISSEN
100
AcDbCircle
 10
763.9258080548856
 20
463.2838359146894
 30
0.0
 40
4.0
100
AcDbArc
 50
270.0000000000017
 51
89.9999999999984
  0
ARC
  5
1E8
330
2
100
AcDbEntity
  8
L-ZISSEN
100
AcDbCircle
 10
770.4258080548855
 20
474.2838359146892
 30
0.0
 40
1.0
100
AcDbArc
 50
180.0
 51
270.0
  0
LINE
  5
1E9
330
2
100
AcDbEntity
  8
L-ZISSEN
100
AcDbLine
 10
782.4258080548856
 20
473.2838359146892
 30
0.0
 11
770.4258080548856
 21
473.2838359146892
 31
0.0
  0
LINE
  5
1EA
330
2
100
AcDbEntity
  8
L-ZISSEN
100
AcDbLine
 10
782.9258080548856
 20
477.2838359146892
 30
0.0
 11
769.9258080548856
 21
477.2838359146892
 31
0.0
  0
LINE
  5
1EB
330
2
100
AcDbEntity
  8
L-ZISSEN
100
AcDbLine
 10
795.9258080548857
 20
475.4018699034392
 30
0.0
 11
791.4258080548856
 21
472.2838359146892
 31
0.0
  0
CIRCLE
  5
1EC
330
2
100
AcDbEntity
  8
L-ZISSEN
100
AcDbCircle
 10
788.9258080548858
 20
463.2838359146894
 30
0.0
 40
3.0
  0
ARC
  5
1ED
330
2
100
AcDbEntity
  8
L-ZISSEN
100
AcDbCircle
 10
788.9258080548858
 20
463.2838359146894
 30
0.0
 40
4.0
100
AcDbArc
 50
90.00000000000161
 51
269.9999999999983
  0
LINE
  5
1EE
330
2
100
AcDbEntity
  8
L-ZISSEN
100
AcDbLine
 10
788.9258080548857
 20
459.2838359146892
 30
0.0
 11
794.4258080548856
 21
459.2838359146892
 31
0.0
  0
LINE
  5
1EF
330
2
100
AcDbEntity
  8
L-ZISSEN
100
AcDbLine
 10
794.4258080548856
 20
467.2838359146892
 30
0.0
 11
788.9258080548857
 21
467.2838359146892
 31
0.0
  0
LINE
  5
1F0
330
2
100
AcDbEntity
  8
L-ZISSEN
100
AcDbLine
 10
763.9258080548857
 20
494.2838359146892
 30
0.0
 11
763.9258080548857
 21
489.2838359146892
 31
0.0
  0
LINE
  5
1F1
330
2
100
AcDbEntity
  8
L-ZISSEN
100
AcDbLine
 10
769.4258080548856
 20
489.2838359146892
 30
0.0
 11
763.9258080548857
 21
489.2838359146892
 31
0.0
  0
LINE
  5
1F2
330
2
100
AcDbEntity
  8
L-ZISSEN
100
AcDbLine
 10
782.9258080548856
 20
486.2838359146892
 30
0.0
 11
769.9258080548856
 21
486.2838359146892
 31
0.0
  0
LINE
  5
1F3
330
2
100
AcDbEntity
  8
L-ZISSEN
100
AcDbLine
 10
769.9258080548856
 20
484.2838359146892
 30
0.0
 11
782.9258080548856
 21
484.2838359146892
 31
0.0
  0
LINE
  5
1F4
330
2
100
AcDbEntity
  8
L-ZISSEN
100
AcDbLine
 10
778.1578588624543
 20
499.2838359146892
 30
0.0
 11
774.6937572473166
 21
499.2838359146892
 31
0.0
  0
LINE
  5
1F5
330
2
100
AcDbEntity
  8
L-ZISSEN
100
AcDbLine
 10
774.6937572473166
 20
505.2838359146892
 30
0.0
 11
778.1578588624543
 21
499.2838359146892
 31
0.0
  0
LINE
  5
1F6
330
2
100
AcDbEntity
  8
L-ZISSEN
100
AcDbLine
 10
778.1578588624547
 20
505.2838359146892
 30
0.0
 11
774.6937572473166
 21
499.2838359146892
 31
0.0
  0
LINE
  5
1F7
330
2
100
AcDbEntity
  8
L-ZISSEN
100
AcDbLine
 10
766.9258080548852
 20
502.2838359146892
 30
0.0
 11
766.9258080548852
 21
498.2838359146892
 31
0.0
  0
LINE
  5
1F8
330
2
100
AcDbEntity
  8
L-ZISSEN
100
AcDbLine
 10
765.9258080548852
 20
498.2838359146892
 30
0.0
 11
765.9258080548852
 21
502.2838359146892
 31
0.0
  0
LINE
  5
1F9
330
2
100
AcDbEntity
  8
L-ZISSEN
100
AcDbLine
 10
782.9258080548856
 20
505.2838359146892
 30
0.0
 11
769.9258080548856
 21
505.2838359146892
 31
0.0
  0
LINE
  5
1FA
330
2
100
AcDbEntity
  8
L-ZISSEN
100
AcDbLine
 10
782.9258080548856
 20
502.2838359146892
 30
0.0
 11
782.9258080548856
 21
505.2838359146892
 31
0.0
  0
ARC
  5
1FB
330
2
100
AcDbEntity
  8
L-ZISSEN
100
AcDbCircle
 10
801.8801866822284
 20
492.2838359146892
 30
0.0
 40
2.0
100
AcDbArc
 50
90.0
 51
178.678024340463
  0
LINE
  5
1FC
330
2
100
AcDbEntity
  8
L-ZISSEN
100
AcDbLine
 10
788.9258080548857
 20
489.2838359146892
 30
0.0
 11
791.4258080548856
 21
483.2838359146892
 31
0.0
  0
LINE
  5
1FD
330
2
100
AcDbEntity
  8
L-ZISSEN
100
AcDbLine
 10
788.9258080548857
 20
494.2838359146892
 30
0.0
 11
788.9258080548857
 21
489.2838359146892
 31
0.0
  0
LINE
  5
1FE
330
2
100
AcDbEntity
  8
L-ZISSEN
100
AcDbLine
 10
788.9258080548857
 20
489.2838359146892
 30
0.0
 11
783.4258080548857
 21
489.2838359146892
 31
0.0
  0
LINE
  5
1FF
330
2
100
AcDbEntity
  8
L-ZISSEN
100
AcDbLine
 10
791.4258080548856
 20
483.2838359146892
 30
0.0
 11
783.4258080548857
 21
483.2838359146892
 31
0.0
  0
LINE
  5
200
330
2
100
AcDbEntity
  8
L-ZISSEN
100
AcDbLine
 10
786.9258080548856
 20
498.2838359146892
 30
0.0
 11
786.9258080548856
 21
502.2838359146892
 31
0.0
  0
LINE
  5
201
330
2
100
AcDbEntity
  8
L-ZISSEN
100
AcDbLine
 10
785.9258080548856
 20
502.2838359146892
 30
0.0
 11
785.9258080548856
 21
498.2838359146892
 31
0.0
  0
LINE
  5
202
330
2
100
AcDbEntity
  8
L-ZISSEN
  6
CONTINUOUS
 62
     7
100
AcDbLine
 10
854.3494695117066
 20
480.5910387632516
 30
0.0
 11
854.3494695117066
 21
401.5910387632517
 31
0.0
  0
LINE
  5
203
330
2
100
AcDbEntity
  8
L-ZISSEN
  6
CONTINUOUS
 62
     7
100
AcDbLine
 10
855.5494695117065
 20
410.5910387632517
 30
0.0
 11
855.5494695117065
 21
472.5910387632517
 31
0.0
  0
LINE
  5
204
330
2
100
AcDbEntity
  8
L-ZISSEN
  6
CONTINUOUS
 62
     7
100
AcDbLine
 10
860.8494695117068
 20
472.5910387632517
 30
0.0
 11
860.8494695117068
 21
410.5910387632517
 31
0.0
  0
LINE
  5
205
330
2
100
AcDbEntity
  8
L-ZISSEN
  6
CONTINUOUS
 62
     7
100
AcDbLine
 10
876.1494695117065
 20
410.5910387632517
 30
0.0
 11
876.1494695117065
 21
472.5910387632517
 31
0.0
  0
LINE
  5
206
330
2
100
AcDbEntity
  8
L-ZISSEN
  6
CONTINUOUS
 62
     7
100
AcDbLine
 10
870.8494695117067
 20
472.5910387632517
 30
0.0
 11
870.8494695117067
 21
410.5910387632517
 31
0.0
  0
LINE
  5
207
330
2
100
AcDbEntity
  8
L-ZISSEN
  6
CONTINUOUS
 62
     7
100
AcDbLine
 10
862.8494695117067
 20
418.5910387632516
 30
0.0
 11
862.8494695117067
 21
464.5910387632517
 31
0.0
  0
LINE
  5
208
330
2
100
AcDbEntity
  8
L-ZISSEN
  6
CONTINUOUS
 62
     7
100
AcDbLine
 10
868.8494695117068
 20
464.5910387632517
 30
0.0
 11
868.8494695117068
 21
418.5910387632516
 31
0.0
  0
LINE
  5
209
330
2
100
AcDbEntity
  8
L-ZISSEN
  6
CONTINUOUS
 62
     7
100
AcDbLine
 10
877.3494695117067
 20
401.5910387632517
 30
0.0
 11
877.3494695117067
 21
427.5910387632515
 31
0.0
  0
LINE
  5
20A
330
2
100
AcDbEntity
  8
L-ZISSEN
  6
CONTINUOUS
 62
     7
100
AcDbLine
 10
857.3494695117068
 20
398.5910387632517
 30
0.0
 11
874.3494695117068
 21
398.5910387632517
 31
0.0
  0
LINE
  5
20B
330
2
100
AcDbEntity
  8
L-ZISSEN
  6
CONTINUOUS
 62
     7
100
AcDbLine
 10
872.8494695117067
 20
400.5910387632517
 30
0.0
 11
858.8494695117066
 21
400.5910387632517
 31
0.0
  0
LINE
  5
20C
330
2
100
AcDbEntity
  8
L-ZISSEN
  6
CONTINUOUS
 62
     7
100
AcDbLine
 10
868.8494695117068
 20
418.5910387632516
 30
0.0
 11
862.8494695117067
 21
418.5910387632516
 31
0.0
  0
ARC
  5
20D
330
2
100
AcDbEntity
  8
L-ZISSEN
  6
CONTINUOUS
 62
     7
100
AcDbCircle
 10
865.8494695117067
 20
410.5910387632517
 30
0.0
 40
6.0
100
AcDbArc
 50
180.0
 51
0.0
  0
CIRCLE
  5
20E
330
2
100
AcDbEntity
  8
L-ZISSEN
  6
CONTINUOUS
 62
     7
100
AcDbCircle
 10
865.8494695117067
 20
410.5910387632517
 30
0.0
 40
4.5
  0
LINE
  5
20F
330
2
100
AcDbEntity
  8
L-ZISSEN
  6
CONTINUOUS
 62
     7
100
AcDbLine
 10
862.2716360367492
 20
413.3203441007851
 30
0.0
 11
868.5787748492399
 21
407.0132052882944
 31
0.0
  0
LINE
  5
210
330
2
100
AcDbEntity
  8
L-ZISSEN
  6
CONTINUOUS
 62
     7
100
AcDbLine
 10
869.4273029866637
 20
407.8617334257183
 30
0.0
 11
863.1201641741728
 21
414.168872238209
 31
0.0
  0
ARC
  5
212
330
2
100
AcDbEntity
  8
L-ZISSEN
  6
CONTINUOUS
 62
     7
100
AcDbCircle
 10
857.3494695117068
 20
401.5910387632517
 30
0.0
 40
3.00000000000005
100
AcDbArc
 50
180.0
 51
269.9999999999999
  0
ARC
  5
213
330
2
100
AcDbEntity
  8
L-ZISSEN
  6
CONTINUOUS
 62
     7
100
AcDbCircle
 10
858.8494695117066
 20
403.5910387632517
 30
0.0
 40
3.00000000000005
100
AcDbArc
 50
180.0
 51
269.9999999999999
  0
LINE
  5
214
330
2
100
AcDbEntity
  8
L-ZISSEN
  6
CONTINUOUS
 62
     7
100
AcDbLine
 10
855.8494695117067
 20
403.5910387632517
 30
0.0
 11
855.8494695117067
 21
410.5910387632517
 31
0.0
  0
LINE
  5
215
330
2
100
AcDbEntity
  8
L-ZISSEN
  6
CONTINUOUS
 62
     7
100
AcDbLine
 10
860.8494695117068
 20
410.5910387632517
 30
0.0
 11
855.5494695117065
 21
410.5910387632517
 31
0.0
  0
ARC
  5
216
330
2
100
AcDbEntity
  8
L-ZISSEN
  6
CONTINUOUS
 62
     7
100
AcDbCircle
 10
874.3494695117068
 20
401.5910387632517
 30
0.0
 40
3.00000000000005
100
AcDbArc
 50
270.0
 51
0.0
  0
ARC
  5
217
330
2
100
AcDbEntity
  8
L-ZISSEN
  6
CONTINUOUS
 62
     7
100
AcDbCircle
 10
872.8494695117067
 20
403.5910387632517
 30
0.0
 40
3.00000000000005
100
AcDbArc
 50
270.0
 51
0.0
  0
LINE
  5
218
330
2
100
AcDbEntity
  8
L-ZISSEN
  6
CONTINUOUS
 62
     7
100
AcDbLine
 10
875.8494695117066
 20
410.5910387632517
 30
0.0
 11
875.8494695117066
 21
403.5910387632517
 31
0.0
  0
LINE
  5
219
330
2
100
AcDbEntity
  8
L-ZISSEN
  6
CONTINUOUS
 62
     7
100
AcDbLine
 10
870.8494695117067
 20
410.5910387632517
 30
0.0
 11
876.1494695117065
 21
410.5910387632517
 31
0.0
  0
ARC
  5
21A
330
2
100
AcDbEntity
  8
L-ZISSEN
  6
CONTINUOUS
 62
     7
100
AcDbCircle
 10
880.3494695117066
 20
427.5910387632515
 30
0.0
 40
3.00000000000005
100
AcDbArc
 50
89.99999999999998
 51
179.9999999999999
  0
LINE
  5
21B
330
2
100
AcDbEntity
  8
L-ZISSEN
  6
CONTINUOUS
 62
     7
100
AcDbLine
 10
826.3494695117065
 20
472.5910387632516
 30
0.0
 11
826.3494695117065
 21
486.5910387632516
 31
0.0
  0
LINE
  5
21C
330
2
100
AcDbEntity
  8
L-ZISSEN
  6
CONTINUOUS
 62
     7
100
AcDbLine
 10
836.3494695117065
 20
472.5910387632516
 30
0.0
 11
826.3494695117065
 21
472.5910387632516
 31
0.0
  0
LINE
  5
21D
330
2
100
AcDbEntity
  8
L-ZISSEN
100
AcDbLine
 10
806.9258080548857
 20
502.2838359146892
 30
0.0
 11
806.9258080548857
 21
494.2838359146892
 31
0.0
  0
LINE
  5
21E
330
2
100
AcDbEntity
  8
L-TYUSIN
  6
CENTER
 62
     1
100
AcDbLine
 10
811.349469511706
 20
510.2838359146845
 30
0.0
 11
811.349469511706
 21
490.2838359146939
 31
0.0
  0
CIRCLE
  5
21F
330
2
100
AcDbEntity
  8
L-ZISSEN
  6
CONTINUOUS
 62
     7
100
AcDbCircle
 10
811.3494695117065
 20
500.2838359146892
 30
0.0
 40
3.5
  0
LINE
  5
220
330
2
100
AcDbEntity
  8
L-ZISSEN
  6
CONTINUOUS
 62
     7
100
AcDbLine
 10
826.3494695117065
 20
486.5910387632516
 30
0.0
 11
836.3494695117065
 21
486.5910387632516
 31
0.0
  0
ARC
  5
221
330
2
100
AcDbEntity
  8
L-ZISSEN
  6
CONTINUOUS
 62
     7
100
AcDbCircle
 10
857.3494695117068
 20
480.5910387632516
 30
0.0
 40
3.00000000000005
100
AcDbArc
 50
90.0000000000001
 51
180.0
  0
ARC
  5
222
330
2
100
AcDbEntity
  8
L-ZISSEN
  6
CONTINUOUS
 62
     7
100
AcDbCircle
 10
858.8494695117066
 20
479.5910387632516
 30
0.0
 40
3.00000000000005
100
AcDbArc
 50
90.0000000000001
 51
179.9999999999999
  0
ARC
  5
223
330
2
100
AcDbEntity
  8
L-ZISSEN
  6
CONTINUOUS
 62
     7
100
AcDbCircle
 10
872.8494695117067
 20
479.5910387632516
 30
0.0
 40
3.00000000000005
100
AcDbArc
 50
0.0
 51
90.0
  0
LINE
  5
224
330
2
100
AcDbEntity
  8
L-ZISSEN
  6
CONTINUOUS
 62
     7
100
AcDbLine
 10
862.8494695117067
 20
464.5910387632517
 30
0.0
 11
868.8494695117068
 21
464.5910387632517
 31
0.0
  0
ARC
  5
225
330
2
100
AcDbEntity
  8
L-ZISSEN
  6
CONTINUOUS
 62
     7
100
AcDbCircle
 10
865.8494695117067
 20
472.5910387632517
 30
0.0
 40
6.0
100
AcDbArc
 50
0.0
 51
180.0
  0
LINE
  5
226
330
2
100
AcDbEntity
  8
L-ZISSEN
  6
CONTINUOUS
 62
     7
100
AcDbLine
 10
869.4273029866637
 20
469.8617334257183
 30
0.0
 11
863.1201641741728
 21
476.1688722382091
 31
0.0
  0
LINE
  5
227
330
2
100
AcDbEntity
  8
L-ZISSEN
  6
CONTINUOUS
 62
     7
100
AcDbLine
 10
862.2716360367492
 20
475.3203441007851
 30
0.0
 11
868.5787748492399
 21
469.0132052882943
 31
0.0
  0
CIRCLE
  5
228
330
2
100
AcDbEntity
  8
L-ZISSEN
  6
CONTINUOUS
 62
     7
100
AcDbCircle
 10
865.8494695117067
 20
472.5910387632517
 30
0.0
 40
4.5
  0
LINE
  5
229
330
2
100
AcDbEntity
  8
L-ZISSEN
  6
CONTINUOUS
 62
     7
100
AcDbLine
 10
855.8494695117067
 20
472.5910387632517
 30
0.0
 11
855.8494695117067
 21
479.5910387632516
 31
0.0
  0
LINE
  5
22A
330
2
100
AcDbEntity
  8
L-ZISSEN
  6
CONTINUOUS
 62
     7
100
AcDbLine
 10
855.5494695117065
 20
472.5910387632517
 30
0.0
 11
860.8494695117068
 21
472.5910387632517
 31
0.0
  0
LINE
  5
22B
330
2
100
AcDbEntity
  8
L-ZISSEN
  6
CONTINUOUS
 62
     7
100
AcDbLine
 10
861.3494695117067
 20
471.9910387632516
 30
0.0
 11
861.3896488875095
 21
471.9910387632516
 31
0.0
  0
LINE
  5
22C
330
2
100
AcDbEntity
  8
L-ZISSEN
  6
CONTINUOUS
 62
     7
100
AcDbLine
 10
875.8494695117066
 20
479.5910387632516
 30
0.0
 11
875.8494695117066
 21
472.5910387632517
 31
0.0
  0
LINE
  5
22D
330
2
100
AcDbEntity
  8
L-ZISSEN
  6
CONTINUOUS
 62
     7
100
AcDbLine
 10
876.1494695117065
 20
472.5910387632517
 30
0.0
 11
870.8494695117067
 21
472.5910387632517
 31
0.0
  0
LINE
  5
22E
330
2
100
AcDbEntity
  8
L-ZISSEN
  6
CONTINUOUS
 62
     7
100
AcDbLine
 10
872.8494695117062
 20
483.5910387632517
 30
0.0
 11
857.3494695117068
 21
483.5910387632516
 31
0.0
  0
LINE
  5
22F
330
2
100
AcDbEntity
  8
L-ZISSEN
  6
CONTINUOUS
 62
     7
100
AcDbLine
 10
858.8494695117066
 20
482.5910387632517
 30
0.0
 11
872.8494695117067
 21
482.5910387632517
 31
0.0
  0
LINE
  5
231
330
2
100
AcDbEntity
  8
L-ZISSEN
  6
CONTINUOUS
 62
     7
100
AcDbLine
 10
976.3494695117067
 20
355.5910387632515
 30
0.0
 11
896.3494695117066
 21
355.5910387632515
 31
0.0
  0
LINE
  5
232
330
2
100
AcDbEntity
  8
L-ZISSEN
  6
CONTINUOUS
 62
     7
100
AcDbLine
 10
1022.349469511706
 20
365.5910387632516
 30
0.0
 11
947.8385948047828
 21
365.5910387632516
 31
0.0
  0
CIRCLE
  5
233
330
2
100
AcDbEntity
  8
L-ZISSEN
  6
CONTINUOUS
 62
     7
100
AcDbCircle
 10
936.3494695117067
 20
373.5910387632516
 30
0.0
 40
10.47000000000049
  0
CIRCLE
  5
234
330
2
100
AcDbEntity
  8
L-ZISSEN
  6
CONTINUOUS
 62
     7
100
AcDbCircle
 10
936.3494695117067
 20
373.5910387632516
 30
0.0
 40
14.0
  0
LINE
  5
235
330
2
100
AcDbEntity
  8
L-TYUSIN
  6
CENTER
 62
     1
100
AcDbLine
 10
936.3494695117067
 20
373.5910387632516
 30
0.0
 11
916.1908632898812
 21
373.5910387632516
 31
0.0
  0
LINE
  5
236
330
2
100
AcDbEntity
  8
L-ZISSEN
  6
CONTINUOUS
 62
     7
100
AcDbLine
 10
896.3494695117066
 20
355.5910387632515
 30
0.0
 11
896.3494695117066
 21
365.5910387632515
 31
0.0
  0
LINE
  5
237
330
2
100
AcDbEntity
  8
L-TYUSIN
  6
CENTER
 62
     1
100
AcDbLine
 10
936.3494695117067
 20
373.5910387632516
 30
0.0
 11
936.3494695117067
 21
353.4324325414266
 31
0.0
  0
LINE
  5
239
330
2
100
AcDbEntity
  8
L-TYUSIN
  6
CENTER
 62
     1
100
AcDbLine
 10
936.3494695117067
 20
373.5910387632515
 30
0.0
 11
956.5080757335321
 21
373.5910387632515
 31
0.0
  0
POLYLINE
  5
23A
330
2
100
AcDbEntity
  8
L-ZISSEN
  6
CONTINUOUS
 62
     7
100
AcDb2dPolyline
 66
     1
 10
0.0
 20
0.0
 30
0.0
 70
     1
  0
VERTEX
  5
8F3
330
23A
100
AcDbEntity
  8
L-ZISSEN
  6
CONTINUOUS
 62
     7
100
AcDbVertex
100
AcDb2dVertex
 10
933.4627181657586
 20
378.5910387632516
 30
0.0
  0
VERTEX
  5
8F4
330
23A
100
AcDbEntity
  8
L-ZISSEN
  6
CONTINUOUS
 62
     7
100
AcDbVertex
100
AcDb2dVertex
 10
930.5759668198104
 20
373.5910387632516
 30
0.0
  0
VERTEX
  5
8F5
330
23A
100
AcDbEntity
  8
L-ZISSEN
  6
CONTINUOUS
 62
     7
100
AcDbVertex
100
AcDb2dVertex
 10
933.4627181657586
 20
368.5910387632516
 30
0.0
  0
VERTEX
  5
8F6
330
23A
100
AcDbEntity
  8
L-ZISSEN
  6
CONTINUOUS
 62
     7
100
AcDbVertex
100
AcDb2dVertex
 10
939.2362208576548
 20
368.5910387632516
 30
0.0
  0
VERTEX
  5
8F7
330
23A
100
AcDbEntity
  8
L-ZISSEN
  6
CONTINUOUS
 62
     7
100
AcDbVertex
100
AcDb2dVertex
 10
942.1229722036029
 20
373.5910387632516
 30
0.0
  0
VERTEX
  5
8F8
330
23A
100
AcDbEntity
  8
L-ZISSEN
  6
CONTINUOUS
 62
     7
100
AcDbVertex
100
AcDb2dVertex
 10
939.2362208576548
 20
378.5910387632516
 30
0.0
  0
SEQEND
  5
8F9
330
23A
100
AcDbEntity
  8
L-ZISSEN
  6
CONTINUOUS
 62
     7
  0
LINE
  5
242
330
2
100
AcDbEntity
  8
L-TYUSIN
  6
CENTER
 62
     1
100
AcDbLine
 10
936.3494695117067
 20
373.5910387632515
 30
0.0
 11
936.3494695117067
 21
393.7496449850753
 31
0.0
  0
LINE
  5
243
330
2
100
AcDbEntity
  8
L-ZISSEN
  6
CONTINUOUS
 62
     7
100
AcDbLine
 10
976.3494695117067
 20
362.7838359146892
 30
0.0
 11
1022.349469511706
 21
362.7838359146892
 31
0.0
  0
LINE
  5
244
330
2
100
AcDbEntity
  8
L-ZISSEN
  6
CONTINUOUS
 62
     7
100
AcDbLine
 10
976.3494695117067
 20
355.5910387632515
 30
0.0
 11
976.3494695117067
 21
365.5910387632515
 31
0.0
  0
LINE
  5
245
330
2
100
AcDbEntity
  8
L-ZISSEN
  6
CONTINUOUS
 62
     7
100
AcDbLine
 10
1022.349469511706
 20
355.5910387632516
 30
0.0
 11
1022.349469511706
 21
365.5910387632516
 31
0.0
  0
LINE
  5
246
330
2
100
AcDbEntity
  8
0
  6
CONTINUOUS
 62
     7
100
AcDbLine
 10
1036.349469511706
 20
355.5910387632516
 30
0.0
 11
1022.349469511706
 21
355.5910387632516
 31
0.0
  0
LINE
  5
248
330
2
100
AcDbEntity
  8
L-ZISSEN
  6
CONTINUOUS
 62
     7
100
AcDbLine
 10
944.3494695117067
 20
433.5910387632517
 30
0.0
 11
944.3494695117067
 21
480.5910387632516
 31
0.0
  0
ARC
  5
24A
330
2
100
AcDbEntity
  8
L-ZISSEN
  6
CONTINUOUS
 62
     7
100
AcDbCircle
 10
941.3494695117067
 20
433.5910387632517
 30
0.0
 40
3.00000000000005
100
AcDbArc
 50
270.0
 51
0.0
  0
ARC
  5
24B
330
2
100
AcDbEntity
  8
L-ZISSEN
  6
CONTINUOUS
 62
     7
100
AcDbCircle
 10
941.3494695117067
 20
480.5910387632516
 30
0.0
 40
3.00000000000005
100
AcDbArc
 50
0.0
 51
90.0
  0
LINE
  5
24C
330
2
100
AcDbEntity
  8
L-ZISSEN
  6
CONTINUOUS
 62
     7
100
AcDbLine
 10
1041.849469511706
 20
429.5910387632516
 30
0.0
 11
1041.849469511706
 21
464.5910387632516
 31
0.0
  0
LINE
  5
24D
330
2
100
AcDbEntity
  8
L-ZISSEN
  6
CONTINUOUS
 62
     7
100
AcDbLine
 10
1043.599469511706
 20
419.5910387632516
 30
0.0
 11
1043.599469511706
 21
424.2910387632516
 31
0.0
  0
LINE
  5
24E
330
2
100
AcDbEntity
  8
L-ZISSEN
  6
CONTINUOUS
 62
     7
100
AcDbLine
 10
1043.899469511706
 20
419.2910387632516
 30
0.0
 11
1043.599469511706
 21
419.5910387632517
 31
0.0
  0
LINE
  5
24F
330
2
100
AcDbEntity
  8
L-ZISSEN
  6
CONTINUOUS
 62
     7
100
AcDbLine
 10
1043.249469511706
 20
424.2910387632516
 30
0.0
 11
1043.249469511706
 21
425.5910387632516
 31
0.0
  0
LINE
  5
250
330
2
100
AcDbEntity
  8
L-ZISSEN
  6
CONTINUOUS
 62
     7
100
AcDbLine
 10
1049.810404343419
 20
425.5910387632515
 30
0.0
 11
1045.521418343279
 21
424.2910387632516
 31
0.0
  0
LINE
  5
251
330
2
100
AcDbEntity
  8
L-ZISSEN
  6
CONTINUOUS
 62
     7
100
AcDbLine
 10
1042.849469511706
 20
425.5910387632516
 30
0.0
 11
1042.849469511706
 21
429.5910387632516
 31
0.0
  0
LINE
  5
252
330
2
100
AcDbEntity
  8
L-ZISSEN
  6
CONTINUOUS
 62
     7
100
AcDbLine
 10
1036.349469511706
 20
432.5910387632516
 30
0.0
 11
1041.849469511706
 21
432.5910387632516
 31
0.0
  0
ARC
  5
253
330
2
100
AcDbEntity
  8
L-ZISSEN
  6
CONTINUOUS
 62
     7
100
AcDbCircle
 10
1040.849469511706
 20
467.5910387632517
 30
0.0
 40
3.00000000000005
100
AcDbArc
 50
180.0
 51
269.9999999999999
  0
LINE
  5
254
330
2
100
AcDbEntity
  8
L-ZISSEN
  6
CONTINUOUS
 62
     7
100
AcDbLine
 10
1037.849469511706
 20
469.5910387632515
 30
0.0
 11
1036.349469511706
 21
469.5910387632515
 31
0.0
  0
LINE
  5
255
330
2
100
AcDbEntity
  8
L-ZISSEN
  6
CONTINUOUS
 62
     7
100
AcDbLine
 10
1041.849469511706
 20
464.5910387632516
 30
0.0
 11
1040.849469511706
 21
464.5910387632516
 31
0.0
  0
LINE
  5
256
330
2
100
AcDbEntity
  8
L-ZISSEN
  6
CONTINUOUS
 62
     7
100
AcDbLine
 10
1047.349469511706
 20
487.5910387632516
 30
0.0
 11
1047.349469511706
 21
494.5910387632515
 31
0.0
  0
LINE
  5
257
330
2
100
AcDbEntity
  8
L-ZISSEN
  6
CONTINUOUS
 62
     7
100
AcDbLine
 10
1037.849469511706
 20
497.5910387632516
 30
0.0
 11
1036.349469511706
 21
497.5910387632516
 31
0.0
  0
LINE
  5
258
330
2
100
AcDbEntity
  8
0
  6
CONTINUOUS
 62
     7
100
AcDbLine
 10
1036.349469511706
 20
515.5910387632515
 30
0.0
 11
836.3494695117065
 21
515.5910387632515
 31
0.0
  0
LINE
  5
259
330
2
100
AcDbEntity
  8
0
  6
CONTINUOUS
 62
     7
100
AcDbLine
 10
1036.349469511706
 20
516.5910387632516
 30
0.0
 11
821.3494695117065
 21
516.5910387632516
 31
0.0
  0
LINE
  5
25A
330
2
100
AcDbEntity
  8
0
  6
CONTINUOUS
 62
     7
100
AcDbLine
 10
821.3494695117065
 20
561.5910387632516
 30
0.0
 11
1036.349469511706
 21
561.5910387632514
 31
0.0
  0
LINE
  5
25B
330
2
100
AcDbEntity
  8
L-ZISSEN
  6
CONTINUOUS
 62
     7
100
AcDbLine
 10
945.3494695117063
 20
627.1910387632516
 30
0.0
 11
827.3494695117058
 21
627.1910387632516
 31
0.0
  0
LINE
  5
25C
330
2
100
AcDbEntity
  8
L-ZISSEN
  6
CONTINUOUS
 62
     7
100
AcDbLine
 10
836.5636325637108
 20
703.5910387632518
 30
0.0
 11
936.1353064597016
 21
703.5910387632514
 31
0.0
  0
LINE
  5
25D
330
2
100
AcDbEntity
  8
0
  6
CONTINUOUS
 62
     7
100
AcDbLine
 10
826.049469511706
 20
601.5910387632516
 30
0.0
 11
946.6494695117059
 21
601.5910387632516
 31
0.0
  0
CIRCLE
  5
25E
330
2
100
AcDbEntity
  8
L-ZISSEN
100
AcDbCircle
 10
886.3494695117063
 20
586.5910387632516
 30
0.0
 40
7.0
  0
LINE
  5
25F
330
2
100
AcDbEntity
  8
L-ZISSEN
100
AcDbLine
 10
756.1197092230649
 20
639.477801773992
 30
0.0
 11
754.7374831116158
 21
607.056234560502
 31
0.0
  0
LINE
  5
260
330
2
100
AcDbEntity
  8
L-ZISSEN
100
AcDbLine
 10
796.7369386700966
 20
607.0529585084309
 30
0.0
 11
795.3545728909789
 21
639.477801773992
 31
0.0
  0
LINE
  5
261
330
2
100
AcDbEntity
  8
L-ZISSEN
  6
CONTINUOUS
 62
     7
100
AcDbLine
 10
827.3494695117058
 20
627.1910387632516
 30
0.0
 11
827.3494695117058
 21
601.5910387632517
 31
0.0
  0
CIRCLE
  5
262
330
2
100
AcDbEntity
  8
L-ZISSEN
100
AcDbCircle
 10
807.349469511706
 20
522.6125077770221
 30
0.0
 40
3.5
  0
LINE
  5
263
330
2
100
AcDbEntity
  8
0
  6
CONTINUOUS
 62
     7
100
AcDbLine
 10
817.349469511706
 20
517.5910387632516
 30
0.0
 11
796.349469511706
 21
517.5910387632516
 31
0.0
  0
CIRCLE
  5
264
330
2
100
AcDbEntity
  8
L-ZISSEN
100
AcDbCircle
 10
807.349469511706
 20
554.9551640523563
 30
0.0
 40
3.5
  0
LINE
  5
265
330
2
100
AcDbEntity
  8
L-TYUSIN
100
AcDbLine
 10
734.349425496905
 20
538.7838359146892
 30
0.0
 11
812.8797692244116
 21
538.7838359146892
 31
0.0
  0
LINE
  5
266
330
2
100
AcDbEntity
  8
L-ZISSEN
100
AcDbLine
 10
756.3494254969046
 20
515.6210039167515
 30
0.0
 11
807.349469511706
 21
515.6210039167515
 31
0.0
  0
LINE
  5
267
330
2
100
AcDbEntity
  8
L-ZISSEN
100
AcDbLine
 10
748.6434170305455
 20
561.5910387632516
 30
0.0
 11
821.3494695117059
 21
561.5910387632516
 31
0.0
  0
LINE
  5
268
330
2
100
AcDbEntity
  8
L-ZISSEN
 62
     7
100
AcDbLine
 10
747.9556244836053
 20
566.579599385637
 30
0.0
 11
803.9658130359539
 21
566.579599385637
 31
0.0
  0
LINE
  5
269
330
2
100
AcDbEntity
  8
L-ZISSEN
100
AcDbLine
 10
748.8689118119123
 20
588.9811373132361
 30
0.0
 11
748.8689118119123
 21
566.5795993856369
 31
0.0
  0
LINE
  5
26A
330
2
100
AcDbEntity
  8
L-ZISSEN
100
AcDbLine
 10
802.8299831966988
 20
588.9811373132359
 30
0.0
 11
802.8299831966988
 21
566.5795993856369
 31
0.0
  0
LINE
  5
26B
330
2
100
AcDbEntity
  8
L-ZISSEN
100
AcDbLine
 10
795.349469511706
 20
517.4005894577552
 30
0.0
 11
748.6434170305455
 21
517.4005894577552
 31
0.0
  0
CIRCLE
  5
26C
330
2
100
AcDbEntity
  8
L-ZISSEN
 62
     7
100
AcDbCircle
 10
776.0278600970137
 20
538.7838359146892
 30
0.0
 40
19.0
  0
LINE
  5
26D
330
2
100
AcDbEntity
  8
L-ZISSEN
100
AcDbLine
 10
745.7275979356504
 20
546.949196367877
 30
0.0
 11
745.7275979356504
 21
530.7792077679806
 31
0.0
  0
LINE
  5
26E
330
2
100
AcDbEntity
  8
L-ZISSEN
100
AcDbLine
 10
748.6434170305455
 20
552.1422458252332
 30
0.0
 11
748.6434170305455
 21
517.4005894577552
 31
0.0
  0
LINE
  5
26F
330
2
100
AcDbEntity
  8
L-ZISSEN
100
AcDbLine
 10
746.785557159832
 20
529.0234994321422
 30
0.0
 11
746.785557159832
 21
548.9335206337439
 31
0.0
  0
LINE
  5
270
330
2
100
AcDbEntity
  8
L-ZISSEN
100
AcDbLine
 10
744.349425496905
 20
530.7175612020006
 30
0.0
 11
744.349425496905
 21
546.949196367877
 31
0.0
  0
SOLID
  5
271
330
2
100
AcDbEntity
  8
L-ZISSEN
100
AcDbTrace
 10
737.4846357351981
 20
546.2438921681863
 30
0.0
 11
735.4362277482103
 21
543.6142275831193
 31
0.0
 12
744.3494254969051
 22
538.7838359146892
 32
0.0
 13
744.3494254969051
 23
538.7838359146892
 33
0.0
  0
LINE
  5
272
330
2
100
AcDbEntity
  8
L-ZISSEN
100
AcDbLine
 10
744.349425496905
 20
520.8108858270281
 30
0.0
 11
746.4034357985196
 21
520.8108858270281
 31
0.0
  0
LINE
  5
273
330
2
100
AcDbEntity
  8
L-ZISSEN
100
AcDbLine
 10
744.349425496905
 20
515.6210039167515
 30
0.0
 11
756.3494254969046
 21
515.6210039167515
 31
0.0
  0
LINE
  5
274
330
2
100
AcDbEntity
  8
L-ZISSEN
100
AcDbLine
 10
746.4034357985196
 20
525.3822321803345
 30
0.0
 11
746.4034357985196
 21
520.8108858270281
 31
0.0
  0
LINE
  5
275
330
2
100
AcDbEntity
  8
L-ZISSEN
100
AcDbLine
 10
744.349425496905
 20
525.3822321803345
 30
0.0
 11
746.4034357985196
 21
525.3822321803345
 31
0.0
  0
LINE
  5
276
330
2
100
AcDbEntity
  8
L-ZISSEN
100
AcDbLine
 10
746.785557159832
 20
529.0234994321422
 30
0.0
 11
745.7275979356504
 21
530.7792077679806
 31
0.0
  0
LINE
  5
277
330
2
100
AcDbEntity
  8
L-ZISSEN
100
AcDbLine
 10
745.7275979356504
 20
530.7792077679806
 30
0.0
 11
744.3494254969046
 21
530.7792077679806
 31
0.0
  0
LINE
  5
278
330
2
100
AcDbEntity
  8
L-ZISSEN
100
AcDbLine
 10
746.0404070085751
 20
515.6210039167515
 30
0.0
 11
748.6434170305455
 21
517.4005894577552
 31
0.0
  0
LINE
  5
279
330
2
100
AcDbEntity
  8
L-ZISSEN
100
AcDbLine
 10
744.349425496905
 20
530.7175612020006
 30
0.0
 11
744.349425496905
 21
529.0234994321422
 31
0.0
  0
LINE
  5
27A
330
2
100
AcDbEntity
  8
L-ZISSEN
100
AcDbLine
 10
744.349425496905
 20
529.0234994321422
 30
0.0
 11
744.349425496905
 21
525.3822321803345
 31
0.0
  0
LINE
  5
27B
330
2
100
AcDbEntity
  8
L-ZISSEN
100
AcDbLine
 10
746.785557159832
 20
529.0234994321422
 30
0.0
 11
744.349425496905
 21
529.0234994321422
 31
0.0
  0
LINE
  5
27C
330
2
100
AcDbEntity
  8
L-ZISSEN
100
AcDbLine
 10
744.3494254969046
 20
561.5910387632516
 30
0.0
 11
744.3494254969046
 21
557.5495366486905
 31
0.0
  0
LINE
  5
27D
330
2
100
AcDbEntity
  8
L-ZISSEN
100
AcDbLine
 10
744.3494254969046
 20
557.5495366486905
 30
0.0
 11
745.5328857985196
 21
557.5495366486905
 31
0.0
  0
LINE
  5
27E
330
2
100
AcDbEntity
  8
L-ZISSEN
100
AcDbLine
 10
745.2199754969046
 20
552.6879277993758
 30
0.0
 11
744.349425496905
 21
552.6879277993758
 31
0.0
  0
LINE
  5
27F
330
2
100
AcDbEntity
  8
L-ZISSEN
100
AcDbLine
 10
746.4034357985196
 20
552.6879277993758
 30
0.0
 11
746.4034357985196
 21
557.5495366486905
 31
0.0
  0
LINE
  5
280
330
2
100
AcDbEntity
  8
L-ZISSEN
100
AcDbLine
 10
745.7275979356504
 20
546.949196367877
 30
0.0
 11
746.785557159832
 21
548.9335206337439
 31
0.0
  0
LINE
  5
281
330
2
100
AcDbEntity
  8
L-ZISSEN
100
AcDbLine
 10
744.349425496905
 20
546.949196367877
 30
0.0
 11
745.7275979356504
 21
546.949196367877
 31
0.0
  0
LINE
  5
282
330
2
100
AcDbEntity
  8
L-ZISSEN
100
AcDbLine
 10
744.349425496905
 20
548.9335206337439
 30
0.0
 11
744.349425496905
 21
546.949196367877
 31
0.0
  0
LINE
  5
283
330
2
100
AcDbEntity
  8
L-ZISSEN
100
AcDbLine
 10
744.349425496905
 20
552.6879277993758
 30
0.0
 11
744.349425496905
 21
548.9335206337439
 31
0.0
  0
LINE
  5
284
330
2
100
AcDbEntity
  8
L-ZISSEN
100
AcDbLine
 10
745.3751853037983
 20
546.949196367877
 30
0.0
 11
745.2199754969046
 21
546.949196367877
 31
0.0
  0
LINE
  5
285
330
2
100
AcDbEntity
  8
L-ZISSEN
100
AcDbLine
 10
745.6020968582175
 20
548.9335206337439
 30
0.0
 11
745.2199754969046
 21
548.9335206337439
 31
0.0
  0
LINE
  5
286
330
2
100
AcDbEntity
  8
L-ZISSEN
100
AcDbLine
 10
745.6020968582175
 20
552.6879277993758
 30
0.0
 11
745.2199754969046
 21
552.6879277993758
 31
0.0
  0
LINE
  5
287
330
2
100
AcDbEntity
  8
L-ZISSEN
100
AcDbLine
 10
748.6434170305455
 20
557.5495366486907
 30
0.0
 11
748.6434170305455
 21
552.1422458252332
 31
0.0
  0
LINE
  5
288
330
2
100
AcDbEntity
  8
L-ZISSEN
100
AcDbLine
 10
745.5328857985196
 20
557.5495366486905
 30
0.0
 11
748.6434170305455
 21
557.5495366486907
 31
0.0
  0
LINE
  5
289
330
2
100
AcDbEntity
  8
L-ZISSEN
100
AcDbLine
 10
747.9556244836053
 20
561.5910387632516
 30
0.0
 11
748.6434170305455
 21
561.5910387632516
 31
0.0
  0
LINE
  5
28A
330
2
100
AcDbEntity
  8
L-ZISSEN
100
AcDbLine
 10
746.4034357985196
 20
552.6879277993758
 30
0.0
 11
744.7315468582173
 21
552.6879277993758
 31
0.0
  0
LINE
  5
28B
330
2
100
AcDbEntity
  8
L-ZISSEN
100
AcDbLine
 10
747.9556244836053
 20
561.5910387632516
 30
0.0
 11
744.3494254969046
 21
561.5910387632516
 31
0.0
  0
LINE
  5
28C
330
2
100
AcDbEntity
  8
L-ZISSEN
100
AcDbLine
 10
747.9556244836053
 20
566.579599385637
 30
0.0
 11
747.9556244836053
 21
561.5910387632516
 31
0.0
  0
LINE
  5
28D
330
2
100
AcDbEntity
  8
L-ZISSEN
100
AcDbLine
 10
746.785557159832
 20
548.9335206337439
 30
0.0
 11
744.349425496905
 21
548.9335206337439
 31
0.0
  0
LINE
  5
28F
330
2
100
AcDbEntity
  8
L-ZISSEN
  6
CONTINUOUS
 62
     7
100
AcDbLine
 10
777.7427966349657
 20
538.9691867801612
 30
0.0
 11
780.9374011764743
 21
541.9834636240889
 31
0.0
  0
CIRCLE
  5
290
330
2
100
AcDbEntity
  8
L-ZISSEN
  6
CONTINUOUS
 62
     7
100
AcDbCircle
 10
776.0278600970137
 20
538.7838359146892
 30
0.0
 40
1.721249999999999
  0
LINE
  5
291
330
2
100
AcDbEntity
  8
0
  6
CONTINUOUS
 62
     7
100
AcDbLine
 10
796.349469511706
 20
561.5910387632516
 30
0.0
 11
796.349469511706
 21
517.5910387632516
 31
0.0
  0
LINE
  5
292
330
2
100
AcDbEntity
  8
L-ZISSEN
  6
CONTINUOUS
 62
     7
100
AcDbLine
 10
765.2054119464246
 20
528.2116509044262
 30
0.0
 11
776.0278600970137
 21
537.0625859146771
 31
0.0
  0
LINE
  5
293
330
2
100
AcDbEntity
  8
L-ZISSEN
  6
CONTINUOUS
 62
     7
100
AcDbLine
 10
765.2054119464246
 20
528.2116509044262
 30
0.0
 11
774.3066100970136
 21
538.7838359146892
 31
0.0
  0
LINE
  5
294
330
2
100
AcDbEntity
  8
L-ZISSEN
100
AcDbLine
 10
796.349469511706
 20
517.4005894577552
 30
0.0
 11
795.349469511706
 21
517.4005894577552
 31
0.0
  0
LINE
  5
295
330
2
100
AcDbEntity
  8
L-ZISSEN
  6
CONTINUOUS
 62
     7
100
AcDbLine
 10
779.5500300613048
 20
543.5792572473448
 30
0.0
 11
776.3736804028908
 21
540.4763252021252
 31
0.0
  0
LINE
  5
296
330
2
100
AcDbEntity
  8
L-ZISSEN
  6
CONTINUOUS
 62
     7
100
AcDbLine
 10
780.9374011764743
 20
541.9834636240889
 30
0.0
 11
779.5500300613048
 21
543.5792572473448
 31
0.0
  0
LINE
  5
297
330
2
100
AcDbEntity
  8
L-ZISSEN
100
AcDbLine
 10
795.349469511706
 20
561.5910387632516
 30
0.0
 11
796.349469511706
 21
561.5910387632516
 31
0.0
  0
LINE
  5
298
330
2
100
AcDbEntity
  8
L-ZISSEN
100
AcDbLine
 10
792.0692498501344
 20
591.9787666038307
 30
0.0
 11
759.6296451584763
 21
591.9787666038307
 31
0.0
  0
LINE
  5
299
330
2
100
AcDbEntity
  8
L-ZISSEN
100
AcDbLine
 10
802.8299831966988
 20
574.9261329221645
 30
0.0
 11
748.8689118119123
 21
574.9261329221645
 31
0.0
  0
LINE
  5
29A
330
2
100
AcDbEntity
  8
L-ZISSEN
100
AcDbLine
 10
763.8917237332975
 20
600.9452285092956
 30
0.0
 11
761.0524497148031
 21
600.9452285092956
 31
0.0
  0
LINE
  5
29B
330
2
100
AcDbEntity
  8
L-ZISSEN
100
AcDbLine
 10
762.6117237332977
 20
600.9452285092956
 30
0.0
 11
791.9264452938078
 21
600.9452285092956
 31
0.0
  0
LINE
  5
29C
330
2
100
AcDbEntity
  8
L-ZISSEN
100
AcDbLine
 10
754.7374831116158
 20
607.056234560502
 30
0.0
 11
796.7369386700966
 21
607.052958508431
 31
0.0
  0
LINE
  5
29D
330
2
100
AcDbEntity
  8
L-ZISSEN
100
AcDbLine
 10
748.8689118119123
 20
586.4035957851621
 30
0.0
 11
775.8494475043053
 21
586.4035957851619
 31
0.0
  0
LINE
  5
29E
330
2
100
AcDbEntity
  8
L-ZISSEN
100
AcDbLine
 10
759.6296451584763
 20
599.7398328661497
 30
0.0
 11
759.6296451584763
 21
591.9787666038307
 31
0.0
  0
ARC
  5
29F
330
2
100
AcDbEntity
  8
L-ZISSEN
100
AcDbCircle
 10
749.8688493119121
 20
588.9811373132361
 30
0.0
 40
0.9999375
100
AcDbArc
 50
101.4522094010332
 51
179.9999999999999
  0
LINE
  5
2A0
330
2
100
AcDbEntity
  8
L-ZISSEN
100
AcDbLine
 10
759.6296451584763
 20
591.9787666038307
 30
0.0
 11
749.6703112145933
 21
589.9611667147435
 31
0.0
  0
LINE
  5
2A1
330
2
100
AcDbEntity
  8
L-ZISSEN
100
AcDbLine
 10
761.0524497148031
 20
600.9452285092956
 30
0.0
 11
759.6296451584763
 21
599.7398328661497
 31
0.0
  0
LINE
  5
2A2
330
2
100
AcDbEntity
  8
L-ZISSEN
100
AcDbLine
 10
762.6117237332977
 20
607.0556203520093
 30
0.0
 11
762.6117237332977
 21
600.9452285092956
 31
0.0
  0
LINE
  5
2A3
330
2
100
AcDbEntity
  8
L-ZISSEN
100
AcDbLine
 10
793.3492498501346
 20
599.7398328661497
 30
0.0
 11
793.3492498501346
 21
591.9787666038307
 31
0.0
  0
LINE
  5
2A4
330
2
100
AcDbEntity
  8
L-ZISSEN
100
AcDbLine
 10
802.8299831966988
 20
586.4035957851619
 30
0.0
 11
775.8494475043053
 21
586.4035957851619
 31
0.0
  0
ARC
  5
2A5
330
2
100
AcDbEntity
  8
L-ZISSEN
100
AcDbCircle
 10
801.8300456966985
 20
588.9811373132359
 30
0.0
 40
0.9999375
100
AcDbArc
 50
0.0
 51
78.54779059896675
  0
LINE
  5
2A6
330
2
100
AcDbEntity
  8
L-ZISSEN
100
AcDbLine
 10
792.0692498501344
 20
591.9787666038307
 30
0.0
 11
802.0285837940177
 21
589.9611667147435
 31
0.0
  0
LINE
  5
2A7
330
2
100
AcDbEntity
  8
L-ZISSEN
100
AcDbLine
 10
789.0871712753132
 20
607.0556378723206
 30
0.0
 11
789.0871712753132
 21
600.9452285092956
 31
0.0
  0
LINE
  5
2A8
330
2
100
AcDbEntity
  8
L-ZISSEN
100
AcDbLine
 10
791.9264452938078
 20
600.9452285092956
 30
0.0
 11
793.3492498501346
 21
599.7398328661497
 31
0.0
  0
LINE
  5
2A9
330
2
100
AcDbEntity
  8
L-ZISSEN
  6
CONTINUOUS
 62
     7
100
AcDbLine
 10
826.049469511706
 20
601.5910387632516
 30
0.0
 11
826.049469511706
 21
561.5910387632516
 31
0.0
  0
LINE
  5
2AA
330
2
100
AcDbEntity
  8
L-ZISSEN
  6
CONTINUOUS
 62
     7
100
AcDbLine
 10
822.3494695117064
 20
539.0910387632516
 30
0.0
 11
822.3494695117064
 21
561.5910387632516
 31
0.0
  0
LINE
  5
2AB
330
2
100
AcDbEntity
  8
0
  6
CONTINUOUS
 62
     7
100
AcDbLine
 10
821.3494695117059
 20
561.5910387632516
 30
0.0
 11
821.3494695117059
 21
517.5910387632516
 31
0.0
  0
LINE
  5
2AC
330
2
100
AcDbEntity
  8
0
  6
CONTINUOUS
 62
     7
100
AcDbLine
 10
817.349469511706
 20
561.5910387632516
 30
0.0
 11
817.349469511706
 21
517.5910387632516
 31
0.0
  0
LINE
  5
2AD
330
2
100
AcDbEntity
  8
L-ZISSEN
  6
CONTINUOUS
 62
     7
100
AcDbLine
 10
807.349469511706
 20
512.7838359146892
 30
0.0
 11
836.3494695117065
 21
512.7838359146892
 31
0.0
  0
LINE
  5
2AE
330
2
100
AcDbEntity
  8
L-ZISSEN
  6
CONTINUOUS
 62
     7
100
AcDbLine
 10
836.3494695117065
 20
539.0910387632516
 30
0.0
 11
822.3494695117064
 21
539.0910387632516
 31
0.0
  0
LINE
  5
2AF
330
2
100
AcDbEntity
  8
0
  6
CONTINUOUS
 62
     7
100
AcDbLine
 10
821.3494695117065
 20
516.5910387632516
 30
0.0
 11
821.3494695117065
 21
517.5910387632516
 31
0.0
  0
LINE
  5
2B0
330
2
100
AcDbEntity
  8
0
  6
CONTINUOUS
 62
     7
100
AcDbLine
 10
821.3494695117059
 20
517.5910387632516
 30
0.0
 11
817.349469511706
 21
517.5910387632516
 31
0.0
  0
LINE
  5
2B1
330
2
100
AcDbEntity
  8
L-ZISSEN
  6
CONTINUOUS
 62
     7
100
AcDbLine
 10
836.3494695117065
 20
539.0910387632516
 30
0.0
 11
836.3494695117065
 21
515.5910387632515
 31
0.0
  0
LINE
  5
2B2
330
2
100
AcDbEntity
  8
0
  6
CONTINUOUS
 62
     7
100
AcDbLine
 10
836.3494695117065
 20
515.5910387632515
 30
0.0
 11
836.3494695117065
 21
516.5910387632516
 31
0.0
  0
LINE
  5
2B3
330
2
100
AcDbEntity
  8
0
  6
CONTINUOUS
 62
     7
100
AcDbLine
 10
803.9658130359539
 20
566.579599385637
 30
0.0
 11
803.9658130359539
 21
561.5910387632516
 31
0.0
  0
LINE
  5
2B4
330
2
100
AcDbEntity
  8
L-ZISSEN
  6
CONTINUOUS
 62
     7
100
AcDbLine
 10
861.3494695117067
 20
516.5910387632516
 30
0.0
 11
861.3494695117067
 21
561.5910387632516
 31
0.0
  0
LINE
  5
2B5
330
2
100
AcDbEntity
  8
L-ZISSEN
100
AcDbLine
 10
756.1197092230649
 20
639.477801773992
 30
0.0
 11
795.3545728909789
 21
639.4778017739922
 31
0.0
  0
LINE
  5
2B6
330
2
100
AcDbEntity
  8
L-ZISSEN
100
AcDbLine
 10
790.0588458945216
 20
642.7838359146892
 30
0.0
 11
761.4154362195217
 21
642.7838359146892
 31
0.0
  0
LINE
  5
2B8
330
2
100
AcDbEntity
  8
L-ZISSEN
100
AcDbLine
 10
761.4154362195217
 20
642.7838359146892
 30
0.0
 11
756.1197092230649
 21
639.477801773992
 31
0.0
  0
LINE
  5
2B9
330
2
100
AcDbEntity
  8
L-ZISSEN
100
AcDbLine
 10
795.3545728909789
 20
639.477801773992
 30
0.0
 11
790.0588458945216
 21
642.7838359146892
 31
0.0
  0
LINE
  5
2BA
330
2
100
AcDbEntity
  8
L-ZISSEN
  6
CONTINUOUS
 62
     7
100
AcDbLine
 10
827.3494695117058
 20
627.1910387632516
 30
0.0
 11
831.5722832407344
 21
698.8850318516466
 31
0.0
  0
ARC
  5
2BB
330
2
100
AcDbEntity
  8
L-ZISSEN
  6
CONTINUOUS
 62
     7
100
AcDbCircle
 10
836.5636325637108
 20
698.5910387632515
 30
0.0
 40
5.000000000000048
100
AcDbArc
 50
90.0
 51
176.6291431285289
  0
LINE
  5
2BC
330
2
100
AcDbEntity
  8
L-ZISSEN
  6
CONTINUOUS
 62
     7
100
AcDbLine
 10
945.3494695117063
 20
601.5910387632517
 30
0.0
 11
945.3494695117063
 21
627.1910387632516
 31
0.0
  0
LINE
  5
2BD
330
2
100
AcDbEntity
  8
L-ZISSEN
  6
CONTINUOUS
 62
     7
100
AcDbLine
 10
966.1169157086272
 20
561.5910387632514
 30
0.0
 11
966.1169157086266
 21
707.5910387632516
 31
0.0
  0
LINE
  5
2BE
330
2
100
AcDbEntity
  8
L-ZISSEN
  6
CONTINUOUS
 62
     7
100
AcDbLine
 10
946.6494695117056
 20
566.0910387632516
 30
0.0
 11
946.6494695117056
 21
707.5910387632517
 31
0.0
  0
POLYLINE
  5
2BF
330
2
100
AcDbEntity
  8
L-ZISSEN
  6
CONTINUOUS
 62
     7
100
AcDb2dPolyline
 66
     1
 10
0.0
 20
0.0
 30
0.0
  0
VERTEX
  5
8FA
330
2BF
100
AcDbEntity
  8
L-ZISSEN
  6
CONTINUOUS
 62
     7
100
AcDbVertex
100
AcDb2dVertex
 10
949.9986165506209
 20
555.5910387632516
 30
0.0
  0
VERTEX
  5
8FB
330
2BF
100
AcDbEntity
  8
L-ZISSEN
  6
CONTINUOUS
 62
     7
100
AcDbVertex
100
AcDb2dVertex
 10
943.647763589535
 20
544.5910387632515
 30
0.0
  0
VERTEX
  5
8FC
330
2BF
100
AcDbEntity
  8
L-ZISSEN
  6
CONTINUOUS
 62
     7
100
AcDbVertex
100
AcDb2dVertex
 10
949.9986165506209
 20
533.5910387632516
 30
0.0
  0
VERTEX
  5
8FD
330
2BF
100
AcDbEntity
  8
L-ZISSEN
  6
CONTINUOUS
 62
     7
100
AcDbVertex
100
AcDb2dVertex
 10
962.7003224727925
 20
533.5910387632516
 30
0.0
  0
VERTEX
  5
8FE
330
2BF
100
AcDbEntity
  8
L-ZISSEN
  6
CONTINUOUS
 62
     7
100
AcDbVertex
100
AcDb2dVertex
 10
969.0511754338784
 20
544.5910387632519
 30
0.0
  0
SEQEND
  5
8FF
330
2BF
100
AcDbEntity
  8
L-ZISSEN
  6
CONTINUOUS
 62
     7
  0
POLYLINE
  5
2C6
330
2
100
AcDbEntity
  8
L-ZISSEN
  6
CONTINUOUS
 62
     7
100
AcDb2dPolyline
 66
     1
 10
0.0
 20
0.0
 30
0.0
  0
VERTEX
  5
900
330
2C6
100
AcDbEntity
  8
L-ZISSEN
  6
CONTINUOUS
 62
     7
100
AcDbVertex
100
AcDb2dVertex
 10
969.0511754338784
 20
544.5910387632519
 30
0.0
  0
VERTEX
  5
901
330
2C6
100
AcDbEntity
  8
L-ZISSEN
  6
CONTINUOUS
 62
     7
100
AcDbVertex
100
AcDb2dVertex
 10
962.7003224727925
 20
555.5910387632516
 30
0.0
  0
VERTEX
  5
902
330
2C6
100
AcDbEntity
  8
L-ZISSEN
  6
CONTINUOUS
 62
     7
100
AcDbVertex
100
AcDb2dVertex
 10
949.9986165506209
 20
555.5910387632516
 30
0.0
  0
SEQEND
  5
903
330
2C6
100
AcDbEntity
  8
L-ZISSEN
  6
CONTINUOUS
 62
     7
  0
LINE
  5
2CB
330
2
100
AcDbEntity
  8
L-ZISSEN
  6
CONTINUOUS
 62
     7
100
AcDbLine
 10
911.3494695117067
 20
561.5910387632516
 30
0.0
 11
911.3494695117067
 21
516.5910387632516
 31
0.0
  0
LINE
  5
2CC
330
2
100
AcDbEntity
  8
L-ZISSEN
  6
CONTINUOUS
 62
     7
100
AcDbLine
 10
946.6494695117065
 20
566.0910387632516
 30
0.0
 11
946.6494695117065
 21
561.5910387632516
 31
0.0
  0
LINE
  5
2CE
330
2
100
AcDbEntity
  8
L-ZISSEN
  6
CONTINUOUS
 62
     7
100
AcDbLine
 10
961.2928994950282
 20
543.8410387632516
 30
0.0
 11
951.4060395283852
 21
543.8410387632516
 31
0.0
  0
LINE
  5
2CF
330
2
100
AcDbEntity
  8
L-ZISSEN
  6
CONTINUOUS
 62
     7
100
AcDbLine
 10
961.2928994950282
 20
545.3410387632516
 30
0.0
 11
961.0158348747452
 21
545.3410387632516
 31
0.0
  0
LINE
  5
2D0
330
2
100
AcDbEntity
  8
L-ZISSEN
  6
CONTINUOUS
 62
     7
100
AcDbLine
 10
961.0158348747452
 20
545.3410387632516
 30
0.0
 11
951.4060395283852
 21
545.3410387632516
 31
0.0
  0
CIRCLE
  5
2D1
330
2
100
AcDbEntity
  8
L-ZISSEN
  6
CONTINUOUS
 62
     7
100
AcDbCircle
 10
956.3494695117068
 20
544.5910387632515
 30
0.0
 40
5.0
  0
LINE
  5
2D3
330
2
100
AcDbEntity
  8
L-ZISSEN
  6
CONTINUOUS
 62
     7
100
AcDbLine
 10
1040.349469511706
 20
571.0910387632515
 30
0.0
 11
1040.349469511706
 21
567.5910387632516
 31
0.0
  0
LINE
  5
2D4
330
2
100
AcDbEntity
  8
L-ZISSEN
100
AcDbLine
 10
1009.989488641116
 20
565.7910387632518
 30
0.0
 11
1009.431728511692
 21
587.0910387632519
 31
0.0
  0
LINE
  5
2D5
330
2
100
AcDbEntity
  8
L-ZISSEN
100
AcDbLine
 10
972.709450382297
 20
565.7910387632518
 30
0.0
 11
973.267210511721
 21
587.0910387632517
 31
0.0
  0
LINE
  5
2D6
330
2
100
AcDbEntity
  8
L-ZISSEN
100
AcDbLine
 10
1015.349469511706
 20
561.5910387632517
 30
0.0
 11
1015.349469511706
 21
597.5910387632515
 31
0.0
  0
LINE
  5
2D7
330
2
100
AcDbEntity
  8
L-ZISSEN
100
AcDbLine
 10
1025.349469511707
 20
561.5910387632517
 30
0.0
 11
1025.349469511706
 21
597.5910387632515
 31
0.0
  0
LINE
  5
2D8
330
2
100
AcDbEntity
  8
L-ZISSEN
  6
CONTINUOUS
 62
     7
100
AcDbLine
 10
1011.099469511706
 20
565.7910387632518
 30
0.0
 11
971.5994695117068
 21
565.7910387632518
 31
0.0
  0
CIRCLE
  5
2D9
330
2
100
AcDbEntity
  8
L-ZISSEN
100
AcDbCircle
 10
991.3494695117062
 20
539.0910387632516
 30
0.0
 40
19.0
  0
CIRCLE
  5
2DA
330
2
100
AcDbEntity
  8
L-ZISSEN
  6
CONTINUOUS
 62
     7
100
AcDbCircle
 10
991.3494695117062
 20
539.0910387632516
 30
0.0
 40
1.721249999999999
  0
LINE
  5
2DB
330
2
100
AcDbEntity
  8
L-ZISSEN
  6
CONTINUOUS
 62
     7
100
AcDbLine
 10
993.0644060496584
 20
539.2763896287236
 30
0.0
 11
996.2590105911672
 21
542.2906664726513
 31
0.0
  0
LINE
  5
2DC
330
2
100
AcDbEntity
  8
L-ZISSEN
  6
CONTINUOUS
 62
     7
100
AcDbLine
 10
980.5270213611173
 20
528.5188537529887
 30
0.0
 11
989.6282195117064
 21
539.0910387632516
 31
0.0
  0
LINE
  5
2DD
330
2
100
AcDbEntity
  8
L-ZISSEN
  6
CONTINUOUS
 62
     7
100
AcDbLine
 10
980.5270213611173
 20
528.5188537529887
 30
0.0
 11
991.3494695117062
 21
537.3697887632395
 31
0.0
  0
LINE
  5
2DE
330
2
100
AcDbEntity
  8
L-ZISSEN
100
AcDbLine
 10
971.5994695117068
 20
565.7910387632518
 30
0.0
 11
971.5994695117062
 21
561.5910387632514
 31
0.0
  0
LINE
  5
2E0
330
2
100
AcDbEntity
  8
L-ZISSEN
  6
CONTINUOUS
 62
     7
100
AcDbLine
 10
996.2590105911672
 20
542.2906664726513
 30
0.0
 11
994.8716394759976
 21
543.8864600959071
 31
0.0
  0
LINE
  5
2E1
330
2
100
AcDbEntity
  8
L-ZISSEN
  6
CONTINUOUS
 62
     7
100
AcDbLine
 10
994.8716394759976
 20
543.8864600959071
 30
0.0
 11
991.6952898175832
 21
540.7835280506876
 31
0.0
  0
LINE
  5
2E2
330
2
100
AcDbEntity
  8
0
  6
CONTINUOUS
 62
     7
100
AcDbLine
 10
1036.349469511706
 20
561.5910387632516
 30
0.0
 11
1036.349469511706
 21
516.5910387632516
 31
0.0
  0
LINE
  5
2E3
330
2
100
AcDbEntity
  8
0
  6
CONTINUOUS
 62
     7
100
AcDbLine
 10
1036.349469511706
 20
516.5910387632516
 30
0.0
 11
1036.349469511706
 21
515.5910387632515
 31
0.0
  0
LINE
  5
2E4
330
2
100
AcDbEntity
  8
L-ZISSEN
100
AcDbLine
 10
1011.099469511706
 20
565.7910387632518
 30
0.0
 11
1011.099469511706
 21
561.5910387632514
 31
0.0
  0
LINE
  5
2E5
330
2
100
AcDbEntity
  8
L-ZISSEN
  6
CONTINUOUS
 62
     7
100
AcDbLine
 10
1015.349469511706
 20
566.0910387632514
 30
0.0
 11
1025.349469511706
 21
566.0910387632514
 31
0.0
  0
LINE
  5
2E6
330
2
100
AcDbEntity
  8
L-ZISSEN
  6
CONTINUOUS
 62
     7
100
AcDbLine
 10
1040.349469511706
 20
564.5910387632516
 30
0.0
 11
1040.349469511706
 21
562.9529414106388
 31
0.0
  0
ARC
  5
2E7
330
2
100
AcDbEntity
  8
L-ZISSEN
  6
CONTINUOUS
 62
     7
100
AcDbCircle
 10
1044.849469511706
 20
557.5910387632516
 30
0.0
 40
7.000000000000048
100
AcDbArc
 50
90.0
 51
179.9999999999999
  0
LINE
  5
2E8
330
2
100
AcDbEntity
  8
L-ZISSEN
  6
CONTINUOUS
 62
     7
100
AcDbLine
 10
1044.849469511706
 20
564.5910387632516
 30
0.0
 11
1047.52104238696
 21
564.5910387632516
 31
0.0
  0
ARC
  5
2E9
330
2
100
AcDbEntity
  8
L-ZISSEN
  6
CONTINUOUS
 62
     7
100
AcDbCircle
 10
1050.349469511706
 20
563.5910387632513
 30
0.0
 40
3.00000000000005
100
AcDbArc
 50
160.5287793655063
 51
179.9999999999999
  0
LINE
  5
2EA
330
2
100
AcDbEntity
  8
L-ZISSEN
  6
CONTINUOUS
 62
     7
100
AcDbLine
 10
1047.349469511706
 20
563.5910387632513
 30
0.0
 11
1047.349469511706
 21
556.5910387632515
 31
0.0
  0
LINE
  5
2EB
330
2
100
AcDbEntity
  8
L-ZISSEN
  6
CONTINUOUS
 62
     7
100
AcDbLine
 10
1040.349469511706
 20
567.5910387632516
 30
0.0
 11
1040.349469511706
 21
564.5910387632516
 31
0.0
  0
LINE
  5
2EC
330
2
100
AcDbEntity
  8
L-ZISSEN
100
AcDbLine
 10
1009.431728511692
 20
587.0910387632519
 30
0.0
 11
1006.920803868498
 21
615.7910387632518
 31
0.0
  0
LINE
  5
2ED
330
2
100
AcDbEntity
  8
L-ZISSEN
  6
CONTINUOUS
 62
     7
100
AcDbLine
 10
1009.064276124882
 20
591.2910387632515
 30
0.0
 11
996.0994695117326
 21
591.2910387632513
 31
0.0
  0
LINE
  5
2EE
330
2
100
AcDbEntity
  8
L-ZISSEN
100
AcDbLine
 10
996.0994695117326
 20
615.7910387632518
 30
0.0
 11
996.0994695117326
 21
591.2910387632513
 31
0.0
  0
LINE
  5
2EF
330
2
100
AcDbEntity
  8
L-ZISSEN
100
AcDbLine
 10
973.267210511721
 20
587.0910387632517
 30
0.0
 11
975.7781351549153
 21
615.7910387632515
 31
0.0
  0
LINE
  5
2F0
330
2
100
AcDbEntity
  8
L-ZISSEN
  6
CONTINUOUS
 62
     7
100
AcDbLine
 10
1006.599469511706
 20
594.7980424990729
 30
0.0
 11
1006.599469511706
 21
591.2910387632515
 31
0.0
  0
LINE
  5
2F1
330
2
100
AcDbEntity
  8
L-ZISSEN
  6
CONTINUOUS
 62
     7
100
AcDbLine
 10
1006.599469511706
 20
594.7980424990729
 30
0.0
 11
999.5994695117067
 21
594.7980424990729
 31
0.0
  0
LINE
  5
2F2
330
2
100
AcDbEntity
  8
L-ZISSEN
  6
CONTINUOUS
 62
     7
100
AcDbLine
 10
999.5994695117067
 20
594.7980424990729
 30
0.0
 11
999.5994695117067
 21
591.2910387632515
 31
0.0
  0
LINE
  5
2F3
330
2
100
AcDbEntity
  8
L-ZISSEN
  6
CONTINUOUS
 62
     7
100
AcDbLine
 10
1006.920803868498
 20
615.7910387632518
 30
0.0
 11
975.7781351549153
 21
615.7910387632515
 31
0.0
  0
LINE
  5
2F4
330
2
100
AcDbEntity
  8
L-ZISSEN
  6
CONTINUOUS
 62
     7
100
AcDbLine
 10
1040.349469511706
 20
601.5910387632516
 30
0.0
 11
1040.349469511706
 21
588.5910387632516
 31
0.0
  0
CIRCLE
  5
2F5
330
2
100
AcDbEntity
  8
L-ZISSEN
100
AcDbCircle
 10
1020.349469511706
 20
575.0910387632514
 30
0.0
 40
3.799999999999999
  0
CIRCLE
  5
2F6
330
2
100
AcDbEntity
  8
L-ZISSEN
100
AcDbCircle
 10
1020.349469511706
 20
575.0910387632514
 30
0.0
 40
2.1
  0
LINE
  5
2F7
330
2
100
AcDbEntity
  8
L-ZISSEN
  6
CONTINUOUS
 62
     7
100
AcDbLine
 10
1042.719667279887
 20
588.5910387632516
 30
0.0
 11
1042.719667279887
 21
585.5910387632516
 31
0.0
  0
LINE
  5
2F8
330
2
100
AcDbEntity
  8
L-ZISSEN
  6
CONTINUOUS
 62
     7
100
AcDbLine
 10
1045.349469511706
 20
582.5910387632517
 30
0.0
 11
1045.349469511706
 21
578.8910387632515
 31
0.0
  0
LINE
  5
2F9
330
2
100
AcDbEntity
  8
L-ZISSEN
  6
CONTINUOUS
 62
     7
100
AcDbLine
 10
1041.099469511706
 20
585.5910387632516
 30
0.0
 11
1041.099469511706
 21
582.5910387632516
 31
0.0
  0
LINE
  5
2FA
330
2
100
AcDbEntity
  8
L-ZISSEN
  6
CONTINUOUS
 62
     7
100
AcDbLine
 10
1040.349469511706
 20
588.5910387632516
 30
0.0
 11
1045.349469511706
 21
588.5910387632516
 31
0.0
  0
LINE
  5
2FB
330
2
100
AcDbEntity
  8
L-ZISSEN
  6
CONTINUOUS
 62
     7
100
AcDbLine
 10
1042.599469511706
 20
577.5910387632515
 30
0.0
 11
1041.849469511706
 21
577.5910387632515
 31
0.0
  0
LINE
  5
2FC
330
2
100
AcDbEntity
  8
L-ZISSEN
  6
CONTINUOUS
 62
     7
100
AcDbLine
 10
1042.899469511706
 20
578.8910387632515
 30
0.0
 11
1042.599469511706
 21
578.5910387632514
 31
0.0
  0
LINE
  5
2FD
330
2
100
AcDbEntity
  8
L-ZISSEN
  6
CONTINUOUS
 62
     7
100
AcDbLine
 10
1042.599469511706
 20
578.5910387632514
 30
0.0
 11
1042.599469511706
 21
573.8910387632516
 31
0.0
  0
LINE
  5
2FE
330
2
100
AcDbEntity
  8
L-ZISSEN
  6
CONTINUOUS
 62
     7
100
AcDbLine
 10
1043.684449575933
 20
572.5910387632516
 30
0.0
 11
1047.476602682439
 21
573.8910387632516
 31
0.0
  0
LINE
  5
2FF
330
2
100
AcDbEntity
  8
L-ZISSEN
  6
CONTINUOUS
 62
     7
100
AcDbLine
 10
1044.888534679993
 20
572.5910387632516
 30
0.0
 11
1049.177520680132
 21
573.8910387632516
 31
0.0
  0
LINE
  5
300
330
2
100
AcDbEntity
  8
L-ZISSEN
  6
CONTINUOUS
 62
     7
100
AcDbLine
 10
1042.249469511706
 20
573.8910387632516
 30
0.0
 11
1042.249469511706
 21
572.5910387632516
 31
0.0
  0
LINE
  5
301
330
2
100
AcDbEntity
  8
L-ZISSEN
  6
CONTINUOUS
 62
     7
100
AcDbLine
 10
1040.349469511706
 20
571.0910387632515
 30
0.0
 11
1040.349469511706
 21
576.0910387632516
 31
0.0
  0
ARC
  5
302
330
2
100
AcDbEntity
  8
L-ZISSEN
  6
CONTINUOUS
 62
     7
100
AcDbCircle
 10
1041.849469511706
 20
571.0910387632516
 30
0.0
 40
1.500000000000049
100
AcDbArc
 50
90.0
 51
180.0000000000025
  0
ARC
  5
303
330
2
100
AcDbEntity
  8
L-ZISSEN
  6
CONTINUOUS
 62
     7
100
AcDbCircle
 10
1041.849469511706
 20
576.0910387632516
 30
0.0
 40
1.500000000000049
100
AcDbArc
 50
90.0
 51
180.0000000000006
  0
LINE
  5
304
330
2
100
AcDbEntity
  8
L-ZISSEN
  6
CONTINUOUS
 62
     7
100
AcDbLine
 10
1015.349469511706
 20
597.5910387632515
 30
0.0
 11
1025.349469511706
 21
597.5910387632515
 31
0.0
  0
ARC
  5
305
330
2
100
AcDbEntity
  8
L-ZISSEN
  6
CONTINUOUS
 62
     7
100
AcDbCircle
 10
1042.349469511706
 20
601.5910387632516
 30
0.0
 40
2.00000000000005
100
AcDbArc
 50
90.0
 51
179.9999999999999
  0
LINE
  5
306
330
2
100
AcDbEntity
  8
L-ZISSEN
  6
CONTINUOUS
 62
     7
100
AcDbLine
 10
977.3494695117063
 20
719.5910387632517
 30
0.0
 11
935.3494695117062
 21
719.5910387632517
 31
0.0
  0
LINE
  5
307
330
2
100
AcDbEntity
  8
L-ZISSEN
  6
CONTINUOUS
 62
     7
100
AcDbLine
 10
942.8494695117063
 20
707.5910387632518
 30
0.0
 11
969.8494695117062
 21
707.5910387632517
 31
0.0
  0
LINE
  5
308
330
2
100
AcDbEntity
  8
L-ZISSEN
  6
CONTINUOUS
 62
     7
100
AcDbLine
 10
977.3494695117063
 20
736.5910387632517
 30
0.0
 11
935.3494695117067
 21
736.5910387632517
 31
0.0
  0
LINE
  5
309
330
2
100
AcDbEntity
  8
L-ZISSEN
  6
CONTINUOUS
 62
     7
100
AcDbLine
 10
945.3494695117063
 20
627.1910387632516
 30
0.0
 11
941.1266557826778
 21
698.8850318516466
 31
0.0
  0
LINE
  5
30B
330
2
100
AcDbEntity
  8
L-ZISSEN
  6
CONTINUOUS
 62
     7
100
AcDbLine
 10
950.7575864196699
 20
719.5910387632517
 30
0.0
 11
950.7575864196699
 21
707.5910387632518
 31
0.0
  0
LINE
  5
30C
330
2
100
AcDbEntity
  8
L-ZISSEN
  6
CONTINUOUS
 62
     7
100
AcDbLine
 10
942.8494695117063
 20
707.5910387632518
 30
0.0
 11
942.8494695117063
 21
718.5910387632518
 31
0.0
  0
LINE
  5
30D
330
2
100
AcDbEntity
  8
L-ZISSEN
  6
CONTINUOUS
 62
     7
100
AcDbLine
 10
961.9413526037435
 20
719.5910387632517
 30
0.0
 11
961.9413526037435
 21
707.5910387632517
 31
0.0
  0
ARC
  5
30E
330
2
100
AcDbEntity
  8
L-ZISSEN
  6
CONTINUOUS
 62
     7
100
AcDbCircle
 10
936.1353064597016
 20
698.5910387632515
 30
0.0
 40
5.000000000000048
100
AcDbArc
 50
3.370856871470882
 51
90.0
  0
POLYLINE
  5
30F
330
2
100
AcDbEntity
  8
L-ZISSEN
  6
CONTINUOUS
 62
     7
100
AcDb2dPolyline
 66
     1
 10
0.0
 20
0.0
 30
0.0
  0
VERTEX
  5
904
330
30F
100
AcDbEntity
  8
L-ZISSEN
  6
CONTINUOUS
 62
     7
100
AcDbVertex
100
AcDb2dVertex
 10
935.3494695117062
 20
736.5910387632517
 30
0.0
  0
VERTEX
  5
905
330
30F
100
AcDbEntity
  8
L-ZISSEN
  6
CONTINUOUS
 62
     7
100
AcDbVertex
100
AcDb2dVertex
 10
935.3494695117062
 20
719.5910387632517
 30
0.0
  0
SEQEND
  5
906
330
30F
100
AcDbEntity
  8
L-ZISSEN
  6
CONTINUOUS
 62
     7
  0
ARC
  5
313
330
2
100
AcDbEntity
  8
L-ZISSEN
  6
CONTINUOUS
 62
     7
100
AcDbCircle
 10
941.8494695117063
 20
718.5910387632517
 30
0.0
 40
1.0
100
AcDbArc
 50
0.0
 51
90.0
  0
LINE
  5
314
330
2
100
AcDbEntity
  8
L-ZISSEN
  6
CONTINUOUS
 62
     7
100
AcDbLine
 10
965.0479543215418
 20
719.5910387632517
 30
0.0
 11
965.0479543215418
 21
736.5910387632517
 31
0.0
  0
LINE
  5
315
330
2
100
AcDbEntity
  8
L-ZISSEN
  6
CONTINUOUS
 62
     7
100
AcDbLine
 10
947.6509847018716
 20
719.5910387632517
 30
0.0
 11
947.6509847018716
 21
736.5910387632517
 31
0.0
  0
LINE
  5
316
330
2
100
AcDbEntity
  8
L-ZISSEN
  6
CONTINUOUS
 62
     7
100
AcDbLine
 10
969.8494695117062
 20
707.5910387632517
 30
0.0
 11
969.8494695117062
 21
718.5910387632517
 31
0.0
  0
POLYLINE
  5
317
330
2
100
AcDbEntity
  8
L-ZISSEN
  6
CONTINUOUS
 62
     7
100
AcDb2dPolyline
 66
     1
 10
0.0
 20
0.0
 30
0.0
  0
VERTEX
  5
907
330
317
100
AcDbEntity
  8
L-ZISSEN
  6
CONTINUOUS
 62
     7
100
AcDbVertex
100
AcDb2dVertex
 10
977.3494695117063
 20
736.5910387632517
 30
0.0
  0
VERTEX
  5
908
330
317
100
AcDbEntity
  8
L-ZISSEN
  6
CONTINUOUS
 62
     7
100
AcDbVertex
100
AcDb2dVertex
 10
977.3494695117063
 20
719.5910387632517
 30
0.0
  0
SEQEND
  5
909
330
317
100
AcDbEntity
  8
L-ZISSEN
  6
CONTINUOUS
 62
     7
  0
ARC
  5
31B
330
2
100
AcDbEntity
  8
L-ZISSEN
  6
CONTINUOUS
 62
     7
100
AcDbCircle
 10
970.8494695117062
 20
718.5910387632517
 30
0.0
 40
1.0
100
AcDbArc
 50
90.0
 51
180.0
  0
LINE
  5
334
330
2
100
AcDbEntity
  8
L-ZISSEN
  6
CONTINUOUS
 62
     7
100
AcDbLine
 10
317.9669462961239
 20
748.2838359146892
 30
0.0
 11
343.9669462961235
 21
748.2838359146893
 31
0.0
  0
LINE
  5
3A6
330
2
100
AcDbEntity
  8
L-ZISSEN
100
AcDbLine
 10
936.9355309883877
 20
1199.234382971787
 30
0.0
 11
944.6506868569215
 21
1206.949520804243
 31
0.0
  0
LINE
  5
3A7
330
2
100
AcDbEntity
  8
L-ZISSEN
100
AcDbLine
 10
828.0482481951684
 20
1206.94951683291
 30
0.0
 11
835.7633640202239
 21
1199.234382971787
 31
0.0
  0
ARC
  5
3B1
330
2
100
AcDbEntity
  8
L-ZISSEN
  6
CONTINUOUS
 62
     7
100
AcDbCircle
 10
1044.849469511706
 20
1201.648299487705
 30
0.0
 40
7.000000000000048
100
AcDbArc
 50
90.0
 51
180.0
  0
ARC
  5
3B2
330
2
100
AcDbEntity
  8
L-ZISSEN
  6
CONTINUOUS
 62
     7
100
AcDbCircle
 10
832.1494695117062
 20
1202.848299487705
 30
0.0
 40
5.800000000000048
100
AcDbArc
 50
90.00000000000005
 51
179.9999999999999
  0
ARC
  5
3B3
330
2
100
AcDbEntity
  8
L-ZISSEN
  6
CONTINUOUS
 62
     7
100
AcDbCircle
 10
940.5494695117061
 20
1202.848299487705
 30
0.0
 40
5.800000000000048
100
AcDbArc
 50
0.0
 51
90.0
  0
ARC
  5
3B4
330
2
100
AcDbEntity
  8
L-ZISSEN
  6
CONTINUOUS
 62
     7
100
AcDbCircle
 10
830.3494695117061
 20
1200.648299487705
 30
0.0
 40
8.000000000000049
100
AcDbArc
 50
89.99999999999992
 51
179.9999999999998
  0
ARC
  5
3B5
330
2
100
AcDbEntity
  8
L-ZISSEN
  6
CONTINUOUS
 62
     7
100
AcDbCircle
 10
1028.349469511706
 20
1200.648299487704
 30
0.0
 40
8.000000000000049
100
AcDbArc
 50
0.0000000000000509
 51
89.99999999999994
  0
TEXT
  5
3BB
330
2
100
AcDbEntity
  8
L-ZISSEN
100
AcDbText
 10
464.1737137324699
 20
1015.248152888724
 30
0.0
 40
15.0
  1
MICRON FOG OUT PORT
100
AcDbText
  0
LINE
  5
3BC
330
2
100
AcDbEntity
  8
L-ZISSEN
  6
CONTINUOUS
100
AcDbLine
 10
845.0947920344974
 20
1009.482505121675
 30
0.0
 11
448.7938268596326
 21
1009.482505121675
 31
0.0
  0
LINE
  5
3BF
330
2
100
AcDbEntity
  8
L-TYUSIN
  6
CENTER
 62
     1
100
AcDbLine
 10
710.7034475043069
 20
1128.648299487705
 30
0.0
 11
816.8380140902367
 21
1128.648299487705
 31
0.0
  0
LINE
  5
3EF
330
2
100
AcDbEntity
  8
L-ZISSEN
  6
CONTINUOUS
 62
     7
100
AcDbLine
 10
941.5994695117067
 20
748.5910387632517
 30
0.0
 11
971.0994695117072
 21
748.5910387632517
 31
0.0
  0
LINE
  5
3F0
330
2
100
AcDbEntity
  8
L-ZISSEN
  6
CONTINUOUS
 62
     7
100
AcDbLine
 10
835.7633640202239
 20
1098.062216003623
 30
0.0
 11
936.9355309883877
 21
1098.062216003623
 31
0.0
  0
LINE
  5
3F1
330
2
100
AcDbEntity
  8
L-ZISSEN
  6
CONTINUOUS
 62
     7
100
AcDbLine
 10
936.9355309883877
 20
1199.234382971787
 30
0.0
 11
835.7633640202239
 21
1199.234382971787
 31
0.0
  0
LINE
  5
3F2
330
2
100
AcDbEntity
  8
L-ZISSEN
  6
CONTINUOUS
100
AcDbLine
 10
943.4186225550984
 20
1151.375791712759
 30
0.0
 11
845.0947920344974
 21
1009.482505121675
 31
0.0
  0
LINE
  5
3F3
330
2
100
AcDbEntity
  8
L-ZISSEN
  6
CONTINUOUS
 62
     7
100
AcDbLine
 10
832.1494695117062
 20
1088.648299487705
 30
0.0
 11
940.5494695117061
 21
1088.648299487705
 31
0.0
  0
LINE
  5
3F4
330
2
100
AcDbEntity
  8
L-ZISSEN
  6
CONTINUOUS
 62
     7
100
AcDbLine
 10
911.3494695117067
 20
1086.648299487705
 30
0.0
 11
861.3494695117067
 21
1086.648299487705
 31
0.0
  0
LINE
  5
3F5
330
2
100
AcDbEntity
  8
L-ZISSEN
100
AcDbLine
 10
835.7633640202239
 20
1098.062216003623
 30
0.0
 11
828.0482481951912
 21
1090.347082142522
 31
0.0
  0
LINE
  5
3F6
330
2
100
AcDbEntity
  8
L-ZISSEN
  6
CONTINUOUS
 62
     7
100
AcDbLine
 10
768.8494582938983
 20
1097.148299487705
 30
0.0
 11
768.8494582938983
 21
1083.148299487705
 31
0.0
  0
LINE
  5
3F7
330
2
100
AcDbEntity
  8
L-ZISSEN
  6
CONTINUOUS
 62
     7
100
AcDbLine
 10
782.8494582938983
 20
1097.148299487705
 30
0.0
 11
782.8494582938983
 21
1083.148299487705
 31
0.0
  0
ARC
  5
3F8
330
2
100
AcDbEntity
  8
L-ZISSEN
  6
CONTINUOUS
 62
     7
100
AcDbCircle
 10
832.1494695117062
 20
1094.448299487705
 30
0.0
 40
5.800000000000048
100
AcDbArc
 50
180.0
 51
270.0
  0
ARC
  5
3F9
330
2
100
AcDbEntity
  8
L-ZISSEN
  6
CONTINUOUS
 62
     7
100
AcDbCircle
 10
830.3494695117061
 20
1096.648299487705
 30
0.0
 40
8.000000000000049
100
AcDbArc
 50
179.9999999999999
 51
269.9999999999999
  0
TEXT
  5
3FA
330
2
100
AcDbEntity
  8
L-ZISSEN
100
AcDbText
 10
755.7434827932601
 20
1016.198252131564
 30
0.0
 40
15.0
  1
Rc 1/2
100
AcDbText
  0
LINE
  5
3FB
330
2
100
AcDbEntity
  8
L-ZISSEN
  6
CONTINUOUS
 62
     7
100
AcDbLine
 10
757.0278600970119
 20
1063.046779140981
 30
0.0
 11
775.8494582938983
 21
1063.046779140981
 31
0.0
  0
LINE
  5
3FC
330
2
100
AcDbEntity
  8
L-ZISSEN
  6
CONTINUOUS
 62
     7
100
AcDbLine
 10
795.0278600970155
 20
1052.148299487705
 30
0.0
 11
757.0278600970119
 21
1052.148299487705
 31
0.0
  0
LINE
  5
3FD
330
2
100
AcDbEntity
  8
L-ZISSEN
  6
CONTINUOUS
 62
     7
100
AcDbLine
 10
757.0278600970119
 20
1083.148299487705
 30
0.0
 11
795.0278600970155
 21
1083.148299487705
 31
0.0
  0
LINE
  5
3FE
330
2
100
AcDbEntity
  8
SUNPOU
 62
     7
100
AcDbLine
 10
757.0278600970119
 20
1052.148299487705
 30
0.0
 11
757.0278600970119
 21
1083.148299487705
 31
0.0
  0
LINE
  5
3FF
330
2
100
AcDbEntity
  8
SUNPOU
 62
     7
100
AcDbLine
 10
795.0278600970155
 20
1052.148299487706
 30
0.0
 11
795.0278600970155
 21
1083.148299487705
 31
0.0
  0
LINE
  5
400
330
2
100
AcDbEntity
  8
L-ZISSEN
  6
CONTINUOUS
 62
     7
100
AcDbLine
 10
795.0278600970155
 20
1063.046779140981
 30
0.0
 11
775.8494582938983
 21
1063.046779140981
 31
0.0
  0
LINE
  5
401
330
2
100
AcDbEntity
  8
L-ZISSEN
  6
CONTINUOUS
 62
     7
100
AcDbLine
 10
859.8494695117066
 20
1088.648299487705
 30
0.0
 11
830.3494695117061
 21
1088.648299487705
 31
0.0
  0
LINE
  5
402
330
2
100
AcDbEntity
  8
L-ZISSEN
  6
CONTINUOUS
 62
     7
100
AcDbLine
 10
859.8494695117066
 20
1088.648299487705
 30
0.0
 11
830.3494695117061
 21
1088.648299487705
 31
0.0
  0
LINE
  5
403
330
2
100
AcDbEntity
  8
L-ZISSEN
  6
CONTINUOUS
 62
     7
100
AcDbLine
 10
875.8494695117063
 20
1075.648299487705
 30
0.0
 11
855.8494695117062
 21
1075.648299487705
 31
0.0
  0
LINE
  5
404
330
2
100
AcDbEntity
  8
L-ZISSEN
  6
CONTINUOUS
 62
     7
100
AcDbLine
 10
855.8494695117062
 20
1075.648299487705
 30
0.0
 11
855.8494695117067
 21
1088.648299487705
 31
0.0
  0
ARC
  5
405
330
2
100
AcDbEntity
  8
L-ZISSEN
  6
CONTINUOUS
 62
     7
100
AcDbCircle
 10
859.8494695117066
 20
1087.148299487705
 30
0.0
 40
1.500000000000049
100
AcDbArc
 50
0.0
 51
90.0
  0
LINE
  5
406
330
2
100
AcDbEntity
  8
L-ZISSEN
  6
CONTINUOUS
 62
     7
100
AcDbLine
 10
861.3494695117067
 20
1086.648299487705
 30
0.0
 11
861.3494695117067
 21
1087.148299487705
 31
0.0
  0
LINE
  5
407
330
2
100
AcDbEntity
  8
L-ZISSEN
  6
CONTINUOUS
 62
     7
100
AcDbLine
 10
875.8494695117066
 20
1075.648299487705
 30
0.0
 11
875.8494695117066
 21
1086.648299487705
 31
0.0
  0
LINE
  5
408
330
2
100
AcDbEntity
  8
L-ZISSEN
  6
CENTER
 62
     1
100
AcDbLine
 10
796.349469511706
 20
1178.648299487705
 30
0.0
 11
838.3494695117061
 21
1178.648299487705
 31
0.0
  0
LINE
  5
409
330
2
100
AcDbEntity
  8
L-ZISSEN
  6
CONTINUOUS
 62
     7
100
AcDbLine
 10
821.3494695117059
 20
1103.648288698112
 30
0.0
 11
795.3971639294641
 21
1103.648288698112
 31
0.0
  0
LINE
  5
40A
330
2
100
AcDbEntity
  8
L-ZISSEN
  6
CONTINUOUS
 62
     7
100
AcDbLine
 10
821.3494695117059
 20
1153.648310277298
 30
0.0
 11
795.3971639294641
 21
1153.648310277298
 31
0.0
  0
POLYLINE
  5
40B
330
2
100
AcDbEntity
  8
L-ZISSEN
  6
CONTINUOUS
 62
     7
100
AcDb2dPolyline
 66
     1
 10
0.0
 20
0.0
 30
0.0
 70
     1
  0
VERTEX
  5
90A
330
40B
100
AcDbEntity
  8
L-ZISSEN
  6
CONTINUOUS
 62
     7
100
AcDbVertex
100
AcDb2dVertex
 10
762.8017202895525
 20
1160.148299487705
 30
0.0
  0
VERTEX
  5
90B
330
40B
100
AcDbEntity
  8
L-ZISSEN
  6
CONTINUOUS
 62
     7
100
AcDbVertex
100
AcDb2dVertex
 10
744.3494475043053
 20
1141.696026702457
 30
0.0
  0
VERTEX
  5
90C
330
40B
100
AcDbEntity
  8
L-ZISSEN
  6
CONTINUOUS
 62
     7
100
AcDbVertex
100
AcDb2dVertex
 10
744.3494475043053
 20
1115.600572272952
 30
0.0
  0
VERTEX
  5
90D
330
40B
100
AcDbEntity
  8
L-ZISSEN
  6
CONTINUOUS
 62
     7
100
AcDbVertex
100
AcDb2dVertex
 10
762.8017202895525
 20
1097.148299487705
 30
0.0
  0
VERTEX
  5
90E
330
40B
100
AcDbEntity
  8
L-ZISSEN
  6
CONTINUOUS
 62
     7
100
AcDbVertex
100
AcDb2dVertex
 10
788.8971747190575
 20
1097.148299487705
 30
0.0
  0
VERTEX
  5
90F
330
40B
100
AcDbEntity
  8
L-ZISSEN
  6
CONTINUOUS
 62
     7
100
AcDbVertex
100
AcDb2dVertex
 10
807.3494475043053
 20
1115.600572272952
 30
0.0
  0
VERTEX
  5
910
330
40B
100
AcDbEntity
  8
L-ZISSEN
  6
CONTINUOUS
 62
     7
100
AcDbVertex
100
AcDb2dVertex
 10
807.3494475043053
 20
1141.696026702457
 30
0.0
  0
VERTEX
  5
911
330
40B
100
AcDbEntity
  8
L-ZISSEN
  6
CONTINUOUS
 62
     7
100
AcDbVertex
100
AcDb2dVertex
 10
788.8971747190575
 20
1160.148299487705
 30
0.0
  0
SEQEND
  5
912
330
40B
100
AcDbEntity
  8
L-ZISSEN
  6
CONTINUOUS
 62
     7
  0
CIRCLE
  5
415
330
2
100
AcDbEntity
  8
L-ZISSEN
  6
CONTINUOUS
 62
     7
100
AcDbCircle
 10
775.8494475043053
 20
1128.648299487705
 30
0.0
 40
31.5
  0
CIRCLE
  5
416
330
2
100
AcDbEntity
  8
L-ZISSEN
  6
CONTINUOUS
 62
     7
100
AcDbCircle
 10
775.8494475043053
 20
1128.648299487705
 30
0.0
 40
20.0
  0
CIRCLE
  5
417
330
2
100
AcDbEntity
  8
L-ZISSEN
  6
CONTINUOUS
 62
     7
100
AcDbCircle
 10
775.8494475043053
 20
1128.648299487705
 30
0.0
 40
13.0
  0
LINE
  5
418
330
2
100
AcDbEntity
  8
L-ZISSEN
  6
CONTINUOUS
 62
     7
100
AcDbLine
 10
835.7633640202239
 20
1098.062216003623
 30
0.0
 11
835.7633640202239
 21
1199.234382971787
 31
0.0
  0
LINE
  5
419
330
2
100
AcDbEntity
  8
L-ZISSEN
  6
CONTINUOUS
 62
     7
100
AcDbLine
 10
826.349469511706
 20
1202.848299487705
 30
0.0
 11
826.349469511706
 21
1094.448299487705
 31
0.0
  0
LINE
  5
41A
330
2
100
AcDbEntity
  8
L-ZISSEN
  6
CONTINUOUS
 62
     7
100
AcDbLine
 10
821.3494695117059
 20
1103.648299487705
 30
0.0
 11
821.3494695117059
 21
1195.648299487705
 31
0.0
  0
LINE
  5
41B
330
2
100
AcDbEntity
  8
L-ZISSEN
  6
CONTINUOUS
 62
     7
100
AcDbLine
 10
821.3494695117059
 20
1103.648299487705
 30
0.0
 11
822.3494695117061
 21
1103.648299487705
 31
0.0
  0
LINE
  5
41C
330
2
100
AcDbEntity
  8
L-ZISSEN
  6
CONTINUOUS
 62
     7
100
AcDbLine
 10
822.3494695117061
 20
1096.648299487705
 30
0.0
 11
822.3494695117061
 21
1103.648299487705
 31
0.0
  0
LINE
  5
41D
330
2
100
AcDbEntity
  8
L-ZISSEN
  6
CONTINUOUS
 62
     7
100
AcDbLine
 10
822.3494695117061
 20
1195.648299487705
 30
0.0
 11
822.3494695117061
 21
1200.648299487705
 31
0.0
  0
LINE
  5
41E
330
2
100
AcDbEntity
  8
L-ZISSEN
  6
CONTINUOUS
 62
     7
100
AcDbLine
 10
821.3494695117059
 20
1195.648299487705
 30
0.0
 11
822.3494695117061
 21
1195.648299487705
 31
0.0
  0
LINE
  5
41F
330
2
100
AcDbEntity
  8
L-ZISSEN
100
AcDbLine
 10
936.9355309883877
 20
1098.062216003623
 30
0.0
 11
944.6506868569072
 21
1090.347078171181
 31
0.0
  0
ARC
  5
420
330
2
100
AcDbEntity
  8
L-ZISSEN
  6
CONTINUOUS
 62
     7
100
AcDbCircle
 10
1044.849469511706
 20
1096.148299487705
 30
0.0
 40
7.000000000000048
100
AcDbArc
 50
180.0
 51
269.9999999999997
  0
ARC
  5
421
330
2
100
AcDbEntity
  8
L-ZISSEN
  6
CONTINUOUS
 62
     7
100
AcDbCircle
 10
1046.849469511706
 20
1098.148299487704
 30
0.0
 40
6.500000000000048
100
AcDbArc
 50
180.0
 51
269.9999999999953
  0
ARC
  5
422
330
2
100
AcDbEntity
  8
L-ZISSEN
  6
CONTINUOUS
 62
     7
100
AcDbCircle
 10
940.5494695117061
 20
1094.448299487705
 30
0.0
 40
5.800000000000048
100
AcDbArc
 50
270.0
 51
0.0000000000000509
  0
ARC
  5
423
330
2
100
AcDbEntity
  8
L-ZISSEN
  6
CONTINUOUS
 62
     7
100
AcDbCircle
 10
1028.349469511705
 20
1096.648299487705
 30
0.0
 40
8.000000000000049
100
AcDbArc
 50
270.0
 51
0.0
  0
LINE
  5
424
330
2
100
AcDbEntity
  8
L-ZISSEN
100
AcDbLine
 10
971.5994695117151
 20
1157.199814677879
 30
0.0
 11
971.5994695117078
 21
1090.148299487705
 31
0.0
  0
LINE
  5
425
330
2
100
AcDbEntity
  8
L-ZISSEN
100
AcDbLine
 10
1011.099469511707
 20
1177.148299487705
 30
0.0
 11
1011.099469511707
 21
1090.148299487705
 31
0.0
  0
LINE
  5
426
330
2
100
AcDbEntity
  8
L-ZISSEN
  6
CONTINUOUS
 62
     7
100
AcDbLine
 10
969.0511754338793
 20
1082.648299487705
 30
0.0
 11
943.6477635895355
 21
1082.648299487705
 31
0.0
  0
LINE
  5
427
330
2
100
AcDbEntity
  8
L-ZISSEN
  6
CONTINUOUS
 62
     7
100
AcDbLine
 10
1028.349469511705
 20
1088.648299487705
 30
0.0
 11
912.8494695117067
 21
1088.648299487705
 31
0.0
  0
ARC
  5
428
330
2
100
AcDbEntity
  8
L-ZISSEN
  6
CONTINUOUS
 62
     7
100
AcDbCircle
 10
912.8494695117067
 20
1087.148299487705
 30
0.0
 40
1.500000000000049
100
AcDbArc
 50
90.0
 51
179.9999999999999
  0
LINE
  5
429
330
2
100
AcDbEntity
  8
L-ZISSEN
  6
CONTINUOUS
 62
     7
100
AcDbLine
 10
911.3494695117067
 20
1086.648299487705
 30
0.0
 11
911.3494695117067
 21
1087.148299487705
 31
0.0
  0
LINE
  5
42A
330
2
100
AcDbEntity
  8
L-ZISSEN
  6
CONTINUOUS
 62
     7
100
AcDbLine
 10
943.6477635895355
 20
1082.648299487705
 30
0.0
 11
943.6477635895355
 21
1088.648299487705
 31
0.0
  0
LINE
  5
42B
330
2
100
AcDbEntity
  8
L-ZISSEN
  6
CONTINUOUS
 62
     7
100
AcDbLine
 10
962.7003224727925
 20
1082.648299487705
 30
0.0
 11
962.7003224727925
 21
1088.648299487705
 31
0.0
  0
LINE
  5
42C
330
2
100
AcDbEntity
  8
L-ZISSEN
  6
CONTINUOUS
 62
     7
100
AcDbLine
 10
949.9986165506212
 20
1082.648299487705
 30
0.0
 11
949.9986165506212
 21
1088.648299487705
 31
0.0
  0
LINE
  5
42D
330
2
100
AcDbEntity
  8
L-ZISSEN
100
AcDbLine
 10
1011.099469511707
 20
1090.148299487705
 30
0.0
 11
971.5994695117078
 21
1090.148299487705
 31
0.0
  0
LINE
  5
42E
330
2
100
AcDbEntity
  8
L-ZISSEN
  6
CONTINUOUS
 62
     7
100
AcDbLine
 10
972.3494695117047
 20
1074.648299487705
 30
0.0
 11
1010.349469511707
 21
1074.648299487705
 31
0.0
  0
LINE
  5
42F
330
2
100
AcDbEntity
  8
L-ZISSEN
  6
CONTINUOUS
 62
     7
100
AcDbLine
 10
1010.349469511708
 20
1043.648299487705
 30
0.0
 11
972.3494695117047
 21
1043.648299487705
 31
0.0
  0
LINE
  5
430
330
2
100
AcDbEntity
  8
L-ZISSEN
  6
CONTINUOUS
 62
     7
100
AcDbLine
 10
1010.349469511708
 20
1054.546779140981
 30
0.0
 11
991.171067708591
 21
1054.546779140981
 31
0.0
  0
LINE
  5
431
330
2
100
AcDbEntity
  8
SUNPOU
 62
     7
100
AcDbLine
 10
972.3494695117047
 20
1043.648299487705
 30
0.0
 11
972.3494695117047
 21
1074.648299487705
 31
0.0
  0
LINE
  5
432
330
2
100
AcDbEntity
  8
L-ZISSEN
  6
CONTINUOUS
 62
     7
100
AcDbLine
 10
972.3494695117047
 20
1054.546779140981
 30
0.0
 11
991.171067708591
 21
1054.546779140981
 31
0.0
  0
LINE
  5
433
330
2
100
AcDbEntity
  8
SUNPOU
100
AcDbLine
 10
984.3494695117062
 20
1074.648299487705
 30
0.0
 11
998.3494695117062
 21
1074.648299487705
 31
0.0
  0
LINE
  5
434
330
2
100
AcDbEntity
  8
L-ZISSEN
  6
CONTINUOUS
 62
     7
100
AcDbLine
 10
984.3494695117062
 20
1088.648299487705
 30
0.0
 11
984.3494695117062
 21
1074.648299487705
 31
0.0
  0
LINE
  5
435
330
2
100
AcDbEntity
  8
L-ZISSEN
  6
CONTINUOUS
 62
     7
100
AcDbLine
 10
969.0511754338793
 20
1082.648299487705
 30
0.0
 11
969.0511754338793
 21
1088.648299487705
 31
0.0
  0
LINE
  5
436
330
2
100
AcDbEntity
  8
L-ZISSEN
  6
CONTINUOUS
 62
     7
100
AcDbLine
 10
998.3494695117062
 20
1088.648299487705
 30
0.0
 11
998.3494695117062
 21
1074.648299487705
 31
0.0
  0
LINE
  5
437
330
2
100
AcDbEntity
  8
SUNPOU
 62
     7
100
AcDbLine
 10
1010.349469511708
 20
1043.648299487705
 30
0.0
 11
1010.349469511707
 21
1074.648299487705
 31
0.0
  0
LINE
  5
438
330
2
100
AcDbEntity
  8
L-ZISSEN
  6
CONTINUOUS
 62
     7
100
AcDbLine
 10
1047.349469511706
 20
1076.148299487705
 30
0.0
 11
1047.349469511706
 21
1089.148299487705
 31
0.0
  0
POLYLINE
  5
439
330
2
100
AcDbEntity
  8
L-ZISSEN
  6
CONTINUOUS
 62
     7
100
AcDb2dPolyline
 66
     1
 10
0.0
 20
0.0
 30
0.0
 70
     1
  0
VERTEX
  5
913
330
439
100
AcDbEntity
  8
L-ZISSEN
  6
CONTINUOUS
 62
     7
100
AcDbVertex
100
AcDb2dVertex
 10
935.3494695117063
 20
1162.94981467787
 30
0.0
  0
VERTEX
  5
914
330
439
100
AcDbEntity
  8
L-ZISSEN
  6
CONTINUOUS
 62
     7
100
AcDbVertex
100
AcDb2dVertex
 10
947.6509847018714
 20
1150.648299487705
 30
0.0
  0
VERTEX
  5
915
330
439
100
AcDbEntity
  8
L-ZISSEN
  6
CONTINUOUS
 62
     7
100
AcDbVertex
100
AcDb2dVertex
 10
965.0479543215414
 20
1150.648299487705
 30
0.0
  0
VERTEX
  5
916
330
439
100
AcDbEntity
  8
L-ZISSEN
  6
CONTINUOUS
 62
     7
100
AcDbVertex
100
AcDb2dVertex
 10
977.3494695117065
 20
1162.94981467787
 30
0.0
  0
VERTEX
  5
917
330
439
100
AcDbEntity
  8
L-ZISSEN
  6
CONTINUOUS
 62
     7
100
AcDbVertex
100
AcDb2dVertex
 10
977.3494695117065
 20
1180.34678429754
 30
0.0
  0
VERTEX
  5
918
330
439
100
AcDbEntity
  8
L-ZISSEN
  6
CONTINUOUS
 62
     7
100
AcDbVertex
100
AcDb2dVertex
 10
965.0479543215414
 20
1192.648299487705
 30
0.0
  0
VERTEX
  5
919
330
439
100
AcDbEntity
  8
L-ZISSEN
  6
CONTINUOUS
 62
     7
100
AcDbVertex
100
AcDb2dVertex
 10
947.6509847018714
 20
1192.648299487705
 30
0.0
  0
VERTEX
  5
91A
330
439
100
AcDbEntity
  8
L-ZISSEN
  6
CONTINUOUS
 62
     7
100
AcDbVertex
100
AcDb2dVertex
 10
935.3494695117063
 20
1180.34678429754
 30
0.0
  0
SEQEND
  5
91B
330
439
100
AcDbEntity
  8
L-ZISSEN
  6
CONTINUOUS
 62
     7
  0
LINE
  5
443
330
2
100
AcDbEntity
  8
L-TYUSIN
  6
CENTER
 62
     1
100
AcDbLine
 10
928.5304922754978
 20
1171.648299487705
 30
0.0
 11
984.7465740111259
 21
1171.648299487705
 31
0.0
  0
ARC
  5
444
330
2
100
AcDbEntity
  8
L-ZISSEN
 62
     7
100
AcDbCircle
 10
969.3100466367448
 20
1123.648299487704
 30
0.0
 40
8.9
100
AcDbArc
 50
194.7314058709206
 51
270.0
  0
ARC
  5
445
330
2
100
AcDbEntity
  8
L-ZISSEN
 62
     7
100
AcDbCircle
 10
969.3100466367448
 20
1123.648299487704
 30
0.0
 40
11.1
100
AcDbArc
 50
194.7314058709206
 51
270.0
  0
POLYLINE
  5
446
330
2
100
AcDbEntity
  8
L-ZISSEN
 62
     7
100
AcDb2dPolyline
 66
     1
 10
0.0
 20
0.0
 30
0.0
  0
VERTEX
  5
91C
330
446
100
AcDbEntity
  8
L-ZISSEN
 62
     7
100
AcDbVertex
100
AcDb2dVertex
 10
1002.65575602668
 20
1202.548299487712
 30
0.0
 42
0.0635866829001958
  0
VERTEX
  5
91D
330
446
100
AcDbEntity
  8
L-ZISSEN
 62
     7
100
AcDbVertex
100
AcDb2dVertex
 10
982.5327860936285
 20
1199.978804519159
 30
0.0
 42
0.0766140331016153
  0
VERTEX
  5
91E
330
446
100
AcDbEntity
  8
L-ZISSEN
 62
     7
100
AcDbVertex
100
AcDb2dVertex
 10
967.1376871097661
 20
1193.34365605391
 30
0.0
 42
0.0135918871300211
  0
VERTEX
  5
91F
330
446
100
AcDbEntity
  8
L-ZISSEN
 62
     7
100
AcDbVertex
100
AcDb2dVertex
 10
965.4652471044267
 20
1192.231006704819
 30
0.0
 42
0.0295519348752731
  0
SEQEND
  5
920
330
446
100
AcDbEntity
  8
L-ZISSEN
 62
     7
  0
POLYLINE
  5
44C
330
2
100
AcDbEntity
  8
L-ZISSEN
 62
     7
100
AcDb2dPolyline
 66
     1
 10
0.0
 20
0.0
 30
0.0
  0
VERTEX
  5
921
330
44C
100
AcDbEntity
  8
L-ZISSEN
 62
     7
100
AcDbVertex
100
AcDb2dVertex
 10
1002.65575602668
 20
1204.748299487711
 30
0.0
 42
0.0635866829001957
  0
VERTEX
  5
922
330
44C
100
AcDbEntity
  8
L-ZISSEN
 62
     7
100
AcDbVertex
100
AcDb2dVertex
 10
981.97996518726
 20
1202.108215011639
 30
0.0
 42
0.0766140331016146
  0
VERTEX
  5
923
330
44C
100
AcDbEntity
  8
L-ZISSEN
 62
     7
100
AcDbVertex
100
AcDb2dVertex
 10
965.9693321097265
 20
1195.20777691745
 30
0.0
 42
0.0282903188022013
  0
VERTEX
  5
924
330
44C
100
AcDbEntity
  8
L-ZISSEN
 62
     7
100
AcDbVertex
100
AcDb2dVertex
 10
962.3569633034364
 20
1192.648299487705
 30
0.0
 42
0.029551934875275
  0
SEQEND
  5
925
330
44C
100
AcDbEntity
  8
L-ZISSEN
 62
     7
  0
POLYLINE
  5
452
330
2
100
AcDbEntity
  8
L-ZISSEN
  6
CONTINUOUS
 62
     7
100
AcDb2dPolyline
 66
     1
 10
0.0
 20
0.0
 30
0.0
 70
     1
  0
VERTEX
  5
926
330
452
100
AcDbEntity
  8
L-ZISSEN
  6
CONTINUOUS
 62
     7
100
AcDbVertex
100
AcDb2dVertex
 10
942.1985491686557
 20
1165.769652225869
 30
0.0
  0
VERTEX
  5
927
330
452
100
AcDbEntity
  8
L-ZISSEN
  6
CONTINUOUS
 62
     7
100
AcDbVertex
100
AcDb2dVertex
 10
950.3175491941645
 20
1157.65065220036
 30
0.0
  0
VERTEX
  5
928
330
452
100
AcDbEntity
  8
L-ZISSEN
  6
CONTINUOUS
 62
     7
100
AcDbVertex
100
AcDb2dVertex
 10
961.7995491431468
 20
1157.65065220036
 30
0.0
  0
VERTEX
  5
929
330
452
100
AcDbEntity
  8
L-ZISSEN
  6
CONTINUOUS
 62
     7
100
AcDbVertex
100
AcDb2dVertex
 10
969.9185491686558
 20
1165.769652225869
 30
0.0
  0
VERTEX
  5
92A
330
452
100
AcDbEntity
  8
L-ZISSEN
  6
CONTINUOUS
 62
     7
100
AcDbVertex
100
AcDb2dVertex
 10
969.9185491686558
 20
1177.251652174851
 30
0.0
  0
VERTEX
  5
92B
330
452
100
AcDbEntity
  8
L-ZISSEN
  6
CONTINUOUS
 62
     7
100
AcDbVertex
100
AcDb2dVertex
 10
961.7995491431468
 20
1185.37065220036
 30
0.0
  0
VERTEX
  5
92C
330
452
100
AcDbEntity
  8
L-ZISSEN
  6
CONTINUOUS
 62
     7
100
AcDbVertex
100
AcDb2dVertex
 10
950.3175491941647
 20
1185.37065220036
 30
0.0
  0
VERTEX
  5
92D
330
452
100
AcDbEntity
  8
L-ZISSEN
  6
CONTINUOUS
 62
     7
100
AcDbVertex
100
AcDb2dVertex
 10
942.1985491686557
 20
1177.251652174851
 30
0.0
  0
SEQEND
  5
92E
330
452
100
AcDbEntity
  8
L-ZISSEN
  6
CONTINUOUS
 62
     7
  0
LINE
  5
45C
330
2
100
AcDbEntity
  8
L-ZISSEN
  6
CONTINUOUS
 62
     7
100
AcDbLine
 10
936.9355309883877
 20
1161.363753201188
 30
0.0
 11
936.9355309883877
 21
1098.062216003623
 31
0.0
  0
LINE
  5
45D
330
2
100
AcDbEntity
  8
L-TYUSIN
  6
CENTER
 62
     1
100
AcDbLine
 10
956.3494695117062
 20
1141.711848023202
 30
0.0
 11
956.3494695117062
 21
1203.692774707237
 31
0.0
  0
LINE
  5
45E
330
2
100
AcDbEntity
  8
L-ZISSEN
  6
CONTINUOUS
 62
     7
100
AcDbLine
 10
946.3494695117063
 20
1094.448299487705
 30
0.0
 11
946.3494695117063
 21
1151.94981467787
 31
0.0
  0
LINE
  5
45F
330
2
100
AcDbEntity
  8
L-ZISSEN
 62
     7
100
AcDbLine
 10
953.0084088575309
 20
1150.648299487705
 30
0.0
 11
960.7026028652908
 21
1121.385135392624
 31
0.0
  0
LINE
  5
460
330
2
100
AcDbEntity
  8
L-ZISSEN
 62
     7
100
AcDbLine
 10
950.733633614161
 20
1150.648299487705
 30
0.0
 11
958.5749201352692
 21
1120.825701571368
 31
0.0
  0
LINE
  5
461
330
2
100
AcDbEntity
  8
L-ZISSEN
 62
     7
100
AcDbLine
 10
962.6884872839669
 20
1150.648299487705
 30
0.0
 11
962.6884872839664
 21
1122.796774861009
 31
0.0
  0
LINE
  5
462
330
2
100
AcDbEntity
  8
L-ZISSEN
 62
     7
100
AcDbLine
 10
958.4884872839666
 20
1150.648299487705
 30
0.0
 11
958.4884872839666
 21
1129.806033997003
 31
0.0
  0
ARC
  5
463
330
2
100
AcDbEntity
  8
L-ZISSEN
 62
     7
100
AcDbCircle
 10
948.4884872839666
 20
1122.796797826053
 30
0.0
 40
10.0
100
AcDbArc
 50
270.0
 51
352.4548716329702
  0
ARC
  5
464
330
2
100
AcDbEntity
  8
L-ZISSEN
 62
     7
100
AcDbCircle
 10
948.4884872839666
 20
1122.796797826053
 30
0.0
 40
14.19999999999999
100
AcDbArc
 50
342.5001788070431
 51
359.9999073380219
  0
LINE
  5
465
330
2
100
AcDbEntity
  8
L-ZISSEN
 62
     7
100
AcDbLine
 10
946.3494695117063
 20
1108.596797826053
 30
0.0
 11
948.4884965393989
 21
1108.596797826053
 31
0.0
  0
LINE
  5
466
330
2
100
AcDbEntity
  8
L-ZISSEN
 62
     7
100
AcDbLine
 10
946.3494695117063
 20
1112.796797826053
 30
0.0
 11
948.4884872839666
 21
1112.796797826053
 31
0.0
  0
ARC
  5
467
330
2
100
AcDbEntity
  8
L-ZISSEN
 62
     7
100
AcDbCircle
 10
948.4884872839666
 20
1122.796797826053
 30
0.0
 40
14.19999999999999
100
AcDbArc
 50
270.0
 51
332.3719501559519
  0
CIRCLE
  5
469
330
2
100
AcDbEntity
  8
L-ZISSEN
100
AcDbCircle
 10
956.3494695117064
 20
1171.648299487705
 30
0.0
 40
10.47749999999999
  0
SOLID
  5
46A
330
2
100
AcDbEntity
  8
L-ZISSEN
  6
CONTINUOUS
100
AcDbTrace
 10
942.0487090861502
 20
1152.325062414599
 30
0.0
 11
944.7885360240464
 21
1150.426521010919
 31
0.0
 12
949.1142467661401
 22
1159.595272526447
 32
0.0
 13
949.1142467661401
 23
1159.595272526447
 33
0.0
  0
LINE
  5
46B
330
2
100
AcDbEntity
  8
L-ZISSEN
  6
CONTINUOUS
 62
     7
100
AcDbLine
 10
936.9355309883877
 20
1199.234382971787
 30
0.0
 11
936.9355309883877
 21
1181.932845774221
 31
0.0
  0
LINE
  5
46C
330
2
100
AcDbEntity
  8
L-ZISSEN
  6
CONTINUOUS
 62
     7
100
AcDbLine
 10
946.3494695117063
 20
1191.346784297539
 30
0.0
 11
946.3494695117063
 21
1202.848299487705
 31
0.0
  0
LINE
  5
46D
330
2
100
AcDbEntity
  8
L-ZISSEN
  6
CONTINUOUS
 62
     7
100
AcDbLine
 10
1037.849469511706
 20
1201.648299487705
 30
0.0
 11
1037.849469511706
 21
1096.148299487705
 31
0.0
  0
LINE
  5
46E
330
2
100
AcDbEntity
  8
L-ZISSEN
  6
CONTINUOUS
 62
     7
100
AcDbLine
 10
1036.349469511706
 20
1200.648299487704
 30
0.0
 11
1036.349469511705
 21
1096.648299487705
 31
0.0
  0
LINE
  5
46F
330
2
100
AcDbEntity
  8
L-ZISSEN
100
AcDbLine
 10
975.7781351549155
 20
1093.959512744104
 30
0.0
 11
975.7781351549155
 21
1161.378480321079
 31
0.0
  0
LINE
  5
470
330
2
100
AcDbEntity
  8
L-ZISSEN
100
AcDbLine
 10
972.5994695117069
 20
1158.19981467787
 30
0.0
 11
972.5994695117069
 21
1091.148299487705
 31
0.0
  0
LINE
  5
471
330
2
100
AcDbEntity
  8
L-ZISSEN
100
AcDbLine
 10
1006.920803868498
 20
1105.148299487703
 30
0.0
 11
1006.920803868498
 21
1173.337086231305
 31
0.0
  0
LINE
  5
472
330
2
100
AcDbEntity
  8
L-ZISSEN
100
AcDbLine
 10
1015.349447504306
 20
1119.148299487704
 30
0.0
 11
1015.349447504306
 21
1178.148299487704
 31
0.0
  0
LINE
  5
473
330
2
100
AcDbEntity
  8
L-ZISSEN
100
AcDbLine
 10
1025.349447504306
 20
1119.148299487704
 30
0.0
 11
1025.349447504306
 21
1178.148299487704
 31
0.0
  0
LINE
  5
474
330
2
100
AcDbEntity
  8
L-ZISSEN
100
AcDbLine
 10
1028.749458508006
 20
1172.90777817573
 30
0.0
 11
1028.749458508005
 21
1114.148299487704
 31
0.0
  0
LINE
  5
475
330
2
100
AcDbEntity
  8
L-ZISSEN
100
AcDbLine
 10
1032.949458508006
 20
1172.90777817573
 30
0.0
 11
1032.949458508006
 21
1114.148299487704
 31
0.0
  0
LINE
  5
476
330
2
100
AcDbEntity
  8
L-ZISSEN
100
AcDbLine
 10
1010.099469511706
 20
1176.148299487705
 30
0.0
 11
1010.099469511706
 21
1091.148299487705
 31
0.0
  0
LINE
  5
477
330
2
100
AcDbEntity
  8
L-ZISSEN
100
AcDbLine
 10
972.5994695117069
 20
1091.148299487705
 30
0.0
 11
1010.099469511706
 21
1091.148299487705
 31
0.0
  0
LINE
  5
478
330
2
100
AcDbEntity
  8
L-ZISSEN
100
AcDbLine
 10
1003.099469511707
 20
1105.148299487703
 30
0.0
 11
1010.099469511706
 21
1105.148299487703
 31
0.0
  0
LINE
  5
479
330
2
100
AcDbEntity
  8
L-ZISSEN
100
AcDbLine
 10
996.0994695117328
 20
1093.959512744104
 30
0.0
 11
975.7781351549155
 21
1093.959512744104
 31
0.0
  0
LINE
  5
47A
330
2
100
AcDbEntity
  8
L-ZISSEN
 62
     7
100
AcDbLine
 10
971.5994695117105
 20
1114.748299487705
 30
0.0
 11
969.310046636745
 21
1114.748299487705
 31
0.0
  0
LINE
  5
47B
330
2
100
AcDbEntity
  8
L-ZISSEN
 62
     7
100
AcDbLine
 10
971.5994695117105
 20
1112.548299487704
 30
0.0
 11
969.310046636745
 21
1112.548299487704
 31
0.0
  0
CIRCLE
  5
47D
330
2
100
AcDbEntity
  8
L-ZISSEN
100
AcDbCircle
 10
1003.099469511707
 20
1098.148299487705
 30
0.0
 40
3.5
  0
LINE
  5
47E
330
2
100
AcDbEntity
  8
L-ZISSEN
100
AcDbLine
 10
996.0994695117328
 20
1098.148299487705
 30
0.0
 11
996.0994695117328
 21
1091.148299487705
 31
0.0
  0
ARC
  5
47F
330
2
100
AcDbEntity
  8
L-ZISSEN
100
AcDbCircle
 10
1003.099469511707
 20
1098.148299487705
 30
0.0
 40
7.0
100
AcDbArc
 50
90.0
 51
180.0
  0
CIRCLE
  5
480
330
2
100
AcDbEntity
  8
L-ZISSEN
  6
CONTINUOUS
 62
     7
100
AcDbCircle
 10
1026.349469511706
 20
1098.648299487705
 30
0.0
 40
6.5
  0
ARC
  5
481
330
2
100
AcDbEntity
  8
L-ZISSEN
100
AcDbCircle
 10
1025.599453006149
 20
1114.148299487704
 30
0.0
 40
7.349999999999999
100
AcDbArc
 50
180.0
 51
0.0
  0
POLYLINE
  5
482
330
2
100
AcDbEntity
  8
L-ZISSEN
  6
CONTINUOUS
 62
     7
100
AcDb2dPolyline
 66
     1
 10
0.0
 20
0.0
 30
0.0
 70
     1
  0
VERTEX
  5
92F
330
482
100
AcDbEntity
  8
L-ZISSEN
  6
CONTINUOUS
 62
     7
100
AcDbVertex
100
AcDb2dVertex
 10
1024.906093838732
 20
1101.148299487705
 30
0.0
  0
VERTEX
  5
930
330
482
100
AcDbEntity
  8
L-ZISSEN
  6
CONTINUOUS
 62
     7
100
AcDbVertex
100
AcDb2dVertex
 10
1023.462718165758
 20
1098.648299487705
 30
0.0
  0
VERTEX
  5
931
330
482
100
AcDbEntity
  8
L-ZISSEN
  6
CONTINUOUS
 62
     7
100
AcDbVertex
100
AcDb2dVertex
 10
1024.906093838732
 20
1096.148299487705
 30
0.0
  0
VERTEX
  5
932
330
482
100
AcDbEntity
  8
L-ZISSEN
  6
CONTINUOUS
 62
     7
100
AcDbVertex
100
AcDb2dVertex
 10
1027.79284518468
 20
1096.148299487705
 30
0.0
  0
VERTEX
  5
933
330
482
100
AcDbEntity
  8
L-ZISSEN
  6
CONTINUOUS
 62
     7
100
AcDbVertex
100
AcDb2dVertex
 10
1029.236220857654
 20
1098.648299487705
 30
0.0
  0
VERTEX
  5
934
330
482
100
AcDbEntity
  8
L-ZISSEN
  6
CONTINUOUS
 62
     7
100
AcDbVertex
100
AcDb2dVertex
 10
1027.79284518468
 20
1101.148299487705
 30
0.0
  0
SEQEND
  5
935
330
482
100
AcDbEntity
  8
L-ZISSEN
  6
CONTINUOUS
 62
     7
  0
LINE
  5
48A
330
2
100
AcDbEntity
  8
L-ZISSEN
100
AcDbLine
 10
1025.349447504306
 20
1119.148299487704
 30
0.0
 11
1015.349447504306
 21
1119.148299487704
 31
0.0
  0
LINE
  5
48B
330
2
100
AcDbEntity
  8
L-ZISSEN
100
AcDbLine
 10
1024.149447504302
 20
1116.148299487704
 30
0.0
 11
1016.549447504309
 21
1116.148299487704
 31
0.0
  0
LINE
  5
48C
330
2
100
AcDbEntity
  8
L-ZISSEN
100
AcDbLine
 10
1016.549447504309
 20
1116.148299487704
 30
0.0
 11
1016.549447504309
 21
1119.148299487704
 31
0.0
  0
LINE
  5
48D
330
2
100
AcDbEntity
  8
L-ZISSEN
100
AcDbLine
 10
1024.149447504302
 20
1116.148299487704
 30
0.0
 11
1024.149447504302
 21
1119.148299487704
 31
0.0
  0
LINE
  5
48E
330
2
100
AcDbEntity
  8
L-ZISSEN
100
AcDbLine
 10
1022.449447504293
 20
1116.148299487704
 30
0.0
 11
1022.449447504293
 21
1114.148299487704
 31
0.0
  0
ARC
  5
48F
330
2
100
AcDbEntity
  8
L-ZISSEN
100
AcDbCircle
 10
1025.599453006149
 20
1114.148299487704
 30
0.0
 40
3.149999999999999
100
AcDbArc
 50
180.0
 51
0.0
  0
LINE
  5
490
330
2
100
AcDbEntity
  8
L-ZISSEN
100
AcDbLine
 10
1018.249447504293
 20
1116.148299487704
 30
0.0
 11
1018.249447504294
 21
1114.148299487704
 31
0.0
  0
LINE
  5
491
330
2
100
AcDbEntity
  8
L-ZISSEN
  6
CONTINUOUS
 62
     7
100
AcDbLine
 10
1036.350223445815
 20
1105.971610571124
 30
0.0
 11
1036.349469511705
 21
1105.971610571124
 31
0.0
  0
LINE
  5
492
330
2
100
AcDbEntity
  8
L-ZISSEN
  6
CONTINUOUS
 62
     7
100
AcDbLine
 10
1036.350223445815
 20
1105.971610571124
 30
0.0
 11
1037.849469511706
 21
1105.971610571124
 31
0.0
  0
LINE
  5
493
330
2
100
AcDbEntity
  8
L-ZISSEN
  6
CONTINUOUS
 62
     7
100
AcDbLine
 10
1040.349469511706
 20
1119.148299487705
 30
0.0
 11
1040.349469511706
 21
1098.148299487704
 31
0.0
  0
LINE
  5
495
330
2
100
AcDbEntity
  8
L-ZISSEN
100
AcDbLine
 10
977.3494695117065
 20
1176.148299487705
 30
0.0
 11
1010.099469511706
 21
1176.148299487705
 31
0.0
  0
LINE
  5
496
330
2
100
AcDbEntity
  8
L-ZISSEN
100
AcDbLine
 10
1011.099469511707
 20
1177.148299487705
 30
0.0
 11
977.3494695117065
 21
1177.148299487705
 31
0.0
  0
POLYLINE
  5
497
330
2
100
AcDbEntity
  8
L-ZISSEN
 62
     7
100
AcDb2dPolyline
 66
     1
 10
0.0
 20
0.0
 30
0.0
  0
VERTEX
  5
936
330
497
100
AcDbEntity
  8
L-ZISSEN
 62
     7
100
AcDbVertex
100
AcDb2dVertex
 10
1021.449447504306
 20
1185.759276321651
 30
0.0
 42
0.097515458380853
  0
VERTEX
  5
937
330
497
100
AcDbEntity
  8
L-ZISSEN
 62
     7
100
AcDbVertex
100
AcDb2dVertex
 10
1020.017541377604
 20
1193.031404125676
 30
0.0
 42
0.098081780739828
  0
VERTEX
  5
938
330
497
100
AcDbEntity
  8
L-ZISSEN
 62
     7
100
AcDbVertex
100
AcDb2dVertex
 10
1015.94916076748
 20
1199.182261878245
 30
0.0
 42
0.0988934513454228
  0
VERTEX
  5
939
330
497
100
AcDbEntity
  8
L-ZISSEN
 62
     7
100
AcDbVertex
100
AcDb2dVertex
 10
1009.842462978183
 20
1203.304212412228
 30
0.0
 42
0.0994751424102357
  0
VERTEX
  5
93A
330
497
100
AcDbEntity
  8
L-ZISSEN
 62
     7
100
AcDbVertex
100
AcDb2dVertex
 10
1002.655756026681
 20
1204.748299487708
 30
0.0
 42
0.0994751424102357
  0
SEQEND
  5
93B
330
497
100
AcDbEntity
  8
L-ZISSEN
 62
     7
  0
POLYLINE
  5
49E
330
2
100
AcDbEntity
  8
L-ZISSEN
 62
     7
100
AcDb2dPolyline
 66
     1
 10
0.0
 20
0.0
 30
0.0
  0
VERTEX
  5
93C
330
49E
100
AcDbEntity
  8
L-ZISSEN
 62
     7
100
AcDbVertex
100
AcDb2dVertex
 10
1019.249447504305
 20
1185.759276321651
 30
0.0
 42
0.0975154583808527
  0
VERTEX
  5
93D
330
49E
100
AcDbEntity
  8
L-ZISSEN
 62
     7
100
AcDbVertex
100
AcDb2dVertex
 10
1017.981766268857
 20
1192.197365933142
 30
0.0
 42
0.0980817807398272
  0
VERTEX
  5
93E
330
49E
100
AcDbEntity
  8
L-ZISSEN
 62
     7
100
AcDbVertex
100
AcDb2dVertex
 10
1014.385009741983
 20
1197.635189944095
 30
0.0
 42
0.0988934513454187
  0
VERTEX
  5
93F
330
49E
100
AcDbEntity
  8
L-ZISSEN
 62
     7
100
AcDbVertex
100
AcDb2dVertex
 10
1008.992645504583
 20
1201.274973574249
 30
0.0
 42
0.0994751424102365
  0
VERTEX
  5
940
330
49E
100
AcDbEntity
  8
L-ZISSEN
 62
     7
100
AcDbVertex
100
AcDb2dVertex
 10
1002.655756026679
 20
1202.548299487709
 30
0.0
 42
0.0994751424102365
  0
SEQEND
  5
941
330
49E
100
AcDbEntity
  8
L-ZISSEN
 62
     7
  0
LINE
  5
4A5
330
2
100
AcDbEntity
  8
L-ZISSEN
 62
     7
100
AcDbLine
 10
1018.749458508006
 20
1182.90777817573
 30
0.0
 11
974.7884756335158
 21
1182.90777817573
 31
0.0
  0
LINE
  5
4A6
330
2
100
AcDbEntity
  8
L-ZISSEN
 62
     7
100
AcDbLine
 10
1018.749458508006
 20
1187.10777817573
 30
0.0
 11
970.588475633516
 21
1187.10777817573
 31
0.0
  0
LINE
  5
4A7
330
2
100
AcDbEntity
  8
L-ZISSEN
100
AcDbLine
 10
1006.920803868498
 20
1173.337086231305
 30
0.0
 11
986.5994695117169
 21
1173.337086231305
 31
0.0
  0
ARC
  5
4A8
330
2
100
AcDbEntity
  8
L-ZISSEN
100
AcDbCircle
 10
979.5994695117069
 20
1169.148299487705
 30
0.0
 40
3.5
100
AcDbArc
 50
229.9947991155828
 51
130.005200884417
  0
LINE
  5
4A9
330
2
100
AcDbEntity
  8
L-ZISSEN
100
AcDbLine
 10
986.5994695117169
 20
1169.148299487705
 30
0.0
 11
986.5994695117169
 21
1176.148299487705
 31
0.0
  0
LINE
  5
4AA
330
2
100
AcDbEntity
  8
L-ZISSEN
100
AcDbLine
 10
979.5994695117069
 20
1162.148299487701
 30
0.0
 11
976.5479543215375
 21
1162.148299487701
 31
0.0
  0
ARC
  5
4AB
330
2
100
AcDbEntity
  8
L-ZISSEN
100
AcDbCircle
 10
979.5994695117069
 20
1169.148299487705
 30
0.0
 40
7.0
100
AcDbArc
 50
270.0
 51
0.0
  0
ARC
  5
4AC
330
2
100
AcDbEntity
  8
L-ZISSEN
100
AcDbCircle
 10
1018.749458508006
 20
1172.90777817573
 30
0.0
 40
10.0
100
AcDbArc
 50
359.9999999999994
 51
74.33579862703467
  0
ARC
  5
4AD
330
2
100
AcDbEntity
  8
L-ZISSEN
100
AcDbCircle
 10
1018.749458508006
 20
1172.90777817573
 30
0.0
 40
14.19999999999999
100
AcDbArc
 50
359.9999999999994
 51
79.16767944353193
  0
CIRCLE
  5
4AE
330
2
100
AcDbEntity
  8
L-ZISSEN
  6
CONTINUOUS
 62
     7
100
AcDbCircle
 10
1026.349469511706
 20
1198.648299487705
 30
0.0
 40
6.5
  0
POLYLINE
  5
4AF
330
2
100
AcDbEntity
  8
L-ZISSEN
  6
CONTINUOUS
 62
     7
100
AcDb2dPolyline
 66
     1
 10
0.0
 20
0.0
 30
0.0
 70
     1
  0
VERTEX
  5
942
330
4AF
100
AcDbEntity
  8
L-ZISSEN
  6
CONTINUOUS
 62
     7
100
AcDbVertex
100
AcDb2dVertex
 10
1024.906093838732
 20
1201.148299487705
 30
0.0
  0
VERTEX
  5
943
330
4AF
100
AcDbEntity
  8
L-ZISSEN
  6
CONTINUOUS
 62
     7
100
AcDbVertex
100
AcDb2dVertex
 10
1023.462718165758
 20
1198.648299487705
 30
0.0
  0
VERTEX
  5
944
330
4AF
100
AcDbEntity
  8
L-ZISSEN
  6
CONTINUOUS
 62
     7
100
AcDbVertex
100
AcDb2dVertex
 10
1024.906093838732
 20
1196.148299487705
 30
0.0
  0
VERTEX
  5
945
330
4AF
100
AcDbEntity
  8
L-ZISSEN
  6
CONTINUOUS
 62
     7
100
AcDbVertex
100
AcDb2dVertex
 10
1027.79284518468
 20
1196.148299487705
 30
0.0
  0
VERTEX
  5
946
330
4AF
100
AcDbEntity
  8
L-ZISSEN
  6
CONTINUOUS
 62
     7
100
AcDbVertex
100
AcDb2dVertex
 10
1029.236220857654
 20
1198.648299487705
 30
0.0
  0
VERTEX
  5
947
330
4AF
100
AcDbEntity
  8
L-ZISSEN
  6
CONTINUOUS
 62
     7
100
AcDbVertex
100
AcDb2dVertex
 10
1027.79284518468
 20
1201.148299487705
 30
0.0
  0
SEQEND
  5
948
330
4AF
100
AcDbEntity
  8
L-ZISSEN
  6
CONTINUOUS
 62
     7
  0
LINE
  5
4B7
330
2
100
AcDbEntity
  8
L-ZISSEN
100
AcDbLine
 10
1025.349447504306
 20
1178.148299487704
 30
0.0
 11
1015.349447504306
 21
1178.148299487704
 31
0.0
  0
LINE
  5
4B8
330
2
100
AcDbEntity
  8
L-ZISSEN
 62
     7
100
AcDbLine
 10
1021.449447504306
 20
1178.148299487704
 30
0.0
 11
1021.449447504306
 21
1185.759276321651
 31
0.0
  0
LINE
  5
4B9
330
2
100
AcDbEntity
  8
L-ZISSEN
 62
     7
100
AcDbLine
 10
1019.249447504305
 20
1178.148299487704
 30
0.0
 11
1019.249447504305
 21
1185.759276321651
 31
0.0
  0
ARC
  5
4BA
330
2
100
AcDbEntity
  8
L-ZISSEN
100
AcDbCircle
 10
1018.749458508006
 20
1172.90777817573
 30
0.0
 40
14.19999999999999
100
AcDbArc
 50
88.19640575569923
 51
89.99999999999976
  0
ARC
  5
4BB
330
2
100
AcDbEntity
  8
L-ZISSEN
100
AcDbCircle
 10
1018.749458508006
 20
1172.90777817573
 30
0.0
 40
10.0
100
AcDbArc
 50
87.13407914291709
 51
89.99999999999976
  0
LINE
  5
4BC
330
2
100
AcDbEntity
  8
L-ZISSEN
  6
CONTINUOUS
 62
     7
100
AcDbLine
 10
1036.349469511706
 20
1200.648299487704
 30
0.0
 11
1037.849469511706
 21
1200.648299487704
 31
0.0
  0
LINE
  5
4CC
330
2
100
AcDbEntity
  8
L-ZISSEN
  6
CONTINUOUS
 62
     7
100
AcDbLine
 10
1036.349469511705
 20
1218.648299487705
 30
0.0
 11
836.349469511706
 21
1218.648299487705
 31
0.0
  0
LINE
  5
4CD
330
2
100
AcDbEntity
  8
L-ZISSEN
  6
CONTINUOUS
 62
     7
100
AcDbLine
 10
838.3494695117061
 20
1220.648299487705
 30
0.0
 11
1034.349469511706
 21
1220.648299487705
 31
0.0
  0
LINE
  5
4CE
330
2
100
AcDbEntity
  8
L-ZISSEN
  6
CONTINUOUS
 62
     7
100
AcDbLine
 10
936.549469511706
 20
1208.648299487705
 30
0.0
 11
830.3494695117061
 21
1208.648299487705
 31
0.0
  0
LINE
  5
4CF
330
2
100
AcDbEntity
  8
L-ZISSEN
  6
CONTINUOUS
 62
     7
100
AcDbLine
 10
940.5494695117061
 20
1208.648299487705
 30
0.0
 11
832.1494695117062
 21
1208.648299487705
 31
0.0
  0
LINE
  5
4D0
330
2
100
AcDbEntity
  8
L-ZISSEN
  6
CONTINUOUS
 62
     7
100
AcDbLine
 10
830.3494695117061
 20
1208.648299487705
 30
0.0
 11
1028.349469511706
 21
1208.648299487704
 31
0.0
  0
LINE
  5
4D2
330
2
100
AcDbEntity
  8
L-ZISSEN
  6
CONTINUOUS
 62
     7
100
AcDbLine
 10
796.349469511706
 20
1238.648299487705
 30
0.0
 11
838.3494695117061
 21
1238.648299487705
 31
0.0
  0
LINE
  5
4D3
330
2
100
AcDbEntity
  8
L-ZISSEN
  6
CONTINUOUS
 62
     7
100
AcDbLine
 10
836.349469511706
 20
1236.648299487705
 30
0.0
 11
796.349469511706
 21
1236.648299487705
 31
0.0
  0
LINE
  5
4D4
330
2
100
AcDbEntity
  8
L-ZISSEN
  6
CONTINUOUS
 62
     7
100
AcDbLine
 10
796.349469511706
 20
1236.648299487705
 30
0.0
 11
796.349469511706
 21
1238.648299487705
 31
0.0
  0
LINE
  5
4D6
330
2
100
AcDbEntity
  8
L-ZISSEN
  6
CONTINUOUS
 62
     7
100
AcDbLine
 10
838.3494695117061
 20
1238.648299487705
 30
0.0
 11
838.3494695117061
 21
1220.648299487705
 31
0.0
  0
LINE
  5
4D7
330
2
100
AcDbEntity
  8
L-ZISSEN
  6
CONTINUOUS
 62
     7
100
AcDbLine
 10
836.349469511706
 20
1218.648299487705
 30
0.0
 11
836.349469511706
 21
1236.648299487705
 31
0.0
  0
LINE
  5
4D8
330
2
100
AcDbEntity
  8
L-ZISSEN
  6
CONTINUOUS
 62
     7
100
AcDbLine
 10
853.3494695117063
 20
1218.648299487705
 30
0.0
 11
853.3494695117063
 21
1208.648299487705
 31
0.0
  0
LINE
  5
4D9
330
2
100
AcDbEntity
  8
L-ZISSEN
  6
CONTINUOUS
 62
     7
100
AcDbLine
 10
869.3494695117063
 20
1218.648299487705
 30
0.0
 11
869.3494695117063
 21
1208.648299487705
 31
0.0
  0
LINE
  5
4DC
330
2
100
AcDbEntity
  8
L-ZISSEN
  6
CONTINUOUS
 62
     7
100
AcDbLine
 10
912.3494695117063
 20
1208.648299487704
 30
0.0
 11
946.3494695117063
 21
1208.648299487705
 31
0.0
  0
LINE
  5
4DE
330
2
100
AcDbEntity
  8
L-ZISSEN
  6
CONTINUOUS
 62
     7
100
AcDbLine
 10
1003.349469511706
 20
1218.648299487705
 30
0.0
 11
1003.349469511706
 21
1208.648299487704
 31
0.0
  0
LINE
  5
4DF
330
2
100
AcDbEntity
  8
L-ZISSEN
  6
CONTINUOUS
 62
     7
100
AcDbLine
 10
1036.349469511705
 20
1236.648299487705
 30
0.0
 11
1036.349469511705
 21
1218.648299487705
 31
0.0
  0
LINE
  5
4E0
330
2
100
AcDbEntity
  8
L-ZISSEN
  6
CONTINUOUS
 62
     7
100
AcDbLine
 10
1034.349469511706
 20
1220.648299487705
 30
0.0
 11
1034.349469511706
 21
1238.648299487705
 31
0.0
  0
LINE
  5
4E1
330
2
100
AcDbEntity
  8
L-ZISSEN
  6
CONTINUOUS
 62
     7
100
AcDbLine
 10
1019.349469511706
 20
1218.648299487705
 30
0.0
 11
1019.349469511706
 21
1208.648299487704
 31
0.0
  0
LINE
  5
508
330
2
100
AcDbEntity
  8
L-ZISSEN
  6
CONTINUOUS
 62
     7
100
AcDbLine
 10
1146.349469511706
 20
512.7838359146892
 30
0.0
 11
1151.349469511706
 21
507.7838359146892
 31
0.0
  0
LINE
  5
509
330
2
100
AcDbEntity
  8
L-ZISSEN
  6
CONTINUOUS
 62
     7
100
AcDbLine
 10
1112.849469511706
 20
557.5910387632514
 30
0.0
 11
1112.849469511705
 21
471.5910387632516
 31
0.0
  0
LINE
  5
50A
330
2
100
AcDbEntity
  8
L-ZISSEN
  6
CONTINUOUS
 62
     7
100
AcDbLine
 10
1060.349469511706
 20
548.5910387632515
 30
0.0
 11
1060.349469511706
 21
502.5910387632515
 31
0.0
  0
LINE
  5
50B
330
2
100
AcDbEntity
  8
L-ZISSEN
  6
CONTINUOUS
 62
     7
100
AcDbLine
 10
1054.349469511706
 20
502.5910387632515
 30
0.0
 11
1054.349469511706
 21
548.5910387632515
 31
0.0
  0
LINE
  5
50C
330
2
100
AcDbEntity
  8
L-ZISSEN
  6
CONTINUOUS
 62
     7
100
AcDbLine
 10
1052.349469511706
 20
556.5910387632515
 30
0.0
 11
1052.349469511706
 21
494.5910387632515
 31
0.0
  0
LINE
  5
50D
330
2
100
AcDbEntity
  8
L-ZISSEN
  6
CONTINUOUS
 62
     7
100
AcDbLine
 10
1062.349469511706
 20
556.5910387632515
 30
0.0
 11
1062.349469511706
 21
494.5910387632515
 31
0.0
  0
LINE
  5
50E
330
2
100
AcDbEntity
  8
L-ZISSEN
  6
CONTINUOUS
 62
     7
100
AcDbLine
 10
1067.649469511706
 20
494.5910387632515
 30
0.0
 11
1067.649469511706
 21
556.5910387632515
 31
0.0
  0
LINE
  5
516
330
2
100
AcDbEntity
  8
L-ZISSEN
  6
CONTINUOUS
 62
     7
100
AcDbLine
 10
1151.349469511706
 20
507.7838359146892
 30
0.0
 11
1151.349469511706
 21
367.7838359146892
 31
0.0
  0
LINE
  5
518
330
2
100
AcDbEntity
  8
L-TYUSIN
  6
CENTER
 62
     1
100
AcDbLine
 10
1146.349469511701
 20
375.2838359146893
 30
0.0
 11
1126.349469511711
 21
375.2838359146893
 31
0.0
  0
LINE
  5
51A
330
2
100
AcDbEntity
  8
L-ZISSEN
  6
CONTINUOUS
 62
     7
100
AcDbLine
 10
1151.349469511706
 20
367.7838359146892
 30
0.0
 11
1146.349469511706
 21
362.7838359146891
 31
0.0
  0
LINE
  5
51B
330
2
100
AcDbEntity
  8
L-TYUSIN
  6
CENTER
 62
     1
100
AcDbLine
 10
1136.349469511705
 20
365.2838359146878
 30
0.0
 11
1136.349469511705
 21
385.2838359146863
 31
0.0
  0
CIRCLE
  5
51C
330
2
100
AcDbEntity
  8
L-ZISSEN
  6
CONTINUOUS
 62
     7
100
AcDbCircle
 10
1136.349469511706
 20
375.2838359146892
 30
0.0
 40
3.5
  0
LINE
  5
51D
330
2
100
AcDbEntity
  8
L-TYUSIN
  6
CENTER
 62
     1
100
AcDbLine
 10
1146.349469511701
 20
500.2838359146892
 30
0.0
 11
1126.349469511711
 21
500.2838359146892
 31
0.0
  0
LINE
  5
51E
330
2
100
AcDbEntity
  8
L-ZISSEN
  6
CONTINUOUS
 62
     7
100
AcDbLine
 10
1093.849469511706
 20
429.5910387632516
 30
0.0
 11
1093.849469511706
 21
462.5910387632514
 31
0.0
  0
LINE
  5
51F
330
2
100
AcDbEntity
  8
L-ZISSEN
  6
CONTINUOUS
 62
     7
100
AcDbLine
 10
1092.099469511706
 20
419.5910387632515
 30
0.0
 11
1083.599469511706
 21
419.5910387632517
 31
0.0
  0
LINE
  5
520
330
2
100
AcDbEntity
  8
L-ZISSEN
  6
CONTINUOUS
 62
     7
100
AcDbLine
 10
1083.899469511706
 20
419.2910387632516
 30
0.0
 11
1091.799469511706
 21
419.2910387632516
 31
0.0
  0
LINE
  5
521
330
2
100
AcDbEntity
  8
L-ZISSEN
  6
CONTINUOUS
 62
     7
100
AcDbLine
 10
1083.249469511706
 20
424.2910387632516
 30
0.0
 11
1092.449469511706
 21
424.2910387632516
 31
0.0
  0
LINE
  5
522
330
2
100
AcDbEntity
  8
L-ZISSEN
  6
CONTINUOUS
 62
     7
100
AcDbLine
 10
1083.599469511706
 20
419.5910387632516
 30
0.0
 11
1083.599469511706
 21
424.2910387632516
 31
0.0
  0
LINE
  5
523
330
2
100
AcDbEntity
  8
L-ZISSEN
  6
CONTINUOUS
 62
     7
100
AcDbLine
 10
1052.099469511706
 20
419.5910387632516
 30
0.0
 11
1052.099469511706
 21
424.2910387632516
 31
0.0
  0
LINE
  5
524
330
2
100
AcDbEntity
  8
L-ZISSEN
  6
CONTINUOUS
 62
     7
100
AcDbLine
 10
1051.799469511706
 20
419.2910387632516
 30
0.0
 11
1052.099469511706
 21
419.5910387632515
 31
0.0
  0
LINE
  5
525
330
2
100
AcDbEntity
  8
L-ZISSEN
  6
CONTINUOUS
 62
     7
100
AcDbLine
 10
1083.899469511706
 20
419.2910387632516
 30
0.0
 11
1083.599469511706
 21
419.5910387632517
 31
0.0
  0
LINE
  5
526
330
2
100
AcDbEntity
  8
L-ZISSEN
  6
CONTINUOUS
 62
     7
100
AcDbLine
 10
1052.449469511706
 20
424.2910387632516
 30
0.0
 11
1052.449469511706
 21
425.5910387632516
 31
0.0
  0
LINE
  5
527
330
2
100
AcDbEntity
  8
L-ZISSEN
  6
CONTINUOUS
 62
     7
100
AcDbLine
 10
1089.810404343419
 20
425.5910387632515
 30
0.0
 11
1085.521418343279
 21
424.2910387632516
 31
0.0
  0
LINE
  5
528
330
2
100
AcDbEntity
  8
L-ZISSEN
  6
CONTINUOUS
 62
     7
100
AcDbLine
 10
1091.014489447479
 20
425.5910387632515
 30
0.0
 11
1087.222336340973
 21
424.2910387632516
 31
0.0
  0
LINE
  5
529
330
2
100
AcDbEntity
  8
L-ZISSEN
  6
CONTINUOUS
 62
     7
100
AcDbLine
 10
1083.249469511706
 20
424.2910387632516
 30
0.0
 11
1083.249469511706
 21
425.5910387632516
 31
0.0
  0
LINE
  5
52A
330
2
100
AcDbEntity
  8
L-ZISSEN
  6
CONTINUOUS
 62
     7
100
AcDbLine
 10
1092.099469511706
 20
419.5910387632516
 30
0.0
 11
1092.099469511706
 21
424.2910387632516
 31
0.0
  0
LINE
  5
52B
330
2
100
AcDbEntity
  8
L-ZISSEN
  6
CONTINUOUS
 62
     7
100
AcDbLine
 10
1091.799469511706
 20
419.2910387632516
 30
0.0
 11
1092.099469511706
 21
419.5910387632515
 31
0.0
  0
LINE
  5
52C
330
2
100
AcDbEntity
  8
L-ZISSEN
  6
CONTINUOUS
 62
     7
100
AcDbLine
 10
1092.449469511706
 20
424.2910387632516
 30
0.0
 11
1092.449469511706
 21
425.5910387632516
 31
0.0
  0
LINE
  5
52D
330
2
100
AcDbEntity
  8
L-ZISSEN
  6
CONTINUOUS
 62
     7
100
AcDbLine
 10
1092.849469511706
 20
425.5910387632516
 30
0.0
 11
1092.849469511706
 21
429.5910387632516
 31
0.0
  0
LINE
  5
52F
330
2
100
AcDbEntity
  8
L-ZISSEN
  6
CONTINUOUS
 62
     7
100
AcDbLine
 10
1056.925205442994
 20
495.0153028319633
 30
0.0
 11
1060.07877484924
 21
498.1688722382089
 31
0.0
  0
LINE
  5
530
330
2
100
AcDbEntity
  8
L-ZISSEN
  6
CONTINUOUS
 62
     7
100
AcDbLine
 10
1057.774852129623
 20
494.1656561453343
 30
0.0
 11
1060.928421535869
 21
497.3192255515798
 31
0.0
  0
LINE
  5
531
330
2
100
AcDbEntity
  8
L-ZISSEN
  6
CONTINUOUS
 62
     7
100
AcDbLine
 10
1057.774852129623
 20
494.1656561453343
 30
0.0
 11
1054.621282723378
 21
491.0120867390889
 31
0.0
  0
LINE
  5
532
330
2
100
AcDbEntity
  8
L-ZISSEN
  6
CONTINUOUS
 62
     7
100
AcDbLine
 10
1056.925205442994
 20
495.0153028319633
 30
0.0
 11
1053.771636036749
 21
491.861733425718
 31
0.0
  0
LINE
  5
533
330
2
100
AcDbEntity
  8
L-ZISSEN
  6
CONTINUOUS
 62
     7
100
AcDbLine
 10
1067.349469511706
 20
487.5910387632516
 30
0.0
 11
1067.349469511706
 21
494.5910387632515
 31
0.0
  0
LINE
  5
534
330
2
100
AcDbEntity
  8
L-ZISSEN
  6
CONTINUOUS
 62
     7
100
AcDbLine
 10
1050.349469511706
 20
484.5910387632515
 30
0.0
 11
1064.349469511706
 21
484.5910387632515
 31
0.0
  0
LINE
  5
535
330
2
100
AcDbEntity
  8
L-ZISSEN
  6
CONTINUOUS
 62
     7
100
AcDbLine
 10
1054.349469511706
 20
502.5910387632515
 30
0.0
 11
1060.349469511706
 21
502.5910387632515
 31
0.0
  0
ARC
  5
536
330
2
100
AcDbEntity
  8
L-ZISSEN
  6
CONTINUOUS
 62
     7
100
AcDbCircle
 10
1064.349469511706
 20
487.5910387632516
 30
0.0
 40
3.00000000000005
100
AcDbArc
 50
270.0
 51
0.0
  0
ARC
  5
537
330
2
100
AcDbEntity
  8
L-ZISSEN
  6
CONTINUOUS
 62
     7
100
AcDbCircle
 10
1057.349469511706
 20
494.5910387632515
 30
0.0
 40
6.0
100
AcDbArc
 50
180.0
 51
0.0
  0
LINE
  5
538
330
2
100
AcDbEntity
  8
L-ZISSEN
  6
CONTINUOUS
 62
     7
100
AcDbLine
 10
1062.349469511706
 20
494.5910387632515
 30
0.0
 11
1067.649469511706
 21
494.5910387632515
 31
0.0
  0
CIRCLE
  5
539
330
2
100
AcDbEntity
  8
L-ZISSEN
  6
CONTINUOUS
 62
     7
100
AcDbCircle
 10
1057.349469511706
 20
494.5910387632515
 30
0.0
 40
4.5
  0
ARC
  5
53B
330
2
100
AcDbEntity
  8
L-ZISSEN
  6
CONTINUOUS
 62
     7
100
AcDbCircle
 10
1105.849469511705
 20
471.5910387632516
 30
0.0
 40
7.000000000000048
100
AcDbArc
 50
270.0
 51
0.0
  0
ARC
  5
53C
330
2
100
AcDbEntity
  8
L-ZISSEN
  6
CONTINUOUS
 62
     7
100
AcDbCircle
 10
1095.849469511706
 20
462.5910387632514
 30
0.0
 40
2.00000000000005
100
AcDbArc
 50
90.0
 51
179.9999999999999
  0
LINE
  5
53D
330
2
100
AcDbEntity
  8
L-ZISSEN
  6
CONTINUOUS
 62
     7
100
AcDbLine
 10
1105.849469511705
 20
464.5910387632516
 30
0.0
 11
1095.849469511706
 21
464.5910387632516
 31
0.0
  0
CIRCLE
  5
53E
330
2
100
AcDbEntity
  8
L-ZISSEN
  6
CONTINUOUS
 62
     7
100
AcDbCircle
 10
1136.349469511706
 20
500.2838359146892
 30
0.0
 40
3.5
  0
LINE
  5
53F
330
2
100
AcDbEntity
  8
L-TYUSIN
  6
CENTER
 62
     1
100
AcDbLine
 10
1136.349469511705
 20
490.2838359146881
 30
0.0
 11
1136.349469511705
 21
510.2838359146874
 31
0.0
  0
LINE
  5
550
330
2
100
AcDbEntity
  8
L-ZISSEN
  6
CONTINUOUS
 62
     7
100
AcDbLine
 10
1112.849469511706
 20
512.7838359146892
 30
0.0
 11
1146.349469511706
 21
512.7838359146892
 31
0.0
  0
LINE
  5
551
330
2
100
AcDbEntity
  8
L-ZISSEN
  6
CONTINUOUS
 62
     7
100
AcDbLine
 10
1095.349469511706
 20
576.0910387632516
 30
0.0
 11
1095.349469511706
 21
567.5910387632516
 31
0.0
  0
LINE
  5
552
330
2
100
AcDbEntity
  8
L-ZISSEN
  6
CONTINUOUS
 62
     7
100
AcDbLine
 10
1067.177896636452
 20
564.5910387632516
 30
0.0
 11
1105.849469511706
 21
564.5910387632516
 31
0.0
  0
LINE
  5
553
330
2
100
AcDbEntity
  8
L-ZISSEN
  6
CONTINUOUS
 62
     7
100
AcDbLine
 10
1067.849469511706
 20
567.5910387632516
 30
0.0
 11
1095.349469511706
 21
567.5910387632516
 31
0.0
  0
ARC
  5
554
330
2
100
AcDbEntity
  8
L-ZISSEN
  6
CONTINUOUS
 62
     7
100
AcDbCircle
 10
1064.349469511706
 20
563.5910387632513
 30
0.0
 40
3.00000000000005
100
AcDbArc
 50
19.47122063449361
 51
90.0
  0
LINE
  5
555
330
2
100
AcDbEntity
  8
L-ZISSEN
  6
CONTINUOUS
 62
     7
100
AcDbLine
 10
1057.774852129623
 20
556.1656561453344
 30
0.0
 11
1054.621282723378
 21
553.012086739089
 31
0.0
  0
LINE
  5
556
330
2
100
AcDbEntity
  8
L-ZISSEN
  6
CONTINUOUS
 62
     7
100
AcDbLine
 10
1057.774852129623
 20
556.1656561453344
 30
0.0
 11
1060.928421535869
 21
559.3192255515798
 31
0.0
  0
LINE
  5
557
330
2
100
AcDbEntity
  8
L-ZISSEN
  6
CONTINUOUS
 62
     7
100
AcDbLine
 10
1056.925205442994
 20
557.0153028319634
 30
0.0
 11
1053.771636036749
 21
553.8617334257181
 31
0.0
  0
LINE
  5
558
330
2
100
AcDbEntity
  8
L-ZISSEN
  6
CONTINUOUS
 62
     7
100
AcDbLine
 10
1056.925205442994
 20
557.0153028319634
 30
0.0
 11
1060.07877484924
 21
560.1688722382089
 31
0.0
  0
LINE
  5
559
330
2
100
AcDbEntity
  8
L-ZISSEN
  6
CONTINUOUS
 62
     7
100
AcDbLine
 10
1067.349469511706
 20
563.5910387632513
 30
0.0
 11
1067.349469511706
 21
556.5910387632515
 31
0.0
  0
LINE
  5
55A
330
2
100
AcDbEntity
  8
L-ZISSEN
  6
CONTINUOUS
 62
     7
100
AcDbLine
 10
1062.349469511706
 20
556.5910387632515
 30
0.0
 11
1067.649469511706
 21
556.5910387632515
 31
0.0
  0
CIRCLE
  5
55B
330
2
100
AcDbEntity
  8
L-ZISSEN
  6
CONTINUOUS
 62
     7
100
AcDbCircle
 10
1057.349469511706
 20
556.5910387632515
 30
0.0
 40
4.5
  0
ARC
  5
55C
330
2
100
AcDbEntity
  8
L-ZISSEN
  6
CONTINUOUS
 62
     7
100
AcDbCircle
 10
1057.349469511706
 20
556.5910387632515
 30
0.0
 40
6.0
100
AcDbArc
 50
0.0
 51
180.0
  0
ARC
  5
55D
330
2
100
AcDbEntity
  8
L-ZISSEN
  6
CONTINUOUS
 62
     7
100
AcDbCircle
 10
1064.349469511706
 20
563.5910387632513
 30
0.0
 40
3.00000000000005
100
AcDbArc
 50
0.0
 51
19.47122063449361
  0
LINE
  5
55E
330
2
100
AcDbEntity
  8
L-ZISSEN
  6
CONTINUOUS
 62
     7
100
AcDbLine
 10
1050.349469511706
 20
566.5910387632516
 30
0.0
 11
1064.349469511706
 21
566.5910387632516
 31
0.0
  0
LINE
  5
55F
330
2
100
AcDbEntity
  8
L-ZISSEN
  6
CONTINUOUS
 62
     7
100
AcDbLine
 10
1054.349469511706
 20
548.5910387632515
 30
0.0
 11
1060.349469511706
 21
548.5910387632515
 31
0.0
  0
ARC
  5
560
330
2
100
AcDbEntity
  8
L-ZISSEN
  6
CONTINUOUS
 62
     7
100
AcDbCircle
 10
1105.849469511706
 20
557.5910387632514
 30
0.0
 40
7.000000000000048
100
AcDbArc
 50
0.0
 51
90.0
  0
LINE
  5
561
330
2
100
AcDbEntity
  8
L-ZISSEN
  6
CONTINUOUS
 62
     7
100
AcDbLine
 10
1095.349469511706
 20
567.5910387632516
 30
0.0
 11
1095.349469511706
 21
564.5910387632516
 31
0.0
  0
LINE
  5
562
330
2
100
AcDbEntity
  8
L-ZISSEN
  6
CONTINUOUS
 62
     7
100
AcDbLine
 10
1067.849469511706
 20
582.5910387632516
 30
0.0
 11
1094.599469511706
 21
582.5910387632516
 31
0.0
  0
LINE
  5
563
330
2
100
AcDbEntity
  8
L-ZISSEN
  6
CONTINUOUS
 62
     7
100
AcDbLine
 10
1095.349469511706
 20
588.5910387632516
 30
0.0
 11
1090.349469511706
 21
588.5910387632516
 31
0.0
  0
LINE
  5
564
330
2
100
AcDbEntity
  8
L-ZISSEN
  6
CONTINUOUS
 62
     7
100
AcDbLine
 10
1093.849469511706
 20
577.5910387632515
 30
0.0
 11
1054.849469511706
 21
577.5910387632515
 31
0.0
  0
LINE
  5
565
330
2
100
AcDbEntity
  8
L-ZISSEN
  6
CONTINUOUS
 62
     7
100
AcDbLine
 10
1050.799469511706
 20
578.8910387632515
 30
0.0
 11
1051.099469511706
 21
578.5910387632514
 31
0.0
  0
LINE
  5
566
330
2
100
AcDbEntity
  8
L-ZISSEN
  6
CONTINUOUS
 62
     7
100
AcDbLine
 10
1051.099469511706
 20
578.5910387632514
 30
0.0
 11
1051.099469511706
 21
573.8910387632516
 31
0.0
  0
LINE
  5
567
330
2
100
AcDbEntity
  8
L-ZISSEN
  6
CONTINUOUS
 62
     7
100
AcDbLine
 10
1051.449469511706
 20
573.8910387632516
 30
0.0
 11
1051.449469511706
 21
572.5910387632516
 31
0.0
  0
LINE
  5
568
330
2
100
AcDbEntity
  8
L-ZISSEN
  6
CONTINUOUS
 62
     7
100
AcDbLine
 10
1054.849469511706
 20
577.5910387632515
 30
0.0
 11
1051.099469511706
 21
577.5910387632515
 31
0.0
  0
ARC
  5
569
330
2
100
AcDbEntity
  8
L-ZISSEN
  6
CONTINUOUS
 62
     7
100
AcDbCircle
 10
1052.349469511706
 20
573.5910387632515
 30
0.0
 40
1.000000000000049
100
AcDbArc
 50
269.9999999999997
 51
359.9999999999983
  0
LINE
  5
56A
330
2
100
AcDbEntity
  8
L-ZISSEN
  6
CONTINUOUS
 62
     7
100
AcDbLine
 10
1053.349469511706
 20
573.5910387632515
 30
0.0
 11
1053.349469511706
 21
576.5910387632516
 31
0.0
  0
ARC
  5
56B
330
2
100
AcDbEntity
  8
L-ZISSEN
  6
CONTINUOUS
 62
     7
100
AcDbCircle
 10
1054.349469511706
 20
576.5910387632516
 30
0.0
 40
1.000000000000049
100
AcDbArc
 50
90.0
 51
179.9999999999999
  0
LINE
  5
56C
330
2
100
AcDbEntity
  8
L-ZISSEN
  6
CONTINUOUS
 62
     7
100
AcDbLine
 10
1054.349469511706
 20
577.5910387632515
 30
0.0
 11
1054.849469511706
 21
577.5910387632515
 31
0.0
  0
LINE
  5
56D
330
2
100
AcDbEntity
  8
L-ZISSEN
  6
CONTINUOUS
 62
     7
100
AcDbLine
 10
1090.349469511706
 20
582.5910387632516
 30
0.0
 11
1090.349469511706
 21
577.5910387632515
 31
0.0
  0
LINE
  5
56F
330
2
100
AcDbEntity
  8
L-ZISSEN
  6
CONTINUOUS
 62
     7
100
AcDbLine
 10
1095.349469511706
 20
601.5910387632516
 30
0.0
 11
1095.349469511706
 21
588.5910387632516
 31
0.0
  0
LINE
  5
570
330
2
100
AcDbEntity
  8
L-ZISSEN
  6
CONTINUOUS
 62
     7
100
AcDbLine
 10
1092.849469511706
 20
588.5910387632516
 30
0.0
 11
1092.849469511706
 21
585.5910387632516
 31
0.0
  0
LINE
  5
571
330
2
100
AcDbEntity
  8
L-ZISSEN
  6
CONTINUOUS
 62
     7
100
AcDbLine
 10
1094.599469511706
 20
582.5910387632516
 30
0.0
 11
1094.599469511706
 21
585.5910387632516
 31
0.0
  0
ARC
  5
572
330
2
100
AcDbEntity
  8
L-ZISSEN
  6
CONTINUOUS
 62
     7
100
AcDbCircle
 10
1093.849469511706
 20
576.0910387632516
 30
0.0
 40
1.500000000000049
100
AcDbArc
 50
0.0000000000006616
 51
90.0
  0
ARC
  5
573
330
2
100
AcDbEntity
  8
L-ZISSEN
  6
CONTINUOUS
 62
     7
100
AcDbCircle
 10
1093.349469511706
 20
601.5910387632516
 30
0.0
 40
2.00000000000005
100
AcDbArc
 50
0.0
 51
90.0
  0
TEXT
  5
58D
330
2
100
AcDbEntity
  8
L-ZISSEN
100
AcDbText
 10
254.5219655924794
 20
1227.903216550671
 30
0.0
 40
15.99999999008639
  1
MC5-A2L4-  M85
 41
0.8
 72
     4
 11
341.9886322049517
 21
1235.903216545714
 31
0.0
100
AcDbText
  0
TEXT
  5
58F
330
2
100
AcDbEntity
  8
L-ZISSEN
100
AcDbText
 10
377.4481031595612
 20
1217.829792081245
 30
0.0
 40
15.99999999008639
  1
3
 41
0.8
 72
     4
 11
381.7147698235842
 21
1225.829792076288
 31
0.0
100
AcDbText
  0
TEXT
  5
590
330
2
100
AcDbEntity
  8
L-ZISSEN
100
AcDbText
 10
379.5814364915726
 20
1237.976618794928
 30
0.0
 40
15.99999999008639
  1
1
 41
0.8
 72
     4
 11
381.7147698235842
 21
1245.976618789971
 31
0.0
100
AcDbText
  0
ARC
  5
5A8
330
2
100
AcDbEntity
  8
L-ZISSEN
  6
CONTINUOUS
 62
     7
100
AcDbCircle
 10
1105.849469511706
 20
1201.648299487705
 30
0.0
 40
7.000000000000048
100
AcDbArc
 50
0.0
 51
90.00000000000005
  0
ARC
  5
5C0
330
2
100
AcDbEntity
  8
L-ZISSEN
  6
CONTINUOUS
 62
     7
100
AcDbCircle
 10
1105.849469511706
 20
1096.148299487705
 30
0.0
 40
7.000000000000048
100
AcDbArc
 50
270.0
 51
0.0
  0
LINE
  5
5C1
330
2
100
AcDbEntity
  8
L-ZISSEN
  6
CONTINUOUS
 62
     7
100
AcDbLine
 10
1067.849469511706
 20
1089.148299487705
 30
0.0
 11
1105.849469511706
 21
1089.148299487705
 31
0.0
  0
LINE
  5
5C2
330
2
100
AcDbEntity
  8
L-ZISSEN
  6
CONTINUOUS
 62
     7
100
AcDbLine
 10
1067.349469511706
 20
1076.148299487705
 30
0.0
 11
1067.349469511706
 21
1089.148299487705
 31
0.0
  0
LINE
  5
5C3
330
2
100
AcDbEntity
  8
L-ZISSEN
  6
CONTINUOUS
 62
     7
100
AcDbLine
 10
1112.849469511706
 20
1096.148299487705
 30
0.0
 11
1112.849469511706
 21
1201.648299487705
 31
0.0
  0
ARC
  5
5C4
330
2
100
AcDbEntity
  8
L-ZISSEN
  6
CONTINUOUS
 62
     7
100
AcDbCircle
 10
1088.849469511706
 20
1140.148299487707
 30
0.0
 40
6.500000000000048
100
AcDbArc
 50
0.0
 51
89.99999999999976
  0
LINE
  5
5C5
330
2
100
AcDbEntity
  8
L-ZISSEN
  6
CONTINUOUS
 62
     7
100
AcDbLine
 10
1067.849469511706
 20
1146.648299487707
 30
0.0
 11
1088.849469511706
 21
1146.648299487707
 31
0.0
  0
LINE
  5
5C6
330
2
100
AcDbEntity
  8
L-ZISSEN
  6
CONTINUOUS
 62
     7
100
AcDbLine
 10
1095.349469511706
 20
1140.148299487707
 30
0.0
 11
1095.349469511706
 21
1119.148299487705
 31
0.0
  0
LINE
  5
5EB
330
2
100
AcDbEntity
  8
L-ZISSEN
  6
CONTINUOUS
 62
     7
100
AcDbLine
 10
1151.349469511705
 20
1238.648299487705
 30
0.0
 11
1151.349469511705
 21
1236.648299487705
 31
0.0
  0
ENDSEC
  0
SECTION
  2
OBJECTS
  0
DICTIONARY
  5
1A
330
0
100
AcDbDictionary
  3
ACAD_GROUP
350
18
  3
ACAD_LAYOUT
350
7EC
  3
ACAD_MLINESTYLE
350
19
  3
ACAD_PLOTSETTINGS
350
7ED
1001
ACAD
1000
TREAT_AS_HARD
1070
     0
  0
DICTIONARY
  5
817
330
2
100
AcDbDictionary
  3
ACAD_LAYOUTSELFREF
350
8EB
1001
ACAD
1000
TREAT_AS_HARD
1070
     1
  0
DICTIONARY
  5
819
330
8
100
AcDbDictionary
  3
ACAD_LAYOUTSELFREF
350
8EC
1001
ACAD
1000
TREAT_AS_HARD
1070
     1
  0
DICTIONARY
  5
18
102
{ACAD_REACTORS
330
1A
102
}
330
1A
100
AcDbDictionary
1001
ACAD
1000
TREAT_AS_HARD
1070
     0
  0
DICTIONARY
  5
7EC
102
{ACAD_REACTORS
330
1A
102
}
330
1A
100
AcDbDictionary
1001
ACAD
1000
TREAT_AS_HARD
1070
     0
  0
DICTIONARY
  5
19
102
{ACAD_REACTORS
330
1A
102
}
330
1A
100
AcDbDictionary
  3
STANDARD
350
1C
1001
ACAD
1000
TREAT_AS_HARD
1070
     0
  0
DICTIONARY
  5
7ED
102
{ACAD_REACTORS
330
1A
102
}
330
1A
100
AcDbDictionary
1001
ACAD
1000
TREAT_AS_HARD
1070
     0
  0
XRECORD
  5
8EB
102
{ACAD_REACTORS
330
817
102
}
330
817
100
AcDbXrecord
340
2
  0
XRECORD
  5
8EC
102
{ACAD_REACTORS
330
819
102
}
330
819
100
AcDbXrecord
340
8
  0
MLINESTYLE
  5
1C
102
{ACAD_REACTORS
330
19
102
}
330
19
100
AcDbMlineStyle
  2
STANDARD
 70
     0
  3

 62
   256
 51
90.0
 52
90.0
 71
     2
 49
0.5
 62
   256
  6
BYLAYER
 49
-0.5
 62
   256
  6
BYLAYER
  0
ENDSEC
  0
EOF
