  0
SECTION
  2
HEADER
  9
$ACADVER
  1
AC1006
  9
$INSBASE
 10
0.0
 20
0.0
 30
0.0
  9
$EXTMIN
 10
0.000000
 20
0.000000
  9
$EXTMAX
 10
10.000000
 20
10.000000
  9
$LIMMIN
 10
0.0
 20
0.0
  9
$LIMMAX
 10
12.0
 20
9.0
  9
$ORTHOMODE
 70
     0
  9
$REGENMODE
 70
     1
  9
$FILLMODE
 70
     1
  9
$QTEXTMODE
 70
     0
  9
$MIRRTEXT
 70
     1
  9
$DRAGMODE
 70
     2
  9
$LTSCALE
 40
10.000000
  9
$OSMODE
 70
     0
  9
$ATTMODE
 70
     1
  9
$TEXTSIZE
 40
0.2
  9
$TRACEWID
 40
0.05
  9
$TEXTSTYLE
  7
STANDARD
  9
$CLAYER
  8
0
  9
$CELTYPE
  6
BYLAYER
  9
$CECOLOR
 62
   256
  9
$DIMSCALE
 40
1.0
  9
$DIMASZ
 40
0.18
  9
$DIMEXO
 40
0.0625
  9
$DIMDLI
 40
0.38
  9
$DIMRND
 40
0.0
  9
$DIMDLE
 40
0.0
  9
$DIMEXE
 40
0.18
  9
$DIMTP
 40
0.0
  9
$DIMTM
 40
0.0
  9
$DIMTXT
 40
0.18
  9
$DIMCEN
 40
0.09
  9
$DIMTSZ
 40
0.0
  9
$DIMTOL
 70
     0
  9
$DIMLIM
 70
     0
  9
$DIMTIH
 70
     1
  9
$DIMTOH
 70
     1
  9
$DIMSE1
 70
     0
  9
$DIMSE2
 70
     0
  9
$DIMTAD
 70
     0
  9
$DIMZIN
 70
     0
  9
$DIMBLK
  1

  9
$DIMASO
 70
     1
  9
$DIMSHO
 70
     0
  9
$DIMPOST
  1

  9
$DIMAPOST
  1

  9
$DIMALT
 70
     0
  9
$DIMALTD
 70
     2
  9
$DIMALTF
 40
25.4
  9
$DIMLFAC
 40
1.0
  9
$DIMTOFL
 70
     0
  9
$DIMTVP
 40
0.0
  9
$DIMTIX
 70
     0
  9
$DIMSOXD
 70
     0
  9
$DIMSAH
 70
     0
  9
$DIMBLK1
  1

  9
$DIMBLK2
  1

  9
$LUNITS
 70
     2
  9
$LUPREC
 70
     4
  9
$AXISMODE
 70
     0
  9
$AXISUNIT
 10
0.0
 20
0.0
  9
$SKETCHINC
 40
0.1
  9
$FILLETRAD
 40
0.0
  9
$AUNITS
 70
     0
  9
$AUPREC
 70
     0
  9
$MENU
  1
acad
  9
$ELEVATION
 40
0.0
  9
$THICKNESS
 40
0.0
  9
$LIMCHECK
 70
     0
  9
$BLIPMODE
 70
     1
  9
$CHAMFERA
 40
0.0
  9
$CHAMFERB
 40
0.0
  9
$SKPOLY
 70
     0
  9
$TDCREATE
 40
2448751.5905787037
  9
$TDUPDATE
 40
2448751.5905787037
  9
$TDINDWG
 40
0.0000000000
  9
$TDUSRTIMER
 40
0.0000000000
  9
$USRTIMER
 70
     1
  9
$ANGBASE
 50
0.0
  9
$ANGDIR
 70
     0
  9
$PDMODE
 70
     0
  9
$PDSIZE
 40
0.0
  9
$PLINEWID
 40
0.0
  9
$COORDS
 70
     0
  9
$SPLFRAME
 70
     0
  9
$SPLINETYPE
 70
     6
  9
$SPLINESEGS
 70
     8
  9
$ATTDIA
 70
     0
  9
$ATTREQ
 70
     1
  9
$HANDLING
 70
     0
  9
$HANDSEED
  5
0
  9
$SURFTAB1
 70
     6
  9
$SURFTAB2
 70
     6
  9
$SURFTYPE
 70
     6
  9
$SURFU
 70
     6
  9
$SURFV
 70
     6
  9
$FLATLAND
 70
     0
  9
$UCSNAME
  2

  9
$UCSORG
 10
0.0
 20
0.0
 30
0.0
  9
$UCSXDIR
 10
1.0
 20
0.0
 30
0.0
  9
$UCSYDIR
 10
0.0
 20
1.0
 30
0.0
  9
$USERI1
 70
     0
  9
$USERI2
 70
     0
  9
$USERI3
 70
     0
  9
$USERI4
 70
     0
  9
$USERI5
 70
     0
  9
$USERR1
 40
0.0
  9
$USERR2
 40
0.0
  9
$USERR3
 40
0.0
  9
$USERR4
 40
0.0
  9
$USERR5
 40
0.0
  9
$WORLDVIEW
 70
     1
  0
ENDSEC
  0
SECTION
  2
TABLES
  0
TABLE
  2
VPORT
 70
     2
  0
VPORT
  2
*ACTIVE
 70
     0
 10
0.0
 20
0.0
 11
1.0
 21
1.0
 12
7.914286
 22
4.5
 13
0.0
 23
0.0
 14
1.0
 24
1.0
 15
0.0
 25
0.0
 16
0.0
 26
0.0
 36
1.0
 17
0.0
 27
0.0
 37
0.0
 40
9.0
 41
1.75873
 42
50.0
 43
0.0
 44
0.0
 50
0.0
 51
0.0
 71
     0
 72
   100
 73
     1
 74
     1
 75
     0
 76
     0
 77
     0
 78
     0
  0
ENDTAB
  0
TABLE
  2
LTYPE
 70
     9
  0
LTYPE
  2
CONTINUOUS
 70
    64
  3
実線
 72
    65
 73
     0
 40
0.0
  0
LTYPE
  2
DASHED
 70
    64
  3
__ __ __ __ __ __ __ __ __ __ __ __ __ __ __
 72
    65
 73
     2
 40
0.75
 49
0.5
 49
-0.25
  0
LTYPE
  2
HIDDEN
 70
    64
  3
_ _ _ _ _ _ _ _ _ _ _ _ _ _ _ _ _ _ _ _ _ _ _
 72
    65
 73
     2
 40
0.375
 49
0.25
 49
-0.125
  0
LTYPE
  2
CENTER
 70
    64
  3
____ _ ____ _ ____ _ ____ _ ____ _ ____ _ ____
 72
    65
 73
     4
 40
2.0
 49
1.25
 49
-0.25
 49
0.25
 49
-0.25
  0
LTYPE
  2
PHANTOM
 70
    64
  3
_____ _ _ _____ _ _ _____ _ _ _____ _ _ ____
 72
    65
 73
     6
 40
2.5
 49
1.25
 49
-0.25
 49
0.25
 49
-0.25
 49
0.25
 49
-0.25
  0
LTYPE
  2
DOT
 70
    64
  3
...............................................
 72
    65
 73
     2
 40
0.25
 49
0.0
 49
-0.25
  0
LTYPE
  2
DASHDOT
 70
    64
  3
__ . __ . __ . __ . __ . __ . __ . __ . __ . __
 72
    65
 73
     4
 40
1.0
 49
0.5
 49
-0.25
 49
0.0
 49
-0.25
  0
LTYPE
  2
DIVIDE
 70
    64
  3
__ . . __ . . __ . . __ . . __ . . __ . . __
 72
    65
 73
     6
 40
1.25
 49
0.5
 49
-0.25
 49
0.0
 49
-0.25
 49
0.0
 49
-0.25
  0
LTYPE
  2
BORDER
 70
    64
  3
__ __ . __ __ . __ __ . __ __ . __ __ . __ __
 72
    65
 73
     6
 40
1.75
 49
0.5
 49
-0.25
 49
0.5
 49
-0.25
 49
0.0
 49
-0.25
  0
ENDTAB
  0
TABLE
  2
LAYER
 70
     2
  0
LAYER
  2
0
 70
     0
 62
     7
  6
CONTINUOUS
  0
LAYER
  2
PV
 70
     0
 62
     7
  6
CONTINUOUS
  0
ENDTAB
  0
TABLE
  2
STYLE
 70
     3
  0
STYLE
  2
STANDARD
 70
     0
 40
0.0
 41
1.0
 50
0.0
 71
     0
 42
0.2
  3
txt
  4

  0
STYLE
  2
FONT1
 70
     0
 40
0.0
 41
1.0
 50
0.0
 71
     0
 42
0.2
  3
MONOTXT
  4

  0
STYLE
  2
FONT2
 70
     0
 40
0.0
 41
1.0
 50
0.0
 71
     0
 42
0.2
  3
MONOTXT
  4
BIGFONT
  0
ENDTAB
  0
TABLE
  2
VIEW
 70
     0
  0
ENDTAB
  0
TABLE
  2
UCS
 70
     0
  0
ENDTAB
  0
TABLE
  2
DWGMGR
 70
     0
  0
ENDTAB
  0
ENDSEC
  0
SECTION
  2
BLOCKS
  0
BLOCK
  8
0
  2
01
 70
    64
 10
0.0
 20
0.0
 30
0.0
  0
ARC
  8
0
 62
     7
 10
3.339380E+000
 20
3.232410E+000
 30
0.000000E+000
 40
3.150000E+000
 50
1.800000E+002
 51
0.000000E+000
  0
ENDBLK
  8
0
  0
BLOCK
  8
0
  2
02
 70
    64
 10
0.0
 20
0.0
 30
0.0
  0
LINE
  8
0
 62
     7
 10
1.018840E+001
 20
3.058100E-002
 30
0.000000E+000
 11
1.018840E+001
 21
3.603060E+001
 31
0.000000E+000
  0
LINE
  8
0
 62
     7
 10
1.884330E-001
 20
3.058100E-002
 30
0.000000E+000
 11
1.884330E-001
 21
3.603060E+001
 31
0.000000E+000
  0
CIRCLE
  8
0
 62
     7
 10
5.188430E+000
 20
1.353060E+001
 30
0.000000E+000
 40
3.800000E+000
  0
CIRCLE
  8
0
 62
     7
 10
5.188430E+000
 20
1.353060E+001
 30
0.000000E+000
 40
2.100000E+000
  0
LINE
  8
0
 62
     7
 10
1.884330E-001
 20
4.530580E+000
 30
0.000000E+000
 11
1.018840E+001
 21
4.530580E+000
 31
0.000000E+000
  0
LINE
  8
0
 62
     7
 10
1.884330E-001
 20
3.603060E+001
 30
0.000000E+000
 11
1.018840E+001
 21
3.603060E+001
 31
0.000000E+000
  0
ENDBLK
  8
0
  0
ENDSEC
  0
SECTION
  2
ENTITIES
  0
LINE
  8
PV
 62
     7
 10
3.200000E+002
 20
4.225000E+002
 30
0.000000E+000
 11
3.700000E+002
 21
4.225000E+002
 31
0.000000E+000
  0
LINE
  8
PV
 62
     7
 10
3.215000E+002
 20
4.884070E+002
 30
0.000000E+000
 11
3.257230E+002
 21
5.601010E+002
 31
0.000000E+000
  0
ARC
  8
PV
 62
     7
 10
3.307140E+002
 20
5.598070E+002
 30
0.000000E+000
 40
5.000000E+000
 50
9.000000E+001
 51
1.766290E+002
  0
ARC
  8
PV
 62
     7
 10
3.300000E+002
 20
3.405000E+002
 30
0.000000E+000
 40
7.000000E+000
 50
8.959770E+001
 51
2.700000E+002
  0
ARC
  8
PV
 62
     7
 10
3.300000E+002
 20
2.345000E+002
 30
0.000000E+000
 40
7.000000E+000
 50
9.336010E+001
 51
2.700000E+002
  0
LINE
  8
PV
 62
     7
 10
3.700000E+002
 20
3.775000E+002
 30
0.000000E+000
 11
3.200000E+002
 21
3.775000E+002
 31
0.000000E+000
  0
LINE
  8
PV
 62
     7
 10
3.798590E+002
 20
4.884070E+002
 30
0.000000E+000
 11
3.215000E+002
 21
4.884070E+002
 31
0.000000E+000
  0
LINE
  8
PV
 62
     7
 10
3.790020E+002
 20
4.683070E+002
 30
0.000000E+000
 11
3.202000E+002
 21
4.683070E+002
 31
0.000000E+000
  0
LINE
  8
PV
  6
CENTER
 62
     1
 10
3.200000E+002
 20
4.425000E+002
 30
0.000000E+000
 11
3.700000E+002
 21
4.425000E+002
 31
0.000000E+000
  0
LINE
  8
PV
 62
     7
 10
3.200000E+002
 20
2.165000E+002
 30
0.000000E+000
 11
4.400000E+002
 21
2.165000E+002
 31
0.000000E+000
  0
LINE
  8
PV
 62
     7
 10
2.920000E+002
 20
2.240000E+002
 30
0.000000E+000
 11
2.920000E+002
 21
3.740000E+002
 31
0.000000E+000
  0
LINE
  8
PV
 62
     7
 10
2.897000E+002
 20
3.740000E+002
 30
0.000000E+000
 11
2.897000E+002
 21
2.240000E+002
 31
0.000000E+000
  0
LINE
  8
PV
 62
     7
 10
3.100000E+002
 20
3.740000E+002
 30
0.000000E+000
 11
3.100000E+002
 21
3.695000E+002
 31
0.000000E+000
  0
LINE
  8
PV
 62
     7
 10
3.200000E+002
 20
4.225000E+002
 30
0.000000E+000
 11
3.200000E+002
 21
2.165000E+002
 31
0.000000E+000
  0
LINE
  8
PV
 62
     7
 10
3.100000E+002
 20
2.285000E+002
 30
0.000000E+000
 11
3.100000E+002
 21
2.445000E+002
 31
0.000000E+000
  0
LINE
  8
PV
  6
CENTER
 62
     1
 10
2.809030E+002
 20
2.345000E+002
 30
0.000000E+000
 11
3.022990E+002
 21
2.345000E+002
 31
0.000000E+000
  0
LINE
  8
PV
 62
     7
 10
3.100000E+002
 20
2.285000E+002
 30
0.000000E+000
 11
3.200000E+002
 21
2.285000E+002
 31
0.000000E+000
  0
LINE
  8
PV
 62
     7
 10
3.100000E+002
 20
2.285000E+002
 30
0.000000E+000
 11
3.100000E+002
 21
2.240000E+002
 31
0.000000E+000
  0
LINE
  8
PV
 62
     7
 10
3.100000E+002
 20
2.240000E+002
 30
0.000000E+000
 11
2.920000E+002
 21
2.240000E+002
 31
0.000000E+000
  0
LINE
  8
PV
 62
     7
 10
2.897000E+002
 20
2.240000E+002
 30
0.000000E+000
 11
2.920000E+002
 21
2.240000E+002
 31
0.000000E+000
  0
LINE
  8
PV
 62
     7
 10
3.100000E+002
 20
3.535000E+002
 30
0.000000E+000
 11
3.100000E+002
 21
2.445000E+002
 31
0.000000E+000
  0
LINE
  8
PV
 62
     7
 10
3.100000E+002
 20
2.445000E+002
 30
0.000000E+000
 11
3.200000E+002
 21
2.445000E+002
 31
0.000000E+000
  0
LINE
  8
PV
  6
CENTER
 62
     1
 10
2.809030E+002
 20
3.595000E+002
 30
0.000000E+000
 11
3.022990E+002
 21
3.595000E+002
 31
0.000000E+000
  0
LINE
  8
PV
 62
     7
 10
3.100000E+002
 20
3.535000E+002
 30
0.000000E+000
 11
3.200000E+002
 21
3.535000E+002
 31
0.000000E+000
  0
LINE
  8
PV
 62
     7
 10
3.100000E+002
 20
3.535000E+002
 30
0.000000E+000
 11
3.100000E+002
 21
3.695000E+002
 31
0.000000E+000
  0
LINE
  8
PV
 62
     7
 10
3.100000E+002
 20
3.695000E+002
 30
0.000000E+000
 11
3.200000E+002
 21
3.695000E+002
 31
0.000000E+000
  0
LINE
  8
PV
 62
     7
 10
3.202000E+002
 20
4.683070E+002
 30
0.000000E+000
 11
3.202000E+002
 21
4.225000E+002
 31
0.000000E+000
  0
LINE
  8
PV
 62
     7
 10
3.200000E+002
 20
3.775000E+002
 30
0.000000E+000
 11
3.200000E+002
 21
4.225000E+002
 31
0.000000E+000
  0
LINE
  8
PV
 62
     7
 10
2.920000E+002
 20
3.740000E+002
 30
0.000000E+000
 11
2.897000E+002
 21
3.740000E+002
 31
0.000000E+000
  0
LINE
  8
PV
 62
     7
 10
2.920000E+002
 20
3.740000E+002
 30
0.000000E+000
 11
3.100000E+002
 21
3.740000E+002
 31
0.000000E+000
  0
LINE
  8
PV
 62
     7
 10
3.215000E+002
 20
4.884070E+002
 30
0.000000E+000
 11
3.215000E+002
 21
4.683070E+002
 31
0.000000E+000
  0
LINE
  8
PV
 62
     7
 10
6.000000E+002
 20
3.800270E+002
 30
0.000000E+000
 11
6.000000E+002
 21
3.615000E+002
 31
0.000000E+000
  0
LINE
  8
PV
 62
     7
 10
6.630000E+002
 20
3.800270E+002
 30
0.000000E+000
 11
6.630000E+002
 21
3.576180E+002
 31
0.000000E+000
  0
LINE
  8
PV
 62
     7
 10
6.630000E+002
 20
3.748370E+002
 30
0.000000E+000
 11
6.630000E+002
 21
3.675240E+002
 31
0.000000E+000
  0
LINE
  8
PV
 62
     7
 10
6.630000E+002
 20
3.576180E+002
 30
0.000000E+000
 11
6.630000E+002
 21
3.768070E+002
 31
0.000000E+000
  0
LINE
  8
PV
 62
     7
 10
8.920000E+002
 20
3.748070E+002
 30
0.000000E+000
 11
8.920000E+002
 21
2.148070E+002
 31
0.000000E+000
  0
LINE
  8
PV
 62
     7
 10
6.920000E+002
 20
3.748070E+002
 30
0.000000E+000
 11
6.920000E+002
 21
2.148070E+002
 31
0.000000E+000
  0
LINE
  8
PV
 62
     7
 10
4.400000E+002
 20
2.165000E+002
 30
0.000000E+000
 11
4.400000E+002
 21
3.775000E+002
 31
0.000000E+000
  0
LINE
  8
PV
 62
     7
 10
3.685000E+002
 20
3.775000E+002
 30
0.000000E+000
 11
3.695000E+002
 21
3.635000E+002
 31
0.000000E+000
  0
LINE
  8
PV
 62
     7
 10
4.315000E+002
 20
3.775000E+002
 30
0.000000E+000
 11
4.305000E+002
 21
3.635000E+002
 31
0.000000E+000
  0
LINE
  8
PV
 62
     7
 10
7.850000E+002
 20
3.088070E+002
 30
0.000000E+000
 11
7.850000E+002
 21
3.758070E+002
 31
0.000000E+000
  0
LINE
  8
PV
 62
     7
 10
7.470000E+002
 20
3.088070E+002
 30
0.000000E+000
 11
7.470000E+002
 21
3.758070E+002
 31
0.000000E+000
  0
ARC
  8
PV
 62
     7
 10
7.660000E+002
 20
3.071350E+002
 30
0.000000E+000
 40
7.334360E+001
 50
9.000000E+001
 51
9.611860E+001
  0
ARC
  8
PV
 62
     7
 10
7.623430E+002
 20
3.412520E+002
 30
0.000000E+000
 40
3.903040E+001
 50
9.611860E+001
 51
1.045100E+002
  0
ARC
  8
PV
 62
     7
 10
7.570220E+002
 20
3.618130E+002
 30
0.000000E+000
 40
1.779280E+001
 50
1.045100E+002
 51
1.219970E+002
  0
ARC
  8
PV
 62
     7
 10
7.482880E+002
 20
3.757910E+002
 30
0.000000E+000
 40
1.309950E+000
 50
1.219970E+002
 51
1.901420E+002
  0
ARC
  8
PV
 62
     7
 10
7.486790E+002
 20
3.755610E+002
 30
0.000000E+000
 40
1.680590E+000
 50
1.800000E+002
 51
2.380030E+002
  0
ARC
  8
PV
 62
     7
 10
7.568470E+002
 20
3.886340E+002
 30
0.000000E+000
 40
1.709570E+001
 50
2.380030E+002
 51
2.554900E+002
  0
ARC
  8
PV
 62
     7
 10
7.623430E+002
 20
4.098690E+002
 30
0.000000E+000
 40
3.903040E+001
 50
2.554900E+002
 51
2.638810E+002
  0
ARC
  8
PV
 62
     7
 10
7.660000E+002
 20
4.439870E+002
 30
0.000000E+000
 40
7.334360E+001
 50
2.638810E+002
 51
2.700000E+002
  0
ARC
  8
PV
 62
     7
 10
7.660000E+002
 20
4.439870E+002
 30
0.000000E+000
 40
7.334360E+001
 50
2.700000E+002
 51
2.761190E+002
  0
ARC
  8
PV
 62
     7
 10
7.696570E+002
 20
4.098690E+002
 30
0.000000E+000
 40
3.903040E+001
 50
2.761190E+002
 51
2.845100E+002
  0
ARC
  8
PV
 62
     7
 10
7.751530E+002
 20
3.886340E+002
 30
0.000000E+000
 40
1.709570E+001
 50
2.845100E+002
 51
3.019970E+002
  0
ARC
  8
PV
 62
     7
 10
7.833210E+002
 20
3.755610E+002
 30
0.000000E+000
 40
1.680590E+000
 50
3.019970E+002
 51
3.600000E+002
  0
ARC
  8
PV
 62
     7
 10
7.833210E+002
 20
3.755610E+002
 30
0.000000E+000
 40
1.680590E+000
 50
4.544840E-005
 51
5.800310E+001
  0
ARC
  8
PV
 62
     7
 10
7.751530E+002
 20
3.624880E+002
 30
0.000000E+000
 40
1.709570E+001
 50
5.800310E+001
 51
7.549040E+001
  0
ARC
  8
PV
 62
     7
 10
7.696570E+002
 20
3.412520E+002
 30
0.000000E+000
 40
3.903040E+001
 50
7.549040E+001
 51
8.388140E+001
  0
ARC
  8
PV
 62
     7
 10
7.660000E+002
 20
3.071350E+002
 30
0.000000E+000
 40
7.334360E+001
 50
8.388140E+001
 51
9.000000E+001
  0
LINE
  8
PV
 62
     7
 10
4.628430E+002
 20
3.810000E+002
 30
0.000000E+000
 11
4.902990E+002
 21
3.736430E+002
 31
0.000000E+000
  0
LINE
  8
PV
 62
     7
 10
4.459360E+002
 20
3.548970E+002
 30
0.000000E+000
 11
4.529300E+002
 21
3.810000E+002
 31
0.000000E+000
  0
LINE
  8
PV
 62
     7
 10
7.060000E+002
 20
2.248070E+002
 30
0.000000E+000
 11
7.805110E+002
 21
2.248070E+002
 31
0.000000E+000
  0
ARC
  8
PV
 62
     7
 10
7.285000E+002
 20
3.388070E+002
 30
0.000000E+000
 40
3.000000E+000
 50
0.000000E+000
 51
9.000000E+001
  0
ARC
  8
PV
 62
     7
 10
7.285000E+002
 20
2.628070E+002
 30
0.000000E+000
 40
3.000000E+000
 50
2.700000E+002
 51
0.000000E+000
  0
ARC
  8
PV
 62
     7
 10
7.300000E+002
 20
2.608070E+002
 30
0.000000E+000
 40
3.000000E+000
 50
2.700000E+002
 51
0.000000E+000
  0
LINE
  8
PV
 62
     7
 10
7.470000E+002
 20
3.428070E+002
 30
0.000000E+000
 11
7.130000E+002
 21
3.428070E+002
 31
0.000000E+000
  0
LINE
  8
PV
 62
     7
 10
7.060000E+002
 20
2.220000E+002
 30
0.000000E+000
 11
7.520000E+002
 21
2.220000E+002
 31
0.000000E+000
  0
ARC
  8
PV
 62
     7
 10
4.300000E+002
 20
2.345000E+002
 30
0.000000E+000
 40
7.000000E+000
 50
2.700000E+002
 51
9.000000E+001
  0
LINE
  8
PV
  6
CENTER
 62
     1
 10
6.670000E+002
 20
2.204100E+002
 30
0.000000E+000
 11
6.670000E+002
 21
2.452040E+002
 31
0.000000E+000
  0
LINE
  8
PV
 62
     7
 10
6.520000E+002
 20
2.270000E+002
 30
0.000000E+000
 11
6.520000E+002
 21
2.806100E+002
 31
0.000000E+000
  0
LINE
  8
PV
 62
     7
 10
4.000000E+002
 20
2.745000E+002
 30
0.000000E+000
 11
4.000000E+002
 21
2.360000E+002
 31
0.000000E+000
  0
LINE
  8
PV
 62
     7
 10
4.085000E+002
 20
2.360000E+002
 30
0.000000E+000
 11
4.085000E+002
 21
2.745000E+002
 31
0.000000E+000
  0
LINE
  8
PV
 62
     7
 10
3.915000E+002
 20
2.360000E+002
 30
0.000000E+000
 11
3.915000E+002
 21
2.745000E+002
 31
0.000000E+000
  0
LINE
  8
PV
 62
     7
 10
6.418910E+002
 20
2.725000E+002
 30
0.000000E+000
 11
6.418910E+002
 21
2.340000E+002
 31
0.000000E+000
  0
LINE
  8
PV
 62
     7
 10
6.369840E+002
 20
2.725000E+002
 30
0.000000E+000
 11
6.369840E+002
 21
2.340000E+002
 31
0.000000E+000
  0
LINE
  8
PV
 62
     7
 10
6.271690E+002
 20
2.725000E+002
 30
0.000000E+000
 11
6.271690E+002
 21
2.340000E+002
 31
0.000000E+000
  0
LINE
  8
PV
 62
     7
 10
6.222610E+002
 20
2.725000E+002
 30
0.000000E+000
 11
6.222610E+002
 21
2.340000E+002
 31
0.000000E+000
  0
LINE
  8
PV
 62
     7
 10
3.299540E+002
 20
2.275000E+002
 30
0.000000E+000
 11
4.300000E+002
 21
2.275000E+002
 31
0.000000E+000
  0
LINE
  8
PV
 62
     7
 10
3.915000E+002
 20
2.360000E+002
 30
0.000000E+000
 11
4.085000E+002
 21
2.360000E+002
 31
0.000000E+000
  0
LINE
  8
PV
 62
     7
 10
6.418910E+002
 20
2.340000E+002
 30
0.000000E+000
 11
6.222610E+002
 21
2.340000E+002
 31
0.000000E+000
  0
LINE
  8
PV
 62
     7
 10
6.520000E+002
 20
2.270000E+002
 30
0.000000E+000
 11
6.570000E+002
 21
2.220000E+002
 31
0.000000E+000
  0
LINE
  8
PV
 62
     7
 10
6.920000E+002
 20
2.148070E+002
 30
0.000000E+000
 11
7.060000E+002
 21
2.148070E+002
 31
0.000000E+000
  0
LINE
  8
PV
 62
     7
 10
7.060000E+002
 20
2.148070E+002
 30
0.000000E+000
 11
7.060000E+002
 21
2.248070E+002
 31
0.000000E+000
  0
LINE
  8
PV
 62
     7
 10
6.920000E+002
 20
2.148070E+002
 30
0.000000E+000
 11
6.920000E+002
 21
2.258070E+002
 31
0.000000E+000
  0
LINE
  8
PV
 62
     7
 10
6.920000E+002
 20
2.258070E+002
 30
0.000000E+000
 11
6.820000E+002
 21
2.258070E+002
 31
0.000000E+000
  0
LINE
  8
PV
 62
     7
 10
6.820000E+002
 20
2.258070E+002
 30
0.000000E+000
 11
6.820000E+002
 21
2.398070E+002
 31
0.000000E+000
  0
LINE
  8
PV
 62
     7
 10
6.820000E+002
 20
2.398070E+002
 30
0.000000E+000
 11
6.920000E+002
 21
2.398070E+002
 31
0.000000E+000
  0
CIRCLE
  8
PV
 62
     7
 10
6.670000E+002
 20
2.328070E+002
 30
0.000000E+000
 40
3.500000E+000
  0
LINE
  8
PV
  6
CENTER
 62
     1
 10
6.536580E+002
 20
2.328070E+002
 30
0.000000E+000
 11
6.803420E+002
 21
2.328070E+002
 31
0.000000E+000
  0
LINE
  8
PV
 62
     7
 10
6.570000E+002
 20
2.220000E+002
 30
0.000000E+000
 11
6.920000E+002
 21
2.220000E+002
 31
0.000000E+000
  0
LINE
  8
PV
 62
     7
 10
4.330000E+002
 20
3.305000E+002
 30
0.000000E+000
 11
4.330000E+002
 21
2.945000E+002
 31
0.000000E+000
  0
LINE
  8
PV
 62
     7
 10
4.530000E+002
 20
3.438070E+002
 30
0.000000E+000
 11
4.530000E+002
 21
2.618070E+002
 31
0.000000E+000
  0
LINE
  8
PV
 62
     7
 10
3.780000E+002
 20
2.905000E+002
 30
0.000000E+000
 11
3.765450E+002
 21
3.535460E+002
 31
0.000000E+000
  0
LINE
  8
PV
 62
     7
 10
4.220000E+002
 20
3.555000E+002
 30
0.000000E+000
 11
4.220000E+002
 21
2.905000E+002
 31
0.000000E+000
  0
LINE
  8
PV
 62
     7
 10
4.902990E+002
 20
3.736430E+002
 30
0.000000E+000
 11
4.709250E+002
 21
3.013400E+002
 31
0.000000E+000
  0
LINE
  8
PV
 62
     7
 10
4.280000E+002
 20
2.905000E+002
 30
0.000000E+000
 11
4.220000E+002
 21
2.905000E+002
 31
0.000000E+000
  0
LINE
  8
PV
 62
     7
 10
4.085000E+002
 20
2.415000E+002
 30
0.000000E+000
 11
4.300000E+002
 21
2.415000E+002
 31
0.000000E+000
  0
LINE
  8
PV
 62
     7
 10
3.300000E+002
 20
2.415000E+002
 30
0.000000E+000
 11
3.915000E+002
 21
2.415000E+002
 31
0.000000E+000
  0
LINE
  8
PV
 62
     7
 10
3.295900E+002
 20
2.414880E+002
 30
0.000000E+000
 11
3.300000E+002
 21
2.415000E+002
 31
0.000000E+000
  0
LINE
  8
PV
 62
     7
 10
4.060000E+002
 20
2.765000E+002
 30
0.000000E+000
 11
4.060000E+002
 21
2.745000E+002
 31
0.000000E+000
  0
LINE
  8
PV
 62
     7
 10
3.940000E+002
 20
2.765000E+002
 30
0.000000E+000
 11
3.940000E+002
 21
2.745000E+002
 31
0.000000E+000
  0
LINE
  8
PV
 62
     7
 10
4.085000E+002
 20
2.745000E+002
 30
0.000000E+000
 11
3.915000E+002
 21
2.745000E+002
 31
0.000000E+000
  0
ARC
  8
PV
 62
     7
 10
3.908200E+002
 20
2.775000E+002
 30
0.000000E+000
 40
1.000000E+000
 50
1.913100E+002
 51
2.700000E+002
  0
ARC
  8
PV
 62
     7
 10
4.091800E+002
 20
2.775000E+002
 30
0.000000E+000
 40
1.000000E+000
 50
2.700000E+002
 51
3.486900E+002
  0
LINE
  8
PV
 62
     7
 10
4.108390E+002
 20
2.806960E+002
 30
0.000000E+000
 11
4.101610E+002
 21
2.773040E+002
 31
0.000000E+000
  0
ARC
  8
PV
 62
     7
 10
4.118200E+002
 20
2.805000E+002
 30
0.000000E+000
 40
1.000000E+000
 50
9.000000E+001
 51
1.686900E+002
  0
ARC
  8
PV
 62
     7
 10
3.881800E+002
 20
2.805000E+002
 30
0.000000E+000
 40
1.000000E+000
 50
1.130990E+001
 51
9.000000E+001
  0
LINE
  8
PV
 62
     7
 10
3.891610E+002
 20
2.806960E+002
 30
0.000000E+000
 11
3.898390E+002
 21
2.773040E+002
 31
0.000000E+000
  0
LINE
  8
PV
 62
     7
 10
3.908200E+002
 20
2.765000E+002
 30
0.000000E+000
 11
4.091800E+002
 21
2.765000E+002
 31
0.000000E+000
  0
ARC
  8
PV
 62
     7
 10
4.175930E+002
 20
2.845000E+002
 30
0.000000E+000
 40
3.000000E+000
 50
2.700000E+002
 51
3.474710E+002
  0
LINE
  8
PV
 62
     7
 10
4.205220E+002
 20
2.838490E+002
 30
0.000000E+000
 11
4.220000E+002
 21
2.905000E+002
 31
0.000000E+000
  0
ARC
  8
PV
 62
     7
 10
3.824070E+002
 20
2.845000E+002
 30
0.000000E+000
 40
3.000000E+000
 50
1.925290E+002
 51
2.700000E+002
  0
LINE
  8
PV
 62
     7
 10
3.794780E+002
 20
2.838490E+002
 30
0.000000E+000
 11
3.780000E+002
 21
2.905000E+002
 31
0.000000E+000
  0
LINE
  8
PV
 62
     7
 10
3.824070E+002
 20
2.815000E+002
 30
0.000000E+000
 11
4.175930E+002
 21
2.815000E+002
 31
0.000000E+000
  0
LINE
  8
PV
 62
     7
 10
4.300000E+002
 20
2.415000E+002
 30
0.000000E+000
 11
4.300000E+002
 21
2.415000E+002
 31
0.000000E+000
  0
LINE
  8
PV
 62
     7
 10
4.530000E+002
 20
2.618070E+002
 30
0.000000E+000
 11
4.400000E+002
 21
2.618070E+002
 31
0.000000E+000
  0
LINE
  8
PV
 62
     7
 10
4.280000E+002
 20
2.905000E+002
 30
0.000000E+000
 11
4.330000E+002
 21
2.945000E+002
 31
0.000000E+000
  0
ARC
  8
PV
 62
     7
 10
4.540600E+002
 20
3.118070E+002
 30
0.000000E+000
 40
1.900000E+001
 50
2.668020E+002
 51
3.270290E+002
  0
LINE
  8
PV
 62
     7
 10
4.305000E+002
 20
3.635000E+002
 30
0.000000E+000
 11
3.695000E+002
 21
3.635000E+002
 31
0.000000E+000
  0
LINE
  8
PV
 62
     7
 10
4.305000E+002
 20
3.555000E+002
 30
0.000000E+000
 11
3.695000E+002
 21
3.555000E+002
 31
0.000000E+000
  0
LINE
  8
PV
 62
     7
 10
4.330000E+002
 20
3.305000E+002
 30
0.000000E+000
 11
4.225530E+002
 21
3.357240E+002
 31
0.000000E+000
  0
LINE
  8
PV
 62
     7
 10
3.299520E+002
 20
3.335000E+002
 30
0.000000E+000
 11
3.770080E+002
 21
3.335000E+002
 31
0.000000E+000
  0
LINE
  8
PV
 62
     7
 10
3.300000E+002
 20
3.475000E+002
 30
0.000000E+000
 11
3.766850E+002
 21
3.475000E+002
 31
0.000000E+000
  0
LINE
  8
PV
 62
     7
 10
3.695000E+002
 20
3.635000E+002
 30
0.000000E+000
 11
3.695000E+002
 21
3.555000E+002
 31
0.000000E+000
  0
ARC
  8
PV
 62
     7
 10
3.745460E+002
 20
3.535000E+002
 30
0.000000E+000
 40
2.000000E+000
 50
1.321980E+000
 51
9.000000E+001
  0
ARC
  8
PV
 62
     7
 10
4.230000E+002
 20
3.366180E+002
 30
0.000000E+000
 40
1.000000E+000
 50
1.800000E+002
 51
2.434350E+002
  0
LINE
  8
PV
 62
     7
 10
4.400000E+002
 20
3.438070E+002
 30
0.000000E+000
 11
4.530000E+002
 21
3.438070E+002
 31
0.000000E+000
  0
LINE
  8
PV
 62
     7
 10
4.305000E+002
 20
3.635000E+002
 30
0.000000E+000
 11
4.305000E+002
 21
3.475000E+002
 31
0.000000E+000
  0
LINE
  8
PV
 62
     7
 10
4.270000E+002
 20
3.335000E+002
 30
0.000000E+000
 11
4.270000E+002
 21
3.445000E+002
 31
0.000000E+000
  0
LINE
  8
PV
 62
     7
 10
4.270000E+002
 20
3.445000E+002
 30
0.000000E+000
 11
4.305000E+002
 21
3.505000E+002
 31
0.000000E+000
  0
LINE
  8
PV
 62
     7
 10
4.345000E+002
 20
3.385000E+002
 30
0.000000E+000
 11
4.305000E+002
 21
3.385000E+002
 31
0.000000E+000
  0
LINE
  8
PV
 62
     7
 10
4.345000E+002
 20
3.385000E+002
 30
0.000000E+000
 11
4.345000E+002
 21
3.455000E+002
 31
0.000000E+000
  0
LINE
  8
PV
 62
     7
 10
4.270000E+002
 20
3.445000E+002
 30
0.000000E+000
 11
4.305000E+002
 21
3.385000E+002
 31
0.000000E+000
  0
LINE
  8
PV
 62
     7
 10
4.305000E+002
 20
3.475000E+002
 30
0.000000E+000
 11
4.345000E+002
 21
3.455000E+002
 31
0.000000E+000
  0
LINE
  8
PV
 62
     7
 10
4.471230E+002
 20
3.593300E+002
 30
0.000000E+000
 11
4.838290E+002
 21
3.494950E+002
 31
0.000000E+000
  0
LINE
  8
PV
 62
     7
 10
4.400000E+002
 20
3.552130E+002
 30
0.000000E+000
 11
4.459360E+002
 21
3.548970E+002
 31
0.000000E+000
  0
LINE
  8
PV
 62
     7
 10
7.245000E+002
 20
3.238070E+002
 30
0.000000E+000
 11
7.245000E+002
 21
2.778070E+002
 31
0.000000E+000
  0
LINE
  8
PV
 62
     7
 10
7.185000E+002
 20
2.778070E+002
 30
0.000000E+000
 11
7.185000E+002
 21
3.238070E+002
 31
0.000000E+000
  0
LINE
  8
PV
 62
     7
 10
7.112000E+002
 20
2.698070E+002
 30
0.000000E+000
 11
7.112000E+002
 21
3.318070E+002
 31
0.000000E+000
  0
LINE
  8
PV
 62
     7
 10
7.100000E+002
 20
3.398070E+002
 30
0.000000E+000
 11
7.100000E+002
 21
2.608070E+002
 31
0.000000E+000
  0
LINE
  8
PV
 62
     7
 10
6.540760E+002
 20
2.885000E+002
 30
0.000000E+000
 11
6.555310E+002
 21
3.515460E+002
 31
0.000000E+000
  0
LINE
  8
PV
 62
     7
 10
6.100760E+002
 20
2.885000E+002
 30
0.000000E+000
 11
6.086210E+002
 21
3.515460E+002
 31
0.000000E+000
  0
LINE
  8
PV
 62
     7
 10
6.515760E+002
 20
2.885000E+002
 30
0.000000E+000
 11
6.515760E+002
 21
3.535000E+002
 31
0.000000E+000
  0
LINE
  8
PV
 62
     7
 10
6.125760E+002
 20
2.885000E+002
 30
0.000000E+000
 11
6.125760E+002
 21
3.535000E+002
 31
0.000000E+000
  0
CIRCLE
  8
PV
 62
     7
 10
6.320760E+002
 20
3.125000E+002
 30
0.000000E+000
 40
1.100000E+001
  0
LINE
  8
PV
 62
     7
 10
6.222610E+002
 20
2.725000E+002
 30
0.000000E+000
 11
6.418910E+002
 21
2.725000E+002
 31
0.000000E+000
  0
LINE
  8
PV
 62
     7
 10
6.496700E+002
 20
2.795000E+002
 30
0.000000E+000
 11
6.144830E+002
 21
2.795000E+002
 31
0.000000E+000
  0
LINE
  8
PV
 62
     7
 10
6.540760E+002
 20
2.885000E+002
 30
0.000000E+000
 11
6.100760E+002
 21
2.885000E+002
 31
0.000000E+000
  0
LINE
  8
PV
 62
     7
 10
6.412570E+002
 20
2.745000E+002
 30
0.000000E+000
 11
6.228960E+002
 21
2.745000E+002
 31
0.000000E+000
  0
LINE
  8
PV
 62
     7
 10
6.260760E+002
 20
2.745000E+002
 30
0.000000E+000
 11
6.260760E+002
 21
2.725000E+002
 31
0.000000E+000
  0
LINE
  8
PV
 62
     7
 10
6.115540E+002
 20
2.818490E+002
 30
0.000000E+000
 11
6.100760E+002
 21
2.885000E+002
 31
0.000000E+000
  0
ARC
  8
PV
 62
     7
 10
6.144830E+002
 20
2.825000E+002
 30
0.000000E+000
 40
3.000000E+000
 50
1.925290E+002
 51
2.700000E+002
  0
ARC
  8
PV
 62
     7
 10
6.202570E+002
 20
2.785000E+002
 30
0.000000E+000
 40
1.000000E+000
 50
1.130990E+001
 51
9.000000E+001
  0
LINE
  8
PV
 62
     7
 10
6.212370E+002
 20
2.786960E+002
 30
0.000000E+000
 11
6.219160E+002
 21
2.753040E+002
 31
0.000000E+000
  0
ARC
  8
PV
 62
     7
 10
6.228960E+002
 20
2.755000E+002
 30
0.000000E+000
 40
1.000000E+000
 50
1.913100E+002
 51
2.700000E+002
  0
LINE
  8
PV
 62
     7
 10
7.245000E+002
 20
2.778070E+002
 30
0.000000E+000
 11
7.185000E+002
 21
2.778070E+002
 31
0.000000E+000
  0
LINE
  8
PV
 62
     7
 10
7.115000E+002
 20
2.628070E+002
 30
0.000000E+000
 11
7.115000E+002
 21
2.698070E+002
 31
0.000000E+000
  0
ARC
  8
PV
 62
     7
 10
7.145000E+002
 20
2.628070E+002
 30
0.000000E+000
 40
3.000000E+000
 50
1.800000E+002
 51
2.700000E+002
  0
LINE
  8
PV
 62
     7
 10
7.285000E+002
 20
2.598070E+002
 30
0.000000E+000
 11
7.145000E+002
 21
2.598070E+002
 31
0.000000E+000
  0
LINE
  8
PV
 62
     7
 10
7.130000E+002
 20
2.578070E+002
 30
0.000000E+000
 11
7.300000E+002
 21
2.578070E+002
 31
0.000000E+000
  0
ARC
  8
PV
 62
     7
 10
7.130000E+002
 20
2.608070E+002
 30
0.000000E+000
 40
3.000000E+000
 50
1.800000E+002
 51
2.700000E+002
  0
LINE
  8
PV
 62
     7
 10
6.380760E+002
 20
2.745000E+002
 30
0.000000E+000
 11
6.380760E+002
 21
2.725000E+002
 31
0.000000E+000
  0
LINE
  8
PV
 62
     7
 10
6.525980E+002
 20
2.818490E+002
 30
0.000000E+000
 11
6.540760E+002
 21
2.885000E+002
 31
0.000000E+000
  0
ARC
  8
PV
 62
     7
 10
6.496700E+002
 20
2.825000E+002
 30
0.000000E+000
 40
3.000000E+000
 50
2.700000E+002
 51
3.474710E+002
  0
LINE
  8
PV
 62
     7
 10
6.429160E+002
 20
2.786960E+002
 30
0.000000E+000
 11
6.422370E+002
 21
2.753040E+002
 31
0.000000E+000
  0
ARC
  8
PV
 62
     7
 10
6.438960E+002
 20
2.785000E+002
 30
0.000000E+000
 40
1.000000E+000
 50
9.000000E+001
 51
1.686900E+002
  0
ARC
  8
PV
 62
     7
 10
6.412570E+002
 20
2.755000E+002
 30
0.000000E+000
 40
1.000000E+000
 50
2.700000E+002
 51
3.486900E+002
  0
LINE
  8
PV
 62
     7
 10
6.385760E+002
 20
3.645000E+002
 30
0.000000E+000
 11
6.255760E+002
 21
3.645000E+002
 31
0.000000E+000
  0
LINE
  8
PV
 62
     7
 10
6.385760E+002
 20
3.365000E+002
 30
0.000000E+000
 11
6.255760E+002
 21
3.365000E+002
 31
0.000000E+000
  0
LINE
  8
PV
 62
     7
 10
6.255760E+002
 20
3.435000E+002
 30
0.000000E+000
 11
6.385760E+002
 21
3.435000E+002
 31
0.000000E+000
  0
LINE
  8
PV
 62
     7
 10
6.385760E+002
 20
3.455000E+002
 30
0.000000E+000
 11
6.255760E+002
 21
3.455000E+002
 31
0.000000E+000
  0
LINE
  8
PV
 62
     7
 10
6.380760E+002
 20
3.325000E+002
 30
0.000000E+000
 11
6.260760E+002
 21
3.325000E+002
 31
0.000000E+000
  0
LINE
  8
PV
 62
     7
 10
6.515760E+002
 20
3.285000E+002
 30
0.000000E+000
 11
6.125760E+002
 21
3.285000E+002
 31
0.000000E+000
  0
LINE
  8
PV
 62
     7
 10
6.255760E+002
 20
3.615000E+002
 30
0.000000E+000
 11
6.000000E+002
 21
3.615000E+002
 31
0.000000E+000
  0
LINE
  8
PV
 62
     7
 10
6.255760E+002
 20
3.645000E+002
 30
0.000000E+000
 11
6.255760E+002
 21
3.365000E+002
 31
0.000000E+000
  0
LINE
  8
PV
 62
     7
 10
6.255760E+002
 20
3.575000E+002
 30
0.000000E+000
 11
6.015760E+002
 21
3.575000E+002
 31
0.000000E+000
  0
LINE
  8
PV
 62
     7
 10
6.015760E+002
 20
3.535000E+002
 30
0.000000E+000
 11
6.255760E+002
 21
3.535000E+002
 31
0.000000E+000
  0
LINE
  8
PV
 62
     7
 10
6.015760E+002
 20
3.615000E+002
 30
0.000000E+000
 11
6.015760E+002
 21
3.535000E+002
 31
0.000000E+000
  0
LINE
  8
PV
 62
     7
 10
6.250760E+002
 20
3.335000E+002
 30
0.000000E+000
 11
6.250760E+002
 21
3.535000E+002
 31
0.000000E+000
  0
ARC
  8
PV
 62
     7
 10
6.260760E+002
 20
3.335000E+002
 30
0.000000E+000
 40
1.000000E+000
 50
1.800000E+002
 51
2.700000E+002
  0
ARC
  8
PV
 62
     7
 10
6.066220E+002
 20
3.515000E+002
 30
0.000000E+000
 40
2.000000E+000
 50
1.321980E+000
 51
9.000000E+001
  0
LINE
  8
PV
 62
     7
 10
6.920000E+002
 20
3.318070E+002
 30
0.000000E+000
 11
6.820000E+002
 21
3.318070E+002
 31
0.000000E+000
  0
LINE
  8
PV
 62
     7
 10
6.820000E+002
 20
3.318070E+002
 30
0.000000E+000
 11
6.820000E+002
 21
3.458070E+002
 31
0.000000E+000
  0
LINE
  8
PV
 62
     7
 10
6.820000E+002
 20
3.458070E+002
 30
0.000000E+000
 11
6.920000E+002
 21
3.458070E+002
 31
0.000000E+000
  0
LINE
  8
PV
 62
     7
 10
7.185000E+002
 20
3.238070E+002
 30
0.000000E+000
 11
7.245000E+002
 21
3.238070E+002
 31
0.000000E+000
  0
LINE
  8
PV
 62
     7
 10
7.115000E+002
 20
3.318070E+002
 30
0.000000E+000
 11
7.115000E+002
 21
3.388070E+002
 31
0.000000E+000
  0
LINE
  8
PV
 62
     7
 10
7.145000E+002
 20
3.418070E+002
 30
0.000000E+000
 11
7.285000E+002
 21
3.418070E+002
 31
0.000000E+000
  0
ARC
  8
PV
 62
     7
 10
7.145000E+002
 20
3.388070E+002
 30
0.000000E+000
 40
3.000000E+000
 50
9.000000E+001
 51
1.800000E+002
  0
ARC
  8
PV
 62
     7
 10
7.130000E+002
 20
3.398070E+002
 30
0.000000E+000
 40
3.000000E+000
 50
9.000000E+001
 51
1.800000E+002
  0
LINE
  8
PV
 62
     7
 10
6.630000E+002
 20
3.720000E+002
 30
0.000000E+000
 11
6.920000E+002
 21
3.720000E+002
 31
0.000000E+000
  0
CIRCLE
  8
PV
 62
     7
 10
6.670000E+002
 20
3.578070E+002
 30
0.000000E+000
 40
3.500000E+000
  0
LINE
  8
PV
  6
CENTER
 62
     1
 10
6.670000E+002
 20
3.454100E+002
 30
0.000000E+000
 11
6.670000E+002
 21
3.702040E+002
 31
0.000000E+000
  0
LINE
  8
PV
  6
CENTER
 62
     1
 10
6.536580E+002
 20
3.578070E+002
 30
0.000000E+000
 11
6.803420E+002
 21
3.578070E+002
 31
0.000000E+000
  0
LINE
  8
PV
 62
     7
 10
6.625760E+002
 20
3.615000E+002
 30
0.000000E+000
 11
6.385760E+002
 21
3.615000E+002
 31
0.000000E+000
  0
LINE
  8
PV
 62
     7
 10
6.625760E+002
 20
3.575000E+002
 30
0.000000E+000
 11
6.385760E+002
 21
3.575000E+002
 31
0.000000E+000
  0
LINE
  8
PV
 62
     7
 10
6.385760E+002
 20
3.365000E+002
 30
0.000000E+000
 11
6.385760E+002
 21
3.615000E+002
 31
0.000000E+000
  0
LINE
  8
PV
 62
     7
 10
6.385760E+002
 20
3.615000E+002
 30
0.000000E+000
 11
6.385760E+002
 21
3.645000E+002
 31
0.000000E+000
  0
LINE
  8
PV
 62
     7
 10
6.625760E+002
 20
3.615000E+002
 30
0.000000E+000
 11
6.625760E+002
 21
3.535000E+002
 31
0.000000E+000
  0
LINE
  8
PV
 62
     7
 10
6.385760E+002
 20
3.535000E+002
 30
0.000000E+000
 11
6.625760E+002
 21
3.535000E+002
 31
0.000000E+000
  0
LINE
  8
PV
 62
     7
 10
6.390760E+002
 20
3.335000E+002
 30
0.000000E+000
 11
6.390760E+002
 21
3.535000E+002
 31
0.000000E+000
  0
ARC
  8
PV
 62
     7
 10
6.380760E+002
 20
3.335000E+002
 30
0.000000E+000
 40
1.000000E+000
 50
2.700000E+002
 51
0.000000E+000
  0
ARC
  8
PV
 62
     7
 10
6.575310E+002
 20
3.515000E+002
 30
0.000000E+000
 40
2.000000E+000
 50
9.000000E+001
 51
1.786780E+002
  0
LINE
  8
PV
  6
CENTER
 62
     1
 10
7.920000E+002
 20
2.328070E+002
 30
0.000000E+000
 11
7.920000E+002
 21
2.529660E+002
 31
0.000000E+000
  0
CIRCLE
  8
PV
 62
     7
 10
7.920000E+002
 20
2.328070E+002
 30
0.000000E+000
 40
1.400000E+001
  0
LINE
  8
PV
  6
CENTER
 62
     1
 10
9.920000E+002
 20
2.204100E+002
 30
0.000000E+000
 11
9.920000E+002
 21
2.452040E+002
 31
0.000000E+000
  0
LINE
  8
PV
 62
     7
 10
1.007000E+003
 20
3.670000E+002
 30
0.000000E+000
 11
1.007000E+003
 21
2.270000E+002
 31
0.000000E+000
  0
LINE
  8
PV
 62
     7
 10
1.002000E+003
 20
2.220000E+002
 30
0.000000E+000
 11
8.920000E+002
 21
2.220000E+002
 31
0.000000E+000
  0
LINE
  8
PV
 62
     7
 10
8.780000E+002
 20
2.248070E+002
 30
0.000000E+000
 11
8.034890E+002
 21
2.248070E+002
 31
0.000000E+000
  0
LINE
  8
PV
 62
     7
 10
8.320000E+002
 20
2.220000E+002
 30
0.000000E+000
 11
8.780000E+002
 21
2.220000E+002
 31
0.000000E+000
  0
LINE
  8
PV
  6
CENTER
 62
     1
 10
7.920000E+002
 20
2.328070E+002
 30
0.000000E+000
 11
8.121590E+002
 21
2.328070E+002
 31
0.000000E+000
  0
LINE
  8
PV
  6
CENTER
 62
     1
 10
7.920000E+002
 20
2.328070E+002
 30
0.000000E+000
 11
7.718410E+002
 21
2.328070E+002
 31
0.000000E+000
  0
LINE
  8
PV
  6
CENTER
 62
     1
 10
7.920000E+002
 20
2.328070E+002
 30
0.000000E+000
 11
7.920000E+002
 21
2.126490E+002
 31
0.000000E+000
  0
LINE
  8
PV
 62
     7
 10
8.320000E+002
 20
2.148070E+002
 30
0.000000E+000
 11
8.320000E+002
 21
2.248070E+002
 31
0.000000E+000
  0
LINE
  8
PV
 62
     7
 10
8.320000E+002
 20
2.148070E+002
 30
0.000000E+000
 11
7.520000E+002
 21
2.148070E+002
 31
0.000000E+000
  0
LINE
  8
PV
 62
     7
 10
7.520000E+002
 20
2.148070E+002
 30
0.000000E+000
 11
7.520000E+002
 21
2.248070E+002
 31
0.000000E+000
  0
LINE
  8
PV
 62
     7
 10
7.891130E+002
 20
2.378070E+002
 30
0.000000E+000
 11
7.862260E+002
 21
2.328070E+002
 31
0.000000E+000
  0
LINE
  8
PV
 62
     7
 10
7.862260E+002
 20
2.328070E+002
 30
0.000000E+000
 11
7.891130E+002
 21
2.278070E+002
 31
0.000000E+000
  0
LINE
  8
PV
 62
     7
 10
7.891130E+002
 20
2.278070E+002
 30
0.000000E+000
 11
7.948870E+002
 21
2.278070E+002
 31
0.000000E+000
  0
LINE
  8
PV
 62
     7
 10
7.948870E+002
 20
2.278070E+002
 30
0.000000E+000
 11
7.977740E+002
 21
2.328070E+002
 31
0.000000E+000
  0
LINE
  8
PV
 62
     7
 10
7.977740E+002
 20
2.328070E+002
 30
0.000000E+000
 11
7.948870E+002
 21
2.378070E+002
 31
0.000000E+000
  0
LINE
  8
PV
 62
     7
 10
7.948870E+002
 20
2.378070E+002
 30
0.000000E+000
 11
7.891130E+002
 21
2.378070E+002
 31
0.000000E+000
  0
LINE
  8
PV
 62
     7
 10
8.920000E+002
 20
2.148070E+002
 30
0.000000E+000
 11
8.780000E+002
 21
2.148070E+002
 31
0.000000E+000
  0
LINE
  8
PV
 62
     7
 10
8.780000E+002
 20
2.148070E+002
 30
0.000000E+000
 11
8.780000E+002
 21
2.248070E+002
 31
0.000000E+000
  0
CIRCLE
  8
PV
 62
     7
 10
9.920000E+002
 20
2.328070E+002
 30
0.000000E+000
 40
3.500000E+000
  0
LINE
  8
PV
  6
CENTER
 62
     1
 10
9.786580E+002
 20
2.328070E+002
 30
0.000000E+000
 11
1.005340E+003
 21
2.328070E+002
 31
0.000000E+000
  0
LINE
  8
PV
 62
     7
 10
1.007000E+003
 20
2.270000E+002
 30
0.000000E+000
 11
1.002000E+003
 21
2.220000E+002
 31
0.000000E+000
  0
LINE
  8
PV
 62
     7
 10
8.920000E+002
 20
3.720000E+002
 30
0.000000E+000
 11
1.002000E+003
 21
3.720000E+002
 31
0.000000E+000
  0
LINE
  8
PV
 62
     7
 10
9.360000E+002
 20
2.923070E+002
 30
0.000000E+000
 11
8.920000E+002
 21
2.923070E+002
 31
0.000000E+000
  0
LINE
  8
PV
 62
     7
 10
9.360000E+002
 20
3.453070E+002
 30
0.000000E+000
 11
8.920000E+002
 21
3.453070E+002
 31
0.000000E+000
  0
LINE
  8
PV
 62
     7
 10
7.318000E+002
 20
2.698070E+002
 30
0.000000E+000
 11
7.318000E+002
 21
3.318070E+002
 31
0.000000E+000
  0
LINE
  8
PV
 62
     7
 10
8.000000E+002
 20
2.928070E+002
 30
0.000000E+000
 11
8.000000E+002
 21
3.398070E+002
 31
0.000000E+000
  0
ARC
  8
PV
 62
     7
 10
7.660000E+002
 20
3.088070E+002
 30
0.000000E+000
 40
1.900000E+001
 50
1.800000E+002
 51
0.000000E+000
  0
LINE
  8
PV
 62
     7
 10
7.315000E+002
 20
2.698070E+002
 30
0.000000E+000
 11
7.315000E+002
 21
2.628070E+002
 31
0.000000E+000
  0
ARC
  8
PV
 62
     7
 10
7.970000E+002
 20
2.928070E+002
 30
0.000000E+000
 40
3.000000E+000
 50
2.700000E+002
 51
0.000000E+000
  0
LINE
  8
PV
 62
     7
 10
7.360000E+002
 20
2.898070E+002
 30
0.000000E+000
 11
7.970000E+002
 21
2.898070E+002
 31
0.000000E+000
  0
ARC
  8
PV
 62
     7
 10
7.360000E+002
 20
2.868070E+002
 30
0.000000E+000
 40
3.000000E+000
 50
9.000000E+001
 51
1.800000E+002
  0
LINE
  8
PV
 62
     7
 10
7.330000E+002
 20
2.608070E+002
 30
0.000000E+000
 11
7.330000E+002
 21
2.868070E+002
 31
0.000000E+000
  0
LINE
  8
PV
 62
     7
 10
7.315000E+002
 20
3.388070E+002
 30
0.000000E+000
 11
7.315000E+002
 21
3.318070E+002
 31
0.000000E+000
  0
ARC
  8
PV
 62
     7
 10
7.970000E+002
 20
3.398070E+002
 30
0.000000E+000
 40
3.000000E+000
 50
0.000000E+000
 51
9.000000E+001
  0
ARC
  8
PV
 62
     7
 10
7.486810E+002
 20
3.514130E+002
 30
0.000000E+000
 40
1.680670E+000
 50
1.800000E+002
 51
2.380010E+002
  0
ARC
  8
PV
 62
     7
 10
7.568480E+002
 20
3.644830E+002
 30
0.000000E+000
 40
1.709340E+001
 50
2.380010E+002
 51
2.554890E+002
  0
ARC
  8
PV
 62
     7
 10
7.623430E+002
 20
3.857150E+002
 30
0.000000E+000
 40
3.902410E+001
 50
2.554890E+002
 51
2.638810E+002
  0
ARC
  8
PV
 62
     7
 10
7.660000E+002
 20
4.198270E+002
 30
0.000000E+000
 40
7.333190E+001
 50
2.638810E+002
 51
2.700000E+002
  0
ARC
  8
PV
 62
     7
 10
7.660000E+002
 20
4.198270E+002
 30
0.000000E+000
 40
7.333190E+001
 50
2.700000E+002
 51
2.761190E+002
  0
ARC
  8
PV
 62
     7
 10
7.696570E+002
 20
3.857150E+002
 30
0.000000E+000
 40
3.902410E+001
 50
2.761190E+002
 51
2.845110E+002
  0
ARC
  8
PV
 62
     7
 10
7.751520E+002
 20
3.644830E+002
 30
0.000000E+000
 40
1.709340E+001
 50
2.845110E+002
 51
3.019990E+002
  0
ARC
  8
PV
 62
     7
 10
7.833190E+002
 20
3.514130E+002
 30
0.000000E+000
 40
1.680670E+000
 50
3.019990E+002
 51
3.600000E+002
  0
LINE
  8
PV
 62
     7
 10
7.970000E+002
 20
3.428070E+002
 30
0.000000E+000
 11
7.850000E+002
 21
3.428070E+002
 31
0.000000E+000
  0
LINE
  8
PV
 62
     7
 10
9.360000E+002
 20
3.453070E+002
 30
0.000000E+000
 11
9.360000E+002
 21
2.923070E+002
 31
0.000000E+000
  0
LINE
  8
PV
 62
     7
 10
9.517500E+002
 20
2.989780E+002
 30
0.000000E+000
 11
9.517500E+002
 21
3.088070E+002
 31
0.000000E+000
  0
LINE
  8
PV
 62
     7
 10
9.777500E+002
 20
2.989780E+002
 30
0.000000E+000
 11
9.777500E+002
 21
3.088070E+002
 31
0.000000E+000
  0
LINE
  8
PV
 62
     7
 10
9.752620E+002
 20
2.648070E+002
 30
0.000000E+000
 11
9.542380E+002
 21
2.648070E+002
 31
0.000000E+000
  0
LINE
  8
PV
 62
     7
 10
9.447500E+002
 20
2.698060E+002
 30
0.000000E+000
 11
9.447500E+002
 21
2.989780E+002
 31
0.000000E+000
  0
LINE
  8
PV
 62
     7
 10
9.847500E+002
 20
2.698060E+002
 30
0.000000E+000
 11
9.847500E+002
 21
2.989780E+002
 31
0.000000E+000
  0
LINE
  8
PV
 62
     7
 10
9.377500E+002
 20
2.698060E+002
 30
0.000000E+000
 11
9.377500E+002
 21
2.826290E+002
 31
0.000000E+000
  0
LINE
  8
PV
 62
     7
 10
9.847500E+002
 20
2.989780E+002
 30
0.000000E+000
 11
9.447500E+002
 21
2.989780E+002
 31
0.000000E+000
  0
LINE
  8
PV
 62
     7
 10
9.847500E+002
 20
2.698060E+002
 30
0.000000E+000
 11
9.377500E+002
 21
2.698060E+002
 31
0.000000E+000
  0
LINE
  8
PV
 62
     7
 10
9.542380E+002
 20
2.648070E+002
 30
0.000000E+000
 11
9.542380E+002
 21
2.698060E+002
 31
0.000000E+000
  0
LINE
  8
PV
 62
     7
 10
9.752620E+002
 20
2.648070E+002
 30
0.000000E+000
 11
9.752620E+002
 21
2.698060E+002
 31
0.000000E+000
  0
LINE
  8
PV
 62
     7
 10
9.377500E+002
 20
2.826290E+002
 30
0.000000E+000
 11
9.447500E+002
 21
2.891470E+002
 31
0.000000E+000
  0
TEXT
  8
PV
 62
     7
 10
1.014178E+003
 20
3.537140E+002
 30
0.000000E+000
 40
4.500000E+000
  1
REPLENISHMENT PORT
 41
9.814822E-001
  7
FONT1
  0
LINE
  8
PV
 62
     7
 10
1.008250E+003
 20
3.535560E+002
 30
0.000000E+000
 11
1.013250E+003
 21
3.535560E+002
 31
0.000000E+000
  0
TEXT
  8
PV
 62
     7
 10
1.014170E+003
 20
3.437140E+002
 30
0.000000E+000
 40
4.500000E+000
  1
Rc1/4
 41
9.333333E-001
  7
FONT1
  0
POLYLINE
  8
PV
 62
     7
 66
     1
 10
0.0
 20
0.0
 30
0.0
  0
VERTEX
  8
PV
 62
     7
 10
9.851500E+002
 20
3.299860E+002
 30
0.000000E+000
  0
VERTEX
  8
PV
 62
     7
 10
9.846790E+002
 20
3.304570E+002
 30
0.000000E+000
  0
VERTEX
  8
PV
 62
     7
 10
9.835000E+002
 20
3.288070E+002
 30
0.000000E+000
  0
VERTEX
  8
PV
 62
     7
 10
9.851500E+002
 20
3.299860E+002
 30
0.000000E+000
  0
SEQEND
  8
PV
 62
     7
  0
LINE
  8
PV
 62
     7
 10
9.849140E+002
 20
3.302210E+002
 30
0.000000E+000
 11
1.008250E+003
 21
3.535560E+002
 31
0.000000E+000
  0
LINE
  8
PV
  6
CENTER
 62
     1
 10
9.920000E+002
 20
3.454100E+002
 30
0.000000E+000
 11
9.920000E+002
 21
3.702040E+002
 31
0.000000E+000
  0
LINE
  8
PV
  6
CENTER
 62
     1
 10
9.786580E+002
 20
3.578070E+002
 30
0.000000E+000
 11
1.005340E+003
 21
3.578070E+002
 31
0.000000E+000
  0
CIRCLE
  8
PV
 62
     7
 10
9.920000E+002
 20
3.578070E+002
 30
0.000000E+000
 40
3.500000E+000
  0
LINE
  8
PV
 62
     7
 10
1.002000E+003
 20
3.720000E+002
 30
0.000000E+000
 11
1.007000E+003
 21
3.670000E+002
 31
0.000000E+000
  0
LINE
  8
PV
  6
CENTER
 62
     1
 10
1.001750E+003
 20
3.288070E+002
 30
0.000000E+000
 11
9.644440E+002
 21
3.288070E+002
 31
0.000000E+000
  0
LINE
  8
PV
 62
     7
 10
9.460000E+002
 20
3.398070E+002
 30
0.000000E+000
 11
9.460000E+002
 21
3.088070E+002
 31
0.000000E+000
  0
LINE
  8
PV
 62
     7
 10
9.835000E+002
 20
3.398070E+002
 30
0.000000E+000
 11
9.835000E+002
 21
3.088070E+002
 31
0.000000E+000
  0
LINE
  8
PV
 62
     7
 10
9.835000E+002
 20
3.398070E+002
 30
0.000000E+000
 11
9.460000E+002
 21
3.398070E+002
 31
0.000000E+000
  0
LINE
  8
PV
 62
     7
 10
9.835000E+002
 20
3.088070E+002
 30
0.000000E+000
 11
9.460000E+002
 21
3.088070E+002
 31
0.000000E+000
  0
CIRCLE
  8
PV
 62
     7
 10
9.647500E+002
 20
3.203070E+002
 30
0.000000E+000
 40
4.000000E+000
  0
LINE
  8
PV
 62
     7
 10
9.460000E+002
 20
3.348070E+002
 30
0.000000E+000
 11
9.360000E+002
 21
3.348070E+002
 31
0.000000E+000
  0
LINE
  8
PV
 62
     7
 10
9.460000E+002
 20
3.228070E+002
 30
0.000000E+000
 11
9.360000E+002
 21
3.228070E+002
 31
0.000000E+000
  0
LINE
  8
PV
 62
     7
 10
6.770000E+002
 20
4.208070E+002
 30
0.000000E+000
 11
8.320750E+002
 21
4.208070E+002
 31
0.000000E+000
  0
LINE
  8
PV
 62
     7
 10
8.010000E+002
 20
4.864070E+002
 30
0.000000E+000
 11
6.830000E+002
 21
4.864070E+002
 31
0.000000E+000
  0
LINE
  8
PV
 62
     7
 10
6.922140E+002
 20
5.628070E+002
 30
0.000000E+000
 11
7.917860E+002
 21
5.628070E+002
 31
0.000000E+000
  0
LINE
  8
PV
 62
     7
 10
6.817000E+002
 20
4.608070E+002
 30
0.000000E+000
 11
8.023000E+002
 21
4.608070E+002
 31
0.000000E+000
  0
LINE
  8
PV
 62
     7
 10
7.469780E+002
 20
3.758070E+002
 30
0.000000E+000
 11
6.770000E+002
 21
3.758070E+002
 31
0.000000E+000
  0
LINE
  8
PV
 62
     7
 10
7.471770E+002
 20
3.748070E+002
 30
0.000000E+000
 11
6.920000E+002
 21
3.748070E+002
 31
0.000000E+000
  0
LINE
  8
PV
 62
     7
 10
6.830000E+002
 20
4.864070E+002
 30
0.000000E+000
 11
6.872230E+002
 21
5.581010E+002
 31
0.000000E+000
  0
LINE
  8
PV
 62
     7
 10
4.395000E+002
 20
4.884070E+002
 30
0.000000E+000
 11
4.352770E+002
 21
5.601010E+002
 31
0.000000E+000
  0
LINE
  8
PV
 62
     7
 10
4.292310E+002
 20
4.476200E+002
 30
0.000000E+000
 11
4.292310E+002
 21
4.361420E+002
 31
0.000000E+000
  0
LINE
  8
PV
 62
     7
 10
3.732100E+002
 20
4.501970E+002
 30
0.000000E+000
 11
3.732100E+002
 21
4.361420E+002
 31
0.000000E+000
  0
LINE
  8
PV
 62
     7
 10
4.408000E+002
 20
4.683070E+002
 30
0.000000E+000
 11
4.408000E+002
 21
4.225000E+002
 31
0.000000E+000
  0
LINE
  8
PV
  6
CENTER
 62
     1
 10
3.497000E+002
 20
4.225000E+002
 30
0.000000E+000
 11
3.497000E+002
 21
4.683070E+002
 31
0.000000E+000
  0
CIRCLE
  8
PV
 62
     7
 10
3.497000E+002
 20
4.425000E+002
 30
0.000000E+000
 40
9.315500E+000
  0
LINE
  8
PV
 62
     7
 10
4.460210E+002
 20
4.545070E+002
 30
0.000000E+000
 11
4.455180E+002
 21
4.401160E+002
 31
0.000000E+000
  0
LINE
  8
PV
 62
     7
 10
3.745130E+002
 20
4.277960E+002
 30
0.000000E+000
 11
4.292310E+002
 21
4.277960E+002
 31
0.000000E+000
  0
LINE
  8
PV
 62
     7
 10
4.325000E+002
 20
3.768370E+002
 30
0.000000E+000
 11
3.700000E+002
 21
3.768370E+002
 31
0.000000E+000
  0
LINE
  8
PV
 62
     7
 10
3.732100E+002
 20
4.361420E+002
 30
0.000000E+000
 11
4.292310E+002
 21
4.361420E+002
 31
0.000000E+000
  0
LINE
  8
PV
  6
CENTER
 62
     1
 10
4.000000E+002
 20
3.856520E+002
 30
0.000000E+000
 11
4.000000E+002
 21
4.153480E+002
 31
0.000000E+000
  0
LINE
  8
PV
  6
CENTER
 62
     1
 10
4.130300E+002
 20
4.005000E+002
 30
0.000000E+000
 11
3.869700E+002
 21
4.005000E+002
 31
0.000000E+000
  0
CIRCLE
  8
PV
 62
     7
 10
4.000000E+002
 20
4.005000E+002
 30
0.000000E+000
 40
7.475000E+000
  0
LINE
  8
PV
 62
     7
 10
3.732100E+002
 20
4.361420E+002
 30
0.000000E+000
 11
3.796040E+002
 21
4.361420E+002
 31
0.000000E+000
  0
LINE
  8
PV
 62
     7
 10
4.000000E+002
 20
4.228070E+002
 30
0.000000E+000
 11
4.170000E+002
 21
4.228070E+002
 31
0.000000E+000
  0
LINE
  8
PV
 62
     7
 10
4.180000E+002
 20
4.218070E+002
 30
0.000000E+000
 11
4.180000E+002
 21
4.103710E+002
 31
0.000000E+000
  0
LINE
  8
PV
 62
     7
 10
4.180000E+002
 20
4.103710E+002
 30
0.000000E+000
 11
4.218300E+002
 21
4.081600E+002
 31
0.000000E+000
  0
LINE
  8
PV
 62
     7
 10
4.223300E+002
 20
4.072940E+002
 30
0.000000E+000
 11
4.223300E+002
 21
4.000000E+002
 31
0.000000E+000
  0
LINE
  8
PV
 62
     7
 10
4.000000E+002
 20
4.228070E+002
 30
0.000000E+000
 11
3.830000E+002
 21
4.228070E+002
 31
0.000000E+000
  0
LINE
  8
PV
 62
     7
 10
3.820000E+002
 20
4.103710E+002
 30
0.000000E+000
 11
3.781700E+002
 21
4.081600E+002
 31
0.000000E+000
  0
LINE
  8
PV
 62
     7
 10
3.776700E+002
 20
4.072940E+002
 30
0.000000E+000
 11
3.776700E+002
 21
4.000000E+002
 31
0.000000E+000
  0
LINE
  8
PV
 62
     7
 10
3.820000E+002
 20
4.218070E+002
 30
0.000000E+000
 11
3.820000E+002
 21
4.103710E+002
 31
0.000000E+000
  0
LINE
  8
PV
 62
     7
 10
3.820000E+002
 20
3.771930E+002
 30
0.000000E+000
 11
3.820000E+002
 21
3.896290E+002
 31
0.000000E+000
  0
LINE
  8
PV
 62
     7
 10
3.776700E+002
 20
3.927060E+002
 30
0.000000E+000
 11
3.776700E+002
 21
4.000000E+002
 31
0.000000E+000
  0
LINE
  8
PV
 62
     7
 10
4.223300E+002
 20
3.927060E+002
 30
0.000000E+000
 11
4.223300E+002
 21
4.000000E+002
 31
0.000000E+000
  0
LINE
  8
PV
 62
     7
 10
4.180000E+002
 20
3.771930E+002
 30
0.000000E+000
 11
4.180000E+002
 21
3.896290E+002
 31
0.000000E+000
  0
LINE
  8
PV
 62
     7
 10
4.218300E+002
 20
3.918400E+002
 30
0.000000E+000
 11
4.180000E+002
 21
3.896290E+002
 31
0.000000E+000
  0
LINE
  8
PV
 62
     7
 10
3.781700E+002
 20
3.918400E+002
 30
0.000000E+000
 11
3.820000E+002
 21
3.896290E+002
 31
0.000000E+000
  0
LINE
  8
PV
 62
     7
 10
3.820000E+002
 20
3.771930E+002
 30
0.000000E+000
 11
3.820000E+002
 21
3.768370E+002
 31
0.000000E+000
  0
LINE
  8
PV
 62
     7
 10
4.180000E+002
 20
3.771930E+002
 30
0.000000E+000
 11
4.180000E+002
 21
3.768370E+002
 31
0.000000E+000
  0
LINE
  8
PV
 62
     7
 10
3.700000E+002
 20
4.272630E+002
 30
0.000000E+000
 11
3.700000E+002
 21
4.163820E+002
 31
0.000000E+000
  0
LINE
  8
PV
 62
     7
 10
3.700000E+002
 20
3.863070E+002
 30
0.000000E+000
 11
3.700000E+002
 21
3.763050E+002
 31
0.000000E+000
  0
ARC
  8
PV
 62
     7
 10
3.786700E+002
 20
4.072940E+002
 30
0.000000E+000
 40
1.000000E+000
 50
1.200000E+002
 51
1.800000E+002
  0
ARC
  8
PV
 62
     7
 10
3.786700E+002
 20
3.927060E+002
 30
0.000000E+000
 40
1.000000E+000
 50
1.800000E+002
 51
2.400000E+002
  0
ARC
  8
PV
 62
     7
 10
4.213300E+002
 20
3.927060E+002
 30
0.000000E+000
 40
1.000000E+000
 50
3.000000E+002
 51
0.000000E+000
  0
ARC
  8
PV
 62
     7
 10
4.213300E+002
 20
4.072940E+002
 30
0.000000E+000
 40
1.000000E+000
 50
0.000000E+000
 51
6.000000E+001
  0
ARC
  8
PV
 62
     7
 10
4.170000E+002
 20
4.218070E+002
 30
0.000000E+000
 40
1.000000E+000
 50
0.000000E+000
 51
9.000000E+001
  0
ARC
  8
PV
 62
     7
 10
3.830000E+002
 20
4.218070E+002
 30
0.000000E+000
 40
1.000000E+000
 50
9.000000E+001
 51
1.800000E+002
  0
LINE
  8
PV
 62
     7
 10
3.900710E+002
 20
4.278220E+002
 30
0.000000E+000
 11
4.106080E+002
 21
4.278220E+002
 31
0.000000E+000
  0
LINE
  8
PV
 62
     7
 10
3.732100E+002
 20
4.361420E+002
 30
0.000000E+000
 11
3.732100E+002
 21
4.279260E+002
 31
0.000000E+000
  0
LINE
  8
PV
 62
     7
 10
3.732100E+002
 20
4.279260E+002
 30
0.000000E+000
 11
3.745130E+002
 21
4.277960E+002
 31
0.000000E+000
  0
LINE
  8
PV
 62
     7
 10
3.700000E+002
 20
4.163820E+002
 30
0.000000E+000
 11
3.700000E+002
 21
3.863070E+002
 31
0.000000E+000
  0
LINE
  8
PV
 62
     7
 10
3.700000E+002
 20
4.272630E+002
 30
0.000000E+000
 11
3.732100E+002
 21
4.279260E+002
 31
0.000000E+000
  0
LINE
  8
PV
 62
     7
 10
4.465000E+002
 20
3.810000E+002
 30
0.000000E+000
 11
4.775000E+002
 21
3.810000E+002
 31
0.000000E+000
  0
LINE
  8
PV
 62
     7
 10
4.465000E+002
 20
4.190000E+002
 30
0.000000E+000
 11
4.775000E+002
 21
4.190000E+002
 31
0.000000E+000
  0
LINE
  8
PV
 62
     7
 10
4.325000E+002
 20
4.271330E+002
 30
0.000000E+000
 11
4.325000E+002
 21
4.162520E+002
 31
0.000000E+000
  0
LINE
  8
PV
 62
     7
 10
4.325000E+002
 20
3.861760E+002
 30
0.000000E+000
 11
4.325000E+002
 21
3.761740E+002
 31
0.000000E+000
  0
LINE
  8
PV
 62
     7
 10
4.292310E+002
 20
4.361420E+002
 30
0.000000E+000
 11
4.292310E+002
 21
4.279260E+002
 31
0.000000E+000
  0
LINE
  8
PV
 62
     7
 10
4.292310E+002
 20
4.279260E+002
 30
0.000000E+000
 11
4.292310E+002
 21
4.277960E+002
 31
0.000000E+000
  0
LINE
  8
PV
 62
     7
 10
4.325000E+002
 20
4.162520E+002
 30
0.000000E+000
 11
4.325000E+002
 21
3.861760E+002
 31
0.000000E+000
  0
LINE
  8
PV
 62
     7
 10
4.400000E+002
 20
3.775000E+002
 30
0.000000E+000
 11
4.325000E+002
 21
3.775000E+002
 31
0.000000E+000
  0
LINE
  8
PV
 62
     7
 10
4.325000E+002
 20
4.271330E+002
 30
0.000000E+000
 11
4.292310E+002
 21
4.277960E+002
 31
0.000000E+000
  0
LINE
  8
PV
 62
     7
 10
4.385000E+002
 20
4.070000E+002
 30
0.000000E+000
 11
4.465000E+002
 21
4.070000E+002
 31
0.000000E+000
  0
LINE
  8
PV
 62
     7
 10
4.385000E+002
 20
4.070000E+002
 30
0.000000E+000
 11
4.385000E+002
 21
4.000000E+002
 31
0.000000E+000
  0
LINE
  8
PV
 62
     7
 10
4.465000E+002
 20
4.000000E+002
 30
0.000000E+000
 11
4.465000E+002
 21
4.190000E+002
 31
0.000000E+000
  0
LINE
  8
PV
 62
     7
 10
4.775000E+002
 20
4.190000E+002
 30
0.000000E+000
 11
4.775000E+002
 21
4.000000E+002
 31
0.000000E+000
  0
LINE
  8
PV
 62
     7
 10
4.666020E+002
 20
4.190000E+002
 30
0.000000E+000
 11
4.666020E+002
 21
4.000000E+002
 31
0.000000E+000
  0
LINE
  8
PV
 62
     7
 10
4.385000E+002
 20
3.930000E+002
 30
0.000000E+000
 11
4.385000E+002
 21
4.000000E+002
 31
0.000000E+000
  0
LINE
  8
PV
 62
     7
 10
4.385000E+002
 20
3.930000E+002
 30
0.000000E+000
 11
4.465000E+002
 21
3.930000E+002
 31
0.000000E+000
  0
LINE
  8
PV
 62
     7
 10
4.465000E+002
 20
4.000000E+002
 30
0.000000E+000
 11
4.465000E+002
 21
3.810000E+002
 31
0.000000E+000
  0
LINE
  8
PV
 62
     7
 10
4.775000E+002
 20
3.810000E+002
 30
0.000000E+000
 11
4.775000E+002
 21
4.000000E+002
 31
0.000000E+000
  0
LINE
  8
PV
 62
     7
 10
4.666020E+002
 20
3.810000E+002
 30
0.000000E+000
 11
4.666020E+002
 21
4.000000E+002
 31
0.000000E+000
  0
LINE
  8
PV
 62
     7
 10
4.400000E+002
 20
3.775000E+002
 30
0.000000E+000
 11
4.400000E+002
 21
3.930000E+002
 31
0.000000E+000
  0
LINE
  8
PV
 62
     7
 10
4.408000E+002
 20
4.225000E+002
 30
0.000000E+000
 11
4.325000E+002
 21
4.225000E+002
 31
0.000000E+000
  0
LINE
  8
PV
 62
     7
 10
4.325000E+002
 20
4.067860E+002
 30
0.000000E+000
 11
4.385000E+002
 21
4.070000E+002
 31
0.000000E+000
  0
LINE
  8
PV
 62
     7
 10
4.325000E+002
 20
3.932140E+002
 30
0.000000E+000
 11
4.385000E+002
 21
3.930000E+002
 31
0.000000E+000
  0
LINE
  8
PV
 62
     7
 10
4.400000E+002
 20
4.070000E+002
 30
0.000000E+000
 11
4.400000E+002
 21
4.225000E+002
 31
0.000000E+000
  0
LINE
  8
PV
 62
     7
 10
4.455180E+002
 20
4.401160E+002
 30
0.000000E+000
 11
4.401220E+002
 21
4.403040E+002
 31
0.000000E+000
  0
LINE
  8
PV
 62
     7
 10
4.184700E+002
 20
4.531950E+002
 30
0.000000E+000
 11
4.284300E+002
 21
4.511770E+002
 31
0.000000E+000
  0
LINE
  8
PV
 62
     7
 10
4.292310E+002
 20
4.476200E+002
 30
0.000000E+000
 11
4.075610E+002
 21
4.476200E+002
 31
0.000000E+000
  0
LINE
  8
PV
 62
     7
 10
4.395000E+002
 20
4.884070E+002
 30
0.000000E+000
 11
4.201410E+002
 21
4.884070E+002
 31
0.000000E+000
  0
LINE
  8
PV
 62
     7
 10
4.408000E+002
 20
4.683070E+002
 30
0.000000E+000
 11
4.209980E+002
 21
4.683070E+002
 31
0.000000E+000
  0
LINE
  8
PV
 62
     7
 10
3.790000E+002
 20
4.682720E+002
 30
0.000000E+000
 11
3.803830E+002
 21
5.006940E+002
 31
0.000000E+000
  0
LINE
  8
PV
 62
     7
 10
3.790000E+002
 20
4.682720E+002
 30
0.000000E+000
 11
3.995630E+002
 21
4.682710E+002
 31
0.000000E+000
  0
LINE
  8
PV
 62
     7
 10
4.210000E+002
 20
4.682720E+002
 30
0.000000E+000
 11
4.004370E+002
 21
4.682710E+002
 31
0.000000E+000
  0
LINE
  8
PV
 62
     7
 10
4.196170E+002
 20
5.006940E+002
 30
0.000000E+000
 11
4.210000E+002
 21
4.682720E+002
 31
0.000000E+000
  0
LINE
  8
PV
 62
     7
 10
4.143220E+002
 20
5.040000E+002
 30
0.000000E+000
 11
4.196170E+002
 21
5.006940E+002
 31
0.000000E+000
  0
LINE
  8
PV
 62
     7
 10
3.856780E+002
 20
5.040000E+002
 30
0.000000E+000
 11
4.143220E+002
 21
5.040000E+002
 31
0.000000E+000
  0
ARC
  8
PV
 62
     7
 10
3.742100E+002
 20
4.501970E+002
 30
0.000000E+000
 40
9.999380E-001
 50
1.014520E+002
 51
1.800000E+002
  0
LINE
  8
PV
 62
     7
 10
3.995630E+002
 20
4.682710E+002
 30
0.000000E+000
 11
4.000000E+002
 21
4.682710E+002
 31
0.000000E+000
  0
LINE
  8
PV
 62
     7
 10
3.893560E+002
 20
4.682640E+002
 30
0.000000E+000
 11
3.893560E+002
 21
4.640360E+002
 31
0.000000E+000
  0
LINE
  8
PV
 62
     7
 10
3.893560E+002
 20
4.661900E+002
 30
0.000000E+000
 11
3.882620E+002
 21
4.650230E+002
 31
0.000000E+000
  0
LINE
  8
PV
 62
     7
 10
3.882620E+002
 20
4.650230E+002
 30
0.000000E+000
 11
3.882620E+002
 21
4.621610E+002
 31
0.000000E+000
  0
LINE
  8
PV
 62
     7
 10
3.893560E+002
 20
4.640360E+002
 30
0.000000E+000
 11
3.893560E+002
 21
4.621610E+002
 31
0.000000E+000
  0
LINE
  8
PV
 62
     7
 10
3.853940E+002
 20
4.621610E+002
 30
0.000000E+000
 11
3.839710E+002
 21
4.609560E+002
 31
0.000000E+000
  0
LINE
  8
PV
 62
     7
 10
3.839710E+002
 20
4.609560E+002
 30
0.000000E+000
 11
3.839710E+002
 21
4.531950E+002
 31
0.000000E+000
  0
LINE
  8
PV
 62
     7
 10
3.839710E+002
 20
4.531950E+002
 30
0.000000E+000
 11
3.740120E+002
 21
4.511770E+002
 31
0.000000E+000
  0
LINE
  8
PV
 62
     7
 10
3.732390E+002
 20
4.454660E+002
 30
0.000000E+000
 11
3.732390E+002
 21
4.480430E+002
 31
0.000000E+000
  0
LINE
  8
PV
 62
     7
 10
4.184700E+002
 20
4.609560E+002
 30
0.000000E+000
 11
4.184700E+002
 21
4.531950E+002
 31
0.000000E+000
  0
LINE
  8
PV
 62
     7
 10
4.170480E+002
 20
4.621610E+002
 30
0.000000E+000
 11
4.184700E+002
 21
4.609560E+002
 31
0.000000E+000
  0
LINE
  8
PV
 62
     7
 10
4.142080E+002
 20
4.621610E+002
 30
0.000000E+000
 11
4.170480E+002
 21
4.621610E+002
 31
0.000000E+000
  0
LINE
  8
PV
 62
     7
 10
4.131440E+002
 20
4.640360E+002
 30
0.000000E+000
 11
4.131440E+002
 21
4.621610E+002
 31
0.000000E+000
  0
LINE
  8
PV
 62
     7
 10
4.142380E+002
 20
4.650230E+002
 30
0.000000E+000
 11
4.142380E+002
 21
4.621610E+002
 31
0.000000E+000
  0
LINE
  8
PV
 62
     7
 10
4.131440E+002
 20
4.661900E+002
 30
0.000000E+000
 11
4.142380E+002
 21
4.650230E+002
 31
0.000000E+000
  0
LINE
  8
PV
 62
     7
 10
4.131440E+002
 20
4.682640E+002
 30
0.000000E+000
 11
4.131440E+002
 21
4.640360E+002
 31
0.000000E+000
  0
LINE
  8
PV
 62
     7
 10
4.004370E+002
 20
4.682710E+002
 30
0.000000E+000
 11
4.000000E+002
 21
4.682710E+002
 31
0.000000E+000
  0
LINE
  8
PV
 62
     7
 10
3.856780E+002
 20
5.040000E+002
 30
0.000000E+000
 11
3.803830E+002
 21
5.006940E+002
 31
0.000000E+000
  0
ARC
  8
PV
 62
     7
 10
3.742100E+002
 20
4.501970E+002
 30
0.000000E+000
 40
1.000000E+000
 50
1.014520E+002
 51
1.800000E+002
  0
LINE
  8
PV
 62
     7
 10
3.992080E+002
 20
4.661900E+002
 30
0.000000E+000
 11
4.007920E+002
 21
4.661900E+002
 31
0.000000E+000
  0
LINE
  8
PV
 62
     7
 10
4.075610E+002
 20
4.476200E+002
 30
0.000000E+000
 11
3.798760E+002
 21
4.476200E+002
 31
0.000000E+000
  0
LINE
  8
PV
 62
     7
 10
4.131440E+002
 20
4.661900E+002
 30
0.000000E+000
 11
4.007920E+002
 21
4.661900E+002
 31
0.000000E+000
  0
LINE
  8
PV
 62
     7
 10
4.142380E+002
 20
4.650230E+002
 30
0.000000E+000
 11
4.000000E+002
 21
4.650230E+002
 31
0.000000E+000
  0
LINE
  8
PV
 62
     7
 10
3.893560E+002
 20
4.661900E+002
 30
0.000000E+000
 11
3.992080E+002
 21
4.661900E+002
 31
0.000000E+000
  0
LINE
  8
PV
 62
     7
 10
3.882620E+002
 20
4.650230E+002
 30
0.000000E+000
 11
4.000000E+002
 21
4.650230E+002
 31
0.000000E+000
  0
LINE
  8
PV
 62
     7
 10
3.853940E+002
 20
4.621610E+002
 30
0.000000E+000
 11
3.999410E+002
 21
4.621610E+002
 31
0.000000E+000
  0
LINE
  8
PV
 62
     7
 10
3.732390E+002
 20
4.476200E+002
 30
0.000000E+000
 11
3.798760E+002
 21
4.476200E+002
 31
0.000000E+000
  0
LINE
  8
PV
 62
     7
 10
4.170480E+002
 20
4.621610E+002
 30
0.000000E+000
 11
4.000000E+002
 21
4.621610E+002
 31
0.000000E+000
  0
LINE
  8
PV
 62
     7
 10
4.184700E+002
 20
4.531950E+002
 30
0.000000E+000
 11
3.839710E+002
 21
4.531950E+002
 31
0.000000E+000
  0
ARC
  8
PV
 62
     7
 10
4.282310E+002
 20
4.501970E+002
 30
0.000000E+000
 40
9.999380E-001
 50
0.000000E+000
 51
7.854780E+001
  0
LINE
  8
PV
 62
     7
 10
4.292310E+002
 20
4.501970E+002
 30
0.000000E+000
 11
4.292310E+002
 21
4.476200E+002
 31
0.000000E+000
  0
LINE
  8
PV
 62
     7
 10
4.395000E+002
 20
4.683070E+002
 30
0.000000E+000
 11
4.395000E+002
 21
4.884070E+002
 31
0.000000E+000
  0
LINE
  8
PV
 62
     7
 10
4.460210E+002
 20
4.545070E+002
 30
0.000000E+000
 11
4.406240E+002
 21
4.546960E+002
 31
0.000000E+000
  0
LINE
  8
PV
 62
     7
 10
4.495770E+002
 20
4.531820E+002
 30
0.000000E+000
 11
4.459790E+002
 21
4.533080E+002
 31
0.000000E+000
  0
LINE
  8
PV
 62
     7
 10
4.491580E+002
 20
4.411900E+002
 30
0.000000E+000
 11
4.455600E+002
 21
4.413150E+002
 31
0.000000E+000
  0
LINE
  8
PV
 62
     7
 10
4.495770E+002
 20
4.531820E+002
 30
0.000000E+000
 11
4.491580E+002
 21
4.411900E+002
 31
0.000000E+000
  0
LINE
  8
PV
 62
     7
 10
6.045190E+002
 20
4.456200E+002
 30
0.000000E+000
 11
6.045190E+002
 21
4.341420E+002
 31
0.000000E+000
  0
LINE
  8
PV
 62
     7
 10
6.584810E+002
 20
4.411970E+002
 30
0.000000E+000
 11
6.584810E+002
 21
4.341420E+002
 31
0.000000E+000
  0
LINE
  8
PV
 62
     7
 10
6.817000E+002
 20
4.608070E+002
 30
0.000000E+000
 11
6.817000E+002
 21
4.208070E+002
 31
0.000000E+000
  0
LINE
  8
PV
 62
     7
 10
6.208560E+002
 20
3.874280E+002
 30
0.000000E+000
 11
6.373910E+002
 21
4.036920E+002
 31
0.000000E+000
  0
LINE
  8
PV
 62
     7
 10
6.510000E+002
 20
3.748370E+002
 30
0.000000E+000
 11
6.178050E+002
 21
3.748370E+002
 31
0.000000E+000
  0
LINE
  8
PV
 62
     7
 10
6.120000E+002
 20
3.766170E+002
 30
0.000000E+000
 11
6.770000E+002
 21
3.766170E+002
 31
0.000000E+000
  0
LINE
  8
PV
 62
     7
 10
6.520000E+002
 20
4.208070E+002
 30
0.000000E+000
 11
6.172270E+002
 21
4.208070E+002
 31
0.000000E+000
  0
CIRCLE
  8
PV
 62
     7
 10
6.316780E+002
 20
3.980000E+002
 30
0.000000E+000
 40
1.900000E+001
  0
LINE
  8
PV
 62
     7
 10
6.120000E+002
 20
4.341420E+002
 30
0.000000E+000
 11
6.315000E+002
 21
4.341420E+002
 31
0.000000E+000
  0
LINE
  8
PV
 62
     7
 10
6.316970E+002
 20
4.257960E+002
 30
0.000000E+000
 11
6.120000E+002
 21
4.257960E+002
 31
0.000000E+000
  0
LINE
  8
PV
  6
CENTER
 62
     1
 10
5.920270E+002
 20
3.988070E+002
 30
0.000000E+000
 11
6.138900E+002
 21
3.988070E+002
 31
0.000000E+000
  0
LINE
  8
PV
 62
     7
 10
6.000000E+002
 20
3.899340E+002
 30
0.000000E+000
 11
6.000000E+002
 21
4.061650E+002
 31
0.000000E+000
  0
LINE
  8
PV
 62
     7
 10
6.042940E+002
 20
4.208070E+002
 30
0.000000E+000
 11
6.172270E+002
 21
4.208070E+002
 31
0.000000E+000
  0
LINE
  8
PV
 62
     7
 10
6.120000E+002
 20
3.748370E+002
 30
0.000000E+000
 11
6.178050E+002
 21
3.748370E+002
 31
0.000000E+000
  0
LINE
  8
PV
 62
     7
 10
6.120000E+002
 20
4.257960E+002
 30
0.000000E+000
 11
6.045130E+002
 21
4.257960E+002
 31
0.000000E+000
  0
LINE
  8
PV
 62
     7
 10
6.045190E+002
 20
4.341420E+002
 30
0.000000E+000
 11
6.132800E+002
 21
4.341420E+002
 31
0.000000E+000
  0
LINE
  8
PV
 62
     7
 10
6.045130E+002
 20
4.257960E+002
 30
0.000000E+000
 11
6.045130E+002
 21
4.341420E+002
 31
0.000000E+000
  0
LINE
  8
PV
 62
     7
 10
6.045130E+002
 20
4.257960E+002
 30
0.000000E+000
 11
6.036060E+002
 21
4.257960E+002
 31
0.000000E+000
  0
LINE
  8
PV
 62
     7
 10
6.036060E+002
 20
4.257960E+002
 30
0.000000E+000
 11
6.036060E+002
 21
4.208070E+002
 31
0.000000E+000
  0
LINE
  8
PV
 62
     7
 10
6.036060E+002
 20
4.208070E+002
 30
0.000000E+000
 11
6.000000E+002
 21
4.208070E+002
 31
0.000000E+000
  0
LINE
  8
PV
 62
     7
 10
6.020540E+002
 20
4.119040E+002
 30
0.000000E+000
 11
6.003820E+002
 21
4.119040E+002
 31
0.000000E+000
  0
LINE
  8
PV
 62
     7
 10
6.036060E+002
 20
4.208070E+002
 30
0.000000E+000
 11
6.042940E+002
 21
4.208070E+002
 31
0.000000E+000
  0
LINE
  8
PV
 62
     7
 10
6.042940E+002
 20
4.113580E+002
 30
0.000000E+000
 11
6.042940E+002
 21
3.766170E+002
 31
0.000000E+000
  0
LINE
  8
PV
 62
     7
 10
6.042940E+002
 20
3.766170E+002
 30
0.000000E+000
 11
6.120000E+002
 21
3.766170E+002
 31
0.000000E+000
  0
LINE
  8
PV
 62
     7
 10
6.011830E+002
 20
4.167660E+002
 30
0.000000E+000
 11
6.042940E+002
 21
4.167660E+002
 31
0.000000E+000
  0
LINE
  8
PV
 62
     7
 10
6.042940E+002
 20
4.167660E+002
 30
0.000000E+000
 11
6.042940E+002
 21
4.113580E+002
 31
0.000000E+000
  0
LINE
  8
PV
 62
     7
 10
6.000000E+002
 20
3.882400E+002
 30
0.000000E+000
 11
6.000000E+002
 21
3.845980E+002
 31
0.000000E+000
  0
LINE
  8
PV
 62
     7
 10
6.012530E+002
 20
4.119040E+002
 30
0.000000E+000
 11
6.008710E+002
 21
4.119040E+002
 31
0.000000E+000
  0
LINE
  8
PV
 62
     7
 10
6.000000E+002
 20
4.119040E+002
 30
0.000000E+000
 11
6.000000E+002
 21
4.081500E+002
 31
0.000000E+000
  0
LINE
  8
PV
 62
     7
 10
6.000000E+002
 20
4.081500E+002
 30
0.000000E+000
 11
6.000000E+002
 21
4.061650E+002
 31
0.000000E+000
  0
LINE
  8
PV
 62
     7
 10
6.000000E+002
 20
3.899340E+002
 30
0.000000E+000
 11
6.000000E+002
 21
3.882400E+002
 31
0.000000E+000
  0
LINE
  8
PV
 62
     7
 10
6.016910E+002
 20
3.748370E+002
 30
0.000000E+000
 11
6.042940E+002
 21
3.766170E+002
 31
0.000000E+000
  0
LINE
  8
PV
 62
     7
 10
6.020540E+002
 20
4.119040E+002
 30
0.000000E+000
 11
6.020540E+002
 21
4.167660E+002
 31
0.000000E+000
  0
LINE
  8
PV
 62
     7
 10
6.000000E+002
 20
3.845980E+002
 30
0.000000E+000
 11
6.020540E+002
 21
3.845980E+002
 31
0.000000E+000
  0
LINE
  8
PV
 62
     7
 10
6.020540E+002
 20
3.845980E+002
 30
0.000000E+000
 11
6.020540E+002
 21
3.800270E+002
 31
0.000000E+000
  0
LINE
  8
PV
 62
     7
 10
6.008710E+002
 20
4.119040E+002
 30
0.000000E+000
 11
6.000000E+002
 21
4.119040E+002
 31
0.000000E+000
  0
LINE
  8
PV
 62
     7
 10
6.000000E+002
 20
4.167660E+002
 30
0.000000E+000
 11
6.011830E+002
 21
4.167660E+002
 31
0.000000E+000
  0
LINE
  8
PV
 62
     7
 10
6.000000E+002
 20
3.748370E+002
 30
0.000000E+000
 11
6.120000E+002
 21
3.748370E+002
 31
0.000000E+000
  0
LINE
  8
PV
 62
     7
 10
6.000000E+002
 20
3.800270E+002
 30
0.000000E+000
 11
6.020540E+002
 21
3.800270E+002
 31
0.000000E+000
  0
LINE
  8
PV
 62
     7
 10
6.000000E+002
 20
4.208070E+002
 30
0.000000E+000
 11
6.000000E+002
 21
4.167660E+002
 31
0.000000E+000
  0
LINE
  8
PV
 62
     7
 10
5.646450E+002
 20
4.341630E+002
 30
0.000000E+000
 11
5.596450E+002
 21
4.341630E+002
 31
0.000000E+000
  0
LINE
  8
PV
 62
     7
 10
5.985860E+002
 20
4.002210E+002
 30
0.000000E+000
 11
5.646450E+002
 21
4.341630E+002
 31
0.000000E+000
  0
POLYLINE
  8
PV
 62
     7
 66
     1
 10
0.0
 20
0.0
 30
0.0
  0
VERTEX
  8
PV
 62
     7
 10
5.988210E+002
 20
4.004570E+002
 30
0.000000E+000
  0
VERTEX
  8
PV
 62
     7
 10
5.983500E+002
 20
3.999860E+002
 30
0.000000E+000
  0
VERTEX
  8
PV
 62
     7
 10
6.000000E+002
 20
3.988070E+002
 30
0.000000E+000
  0
VERTEX
  8
PV
 62
     7
 10
5.988210E+002
 20
4.004570E+002
 30
0.000000E+000
  0
SEQEND
  8
PV
 62
     7
  0
TEXT
  8
PV
 62
     7
 10
5.373160E+002
 20
4.257140E+002
 30
0.000000E+000
 40
4.500000E+000
  1
Rc3/8
  7
FONT1
  0
TEXT
  8
PV
 62
     7
 10
5.293164E+002
 20
4.357140E+002
 30
0.000000E+000
 40
4.500000E+000
  1
IN PORT
 41
9.523800E-001
  7
FONT1
  0
LINE
  8
PV
  6
CENTER
 62
     1
 10
6.090660E+002
 20
3.988070E+002
 30
0.000000E+000
 11
5.905000E+002
 21
3.988070E+002
 31
0.000000E+000
  0
LINE
  8
PV
 62
     7
 10
6.510000E+002
 20
4.208070E+002
 30
0.000000E+000
 11
6.520000E+002
 21
4.208070E+002
 31
0.000000E+000
  0
LINE
  8
PV
 62
     7
 10
6.510000E+002
 20
4.341420E+002
 30
0.000000E+000
 11
6.315000E+002
 21
4.341420E+002
 31
0.000000E+000
  0
LINE
  8
PV
 62
     7
 10
6.584870E+002
 20
4.257960E+002
 30
0.000000E+000
 11
6.584870E+002
 21
4.341420E+002
 31
0.000000E+000
  0
LINE
  8
PV
 62
     7
 10
6.584810E+002
 20
4.341420E+002
 30
0.000000E+000
 11
6.497200E+002
 21
4.341420E+002
 31
0.000000E+000
  0
LINE
  8
PV
 62
     7
 10
6.630000E+002
 20
4.208070E+002
 30
0.000000E+000
 11
6.630000E+002
 21
3.789210E+002
 31
0.000000E+000
  0
LINE
  8
PV
 62
     7
 10
6.520000E+002
 20
4.208070E+002
 30
0.000000E+000
 11
6.730000E+002
 21
4.208070E+002
 31
0.000000E+000
  0
LINE
  8
PV
 62
     7
 10
6.730000E+002
 20
4.208070E+002
 30
0.000000E+000
 11
6.730000E+002
 21
3.766170E+002
 31
0.000000E+000
  0
LINE
  8
PV
 62
     7
 10
6.316970E+002
 20
4.257960E+002
 30
0.000000E+000
 11
6.596160E+002
 21
4.257960E+002
 31
0.000000E+000
  0
LINE
  8
PV
 62
     7
 10
6.596160E+002
 20
4.257960E+002
 30
0.000000E+000
 11
6.596160E+002
 21
4.208070E+002
 31
0.000000E+000
  0
LINE
  8
PV
 62
     7
 10
6.510000E+002
 20
3.748370E+002
 30
0.000000E+000
 11
6.630000E+002
 21
3.748370E+002
 31
0.000000E+000
  0
LINE
  8
PV
 62
     7
 10
6.730000E+002
 20
4.208070E+002
 30
0.000000E+000
 11
6.770000E+002
 21
4.208070E+002
 31
0.000000E+000
  0
LINE
  8
PV
 62
     7
 10
6.770000E+002
 20
4.208070E+002
 30
0.000000E+000
 11
6.770000E+002
 21
3.758070E+002
 31
0.000000E+000
  0
LINE
  8
PV
 62
     7
 10
6.920000E+002
 20
3.748070E+002
 30
0.000000E+000
 11
6.920000E+002
 21
3.758070E+002
 31
0.000000E+000
  0
LINE
  8
PV
 62
     7
 10
6.920000E+002
 20
3.983070E+002
 30
0.000000E+000
 11
6.920000E+002
 21
3.748070E+002
 31
0.000000E+000
  0
LINE
  8
PV
 62
     7
 10
6.920000E+002
 20
3.983070E+002
 30
0.000000E+000
 11
6.780000E+002
 21
3.983070E+002
 31
0.000000E+000
  0
LINE
  8
PV
 62
     7
 10
6.780000E+002
 20
3.983070E+002
 30
0.000000E+000
 11
6.780000E+002
 21
4.208070E+002
 31
0.000000E+000
  0
LINE
  8
PV
 62
     7
 10
6.282880E+002
 20
4.456200E+002
 30
0.000000E+000
 11
6.315000E+002
 21
4.456200E+002
 31
0.000000E+000
  0
LINE
  8
PV
 62
     7
 10
6.282880E+002
 20
4.511950E+002
 30
0.000000E+000
 11
6.315000E+002
 21
4.511950E+002
 31
0.000000E+000
  0
LINE
  8
PV
 62
     7
 10
6.282880E+002
 20
4.601610E+002
 30
0.000000E+000
 11
6.314710E+002
 21
4.601610E+002
 31
0.000000E+000
  0
LINE
  8
PV
 62
     7
 10
6.282880E+002
 20
4.630230E+002
 30
0.000000E+000
 11
6.315000E+002
 21
4.630230E+002
 31
0.000000E+000
  0
LINE
  8
PV
 62
     7
 10
6.282880E+002
 20
4.641900E+002
 30
0.000000E+000
 11
6.307080E+002
 21
4.641900E+002
 31
0.000000E+000
  0
LINE
  8
PV
 62
     7
 10
6.103880E+002
 20
4.662720E+002
 30
0.000000E+000
 11
6.309500E+002
 21
4.662710E+002
 31
0.000000E+000
  0
LINE
  8
PV
 62
     7
 10
6.457090E+002
 20
5.020000E+002
 30
0.000000E+000
 11
6.170660E+002
 21
5.020000E+002
 31
0.000000E+000
  0
LINE
  8
PV
 62
     7
 10
6.193560E+002
 20
4.641900E+002
 30
0.000000E+000
 11
6.193560E+002
 21
4.662720E+002
 31
0.000000E+000
  0
LINE
  8
PV
 62
     7
 10
6.045190E+002
 20
4.481970E+002
 30
0.000000E+000
 11
6.045190E+002
 21
4.456200E+002
 31
0.000000E+000
  0
LINE
  8
PV
 62
     7
 10
6.193560E+002
 20
4.641900E+002
 30
0.000000E+000
 11
6.282880E+002
 21
4.641900E+002
 31
0.000000E+000
  0
LINE
  8
PV
 62
     7
 10
6.193560E+002
 20
4.641900E+002
 30
0.000000E+000
 11
6.182620E+002
 21
4.630230E+002
 31
0.000000E+000
  0
LINE
  8
PV
 62
     7
 10
6.182620E+002
 20
4.630230E+002
 30
0.000000E+000
 11
6.182620E+002
 21
4.601610E+002
 31
0.000000E+000
  0
LINE
  8
PV
 62
     7
 10
6.182620E+002
 20
4.601610E+002
 30
0.000000E+000
 11
6.282880E+002
 21
4.601610E+002
 31
0.000000E+000
  0
LINE
  8
PV
 62
     7
 10
6.182620E+002
 20
4.630230E+002
 30
0.000000E+000
 11
6.282880E+002
 21
4.630230E+002
 31
0.000000E+000
  0
LINE
  8
PV
 62
     7
 10
6.193560E+002
 20
4.641900E+002
 30
0.000000E+000
 11
6.193560E+002
 21
4.601610E+002
 31
0.000000E+000
  0
LINE
  8
PV
 62
     7
 10
6.195420E+002
 20
4.601610E+002
 30
0.000000E+000
 11
6.167030E+002
 21
4.601610E+002
 31
0.000000E+000
  0
LINE
  8
PV
 62
     7
 10
6.167030E+002
 20
4.601610E+002
 30
0.000000E+000
 11
6.152800E+002
 21
4.589560E+002
 31
0.000000E+000
  0
LINE
  8
PV
 62
     7
 10
6.152800E+002
 20
4.589560E+002
 30
0.000000E+000
 11
6.152800E+002
 21
4.511950E+002
 31
0.000000E+000
  0
LINE
  8
PV
 62
     7
 10
6.152800E+002
 20
4.511950E+002
 30
0.000000E+000
 11
6.053210E+002
 21
4.491770E+002
 31
0.000000E+000
  0
LINE
  8
PV
 62
     7
 10
6.152800E+002
 20
4.511950E+002
 30
0.000000E+000
 11
6.295680E+002
 21
4.511950E+002
 31
0.000000E+000
  0
LINE
  8
PV
 62
     7
 10
6.045190E+002
 20
4.456200E+002
 30
0.000000E+000
 11
6.295680E+002
 21
4.456200E+002
 31
0.000000E+000
  0
ARC
  8
PV
 62
     7
 10
6.055190E+002
 20
4.481970E+002
 30
0.000000E+000
 40
9.999380E-001
 50
1.014520E+002
 51
1.800000E+002
  0
LINE
  8
PV
 62
     7
 10
6.170660E+002
 20
5.020000E+002
 30
0.000000E+000
 11
6.117700E+002
 21
4.986940E+002
 31
0.000000E+000
  0
LINE
  8
PV
 62
     7
 10
6.117700E+002
 20
4.986940E+002
 30
0.000000E+000
 11
6.103880E+002
 21
4.662720E+002
 31
0.000000E+000
  0
LINE
  8
PV
 62
     7
 10
6.436440E+002
 20
4.641900E+002
 30
0.000000E+000
 11
6.436440E+002
 21
4.662720E+002
 31
0.000000E+000
  0
LINE
  8
PV
 62
     7
 10
6.584810E+002
 20
4.481970E+002
 30
0.000000E+000
 11
6.584810E+002
 21
4.456200E+002
 31
0.000000E+000
  0
LINE
  8
PV
 62
     7
 10
6.347120E+002
 20
4.456200E+002
 30
0.000000E+000
 11
6.315000E+002
 21
4.456200E+002
 31
0.000000E+000
  0
LINE
  8
PV
 62
     7
 10
6.347120E+002
 20
4.511950E+002
 30
0.000000E+000
 11
6.315000E+002
 21
4.511950E+002
 31
0.000000E+000
  0
LINE
  8
PV
 62
     7
 10
6.347120E+002
 20
4.601610E+002
 30
0.000000E+000
 11
6.315290E+002
 21
4.601610E+002
 31
0.000000E+000
  0
LINE
  8
PV
 62
     7
 10
6.347120E+002
 20
4.630230E+002
 30
0.000000E+000
 11
6.315000E+002
 21
4.630230E+002
 31
0.000000E+000
  0
LINE
  8
PV
 62
     7
 10
6.347120E+002
 20
4.641900E+002
 30
0.000000E+000
 11
6.322920E+002
 21
4.641900E+002
 31
0.000000E+000
  0
LINE
  8
PV
 62
     7
 10
6.309500E+002
 20
4.662710E+002
 30
0.000000E+000
 11
6.313880E+002
 21
4.662710E+002
 31
0.000000E+000
  0
LINE
  8
PV
 62
     7
 10
6.307080E+002
 20
4.641900E+002
 30
0.000000E+000
 11
6.315000E+002
 21
4.641900E+002
 31
0.000000E+000
  0
LINE
  8
PV
 62
     7
 10
6.584810E+002
 20
4.456200E+002
 30
0.000000E+000
 11
6.584810E+002
 21
4.411970E+002
 31
0.000000E+000
  0
LINE
  8
PV
 62
     7
 10
6.584810E+002
 20
4.456200E+002
 30
0.000000E+000
 11
6.334320E+002
 21
4.456200E+002
 31
0.000000E+000
  0
LINE
  8
PV
 62
     7
 10
6.477200E+002
 20
4.511950E+002
 30
0.000000E+000
 11
6.334320E+002
 21
4.511950E+002
 31
0.000000E+000
  0
LINE
  8
PV
 62
     7
 10
6.477200E+002
 20
4.511950E+002
 30
0.000000E+000
 11
6.576790E+002
 21
4.491770E+002
 31
0.000000E+000
  0
LINE
  8
PV
 62
     7
 10
6.490000E+002
 20
4.589560E+002
 30
0.000000E+000
 11
6.490000E+002
 21
4.511950E+002
 31
0.000000E+000
  0
LINE
  8
PV
 62
     7
 10
6.475770E+002
 20
4.601610E+002
 30
0.000000E+000
 11
6.490000E+002
 21
4.589560E+002
 31
0.000000E+000
  0
LINE
  8
PV
 62
     7
 10
6.447380E+002
 20
4.601610E+002
 30
0.000000E+000
 11
6.475770E+002
 21
4.601610E+002
 31
0.000000E+000
  0
LINE
  8
PV
 62
     7
 10
6.436440E+002
 20
4.641900E+002
 30
0.000000E+000
 11
6.436440E+002
 21
4.601610E+002
 31
0.000000E+000
  0
LINE
  8
PV
 62
     7
 10
6.447380E+002
 20
4.630230E+002
 30
0.000000E+000
 11
6.347120E+002
 21
4.630230E+002
 31
0.000000E+000
  0
LINE
  8
PV
 62
     7
 10
6.322920E+002
 20
4.641900E+002
 30
0.000000E+000
 11
6.315000E+002
 21
4.641900E+002
 31
0.000000E+000
  0
LINE
  8
PV
 62
     7
 10
6.447380E+002
 20
4.601610E+002
 30
0.000000E+000
 11
6.347120E+002
 21
4.601610E+002
 31
0.000000E+000
  0
LINE
  8
PV
 62
     7
 10
6.447380E+002
 20
4.630230E+002
 30
0.000000E+000
 11
6.447380E+002
 21
4.601610E+002
 31
0.000000E+000
  0
LINE
  8
PV
 62
     7
 10
6.436440E+002
 20
4.641900E+002
 30
0.000000E+000
 11
6.447380E+002
 21
4.630230E+002
 31
0.000000E+000
  0
LINE
  8
PV
 62
     7
 10
6.436440E+002
 20
4.641900E+002
 30
0.000000E+000
 11
6.347120E+002
 21
4.641900E+002
 31
0.000000E+000
  0
LINE
  8
PV
 62
     7
 10
6.318250E+002
 20
4.662710E+002
 30
0.000000E+000
 11
6.313880E+002
 21
4.662710E+002
 31
0.000000E+000
  0
LINE
  8
PV
 62
     7
 10
6.523870E+002
 20
4.662720E+002
 30
0.000000E+000
 11
6.318250E+002
 21
4.662710E+002
 31
0.000000E+000
  0
ARC
  8
PV
 62
     7
 10
6.574810E+002
 20
4.481970E+002
 30
0.000000E+000
 40
9.999380E-001
 50
0.000000E+000
 51
7.854780E+001
  0
LINE
  8
PV
 62
     7
 10
6.523870E+002
 20
4.662720E+002
 30
0.000000E+000
 11
6.510050E+002
 21
4.986940E+002
 31
0.000000E+000
  0
LINE
  8
PV
 62
     7
 10
6.510050E+002
 20
4.986940E+002
 30
0.000000E+000
 11
6.457090E+002
 21
5.020000E+002
 31
0.000000E+000
  0
LINE
  8
PV
 62
     7
 10
6.830000E+002
 20
4.864070E+002
 30
0.000000E+000
 11
6.830000E+002
 21
4.608070E+002
 31
0.000000E+000
  0
LINE
  8
PV
  6
CENTER
 62
     1
 10
6.641310E+002
 20
4.405000E+002
 30
0.000000E+000
 11
7.141310E+002
 21
4.405000E+002
 31
0.000000E+000
  0
LINE
  8
PV
  6
CENTER
 62
     1
 10
3.570000E+002
 20
6.250840E+002
 30
0.000000E+000
 11
3.570000E+002
 21
5.648070E+002
 31
0.000000E+000
  0
LINE
  8
PV
 62
     7
 10
3.705000E+002
 20
5.685000E+002
 30
0.000000E+000
 11
3.705000E+002
 21
5.795000E+002
 31
0.000000E+000
  0
LINE
  8
PV
 62
     7
 10
3.435000E+002
 20
5.685000E+002
 30
0.000000E+000
 11
3.435000E+002
 21
5.795000E+002
 31
0.000000E+000
  0
LINE
  8
PV
 62
     7
 10
3.293910E+002
 20
5.648070E+002
 30
0.000000E+000
 11
4.302860E+002
 21
5.648070E+002
 31
0.000000E+000
  0
LINE
  8
PV
 62
     7
 10
3.435000E+002
 20
5.685000E+002
 30
0.000000E+000
 11
3.705000E+002
 21
5.685000E+002
 31
0.000000E+000
  0
LINE
  8
PV
 62
     7
 10
3.473000E+002
 20
5.648070E+002
 30
0.000000E+000
 11
3.473000E+002
 21
5.685000E+002
 31
0.000000E+000
  0
LINE
  8
PV
 62
     7
 10
3.667670E+002
 20
5.648070E+002
 30
0.000000E+000
 11
3.667670E+002
 21
5.685000E+002
 31
0.000000E+000
  0
ARC
  8
PV
 62
     7
 10
4.302860E+002
 20
5.598070E+002
 30
0.000000E+000
 40
5.000000E+000
 50
3.370860E+000
 51
9.000000E+001
  0
LINE
  8
PV
 62
     7
 10
3.780000E+002
 20
5.975000E+002
 30
0.000000E+000
 11
3.360000E+002
 21
5.975000E+002
 31
0.000000E+000
  0
LINE
  8
PV
 62
     7
 10
3.780000E+002
 20
5.805000E+002
 30
0.000000E+000
 11
3.360000E+002
 21
5.805000E+002
 31
0.000000E+000
  0
LINE
  8
PV
 62
     7
 10
3.360000E+002
 20
5.975000E+002
 30
0.000000E+000
 11
3.360000E+002
 21
5.805000E+002
 31
0.000000E+000
  0
LINE
  8
PV
 62
     7
 10
3.780000E+002
 20
5.975000E+002
 30
0.000000E+000
 11
3.780000E+002
 21
5.805000E+002
 31
0.000000E+000
  0
LINE
  8
PV
 62
     7
 10
3.440000E+002
 20
6.095000E+002
 30
0.000000E+000
 11
3.440000E+002
 21
5.975000E+002
 31
0.000000E+000
  0
LINE
  8
PV
 62
     7
 10
3.700000E+002
 20
6.095000E+002
 30
0.000000E+000
 11
3.700000E+002
 21
5.975000E+002
 31
0.000000E+000
  0
LINE
  8
PV
 62
     7
 10
3.440000E+002
 20
6.095000E+002
 30
0.000000E+000
 11
3.700000E+002
 21
6.095000E+002
 31
0.000000E+000
  0
ARC
  8
PV
 62
     7
 10
6.922140E+002
 20
5.578070E+002
 30
0.000000E+000
 40
5.000000E+000
 50
9.000000E+001
 51
1.766290E+002
  0
LINE
  8
PV
 62
     7
 10
8.010000E+002
 20
4.864070E+002
 30
0.000000E+000
 11
7.967770E+002
 21
5.581010E+002
 31
0.000000E+000
  0
LINE
  8
PV
 62
     7
 10
8.217670E+002
 20
4.208070E+002
 30
0.000000E+000
 11
8.217670E+002
 21
5.668070E+002
 31
0.000000E+000
  0
LINE
  8
PV
 62
     7
 10
8.023000E+002
 20
4.253070E+002
 30
0.000000E+000
 11
8.023000E+002
 21
5.668070E+002
 31
0.000000E+000
  0
INSERT
  8
PV
 62
     7
  2
02
 10
8.740120E+002
 20
4.208150E+002
 30
0.000000E+000
  0
CIRCLE
  8
PV
 62
     7
 10
7.420000E+002
 20
4.458070E+002
 30
0.000000E+000
 40
7.000000E+000
  0
LINE
  8
PV
 62
     7
 10
8.270000E+002
 20
4.380070E+002
 30
0.000000E+000
 11
8.286790E+002
 21
4.860770E+002
 31
0.000000E+000
  0
LINE
  8
PV
 62
     7
 10
8.670000E+002
 20
4.380070E+002
 30
0.000000E+000
 11
8.653210E+002
 21
4.860770E+002
 31
0.000000E+000
  0
LINE
  8
PV
 62
     7
 10
8.619250E+002
 20
4.208070E+002
 30
0.000000E+000
 11
8.320750E+002
 21
4.208070E+002
 31
0.000000E+000
  0
LINE
  8
PV
 62
     7
 10
8.619250E+002
 20
3.758070E+002
 30
0.000000E+000
 11
8.320750E+002
 21
3.758070E+002
 31
0.000000E+000
  0
CIRCLE
  8
PV
 62
     7
 10
8.470000E+002
 20
3.983070E+002
 30
0.000000E+000
 40
1.900000E+001
  0
LINE
  8
PV
 62
     7
 10
8.670000E+002
 20
4.338070E+002
 30
0.000000E+000
 11
8.270000E+002
 21
4.338070E+002
 31
0.000000E+000
  0
LINE
  8
PV
 62
     7
 10
8.337050E+002
 20
3.748070E+002
 30
0.000000E+000
 11
7.848230E+002
 21
3.748070E+002
 31
0.000000E+000
  0
LINE
  8
PV
 62
     7
 10
8.670000E+002
 20
4.380070E+002
 30
0.000000E+000
 11
8.270000E+002
 21
4.380070E+002
 31
0.000000E+000
  0
LINE
  8
PV
 62
     7
 10
8.247020E+002
 20
4.038070E+002
 30
0.000000E+000
 11
8.183510E+002
 21
4.148070E+002
 31
0.000000E+000
  0
LINE
  8
PV
 62
     7
 10
8.183510E+002
 20
3.928070E+002
 30
0.000000E+000
 11
8.247020E+002
 21
4.038070E+002
 31
0.000000E+000
  0
LINE
  8
PV
 62
     7
 10
8.056490E+002
 20
3.928070E+002
 30
0.000000E+000
 11
8.183510E+002
 21
3.928070E+002
 31
0.000000E+000
  0
LINE
  8
PV
 62
     7
 10
7.992980E+002
 20
4.038070E+002
 30
0.000000E+000
 11
8.056490E+002
 21
3.928070E+002
 31
0.000000E+000
  0
LINE
  8
PV
 62
     7
 10
8.056490E+002
 20
4.148070E+002
 30
0.000000E+000
 11
7.992980E+002
 21
4.038070E+002
 31
0.000000E+000
  0
LINE
  8
PV
 62
     7
 10
8.183510E+002
 20
4.148070E+002
 30
0.000000E+000
 11
8.056490E+002
 21
4.148070E+002
 31
0.000000E+000
  0
CIRCLE
  8
PV
 62
     7
 10
8.120000E+002
 20
4.038070E+002
 30
0.000000E+000
 40
6.000000E+000
  0
LINE
  8
PV
 62
     7
 10
8.169430E+002
 20
4.045570E+002
 30
0.000000E+000
 11
8.166660E+002
 21
4.045570E+002
 31
0.000000E+000
  0
LINE
  8
PV
 62
     7
 10
8.023000E+002
 20
4.253070E+002
 30
0.000000E+000
 11
8.023000E+002
 21
4.208070E+002
 31
0.000000E+000
  0
LINE
  8
PV
 62
     7
 10
8.270000E+002
 20
4.380070E+002
 30
0.000000E+000
 11
8.270000E+002
 21
4.208070E+002
 31
0.000000E+000
  0
LINE
  8
PV
 62
     7
 10
8.320750E+002
 20
3.758070E+002
 30
0.000000E+000
 11
7.849830E+002
 21
3.758070E+002
 31
0.000000E+000
  0
LINE
  8
PV
 62
     7
 10
8.337050E+002
 20
3.748070E+002
 30
0.000000E+000
 11
8.602950E+002
 21
3.748070E+002
 31
0.000000E+000
  0
LINE
  8
PV
 62
     7
 10
8.920000E+002
 20
4.208070E+002
 30
0.000000E+000
 11
8.920000E+002
 21
3.758070E+002
 31
0.000000E+000
  0
LINE
  8
PV
 62
     7
 10
8.920000E+002
 20
3.758070E+002
 30
0.000000E+000
 11
8.619250E+002
 21
3.758070E+002
 31
0.000000E+000
  0
LINE
  8
PV
 62
     7
 10
8.920000E+002
 20
3.748070E+002
 30
0.000000E+000
 11
8.602950E+002
 21
3.748070E+002
 31
0.000000E+000
  0
LINE
  8
PV
 62
     7
 10
8.670000E+002
 20
4.380070E+002
 30
0.000000E+000
 11
8.670000E+002
 21
4.208070E+002
 31
0.000000E+000
  0
LINE
  8
PV
 62
     7
 10
8.619250E+002
 20
4.208070E+002
 30
0.000000E+000
 11
8.920000E+002
 21
4.208070E+002
 31
0.000000E+000
  0
LINE
  8
PV
 62
     7
 10
8.540710E+002
 20
4.053780E+002
 30
0.000000E+000
 11
8.362200E+002
 21
3.875270E+002
 31
0.000000E+000
  0
LINE
  8
PV
 62
     7
 10
8.633230E+002
 20
4.880070E+002
 30
0.000000E+000
 11
8.306770E+002
 21
4.880070E+002
 31
0.000000E+000
  0
LINE
  8
PV
 62
     7
 10
8.010000E+002
 20
4.608070E+002
 30
0.000000E+000
 11
8.010000E+002
 21
4.864070E+002
 31
0.000000E+000
  0
ARC
  8
PV
 62
     7
 10
8.306770E+002
 20
4.860070E+002
 30
0.000000E+000
 40
2.000000E+000
 50
9.000000E+001
 51
1.780000E+002
  0
LINE
  8
PV
 62
     7
 10
8.661100E+002
 20
4.635070E+002
 30
0.000000E+000
 11
8.547500E+002
 21
4.635070E+002
 31
0.000000E+000
  0
ARC
  8
PV
 62
     7
 10
8.633230E+002
 20
4.860070E+002
 30
0.000000E+000
 40
2.000000E+000
 50
2.000000E+000
 51
9.000000E+001
  0
LINE
  8
PV
 62
     7
 10
8.547500E+002
 20
4.635070E+002
 30
0.000000E+000
 11
8.539620E+002
 21
4.860770E+002
 31
0.000000E+000
  0
ARC
  8
PV
 62
     7
 10
8.519630E+002
 20
4.860070E+002
 30
0.000000E+000
 40
2.000000E+000
 50
2.000000E+000
 51
9.000000E+001
  0
LINE
  8
PV
  6
CENTER
 62
     1
 10
8.120000E+002
 20
5.616010E+002
 30
0.000000E+000
 11
8.120000E+002
 21
6.186510E+002
 31
0.000000E+000
  0
LINE
  8
PV
 62
     7
 10
7.985000E+002
 20
5.668070E+002
 30
0.000000E+000
 11
7.985000E+002
 21
5.788070E+002
 31
0.000000E+000
  0
LINE
  8
PV
 62
     7
 10
8.255000E+002
 20
5.668070E+002
 30
0.000000E+000
 11
8.255000E+002
 21
5.788070E+002
 31
0.000000E+000
  0
ARC
  8
PV
 62
     7
 10
7.917860E+002
 20
5.578070E+002
 30
0.000000E+000
 40
5.000000E+000
 50
3.370860E+000
 51
9.000000E+001
  0
LINE
  8
PV
 62
     7
 10
7.985000E+002
 20
5.668070E+002
 30
0.000000E+000
 11
8.255000E+002
 21
5.668070E+002
 31
0.000000E+000
  0
LINE
  8
PV
 62
     7
 10
8.134140E+002
 20
6.092210E+002
 30
0.000000E+000
 11
8.367490E+002
 21
6.325560E+002
 31
0.000000E+000
  0
LINE
  8
PV
 62
     7
 10
8.330000E+002
 20
5.958070E+002
 30
0.000000E+000
 11
8.330000E+002
 21
5.788070E+002
 31
0.000000E+000
  0
LINE
  8
PV
 62
     7
 10
7.910000E+002
 20
5.958070E+002
 30
0.000000E+000
 11
7.910000E+002
 21
5.788070E+002
 31
0.000000E+000
  0
LINE
  8
PV
 62
     7
 10
8.330000E+002
 20
5.788070E+002
 30
0.000000E+000
 11
7.910000E+002
 21
5.788070E+002
 31
0.000000E+000
  0
LINE
  8
PV
 62
     7
 10
8.330000E+002
 20
5.958070E+002
 30
0.000000E+000
 11
7.910000E+002
 21
5.958070E+002
 31
0.000000E+000
  0
LINE
  8
PV
 62
     7
 10
7.972500E+002
 20
6.078070E+002
 30
0.000000E+000
 11
7.972500E+002
 21
5.958070E+002
 31
0.000000E+000
  0
LINE
  8
PV
 62
     7
 10
8.267500E+002
 20
6.078070E+002
 30
0.000000E+000
 11
8.267500E+002
 21
5.958070E+002
 31
0.000000E+000
  0
LINE
  8
PV
 62
     7
 10
7.972500E+002
 20
6.078070E+002
 30
0.000000E+000
 11
8.267500E+002
 21
6.078070E+002
 31
0.000000E+000
  0
POLYLINE
  8
PV
 62
     7
 66
     1
 10
0.0
 20
0.0
 30
0.0
  0
VERTEX
  8
PV
 62
     7
 10
8.136500E+002
 20
6.089860E+002
 30
0.000000E+000
  0
VERTEX
  8
PV
 62
     7
 10
8.131790E+002
 20
6.094570E+002
 30
0.000000E+000
  0
VERTEX
  8
PV
 62
     7
 10
8.120000E+002
 20
6.078070E+002
 30
0.000000E+000
  0
VERTEX
  8
PV
 62
     7
 10
8.136500E+002
 20
6.089860E+002
 30
0.000000E+000
  0
SEQEND
  8
PV
 62
     7
  0
LINE
  8
PV
 62
     7
 10
8.367490E+002
 20
6.325560E+002
 30
0.000000E+000
 11
8.417490E+002
 21
6.325560E+002
 31
0.000000E+000
  0
TEXT
  8
PV
 62
     7
 10
8.426730E+002
 20
6.227140E+002
 30
0.000000E+000
 40
4.500000E+000
  1
Rc1/2
 41
9.333333E-001
  7
FONT1
  0
TEXT
  8
PV
 62
     7
 10
8.426730E+002
 20
6.327140E+002
 30
0.000000E+000
 40
4.500000E+000
  1
OUT PORT
  7
FONT1
  0
TEXT
  8
PV
 62
     7
 10
2.894240E+002
 20
8.710820E+002
 30
0.000000E+000
 40
4.500000E+000
  1
MC5-A2L2-*M82
  7
FONT1
  0
TEXT
  8
PV
 62
     7
 10
2.894240E+002
 20
8.610820E+002
 30
0.000000E+000
 40
4.500000E+000
  1
MC5-A2H2-*M82
  7
FONT1
  0
TEXT
  8
PV
 62
     7
 10
2.894240E+002
 20
8.510820E+002
 30
0.000000E+000
 40
4.500000E+000
  1
MC5-A2L4-*M79
  7
FONT1
  0
TEXT
  8
PV
 62
     7
 10
2.894240E+002
 20
8.410820E+002
 30
0.000000E+000
 40
4.500000E+000
  1
MC5-A2H4-*M79
  7
FONT1
  0
TEXT
  8
PV
 62
     7
 10
2.864240E+002
 20
8.810820E+002
 30
0.000000E+000
 40
4.500000E+000
  1
MODEL No
  7
FONT1
  0
LINE
  8
PV
  6
CENTER
 62
     1
 10
9.920000E+002
 20
8.953950E+002
 30
0.000000E+000
 11
9.920000E+002
 21
9.201890E+002
 31
0.000000E+000
  0
LINE
  8
PV
  6
CENTER
 62
     1
 10
6.670000E+002
 20
8.953950E+002
 30
0.000000E+000
 11
6.670000E+002
 21
9.201890E+002
 31
0.000000E+000
  0
LINE
  8
PV
 62
     7
 10
6.917000E+002
 20
8.897000E+002
 30
0.000000E+000
 11
6.917000E+002
 21
9.077000E+002
 31
0.000000E+000
  0
LINE
  8
PV
 62
     7
 10
6.940000E+002
 20
9.100000E+002
 30
0.000000E+000
 11
6.940000E+002
 21
8.920000E+002
 31
0.000000E+000
  0
LINE
  8
PV
 62
     7
 10
8.900000E+002
 20
8.920000E+002
 30
0.000000E+000
 11
8.900000E+002
 21
9.100000E+002
 31
0.000000E+000
  0
LINE
  8
PV
 62
     7
 10
8.923000E+002
 20
9.077000E+002
 30
0.000000E+000
 11
8.923000E+002
 21
8.897000E+002
 31
0.000000E+000
  0
LINE
  8
PV
 62
     7
 10
6.860000E+002
 20
8.800000E+002
 30
0.000000E+000
 11
8.840000E+002
 21
8.800000E+002
 31
0.000000E+000
  0
LINE
  8
PV
 62
     7
 10
7.962000E+002
 20
8.800000E+002
 30
0.000000E+000
 11
6.878000E+002
 21
8.800000E+002
 31
0.000000E+000
  0
LINE
  8
PV
 62
     7
 10
7.922000E+002
 20
8.800000E+002
 30
0.000000E+000
 11
6.860000E+002
 21
8.800000E+002
 31
0.000000E+000
  0
LINE
  8
PV
 62
     7
 10
6.878000E+002
 20
7.600000E+002
 30
0.000000E+000
 11
7.962000E+002
 21
7.600000E+002
 31
0.000000E+000
  0
LINE
  8
PV
 62
     7
 10
7.315000E+002
 20
7.470000E+002
 30
0.000000E+000
 11
7.115000E+002
 21
7.470000E+002
 31
0.000000E+000
  0
LINE
  8
PV
 62
     7
 10
6.940000E+002
 20
8.920000E+002
 30
0.000000E+000
 11
8.900000E+002
 21
8.920000E+002
 31
0.000000E+000
  0
LINE
  8
PV
 62
     7
 10
8.923000E+002
 20
8.897000E+002
 30
0.000000E+000
 11
6.917000E+002
 21
8.897000E+002
 31
0.000000E+000
  0
LINE
  8
PV
 62
     7
 10
6.445480E+002
 20
7.685000E+002
 30
0.000000E+000
 11
6.630000E+002
 21
7.869520E+002
 31
0.000000E+000
  0
LINE
  8
PV
 62
     7
 10
6.000000E+002
 20
7.869520E+002
 30
0.000000E+000
 11
6.184520E+002
 21
7.685000E+002
 31
0.000000E+000
  0
LINE
  8
PV
 62
     7
 10
6.780000E+002
 20
7.680000E+002
 30
0.000000E+000
 11
6.780000E+002
 21
7.750000E+002
 31
0.000000E+000
  0
LINE
  8
PV
 62
     7
 10
6.820000E+002
 20
8.742000E+002
 30
0.000000E+000
 11
6.820000E+002
 21
7.658000E+002
 31
0.000000E+000
  0
CIRCLE
  8
PV
 62
     7
 10
6.315000E+002
 20
8.000000E+002
 30
0.000000E+000
 40
3.150000E+001
  0
LINE
  8
PV
 62
     7
 10
6.184520E+002
 20
7.685000E+002
 30
0.000000E+000
 11
6.445480E+002
 21
7.685000E+002
 31
0.000000E+000
  0
LINE
  8
PV
 62
     7
 10
6.245000E+002
 20
7.625000E+002
 30
0.000000E+000
 11
6.315000E+002
 21
7.625000E+002
 31
0.000000E+000
  0
LINE
  8
PV
 62
     7
 10
6.315000E+002
 20
7.545000E+002
 30
0.000000E+000
 11
6.125000E+002
 21
7.545000E+002
 31
0.000000E+000
  0
LINE
  8
PV
 62
     7
 10
6.125000E+002
 20
7.235000E+002
 30
0.000000E+000
 11
6.315000E+002
 21
7.235000E+002
 31
0.000000E+000
  0
LINE
  8
PV
 62
     7
 10
6.125000E+002
 20
7.343980E+002
 30
0.000000E+000
 11
6.315000E+002
 21
7.343980E+002
 31
0.000000E+000
  0
LINE
  8
PV
 62
     7
 10
6.125000E+002
 20
7.235000E+002
 30
0.000000E+000
 11
6.125000E+002
 21
7.545000E+002
 31
0.000000E+000
  0
LINE
  8
PV
 62
     7
 10
6.247140E+002
 20
7.685000E+002
 30
0.000000E+000
 11
6.245000E+002
 21
7.625000E+002
 31
0.000000E+000
  0
LINE
  8
PV
 62
     7
 10
6.245000E+002
 20
7.625000E+002
 30
0.000000E+000
 11
6.245000E+002
 21
7.545000E+002
 31
0.000000E+000
  0
LINE
  8
PV
 62
     7
 10
6.505000E+002
 20
7.235000E+002
 30
0.000000E+000
 11
6.505000E+002
 21
7.545000E+002
 31
0.000000E+000
  0
ARC
  8
PV
 62
     7
 10
6.860000E+002
 20
7.680000E+002
 30
0.000000E+000
 40
8.000000E+000
 50
1.800000E+002
 51
2.700000E+002
  0
LINE
  8
PV
 62
     7
 10
7.155000E+002
 20
7.600000E+002
 30
0.000000E+000
 11
6.860000E+002
 21
7.600000E+002
 31
0.000000E+000
  0
ARC
  8
PV
 62
     7
 10
6.878000E+002
 20
7.658000E+002
 30
0.000000E+000
 40
5.800000E+000
 50
1.800000E+002
 51
2.700000E+002
  0
LINE
  8
PV
 62
     7
 10
7.155000E+002
 20
7.600000E+002
 30
0.000000E+000
 11
6.860000E+002
 21
7.600000E+002
 31
0.000000E+000
  0
LINE
  8
PV
 62
     7
 10
7.115000E+002
 20
7.470000E+002
 30
0.000000E+000
 11
7.115000E+002
 21
7.600000E+002
 31
0.000000E+000
  0
LINE
  8
PV
 62
     7
 10
6.382860E+002
 20
7.685000E+002
 30
0.000000E+000
 11
6.385000E+002
 21
7.625000E+002
 31
0.000000E+000
  0
LINE
  8
PV
 62
     7
 10
6.385000E+002
 20
7.625000E+002
 30
0.000000E+000
 11
6.385000E+002
 21
7.545000E+002
 31
0.000000E+000
  0
LINE
  8
PV
 62
     7
 10
6.385000E+002
 20
7.625000E+002
 30
0.000000E+000
 11
6.315000E+002
 21
7.625000E+002
 31
0.000000E+000
  0
LINE
  8
PV
 62
     7
 10
6.315000E+002
 20
7.545000E+002
 30
0.000000E+000
 11
6.505000E+002
 21
7.545000E+002
 31
0.000000E+000
  0
LINE
  8
PV
 62
     7
 10
6.505000E+002
 20
7.235000E+002
 30
0.000000E+000
 11
6.315000E+002
 21
7.235000E+002
 31
0.000000E+000
  0
LINE
  8
PV
 62
     7
 10
6.505000E+002
 20
7.343980E+002
 30
0.000000E+000
 11
6.315000E+002
 21
7.343980E+002
 31
0.000000E+000
  0
LINE
  8
PV
 62
     7
 10
6.770000E+002
 20
7.750000E+002
 30
0.000000E+000
 11
6.770000E+002
 21
8.670000E+002
 31
0.000000E+000
  0
LINE
  8
PV
 62
     7
 10
6.445480E+002
 20
8.315000E+002
 30
0.000000E+000
 11
6.184520E+002
 21
8.315000E+002
 31
0.000000E+000
  0
CIRCLE
  8
PV
 62
     7
 10
6.315000E+002
 20
8.000000E+002
 30
0.000000E+000
 40
2.000000E+001
  0
LINE
  8
PV
 62
     7
 10
6.184520E+002
 20
8.315000E+002
 30
0.000000E+000
 11
6.000000E+002
 21
8.130480E+002
 31
0.000000E+000
  0
LINE
  8
PV
  6
CENTER
 62
     1
 10
5.857110E+002
 20
8.000000E+002
 30
0.000000E+000
 11
6.193570E+002
 21
8.000000E+002
 31
0.000000E+000
  0
LINE
  8
PV
  6
CENTER
 62
     1
 10
6.090660E+002
 20
8.000000E+002
 30
0.000000E+000
 11
5.905000E+002
 21
8.000000E+002
 31
0.000000E+000
  0
LINE
  8
PV
 62
     7
 10
6.000000E+002
 20
8.130480E+002
 30
0.000000E+000
 11
6.000000E+002
 21
7.869520E+002
 31
0.000000E+000
  0
LINE
  8
PV
 62
     7
 10
6.630000E+002
 20
8.130480E+002
 30
0.000000E+000
 11
6.445480E+002
 21
8.315000E+002
 31
0.000000E+000
  0
LINE
  8
PV
 62
     7
 10
6.630000E+002
 20
7.869520E+002
 30
0.000000E+000
 11
6.630000E+002
 21
8.130480E+002
 31
0.000000E+000
  0
LINE
  8
PV
 62
     7
 10
6.770000E+002
 20
7.750000E+002
 30
0.000000E+000
 11
6.780000E+002
 21
7.750000E+002
 31
0.000000E+000
  0
LINE
  8
PV
 62
     7
 10
6.770000E+002
 20
8.250000E+002
 30
0.000000E+000
 11
6.510480E+002
 21
8.250000E+002
 31
0.000000E+000
  0
LINE
  8
PV
 62
     7
 10
6.770000E+002
 20
7.750000E+002
 30
0.000000E+000
 11
6.510480E+002
 21
7.750000E+002
 31
0.000000E+000
  0
ARC
  8
PV
 62
     7
 10
6.860000E+002
 20
8.720000E+002
 30
0.000000E+000
 40
8.000000E+000
 50
9.000000E+001
 51
1.800000E+002
  0
LINE
  8
PV
 62
     7
 10
6.770000E+002
 20
8.670000E+002
 30
0.000000E+000
 11
6.780000E+002
 21
8.670000E+002
 31
0.000000E+000
  0
LINE
  8
PV
 62
     7
 10
6.780000E+002
 20
8.670000E+002
 30
0.000000E+000
 11
6.780000E+002
 21
8.720000E+002
 31
0.000000E+000
  0
ARC
  8
PV
 62
     7
 10
6.878000E+002
 20
8.742000E+002
 30
0.000000E+000
 40
5.800000E+000
 50
9.000000E+001
 51
1.800000E+002
  0
LINE
  8
PV
 62
     7
 10
7.090000E+002
 20
8.900000E+002
 30
0.000000E+000
 11
7.090000E+002
 21
8.800000E+002
 31
0.000000E+000
  0
LINE
  8
PV
 62
     7
 10
7.250000E+002
 20
8.900000E+002
 30
0.000000E+000
 11
7.250000E+002
 21
8.800000E+002
 31
0.000000E+000
  0
LINE
  8
PV
 62
     7
 10
8.920000E+002
 20
8.730000E+002
 30
0.000000E+000
 11
8.920000E+002
 21
7.680000E+002
 31
0.000000E+000
  0
LINE
  8
PV
 62
     7
 10
8.020000E+002
 20
7.658000E+002
 30
0.000000E+000
 11
8.020000E+002
 21
8.233020E+002
 31
0.000000E+000
  0
LINE
  8
PV
 62
     7
 10
8.670000E+002
 20
8.455000E+002
 30
0.000000E+000
 11
8.670000E+002
 21
7.645000E+002
 31
0.000000E+000
  0
LINE
  8
PV
 62
     7
 10
8.270000E+002
 20
7.645000E+002
 30
0.000000E+000
 11
8.270000E+002
 21
8.283020E+002
 31
0.000000E+000
  0
LINE
  8
PV
 62
     7
 10
8.840000E+002
 20
7.600000E+002
 30
0.000000E+000
 11
7.685000E+002
 21
7.600000E+002
 31
0.000000E+000
  0
LINE
  8
PV
 62
     7
 10
8.280000E+002
 20
7.258980E+002
 30
0.000000E+000
 11
8.470000E+002
 21
7.258980E+002
 31
0.000000E+000
  0
LINE
  8
PV
 62
     7
 10
8.280000E+002
 20
7.150000E+002
 30
0.000000E+000
 11
8.470000E+002
 21
7.150000E+002
 31
0.000000E+000
  0
LINE
  8
PV
 62
     7
 10
8.470000E+002
 20
7.460000E+002
 30
0.000000E+000
 11
8.280000E+002
 21
7.460000E+002
 31
0.000000E+000
  0
LINE
  8
PV
 62
     7
 10
8.290000E+002
 20
7.625000E+002
 30
0.000000E+000
 11
8.650000E+002
 21
7.625000E+002
 31
0.000000E+000
  0
LINE
  8
PV
 62
     7
 10
8.280000E+002
 20
7.150000E+002
 30
0.000000E+000
 11
8.280000E+002
 21
7.460000E+002
 31
0.000000E+000
  0
ARC
  8
PV
 62
     7
 10
7.962000E+002
 20
7.658000E+002
 30
0.000000E+000
 40
5.800000E+000
 50
2.700000E+002
 51
0.000000E+000
  0
LINE
  8
PV
 62
     7
 10
8.247020E+002
 20
7.540000E+002
 30
0.000000E+000
 11
7.992980E+002
 21
7.540000E+002
 31
0.000000E+000
  0
LINE
  8
PV
 62
     7
 10
7.992980E+002
 20
7.540000E+002
 30
0.000000E+000
 11
7.992980E+002
 21
7.600000E+002
 31
0.000000E+000
  0
LINE
  8
PV
 62
     7
 10
8.247020E+002
 20
7.540000E+002
 30
0.000000E+000
 11
8.247020E+002
 21
7.600000E+002
 31
0.000000E+000
  0
LINE
  8
PV
 62
     7
 10
7.315000E+002
 20
7.470000E+002
 30
0.000000E+000
 11
7.315000E+002
 21
7.580000E+002
 31
0.000000E+000
  0
ARC
  8
PV
 62
     7
 10
8.290000E+002
 20
7.645000E+002
 30
0.000000E+000
 40
2.000000E+000
 50
1.800000E+002
 51
2.700000E+002
  0
LINE
  8
PV
 62
     7
 10
7.850000E+002
 20
7.280530E+002
 30
0.000000E+000
 11
7.850000E+002
 21
7.505000E+002
 31
0.000000E+000
  0
LINE
  8
PV
 62
     7
 10
7.470000E+002
 20
7.280530E+002
 30
0.000000E+000
 11
7.470000E+002
 21
7.505000E+002
 31
0.000000E+000
  0
ARC
  8
PV
 62
     7
 10
7.660000E+002
 20
7.267500E+002
 30
0.000000E+000
 40
1.965620E+001
 50
9.000000E+001
 51
1.118060E+002
  0
ARC
  8
PV
 62
     7
 10
7.657460E+002
 20
7.273850E+002
 30
0.000000E+000
 40
1.897240E+001
 50
1.118060E+002
 51
1.340070E+002
  0
ARC
  8
PV
 62
     7
 10
7.664410E+002
 20
7.266650E+002
 30
0.000000E+000
 40
1.997250E+001
 50
1.340070E+002
 51
1.567890E+002
  0
ARC
  8
PV
 62
     7
 10
7.608290E+002
 20
7.290720E+002
 30
0.000000E+000
 40
1.386640E+001
 50
1.567890E+002
 51
1.842120E+002
  0
ARC
  8
PV
 62
     7
 10
7.647420E+002
 20
7.280530E+002
 30
0.000000E+000
 40
1.774210E+001
 50
1.800000E+002
 51
2.032110E+002
  0
ARC
  8
PV
 62
     7
 10
7.653530E+002
 20
7.283160E+002
 30
0.000000E+000
 40
1.840700E+001
 50
2.032110E+002
 51
2.259930E+002
  0
ARC
  8
PV
 62
     7
 10
7.657460E+002
 20
7.287220E+002
 30
0.000000E+000
 40
1.897240E+001
 50
2.259930E+002
 51
2.481940E+002
  0
ARC
  8
PV
 62
     7
 10
7.660000E+002
 20
7.293570E+002
 30
0.000000E+000
 40
1.965620E+001
 50
2.481940E+002
 51
2.700000E+002
  0
ARC
  8
PV
 62
     7
 10
7.660000E+002
 20
7.293570E+002
 30
0.000000E+000
 40
1.965620E+001
 50
2.700000E+002
 51
2.918060E+002
  0
ARC
  8
PV
 62
     7
 10
7.662540E+002
 20
7.287220E+002
 30
0.000000E+000
 40
1.897240E+001
 50
2.918060E+002
 51
3.140070E+002
  0
ARC
  8
PV
 62
     7
 10
7.666470E+002
 20
7.283160E+002
 30
0.000000E+000
 40
1.840700E+001
 50
3.140070E+002
 51
3.367890E+002
  0
ARC
  8
PV
 62
     7
 10
7.672580E+002
 20
7.280530E+002
 30
0.000000E+000
 40
1.774210E+001
 50
3.367890E+002
 51
3.600000E+002
  0
ARC
  8
PV
 62
     7
 10
7.672580E+002
 20
7.280530E+002
 30
0.000000E+000
 40
1.774210E+001
 50
3.039550E-005
 51
2.321090E+001
  0
ARC
  8
PV
 62
     7
 10
7.666470E+002
 20
7.277910E+002
 30
0.000000E+000
 40
1.840700E+001
 50
2.321090E+001
 51
4.599290E+001
  0
ARC
  8
PV
 62
     7
 10
7.662540E+002
 20
7.273850E+002
 30
0.000000E+000
 40
1.897240E+001
 50
4.599300E+001
 51
6.819370E+001
  0
ARC
  8
PV
 62
     7
 10
7.660000E+002
 20
7.267500E+002
 30
0.000000E+000
 40
1.965620E+001
 50
6.819370E+001
 51
9.000000E+001
  0
ARC
  8
PV
 62
     7
 10
7.549670E+002
 20
7.318930E+002
 30
0.000000E+000
 40
2.970510E+001
 50
2.111160E+001
 51
3.272140E+001
  0
ARC
  8
PV
 62
     7
 10
7.606610E+002
 20
7.355510E+002
 30
0.000000E+000
 40
2.293760E+001
 50
3.272140E+001
 51
5.715680E+001
  0
ARC
  8
PV
 62
     7
 10
7.673750E+002
 20
7.459530E+002
 30
0.000000E+000
 40
1.055690E+001
 50
5.715680E+001
 51
9.350940E+001
  0
ARC
  8
PV
 62
     7
 10
7.663760E+002
 20
7.432870E+002
 30
0.000000E+000
 40
1.320760E+001
 50
8.846630E+001
 51
1.197760E+002
  0
ARC
  8
PV
 62
     7
 10
7.704800E+002
 20
7.361130E+002
 30
0.000000E+000
 40
2.147320E+001
 50
1.197760E+002
 51
1.442110E+002
  0
ARC
  8
PV
 62
     7
 10
7.771580E+002
 20
7.312990E+002
 30
0.000000E+000
 40
2.970530E+001
 50
1.442110E+002
 51
1.585850E+002
  0
LINE
  8
PV
 62
     7
 10
7.460000E+002
 20
7.515000E+002
 30
0.000000E+000
 11
7.340000E+002
 21
7.515000E+002
 31
0.000000E+000
  0
LINE
  8
PV
 62
     7
 10
7.330000E+002
 20
7.525000E+002
 30
0.000000E+000
 11
7.330000E+002
 21
7.580000E+002
 31
0.000000E+000
  0
LINE
  8
PV
 62
     7
 10
7.990000E+002
 20
7.525000E+002
 30
0.000000E+000
 11
7.990000E+002
 21
7.600000E+002
 31
0.000000E+000
  0
LINE
  8
PV
 62
     7
 10
7.980000E+002
 20
7.515000E+002
 30
0.000000E+000
 11
7.860000E+002
 21
7.515000E+002
 31
0.000000E+000
  0
LINE
  8
PV
 62
     7
 10
7.330000E+002
 20
7.525000E+002
 30
0.000000E+000
 11
7.340000E+002
 21
7.515000E+002
 31
0.000000E+000
  0
LINE
  8
PV
 62
     7
 10
7.460000E+002
 20
7.515000E+002
 30
0.000000E+000
 11
7.470000E+002
 21
7.505000E+002
 31
0.000000E+000
  0
LINE
  8
PV
 62
     7
 10
7.860000E+002
 20
7.515000E+002
 30
0.000000E+000
 11
7.850000E+002
 21
7.505000E+002
 31
0.000000E+000
  0
LINE
  8
PV
 62
     7
 10
8.660000E+002
 20
7.150000E+002
 30
0.000000E+000
 11
8.660000E+002
 21
7.460000E+002
 31
0.000000E+000
  0
ARC
  8
PV
 62
     7
 10
8.840000E+002
 20
7.680000E+002
 30
0.000000E+000
 40
8.000000E+000
 50
2.700000E+002
 51
0.000000E+000
  0
LINE
  8
PV
 62
     7
 10
8.400000E+002
 20
7.540000E+002
 30
0.000000E+000
 11
8.400000E+002
 21
7.460000E+002
 31
0.000000E+000
  0
LINE
  8
PV
 62
     7
 10
8.400000E+002
 20
7.540000E+002
 30
0.000000E+000
 11
8.470000E+002
 21
7.540000E+002
 31
0.000000E+000
  0
LINE
  8
PV
 62
     7
 10
8.660000E+002
 20
7.258980E+002
 30
0.000000E+000
 11
8.470000E+002
 21
7.258980E+002
 31
0.000000E+000
  0
LINE
  8
PV
 62
     7
 10
8.660000E+002
 20
7.150000E+002
 30
0.000000E+000
 11
8.470000E+002
 21
7.150000E+002
 31
0.000000E+000
  0
LINE
  8
PV
 62
     7
 10
8.470000E+002
 20
7.460000E+002
 30
0.000000E+000
 11
8.660000E+002
 21
7.460000E+002
 31
0.000000E+000
  0
LINE
  8
PV
 62
     7
 10
8.540000E+002
 20
7.540000E+002
 30
0.000000E+000
 11
8.470000E+002
 21
7.540000E+002
 31
0.000000E+000
  0
LINE
  8
PV
 62
     7
 10
8.540000E+002
 20
7.540000E+002
 30
0.000000E+000
 11
8.540000E+002
 21
7.460000E+002
 31
0.000000E+000
  0
LINE
  8
PV
 62
     7
 10
8.537860E+002
 20
7.600000E+002
 30
0.000000E+000
 11
8.540000E+002
 21
7.540000E+002
 31
0.000000E+000
  0
LINE
  8
PV
 62
     7
 10
8.402140E+002
 20
7.600000E+002
 30
0.000000E+000
 11
8.400000E+002
 21
7.540000E+002
 31
0.000000E+000
  0
ARC
  8
PV
 62
     7
 10
8.650000E+002
 20
7.645000E+002
 30
0.000000E+000
 40
2.000000E+000
 50
2.700000E+002
 51
0.000000E+000
  0
LINE
  8
PV
 62
     7
 10
8.920000E+002
 20
8.730000E+002
 30
0.000000E+000
 11
9.360000E+002
 21
8.730000E+002
 31
0.000000E+000
  0
LINE
  8
PV
 62
     7
 10
8.920000E+002
 20
8.070000E+002
 30
0.000000E+000
 11
9.360000E+002
 21
8.070000E+002
 31
0.000000E+000
  0
LINE
  8
PV
 62
     7
 10
7.973880E+002
 20
8.430000E+002
 30
0.000000E+000
 11
8.016680E+002
 21
8.326680E+002
 31
0.000000E+000
  0
LINE
  8
PV
 62
     7
 10
8.223320E+002
 20
8.326680E+002
 30
0.000000E+000
 11
8.266120E+002
 21
8.430000E+002
 31
0.000000E+000
  0
CIRCLE
  8
PV
 62
     7
 10
8.120000E+002
 20
8.430000E+002
 30
0.000000E+000
 40
9.315500E+000
  0
LINE
  8
PV
 62
     7
 10
8.848860E+002
 20
8.431330E+002
 30
0.000000E+000
 11
8.848860E+002
 21
7.843740E+002
 31
0.000000E+000
  0
LINE
  8
PV
 62
     7
 10
8.714860E+002
 20
7.893740E+002
 30
0.000000E+000
 11
8.714860E+002
 21
8.483740E+002
 31
0.000000E+000
  0
LINE
  8
PV
 62
     7
 10
8.814860E+002
 20
7.893740E+002
 30
0.000000E+000
 11
8.814860E+002
 21
8.483740E+002
 31
0.000000E+000
  0
LINE
  8
PV
 62
     7
 10
8.890860E+002
 20
8.431330E+002
 30
0.000000E+000
 11
8.890860E+002
 21
7.843740E+002
 31
0.000000E+000
  0
LINE
  8
PV
 62
     7
 10
7.910000E+002
 20
8.343020E+002
 30
0.000000E+000
 11
8.033020E+002
 21
8.220000E+002
 31
0.000000E+000
  0
LINE
  8
PV
 62
     7
 10
8.033020E+002
 20
8.220000E+002
 30
0.000000E+000
 11
8.206990E+002
 21
8.220000E+002
 31
0.000000E+000
  0
LINE
  8
PV
 62
     7
 10
8.206990E+002
 20
8.220000E+002
 30
0.000000E+000
 11
8.330000E+002
 21
8.343020E+002
 31
0.000000E+000
  0
LINE
  8
PV
 62
     7
 10
8.330000E+002
 20
8.343020E+002
 30
0.000000E+000
 11
8.330000E+002
 21
8.516980E+002
 31
0.000000E+000
  0
LINE
  8
PV
 62
     7
 10
8.330000E+002
 20
8.516980E+002
 30
0.000000E+000
 11
8.206990E+002
 21
8.640000E+002
 31
0.000000E+000
  0
LINE
  8
PV
 62
     7
 10
8.206990E+002
 20
8.640000E+002
 30
0.000000E+000
 11
8.033020E+002
 21
8.640000E+002
 31
0.000000E+000
  0
LINE
  8
PV
 62
     7
 10
8.033020E+002
 20
8.640000E+002
 30
0.000000E+000
 11
7.910000E+002
 21
8.516980E+002
 31
0.000000E+000
  0
LINE
  8
PV
 62
     7
 10
7.910000E+002
 20
8.516980E+002
 30
0.000000E+000
 11
7.910000E+002
 21
8.343020E+002
 31
0.000000E+000
  0
LINE
  8
PV
  6
CENTER
 62
     1
 10
8.120000E+002
 20
8.236190E+002
 30
0.000000E+000
 11
8.120000E+002
 21
8.607730E+002
 31
0.000000E+000
  0
LINE
  8
PV
 62
     7
 10
8.016680E+002
 20
8.326680E+002
 30
0.000000E+000
 11
8.120000E+002
 21
8.283880E+002
 31
0.000000E+000
  0
LINE
  8
PV
 62
     7
 10
8.120000E+002
 20
8.283880E+002
 30
0.000000E+000
 11
8.223320E+002
 21
8.326680E+002
 31
0.000000E+000
  0
LINE
  8
PV
 62
     7
 10
8.277360E+002
 20
7.849740E+002
 30
0.000000E+000
 11
8.254470E+002
 21
7.849740E+002
 31
0.000000E+000
  0
LINE
  8
PV
 62
     7
 10
8.277360E+002
 20
7.827740E+002
 30
0.000000E+000
 11
8.254470E+002
 21
7.827740E+002
 31
0.000000E+000
  0
ARC
  8
PV
 62
     7
 10
8.046250E+002
 20
7.930220E+002
 30
0.000000E+000
 40
1.420000E+001
 50
3.425000E+002
 51
3.600000E+002
  0
LINE
  8
PV
 62
     7
 10
8.091450E+002
 20
8.208740E+002
 30
0.000000E+000
 11
8.168400E+002
 21
7.916110E+002
 31
0.000000E+000
  0
LINE
  8
PV
 62
     7
 10
8.068710E+002
 20
8.208740E+002
 30
0.000000E+000
 11
8.147120E+002
 21
7.910510E+002
 31
0.000000E+000
  0
LINE
  8
PV
 62
     7
 10
8.188250E+002
 20
8.208740E+002
 30
0.000000E+000
 11
8.188250E+002
 21
7.930220E+002
 31
0.000000E+000
  0
LINE
  8
PV
 62
     7
 10
8.146250E+002
 20
8.208740E+002
 30
0.000000E+000
 11
8.146250E+002
 21
8.000310E+002
 31
0.000000E+000
  0
ARC
  8
PV
 62
     7
 10
8.046250E+002
 20
7.930220E+002
 30
0.000000E+000
 40
1.420000E+001
 50
2.700000E+002
 51
3.323720E+002
  0
LINE
  8
PV
 62
     7
 10
8.024860E+002
 20
7.788220E+002
 30
0.000000E+000
 11
8.046250E+002
 21
7.788220E+002
 31
0.000000E+000
  0
LINE
  8
PV
 62
     7
 10
8.024860E+002
 20
7.830220E+002
 30
0.000000E+000
 11
8.046250E+002
 21
7.830220E+002
 31
0.000000E+000
  0
ARC
  8
PV
 62
     7
 10
8.046250E+002
 20
7.930220E+002
 30
0.000000E+000
 40
1.000000E+001
 50
2.700000E+002
 51
3.524550E+002
  0
ARC
  8
PV
 62
     7
 10
8.254470E+002
 20
7.938740E+002
 30
0.000000E+000
 40
8.900000E+000
 50
1.947310E+002
 51
2.700000E+002
  0
ARC
  8
PV
 62
     7
 10
8.254470E+002
 20
7.938740E+002
 30
0.000000E+000
 40
1.110000E+001
 50
1.947310E+002
 51
2.700000E+002
  0
LINE
  8
PV
 62
     7
 10
8.785860E+002
 20
7.863740E+002
 30
0.000000E+000
 11
8.785860E+002
 21
7.843740E+002
 31
0.000000E+000
  0
LINE
  8
PV
 62
     7
 10
8.802860E+002
 20
7.863740E+002
 30
0.000000E+000
 11
8.802860E+002
 21
7.893740E+002
 31
0.000000E+000
  0
LINE
  8
PV
 62
     7
 10
8.814860E+002
 20
7.893740E+002
 30
0.000000E+000
 11
8.714860E+002
 21
7.893740E+002
 31
0.000000E+000
  0
LINE
  8
PV
 62
     7
 10
8.802860E+002
 20
7.863740E+002
 30
0.000000E+000
 11
8.726860E+002
 21
7.863740E+002
 31
0.000000E+000
  0
LINE
  8
PV
 62
     7
 10
8.743860E+002
 20
7.863740E+002
 30
0.000000E+000
 11
8.743860E+002
 21
7.843740E+002
 31
0.000000E+000
  0
ARC
  8
PV
 62
     7
 10
8.817360E+002
 20
7.843740E+002
 30
0.000000E+000
 40
7.350000E+000
 50
1.800000E+002
 51
0.000000E+000
  0
LINE
  8
PV
 62
     7
 10
8.726860E+002
 20
7.863740E+002
 30
0.000000E+000
 11
8.726860E+002
 21
7.893740E+002
 31
0.000000E+000
  0
INSERT
  8
PV
 62
     3
  2
01
 10
8.783970E+002
 20
7.811410E+002
 30
0.000000E+000
  0
LINE
  8
PV
 62
     7
 10
8.920010E+002
 20
7.773230E+002
 30
0.000000E+000
 11
8.920000E+002
 21
7.773230E+002
 31
0.000000E+000
  0
ARC
  8
PV
 62
     7
 10
8.336750E+002
 20
8.401330E+002
 30
0.000000E+000
 40
2.000000E+001
 50
9.000000E+001
 51
1.123540E+002
  0
ARC
  8
PV
 62
     7
 10
8.336750E+002
 20
8.401330E+002
 30
0.000000E+000
 40
2.220000E+001
 50
9.000000E+001
 51
1.147040E+002
  0
LINE
  8
PV
 62
     7
 10
8.748860E+002
 20
8.531330E+002
 30
0.000000E+000
 11
8.315650E+002
 21
8.531330E+002
 31
0.000000E+000
  0
LINE
  8
PV
 62
     7
 10
8.723260E+002
 20
8.573330E+002
 30
0.000000E+000
 11
8.273650E+002
 21
8.573330E+002
 31
0.000000E+000
  0
LINE
  8
PV
  6
CENTER
 62
     1
 10
7.841810E+002
 20
8.430000E+002
 30
0.000000E+000
 11
8.403970E+002
 21
8.430000E+002
 31
0.000000E+000
  0
LINE
  8
PV
 62
     7
 10
8.330000E+002
 20
8.475000E+002
 30
0.000000E+000
 11
8.650000E+002
 21
8.475000E+002
 31
0.000000E+000
  0
LINE
  8
PV
 62
     7
 10
8.266120E+002
 20
8.430000E+002
 30
0.000000E+000
 11
8.223320E+002
 21
8.533320E+002
 31
0.000000E+000
  0
LINE
  8
PV
 62
     7
 10
8.223320E+002
 20
8.533320E+002
 30
0.000000E+000
 11
8.120000E+002
 21
8.576120E+002
 31
0.000000E+000
  0
LINE
  8
PV
 62
     7
 10
8.120000E+002
 20
8.576120E+002
 30
0.000000E+000
 11
8.016680E+002
 21
8.533320E+002
 31
0.000000E+000
  0
LINE
  8
PV
 62
     7
 10
8.016680E+002
 20
8.533320E+002
 30
0.000000E+000
 11
7.973880E+002
 21
8.430000E+002
 31
0.000000E+000
  0
ARC
  8
PV
 62
     7
 10
7.962000E+002
 20
8.742000E+002
 30
0.000000E+000
 40
5.800000E+000
 50
0.000000E+000
 51
9.000000E+001
  0
LINE
  8
PV
 62
     7
 10
7.680000E+002
 20
8.800000E+002
 30
0.000000E+000
 11
8.020000E+002
 21
8.800000E+002
 31
0.000000E+000
  0
LINE
  8
PV
 62
     7
 10
8.020000E+002
 20
8.626980E+002
 30
0.000000E+000
 11
8.020000E+002
 21
8.742000E+002
 31
0.000000E+000
  0
LINE
  8
PV
 62
     7
 10
8.798440E+002
 20
8.800000E+002
 30
0.000000E+000
 11
8.840000E+002
 21
8.800000E+002
 31
0.000000E+000
  0
LINE
  8
PV
 62
     7
 10
8.814860E+002
 20
8.483740E+002
 30
0.000000E+000
 11
8.714860E+002
 21
8.483740E+002
 31
0.000000E+000
  0
LINE
  8
PV
 62
     7
 10
8.775860E+002
 20
8.483740E+002
 30
0.000000E+000
 11
8.775860E+002
 21
8.501330E+002
 31
0.000000E+000
  0
LINE
  8
PV
 62
     7
 10
8.753860E+002
 20
8.483740E+002
 30
0.000000E+000
 11
8.753860E+002
 21
8.501330E+002
 31
0.000000E+000
  0
LINE
  8
PV
 62
     7
 10
8.653860E+002
 20
8.623330E+002
 30
0.000000E+000
 11
8.336750E+002
 21
8.623330E+002
 31
0.000000E+000
  0
ARC
  8
PV
 62
     7
 10
8.748860E+002
 20
8.431330E+002
 30
0.000000E+000
 40
1.000000E+001
 50
8.977420E+001
 51
9.000000E+001
  0
LINE
  8
PV
 62
     7
 10
8.653860E+002
 20
8.601330E+002
 30
0.000000E+000
 11
8.336750E+002
 21
8.601330E+002
 31
0.000000E+000
  0
ARC
  8
PV
 62
     7
 10
8.653860E+002
 20
8.501330E+002
 30
0.000000E+000
 40
1.000000E+001
 50
0.000000E+000
 51
9.000000E+001
  0
ARC
  8
PV
 62
     7
 10
8.653860E+002
 20
8.501330E+002
 30
0.000000E+000
 40
1.220000E+001
 50
0.000000E+000
 51
9.000000E+001
  0
ARC
  8
PV
 62
     7
 10
8.748860E+002
 20
8.431330E+002
 30
0.000000E+000
 40
1.000000E+001
 50
3.600000E+002
 51
7.614030E+001
  0
ARC
  8
PV
 62
     7
 10
8.748860E+002
 20
8.431330E+002
 30
0.000000E+000
 40
1.420000E+001
 50
3.600000E+002
 51
8.857940E+001
  0
ARC
  8
PV
 62
     7
 10
8.840000E+002
 20
8.720000E+002
 30
0.000000E+000
 40
8.000000E+000
 50
0.000000E+000
 51
9.000000E+001
  0
LINE
  8
PV
 62
     7
 10
8.590000E+002
 20
8.900000E+002
 30
0.000000E+000
 11
8.590000E+002
 21
8.800000E+002
 31
0.000000E+000
  0
LINE
  8
PV
 62
     7
 10
8.750000E+002
 20
8.900000E+002
 30
0.000000E+000
 11
8.750000E+002
 21
8.800000E+002
 31
0.000000E+000
  0
ARC
  8
PV
 62
     7
 10
8.650000E+002
 20
8.455000E+002
 30
0.000000E+000
 40
2.000000E+000
 50
0.000000E+000
 51
9.000000E+001
  0
LINE
  8
PV
 62
     7
 10
9.360000E+002
 20
8.730000E+002
 30
0.000000E+000
 11
9.360000E+002
 21
8.070000E+002
 31
0.000000E+000
  0
LINE
  8
PV
 62
     7
 10
9.647500E+002
 20
8.420000E+002
 30
0.000000E+000
 11
9.447500E+002
 21
8.378190E+002
 31
0.000000E+000
  0
LINE
  8
PV
 62
     7
 10
9.647500E+002
 20
8.420000E+002
 30
0.000000E+000
 11
9.847500E+002
 21
8.378190E+002
 31
0.000000E+000
  0
LINE
  8
PV
  6
CENTER
 62
     1
 10
9.731940E+002
 20
8.250000E+002
 30
0.000000E+000
 11
9.954440E+002
 21
8.250000E+002
 31
0.000000E+000
  0
LINE
  8
PV
 62
     7
 10
9.377500E+002
 20
8.190000E+002
 30
0.000000E+000
 11
9.360000E+002
 21
8.190000E+002
 31
0.000000E+000
  0
LINE
  8
PV
 62
     7
 10
9.447500E+002
 20
8.121810E+002
 30
0.000000E+000
 11
9.447500E+002
 21
8.378190E+002
 31
0.000000E+000
  0
LINE
  8
PV
 62
     7
 10
9.377500E+002
 20
8.121810E+002
 30
0.000000E+000
 11
9.377500E+002
 21
8.378190E+002
 31
0.000000E+000
  0
LINE
  8
PV
 62
     7
 10
9.647500E+002
 20
8.080000E+002
 30
0.000000E+000
 11
9.447500E+002
 21
8.121810E+002
 31
0.000000E+000
  0
LINE
  8
PV
 62
     7
 10
9.377500E+002
 20
8.378190E+002
 30
0.000000E+000
 11
9.447500E+002
 21
8.378190E+002
 31
0.000000E+000
  0
LINE
  8
PV
 62
     7
 10
9.377500E+002
 20
8.121810E+002
 30
0.000000E+000
 11
9.447500E+002
 21
8.121810E+002
 31
0.000000E+000
  0
LINE
  8
PV
 62
     7
 10
9.377500E+002
 20
8.310000E+002
 30
0.000000E+000
 11
9.360000E+002
 21
8.310000E+002
 31
0.000000E+000
  0
LINE
  8
PV
 62
     7
 10
9.847500E+002
 20
8.121810E+002
 30
0.000000E+000
 11
9.847500E+002
 21
8.378190E+002
 31
0.000000E+000
  0
LINE
  8
PV
 62
     7
 10
9.647500E+002
 20
8.080000E+002
 30
0.000000E+000
 11
9.847500E+002
 21
8.121810E+002
 31
0.000000E+000
  0
LINE
  8
PV
 62
     7
 10
6.917000E+002
 20
9.077000E+002
 30
0.000000E+000
 11
6.520000E+002
 21
9.077000E+002
 31
0.000000E+000
  0
LINE
  8
PV
 62
     7
 10
6.520000E+002
 20
9.077000E+002
 30
0.000000E+000
 11
6.520000E+002
 21
9.100000E+002
 31
0.000000E+000
  0
LINE
  8
PV
 62
     7
 10
6.520000E+002
 20
9.100000E+002
 30
0.000000E+000
 11
6.940000E+002
 21
9.100000E+002
 31
0.000000E+000
  0
LINE
  8
PV
 62
     7
 10
8.900000E+002
 20
9.100000E+002
 30
0.000000E+000
 11
1.007000E+003
 21
9.100000E+002
 31
0.000000E+000
  0
LINE
  8
PV
 62
     7
 10
1.007000E+003
 20
9.077000E+002
 30
0.000000E+000
 11
8.923000E+002
 21
9.077000E+002
 31
0.000000E+000
  0
LINE
  8
PV
 62
     7
 10
1.007000E+003
 20
9.100000E+002
 30
0.000000E+000
 11
1.007000E+003
 21
9.077000E+002
 31
0.000000E+000
  0
ENDSEC
  0
EOF
