  0
SECTION
  2
HEADER
  9
$ACADVER
  1
AC1012
  9
$DWGCODEPAGE
  3
dos932
  9
$INSBASE
 10
0.0
 20
0.0
 30
0.0
  9
$EXTMIN
 10
27.97573823042262
 20
-131.8145005762951
 30
-0.0000000349181948
  9
$EXTMAX
 10
651.7859348827487
 20
350.0294089696035
 30
0.0000000814935746
  9
$LIMMIN
 10
0.0
 20
0.0
  9
$LIMMAX
 10
12.0
 20
9.0
  9
$ORTHOMODE
 70
     0
  9
$REGENMODE
 70
     1
  9
$FILLMODE
 70
     1
  9
$QTEXTMODE
 70
     0
  9
$MIRRTEXT
 70
     1
  9
$DRAGMODE
 70
     2
  9
$LTSCALE
 40
1.0
  9
$OSMODE
 70
    39
  9
$ATTMODE
 70
     1
  9
$TEXTSIZE
 40
4.5
  9
$TRACEWID
 40
0.05
  9
$TEXTSTYLE
  7
STANDARD
  9
$CLAYER
  8
L-ZISSEN
  9
$CELTYPE
  6
BYLAYER
  9
$CECOLOR
 62
   256
  9
$CELTSCALE
 40
1.0
  9
$DELOBJ
 70
     1
  9
$DISPSILH
 70
     0
  9
$DIMSCALE
 40
2.0
  9
$DIMASZ
 40
2.0
  9
$DIMEXO
 40
0.0625
  9
$DIMDLI
 40
0.38
  9
$DIMRND
 40
0.0
  9
$DIMDLE
 40
0.0
  9
$DIMEXE
 40
0.18
  9
$DIMTP
 40
0.0
  9
$DIMTM
 40
0.0
  9
$DIMTXT
 40
4.5
  9
$DIMCEN
 40
0.09
  9
$DIMTSZ
 40
0.0
  9
$DIMTOL
 70
     0
  9
$DIMLIM
 70
     0
  9
$DIMTIH
 70
     0
  9
$DIMTOH
 70
     0
  9
$DIMSE1
 70
     0
  9
$DIMSE2
 70
     0
  9
$DIMTAD
 70
     1
  9
$DIMZIN
 70
     8
  9
$DIMBLK
  1

  9
$DIMASO
 70
     1
  9
$DIMSHO
 70
     0
  9
$DIMPOST
  1

  9
$DIMAPOST
  1

  9
$DIMALT
 70
     0
  9
$DIMALTD
 70
     2
  9
$DIMALTF
 40
25.4
  9
$DIMLFAC
 40
1.0
  9
$DIMTOFL
 70
     0
  9
$DIMTVP
 40
0.0
  9
$DIMTIX
 70
     0
  9
$DIMSOXD
 70
     0
  9
$DIMSAH
 70
     0
  9
$DIMBLK1
  1

  9
$DIMBLK2
  1

  9
$DIMSTYLE
  2
STANDARD
  9
$DIMCLRD
 70
     0
  9
$DIMCLRE
 70
     0
  9
$DIMCLRT
 70
     0
  9
$DIMTFAC
 40
1.0
  9
$DIMGAP
 40
0.09
  9
$DIMJUST
 70
     0
  9
$DIMSD1
 70
     0
  9
$DIMSD2
 70
     0
  9
$DIMTOLJ
 70
     1
  9
$DIMTZIN
 70
     0
  9
$DIMALTZ
 70
     0
  9
$DIMALTTZ
 70
     0
  9
$DIMFIT
 70
     3
  9
$DIMUPT
 70
     0
  9
$DIMUNIT
 70
     2
  9
$DIMDEC
 70
     4
  9
$DIMTDEC
 70
     4
  9
$DIMALTU
 70
     2
  9
$DIMALTTD
 70
     2
  9
$DIMTXSTY
  7
STANDARD
  9
$DIMAUNIT
 70
     0
  9
$LUNITS
 70
     2
  9
$LUPREC
 70
     4
  9
$SKETCHINC
 40
0.1
  9
$FILLETRAD
 40
0.0
  9
$AUNITS
 70
     0
  9
$AUPREC
 70
     0
  9
$MENU
  1
acad
  9
$ELEVATION
 40
0.0
  9
$PELEVATION
 40
0.0
  9
$THICKNESS
 40
0.0
  9
$LIMCHECK
 70
     0
  9
$BLIPMODE
 70
     0
  9
$CHAMFERA
 40
8.0
  9
$CHAMFERB
 40
8.0
  9
$CHAMFERC
 40
0.0
  9
$CHAMFERD
 40
0.0
  9
$SKPOLY
 70
     0
  9
$TDCREATE
 40
2450178.569598264
  9
$TDUPDATE
 40
2455065.603424837
  9
$TDINDWG
 40
0.6474049537
  9
$TDUSRTIMER
 40
0.6474049537
  9
$USRTIMER
 70
     1
  9
$ANGBASE
 50
0.0
  9
$ANGDIR
 70
     0
  9
$PDMODE
 70
     0
  9
$PDSIZE
 40
0.0
  9
$PLINEWID
 40
0.0
  9
$COORDS
 70
     2
  9
$SPLFRAME
 70
     0
  9
$SPLINETYPE
 70
     6
  9
$SPLINESEGS
 70
     8
  9
$ATTDIA
 70
     0
  9
$ATTREQ
 70
     1
  9
$HANDLING
 70
-16383
  9
$HANDSEED
  5
11D5
  9
$SURFTAB1
 70
     6
  9
$SURFTAB2
 70
     6
  9
$SURFTYPE
 70
     6
  9
$SURFU
 70
     6
  9
$SURFV
 70
     6
  9
$UCSNAME
  2

  9
$UCSORG
 10
0.0
 20
0.0
 30
0.0
  9
$UCSXDIR
 10
1.0
 20
0.0
 30
0.0
  9
$UCSYDIR
 10
0.0
 20
1.0
 30
0.0
  9
$PUCSNAME
  2

  9
$PUCSORG
 10
0.0
 20
0.0
 30
0.0
  9
$PUCSXDIR
 10
1.0
 20
0.0
 30
0.0
  9
$PUCSYDIR
 10
0.0
 20
1.0
 30
0.0
  9
$USERI1
 70
     0
  9
$USERI2
 70
     0
  9
$USERI3
 70
     0
  9
$USERI4
 70
     0
  9
$USERI5
 70
     0
  9
$USERR1
 40
0.0
  9
$USERR2
 40
0.0
  9
$USERR3
 40
0.0
  9
$USERR4
 40
0.0
  9
$USERR5
 40
0.0
  9
$WORLDVIEW
 70
     1
  9
$SHADEDGE
 70
     3
  9
$SHADEDIF
 70
    70
  9
$TILEMODE
 70
     1
  9
$MAXACTVP
 70
    16
  9
$PINSBASE
 10
0.0
 20
0.0
 30
0.0
  9
$PLIMCHECK
 70
     0
  9
$PEXTMIN
 10
1.000000000000000E+20
 20
1.000000000000000E+20
 30
1.000000000000000E+20
  9
$PEXTMAX
 10
-1.000000000000000E+20
 20
-1.000000000000000E+20
 30
-1.000000000000000E+20
  9
$PLIMMIN
 10
0.0
 20
0.0
  9
$PLIMMAX
 10
12.0
 20
9.0
  9
$UNITMODE
 70
     0
  9
$VISRETAIN
 70
     0
  9
$PLINEGEN
 70
     0
  9
$PSLTSCALE
 70
     0
  9
$TREEDEPTH
 70
  3020
  9
$PICKSTYLE
 70
     1
  9
$CMLSTYLE
  2
STANDARD
  9
$CMLJUST
 70
     0
  9
$CMLSCALE
 40
1.0
  9
$SAVEIMAGES
 70
     1
  0
ENDSEC
  0
SECTION
  2
CLASSES
  0
CLASS
  1
ACDBDICTIONARYWDFLT
  2
AcDbDictionaryWithDefault
  3
AutoCAD 2000
 90
    32768
280
     0
281
     0
  0
CLASS
  1
ACDBPLACEHOLDER
  2
AcDbPlaceHolder
  3
AutoCAD 2000
 90
    32768
280
     0
281
     0
  0
CLASS
  1
LAYOUT
  2
AcDbLayout
  3
AutoCAD 2000
 90
    32768
280
     0
281
     0
  0
CLASS
  1
LONG_TRANSACTION
  2
AcDbLongTransaction
  3
AutoCAD 2000
 90
    32768
280
     0
281
     0
  0
CLASS
  1
LWPOLYLINE
  2
AcDbPolyline
  3
AutoCAD 2000
 90
    32768
280
     0
281
     1
  0
CLASS
  1
HATCH
  2
AcDbHatch
  3
AutoCAD 2000
 90
    32768
280
     0
281
     1
  0
CLASS
  1
XRECORD
  2
AcDbXrecord
  3
AutoCAD 2000
 90
    32768
280
     0
281
     0
  0
CLASS
  1
LONG_TRANSACTION
  2
AcDbLongTransaction
  3
AutoCAD 2000
 90
    32768
280
     0
281
     0
  0
CLASS
  1
LWPOLYLINE
  2
AcDbPolyline
  3
AutoCAD 2000
 90
    32768
280
     0
281
     1
  0
CLASS
  1
HATCH
  2
AcDbHatch
  3
AutoCAD 2000
 90
    32768
280
     0
281
     1
  0
CLASS
  1
XRECORD
  2
AcDbXrecord
  3
AutoCAD 2000
 90
    32768
280
     0
281
     0
  0
CLASS
  1
LONG_TRANSACTION
  2
AcDbLongTransaction
  3
AutoCAD 2000
 90
    32768
280
     0
281
     0
  0
CLASS
  1
LWPOLYLINE
  2
AcDbPolyline
  3
AutoCAD 2000
 90
    32768
280
     0
281
     1
  0
CLASS
  1
HATCH
  2
AcDbHatch
  3
AutoCAD 2000
 90
    32768
280
     0
281
     1
  0
CLASS
  1
XRECORD
  2
AcDbXrecord
  3
AutoCAD 2000
 90
    32768
280
     0
281
     0
  0
CLASS
  1
LONG_TRANSACTION
  2
AcDbLongTransaction
  3
AutoCAD 2000
 90
    32768
280
     0
281
     0
  0
CLASS
  1
LWPOLYLINE
  2
AcDbPolyline
  3
AutoCAD 2000
 90
    32768
280
     0
281
     1
  0
CLASS
  1
HATCH
  2
AcDbHatch
  3
AutoCAD 2000
 90
    32768
280
     0
281
     1
  0
CLASS
  1
XRECORD
  2
AcDbXrecord
  3
AutoCAD 2000
 90
    32768
280
     0
281
     0
  0
CLASS
  1
LONG_TRANSACTION
  2
AcDbLongTransaction
  3
AutoCAD 2000
 90
    32768
280
     0
281
     0
  0
CLASS
  1
LWPOLYLINE
  2
AcDbPolyline
  3
AutoCAD 2000
 90
    32768
280
     0
281
     1
  0
CLASS
  1
HATCH
  2
AcDbHatch
  3
AutoCAD 2000
 90
    32768
280
     0
281
     1
  0
CLASS
  1
XRECORD
  2
AcDbXrecord
  3
AutoCAD 2000
 90
    32768
280
     0
281
     0
  0
CLASS
  1
LONG_TRANSACTION
  2
AcDbLongTransaction
  3
AutoCAD 2000
 90
    32768
280
     0
281
     0
  0
CLASS
  1
LWPOLYLINE
  2
AcDbPolyline
  3
AutoCAD 2000
 90
    32768
280
     0
281
     1
  0
CLASS
  1
HATCH
  2
AcDbHatch
  3
AutoCAD 2000
 90
    32768
280
     0
281
     1
  0
CLASS
  1
XRECORD
  2
AcDbXrecord
  3
AutoCAD 2000
 90
    32768
280
     0
281
     0
  0
CLASS
  1
LONG_TRANSACTION
  2
AcDbLongTransaction
  3
AutoCAD 2000
 90
    32768
280
     0
281
     0
  0
CLASS
  1
LWPOLYLINE
  2
AcDbPolyline
  3
AutoCAD 2000
 90
    32768
280
     0
281
     1
  0
CLASS
  1
HATCH
  2
AcDbHatch
  3
AutoCAD 2000
 90
    32768
280
     0
281
     1
  0
CLASS
  1
XRECORD
  2
AcDbXrecord
  3
AutoCAD 2000
 90
    32768
280
     0
281
     0
  0
CLASS
  1
LONG_TRANSACTION
  2
AcDbLongTransaction
  3
AutoCAD 2000
 90
    32768
280
     0
281
     0
  0
CLASS
  1
LWPOLYLINE
  2
AcDbPolyline
  3
AutoCAD 2000
 90
    32768
280
     0
281
     1
  0
CLASS
  1
HATCH
  2
AcDbHatch
  3
AutoCAD 2000
 90
    32768
280
     0
281
     1
  0
CLASS
  1
XRECORD
  2
AcDbXrecord
  3
AutoCAD 2000
 90
    32768
280
     0
281
     0
  0
CLASS
  1
LONG_TRANSACTION
  2
AcDbLongTransaction
  3
AutoCAD 2000
 90
    32768
280
     0
281
     0
  0
CLASS
  1
LWPOLYLINE
  2
AcDbPolyline
  3
AutoCAD 2000
 90
    32768
280
     0
281
     1
  0
CLASS
  1
HATCH
  2
AcDbHatch
  3
AutoCAD 2000
 90
    32768
280
     0
281
     1
  0
CLASS
  1
XRECORD
  2
AcDbXrecord
  3
AutoCAD 2000
 90
    32768
280
     0
281
     0
  0
CLASS
  1
LONG_TRANSACTION
  2
AcDbLongTransaction
  3
AutoCAD 2000
 90
    32768
280
     0
281
     0
  0
CLASS
  1
LWPOLYLINE
  2
AcDbPolyline
  3
AutoCAD 2000
 90
    32768
280
     0
281
     1
  0
CLASS
  1
HATCH
  2
AcDbHatch
  3
AutoCAD 2000
 90
    32768
280
     0
281
     1
  0
CLASS
  1
XRECORD
  2
AcDbXrecord
  3
AutoCAD 2000
 90
    32768
280
     0
281
     0
  0
CLASS
  1
LONG_TRANSACTION
  2
AcDbLongTransaction
  3
AutoCAD 2000
 90
    32768
280
     0
281
     0
  0
CLASS
  1
LWPOLYLINE
  2
AcDbPolyline
  3
AutoCAD 2000
 90
    32768
280
     0
281
     1
  0
CLASS
  1
HATCH
  2
AcDbHatch
  3
AutoCAD 2000
 90
    32768
280
     0
281
     1
  0
CLASS
  1
XRECORD
  2
AcDbXrecord
  3
AutoCAD 2000
 90
    32768
280
     0
281
     0
  0
CLASS
  1
LONG_TRANSACTION
  2
AcDbLongTransaction
  3
AutoCAD 2000
 90
    32768
280
     0
281
     0
  0
CLASS
  1
LWPOLYLINE
  2
AcDbPolyline
  3
AutoCAD 2000
 90
    32768
280
     0
281
     1
  0
CLASS
  1
HATCH
  2
AcDbHatch
  3
AutoCAD 2000
 90
    32768
280
     0
281
     1
  0
CLASS
  1
XRECORD
  2
AcDbXrecord
  3
AutoCAD 2000
 90
    32768
280
     0
281
     0
  0
CLASS
  1
LONG_TRANSACTION
  2
AcDbLongTransaction
  3
AutoCAD 2000
 90
    32768
280
     0
281
     0
  0
CLASS
  1
LWPOLYLINE
  2
AcDbPolyline
  3
AutoCAD 2000
 90
    32768
280
     0
281
     1
  0
CLASS
  1
HATCH
  2
AcDbHatch
  3
AutoCAD 2000
 90
    32768
280
     0
281
     1
  0
CLASS
  1
XRECORD
  2
AcDbXrecord
  3
AutoCAD 2000
 90
    32768
280
     0
281
     0
  0
CLASS
  1
LONG_TRANSACTION
  2
AcDbLongTransaction
  3
AutoCAD 2000
 90
    32768
280
     0
281
     0
  0
CLASS
  1
LWPOLYLINE
  2
AcDbPolyline
  3
AutoCAD 2000
 90
    32768
280
     0
281
     1
  0
CLASS
  1
HATCH
  2
AcDbHatch
  3
AutoCAD 2000
 90
    32768
280
     0
281
     1
  0
CLASS
  1
XRECORD
  2
AcDbXrecord
  3
AutoCAD 2000
 90
    32768
280
     0
281
     0
  0
CLASS
  1
LONG_TRANSACTION
  2
AcDbLongTransaction
  3
AutoCAD 2000
 90
    32768
280
     0
281
     0
  0
CLASS
  1
LWPOLYLINE
  2
AcDbPolyline
  3
AutoCAD 2000
 90
    32768
280
     0
281
     1
  0
CLASS
  1
HATCH
  2
AcDbHatch
  3
AutoCAD 2000
 90
    32768
280
     0
281
     1
  0
CLASS
  1
XRECORD
  2
AcDbXrecord
  3
AutoCAD 2000
 90
    32768
280
     0
281
     0
  0
ENDSEC
  0
SECTION
  2
TABLES
  0
TABLE
  2
VPORT
  5
1F
330
0
100
AcDbSymbolTable
 70
     3
  0
VPORT
  5
11C4
330
1F
100
AcDbSymbolTableRecord
100
AcDbViewportTableRecord
  2
*ACTIVE
 70
     0
 10
0.0
 20
0.0
 11
1.0
 21
1.0
 12
339.8808365565856
 22
109.1074541966541
 13
0.0
 23
0.0
 14
1.0
 24
1.0
 15
0.0
 25
0.0
 16
0.0
 26
0.0
 36
1.0
 17
0.0
 27
0.0
 37
0.0
 40
484.8903410077273
 41
1.60759493670886
 42
50.0
 43
0.0
 44
0.0
 50
0.0
 51
0.0
 71
     0
 72
   100
 73
     1
 74
     0
 75
     0
 76
     0
 77
     0
 78
     0
  0
ENDTAB
  0
TABLE
  2
LTYPE
  5
1A
330
0
100
AcDbSymbolTable
 70
     3
  0
LTYPE
  5
1B
330
1A
100
AcDbSymbolTableRecord
100
AcDbLinetypeTableRecord
  2
BYBLOCK
 70
     0
  3

 72
    65
 73
     0
 40
0.0
  0
LTYPE
  5
1C
330
1A
100
AcDbSymbolTableRecord
100
AcDbLinetypeTableRecord
  2
BYLAYER
 70
     0
  3

 72
    65
 73
     0
 40
0.0
  0
LTYPE
  5
A
330
1A
100
AcDbSymbolTableRecord
100
AcDbLinetypeTableRecord
  2
CONTINUOUS
 70
     0
  3
Solid line
 72
    65
 73
     0
 40
0.0
  0
LTYPE
  5
3D
330
1A
100
AcDbSymbolTableRecord
100
AcDbLinetypeTableRecord
  2
CENTER
 70
     0
  3
----- - ----- - ----- - ----- - -----
 72
    65
 73
     4
 40
35.0
 49
30.0
 74
     0
 49
-1.5
 74
     0
 49
2.0
 74
     0
 49
-1.5
 74
     0
  0
LTYPE
  5
174
330
1A
100
AcDbSymbolTableRecord
100
AcDbLinetypeTableRecord
  2
PHANTOM
 70
     0
  3
----- - - ----- - - ----- - - ----- - - -----
 72
    65
 73
     6
 40
22.5
 49
15.0
 74
     4
 75
     0
340
0
 46
1.0
 50
0.0
 44
0.0
 45
0.0
 49
-1.5
 74
     4
 75
     0
340
0
 46
1.0
 50
0.0
 44
0.0
 45
0.0
 49
1.5
 74
     4
 75
     0
340
0
 46
1.0
 50
0.0
 44
0.0
 45
0.0
 49
-1.5
 74
     4
 75
     0
340
0
 46
1.0
 50
0.0
 44
0.0
 45
0.0
 49
1.5
 74
     4
 75
     0
340
0
 46
1.0
 50
0.0
 44
0.0
 45
0.0
 49
-1.5
 74
     4
 75
     0
340
0
 46
1.0
 50
0.0
 44
0.0
 45
0.0
  0
ENDTAB
  0
TABLE
  2
LAYER
  5
14
102
{ACAD_XDICTIONARY
360
15
102
}
330
0
100
AcDbSymbolTable
 70
     4
  0
LAYER
  5
6
330
14
100
AcDbSymbolTableRecord
100
AcDbLayerTableRecord
  2
0
 70
     0
 62
     7
  6
CONTINUOUS
  0
LAYER
  5
28
330
14
100
AcDbSymbolTableRecord
100
AcDbLayerTableRecord
  2
L-ZISSEN
 70
     0
 62
     7
  6
CONTINUOUS
  0
LAYER
  5
3C
330
14
100
AcDbSymbolTableRecord
100
AcDbLayerTableRecord
  2
L-TYUSIN
 70
     0
 62
     1
  6
CENTER
  0
LAYER
  5
175
330
14
100
AcDbSymbolTableRecord
100
AcDbLayerTableRecord
  2
L-SOUZOU
 70
     0
 62
     2
  6
PHANTOM
  0
ENDTAB
  0
TABLE
  2
STYLE
  5
17
330
0
100
AcDbSymbolTable
 70
     1
  0
STYLE
  5
18
330
17
100
AcDbSymbolTableRecord
100
AcDbTextStyleTableRecord
  2
STANDARD
 70
     0
 40
0.0
 41
1.0
 50
0.0
 71
     0
 42
4.5
  3
txt.shx
  4

  0
ENDTAB
  0
TABLE
  2
VIEW
  5
1D
330
0
100
AcDbSymbolTable
 70
     0
  0
ENDTAB
  0
TABLE
  2
UCS
  5
1E
330
0
100
AcDbSymbolTable
 70
     0
  0
ENDTAB
  0
TABLE
  2
APPID
  5
21
330
0
100
AcDbSymbolTable
 70
     1
  0
APPID
  5
22
330
21
100
AcDbSymbolTableRecord
100
AcDbRegAppTableRecord
  2
ACAD
 70
     0
  0
ENDTAB
  0
TABLE
  2
DIMSTYLE
  5
23
330
0
100
AcDbSymbolTable
 70
     1
  0
DIMSTYLE
105
2B
330
23
100
AcDbSymbolTableRecord
100
AcDbDimStyleTableRecord
  2
STANDARD
 70
     0
  3

  4

  5

  6

  7

 40
2.0
 41
2.0
 42
0.0625
 43
0.38
 44
0.18
 45
0.0
 46
0.0
 47
0.0
 48
0.0
140
4.5
141
0.09
142
0.0
143
25.4
144
1.0
145
0.0
146
1.0
147
0.09
 71
     0
 72
     0
 73
     0
 74
     0
 75
     0
 76
     0
 77
     1
 78
     8
170
     0
171
     2
172
     0
173
     0
174
     0
175
     0
176
     0
177
     0
178
     0
270
     2
271
     4
272
     4
273
     2
274
     2
340
18
275
     0
280
     0
281
     0
282
     0
283
     1
284
     0
285
     0
286
     0
287
     3
288
     0
  0
ENDTAB
  0
TABLE
  2
BLOCK_RECORD
  5
1
330
0
100
AcDbSymbolTable
 70
     0
  0
BLOCK_RECORD
  5
2
102
{ACAD_XDICTIONARY
360
3
102
}
330
1
100
AcDbSymbolTableRecord
100
AcDbBlockTableRecord
  2
*MODEL_SPACE
  0
BLOCK_RECORD
  5
E
102
{ACAD_XDICTIONARY
360
F
102
}
330
1
100
AcDbSymbolTableRecord
100
AcDbBlockTableRecord
  2
*PAPER_SPACE
  0
ENDTAB
  0
ENDSEC
  0
SECTION
  2
BLOCKS
  0
BLOCK
  5
5
330
2
100
AcDbEntity
  8
0
100
AcDbBlockBegin
  2
*MODEL_SPACE
 70
     0
 10
0.0
 20
0.0
 30
0.0
  3
*MODEL_SPACE
  1

  0
ENDBLK
  5
B
330
2
100
AcDbEntity
  8
0
100
AcDbBlockEnd
  0
BLOCK
  5
11
330
E
100
AcDbEntity
 67
     1
  8
0
100
AcDbBlockBegin
  2
*PAPER_SPACE
 70
     0
 10
0.0
 20
0.0
 30
0.0
  3
*PAPER_SPACE
  1

  0
ENDBLK
  5
12
330
E
100
AcDbEntity
 67
     1
  8
0
100
AcDbBlockEnd
  0
ENDSEC
  0
SECTION
  2
ENTITIES
  0
LINE
  5
2C
330
2
100
AcDbEntity
  8
L-ZISSEN
100
AcDbLine
 10
253.9433704725884
 20
83.00000000000228
 30
0.0
 11
336.9433704725911
 21
83.00000000000183
 31
0.0
  0
LINE
  5
2D
330
2
100
AcDbEntity
  8
L-ZISSEN
100
AcDbLine
 10
306.1754212801587
 20
138.0000000000022
 30
0.0
 11
312.7113196650208
 21
138.0000000000018
 31
0.0
  0
LINE
  5
2E
330
2
100
AcDbEntity
  8
L-ZISSEN
100
AcDbLine
 10
301.4433704725898
 20
131.5000000000004
 30
0.0
 11
317.4433704725897
 21
131.5000000000004
 31
0.0
  0
LINE
  5
2F
330
2
100
AcDbEntity
  8
L-ZISSEN
100
AcDbLine
 10
338.4433704725893
 20
53.00000000000181
 30
0.0
 11
252.4433704725902
 21
53.00000000000181
 31
0.0
  0
LINE
  5
32
330
2
100
AcDbEntity
  8
L-ZISSEN
100
AcDbLine
 10
250.4433704725897
 20
68.00000000000091
 30
0.0
 11
340.4433704725897
 21
68.00000000000091
 31
0.0
  0
LINE
  5
33
330
2
100
AcDbEntity
  8
L-ZISSEN
100
AcDbLine
 10
340.4433704725897
 20
124.0000000000009
 30
0.0
 11
250.4433704725897
 21
124.0000000000009
 31
0.0
  0
LINE
  5
34
330
2
100
AcDbEntity
  8
L-ZISSEN
100
AcDbLine
 10
250.4433704725897
 20
68.00000000000091
 30
0.0
 11
340.4433704725897
 21
68.00000000000091
 31
0.0
  0
LINE
  5
35
330
2
100
AcDbEntity
  8
L-ZISSEN
100
AcDbLine
 10
259.9433704725902
 20
-7.000000000000454
 30
0.0
 11
330.9433704725893
 21
-7.000000000000454
 31
0.0
  0
LINE
  5
36
330
2
100
AcDbEntity
  8
L-ZISSEN
100
AcDbLine
 10
330.9433704725893
 20
-7.000000000000454
 30
0.0
 11
259.9433704725902
 21
-7.000000000000454
 31
0.0
  0
LINE
  5
37
330
2
100
AcDbEntity
  8
L-ZISSEN
100
AcDbLine
 10
333.0266315620133
 20
-5.001733853814585
 30
0.0
 11
257.8601093831662
 21
-5.001733853814585
 31
0.0
  0
LINE
  5
38
330
2
100
AcDbEntity
  8
L-ZISSEN
100
AcDbLine
 10
322.4433704725902
 20
53.00000000000181
 30
0.0
 11
268.4433704725893
 21
53.00000000000181
 31
0.0
  0
LINE
  5
39
330
2
100
AcDbEntity
  8
L-ZISSEN
100
AcDbLine
 10
326.9433704725884
 20
53.00000000000181
 30
0.0
 11
263.9433704725888
 21
53.00000000000181
 31
0.0
  0
LINE
  5
3B
330
2
100
AcDbEntity
  8
L-TYUSIN
100
AcDbLine
 10
349.1112993794038
 20
100.0
 30
0.0
 11
241.7754415657757
 21
100.0
 31
0.0
  0
LINE
  5
3E
330
2
100
AcDbEntity
  8
L-TYUSIN
100
AcDbLine
 10
150.0
 20
300.0
 30
0.0
 11
50.0
 21
300.0
 31
0.0
  0
LINE
  5
41
330
2
100
AcDbEntity
  8
L-ZISSEN
100
AcDbLine
 10
55.0
 20
68.00000000000091
 30
0.0
 11
144.9999999999977
 21
68.00000000000091
 31
0.0
  0
LINE
  5
42
330
2
100
AcDbEntity
  8
L-TYUSIN
100
AcDbLine
 10
78.29416460855554
 20
100.0
 30
0.0
 11
121.5961632279027
 21
100.0
 31
0.0
  0
LINE
  5
43
330
2
100
AcDbEntity
  8
L-ZISSEN
100
AcDbLine
 10
127.0000000000004
 20
53.00000000000181
 30
0.0
 11
72.99999999999954
 21
53.00000000000181
 31
0.0
  0
LINE
  5
44
330
2
100
AcDbEntity
  8
L-ZISSEN
100
AcDbLine
 10
131.5000000000009
 20
53.00000000000181
 30
0.0
 11
68.49999999999909
 21
53.00000000000181
 31
0.0
  0
LINE
  5
45
330
2
100
AcDbEntity
  8
L-ZISSEN
100
AcDbLine
 10
140.0
 20
53.00000000000181
 30
0.0
 11
57.00000000000045
 21
53.00000000000181
 31
0.0
  0
LINE
  5
46
330
2
100
AcDbEntity
  8
L-ZISSEN
100
AcDbLine
 10
64.50000000000045
 20
-7.000000000000454
 30
0.0
 11
135.4999999999995
 21
-7.000000000000454
 31
0.0
  0
LINE
  5
47
330
2
100
AcDbEntity
  8
L-ZISSEN
100
AcDbLine
 10
135.4999999999995
 20
-7.000000000000454
 30
0.0
 11
64.50000000000045
 21
-7.000000000000454
 31
0.0
  0
LINE
  5
48
330
2
100
AcDbEntity
  8
L-ZISSEN
100
AcDbLine
 10
137.5832610894235
 20
-5.001733853814585
 30
0.0
 11
62.41673891057644
 21
-5.001733853814585
 31
0.0
  0
LINE
  5
49
330
2
100
AcDbEntity
  8
L-ZISSEN
100
AcDbLine
 10
137.0000000000003
 20
124.0
 30
0.0
 11
62.99999999999954
 21
124.0000000000009
 31
0.0
  0
LINE
  5
4B
330
2
100
AcDbEntity
  8
L-ZISSEN
100
AcDbLine
 10
114.4999999999998
 20
131.5000000000004
 30
0.0
 11
130.4999999999998
 21
131.5000000000004
 31
0.0
  0
LINE
  5
4C
330
2
100
AcDbEntity
  8
L-ZISSEN
100
AcDbLine
 10
73.50000000000136
 20
72.20000000000027
 30
0.0
 11
126.5000000000009
 21
72.20000000000027
 31
0.0
  0
LINE
  5
4D
330
2
100
AcDbEntity
  8
L-ZISSEN
100
AcDbLine
 10
73.50000000000136
 20
76.19999999999982
 30
0.0
 11
126.5000000000009
 21
76.19999999999982
 31
0.0
  0
LINE
  5
52
330
2
100
AcDbEntity
  8
L-TYUSIN
100
AcDbLine
 10
100.0
 20
153.0804951503546
 30
0.0
 11
100.0
 21
-121.4409902657316
 31
0.0
  0
LINE
  5
5D
330
2
100
AcDbEntity
  8
L-ZISSEN
100
AcDbLine
 10
73.50000000000125
 20
116.0000000000022
 30
0.0
 11
73.50000000000136
 21
68.00000000000091
 31
0.0
  0
LINE
  5
5E
330
2
100
AcDbEntity
  8
L-ZISSEN
100
AcDbLine
 10
55.0
 20
81.5000000000009
 30
0.0
 11
55.0
 21
68.00000000000091
 31
0.0
  0
ARC
  5
5F
330
2
100
AcDbEntity
  8
L-ZISSEN
100
AcDbCircle
 10
57.00000000000045
 20
55.0
 30
0.0
 40
1.999999999999317
100
AcDbArc
 50
180.0
 51
270.0
  0
LINE
  5
60
330
2
100
AcDbEntity
  8
L-ZISSEN
100
AcDbLine
 10
62.41673891057644
 20
-5.001733853814585
 30
0.0
 11
59.99999999999772
 21
53.00000000000181
 31
0.0
  0
LINE
  5
61
330
2
100
AcDbEntity
  8
L-ZISSEN
100
AcDbLine
 10
64.50000000000045
 20
-7.000000000000454
 30
0.0
 11
62.41673891057644
 21
-5.001733853814585
 31
0.0
  0
LINE
  5
62
330
2
100
AcDbEntity
  8
L-ZISSEN
100
AcDbLine
 10
55.0
 20
68.00000000000091
 30
0.0
 11
55.0
 21
55.0
 31
0.0
  0
LINE
  5
63
330
2
100
AcDbEntity
  8
L-ZISSEN
100
AcDbLine
 10
64.0000000000009
 20
68.00000000000091
 30
0.0
 11
64.0000000000009
 21
53.00000000000181
 31
0.0
  0
LINE
  5
66
330
2
100
AcDbEntity
  8
L-ZISSEN
100
AcDbLine
 10
73.50000000000136
 20
83.00000000000181
 30
0.0
 11
56.5000000000009
 21
83.00000000000181
 31
0.0
  0
ARC
  5
67
330
2
100
AcDbEntity
  8
L-ZISSEN
100
AcDbCircle
 10
56.5000000000009
 20
81.5000000000009
 30
0.0
 40
1.500000000000341
100
AcDbArc
 50
90.0
 51
180.0
  0
LINE
  5
68
330
2
100
AcDbEntity
  8
L-ZISSEN
100
AcDbLine
 10
62.99999999999954
 20
124.0000000000009
 30
0.0
 11
62.99999999999966
 21
83.00000000000181
 31
0.0
  0
LINE
  5
69
330
2
100
AcDbEntity
  8
L-ZISSEN
100
AcDbLine
 10
72.23205080756895
 20
138.0000000000022
 30
0.0
 11
78.76794919243105
 21
138.0000000000018
 31
0.0
  0
LINE
  5
6A
330
2
100
AcDbEntity
  8
L-ZISSEN
100
AcDbLine
 10
80.50000000000011
 20
126.0000000000022
 30
0.0
 11
70.50000000000011
 21
126.0000000000018
 31
0.0
  0
LINE
  5
6B
330
2
100
AcDbEntity
  8
L-ZISSEN
100
AcDbLine
 10
73.00000000000034
 20
124.0000000000009
 30
0.0
 11
73.00000000000034
 21
126.0000000000018
 31
0.0
  0
LINE
  5
6C
330
2
100
AcDbEntity
  8
L-ZISSEN
100
AcDbLine
 10
70.50000000000011
 20
126.0000000000018
 30
0.0
 11
70.50000000000011
 21
135.0000000000018
 31
0.0
  0
LINE
  5
6D
330
2
100
AcDbEntity
  8
L-ZISSEN
100
AcDbLine
 10
70.50000000000011
 20
135.0000000000018
 30
0.0
 11
72.23205080756873
 21
138.0000000000018
 31
0.0
  0
LINE
  5
6E
330
2
100
AcDbEntity
  8
L-ZISSEN
100
AcDbLine
 10
73.49999999999909
 20
116.0000000000004
 30
0.0
 11
81.49999999999909
 21
124.0000000000004
 31
0.0
  0
LINE
  5
6F
330
2
100
AcDbEntity
  8
L-ZISSEN
100
AcDbLine
 10
80.49999999999988
 20
135.0000000000013
 30
0.0
 11
80.50000000000011
 21
126.0000000000022
 31
0.0
  0
LINE
  5
70
330
2
100
AcDbEntity
  8
L-ZISSEN
100
AcDbLine
 10
78.00000000000011
 20
126.0000000000022
 30
0.0
 11
78.00000000000011
 21
124.0000000000013
 31
0.0
  0
LINE
  5
71
330
2
100
AcDbEntity
  8
L-ZISSEN
100
AcDbLine
 10
80.50000000000011
 20
135.0000000000018
 30
0.0
 11
78.7679491924315
 21
138.0000000000018
 31
0.0
  0
CIRCLE
  5
74
330
2
100
AcDbEntity
  8
L-ZISSEN
100
AcDbCircle
 10
100.0
 20
100.0
 30
0.0
 40
15.0
  0
LINE
  5
75
330
2
100
AcDbEntity
  8
L-ZISSEN
100
AcDbLine
 10
89.0
 20
126.8000000000006
 30
0.0
 11
111.0
 21
126.8000000000006
 31
0.0
  0
LINE
  5
76
330
2
100
AcDbEntity
  8
L-ZISSEN
100
AcDbLine
 10
107.0
 20
145.3000000000006
 30
0.0
 11
93.0
 21
145.3000000000006
 31
0.0
  0
LINE
  5
77
330
2
100
AcDbEntity
  8
L-ZISSEN
100
AcDbLine
 10
90.0
 20
130.3000000000011
 30
0.0
 11
110.0
 21
130.3000000000011
 31
0.0
  0
LINE
  5
78
330
2
100
AcDbEntity
  8
L-ZISSEN
100
AcDbLine
 10
110.25
 20
126.8000000000006
 30
0.0
 11
89.74999999999999
 21
126.8000000000001
 31
0.0
  0
LINE
  5
79
330
2
100
AcDbEntity
  8
L-ZISSEN
100
AcDbLine
 10
110.0
 20
126.8000000000006
 30
0.0
 11
90.0
 21
126.8000000000006
 31
0.0
  0
LINE
  5
7A
330
2
100
AcDbEntity
  8
L-ZISSEN
100
AcDbLine
 10
110.25
 20
126.8000000000006
 30
0.0
 11
89.74999999999999
 21
126.8000000000001
 31
0.0
  0
LINE
  5
7B
330
2
100
AcDbEntity
  8
L-ZISSEN
100
AcDbLine
 10
89.0
 20
124.0000000000004
 30
0.0
 11
89.0
 21
126.8000000000006
 31
0.0
  0
LINE
  5
7C
330
2
100
AcDbEntity
  8
L-ZISSEN
100
AcDbLine
 10
93.0
 20
130.3000000000006
 30
0.0
 11
93.0
 21
145.3000000000006
 31
0.0
  0
LINE
  5
7D
330
2
100
AcDbEntity
  8
L-ZISSEN
100
AcDbLine
 10
90.0
 20
126.8000000000006
 30
0.0
 11
90.0
 21
130.3000000000006
 31
0.0
  0
LINE
  5
7E
330
2
100
AcDbEntity
  8
L-ZISSEN
100
AcDbLine
 10
94.80384757729348
 20
130.3000000000006
 30
0.0
 11
94.80384757729348
 21
126.8000000000006
 31
0.0
  0
LINE
  5
7F
330
2
100
AcDbEntity
  8
L-ZISSEN
100
AcDbLine
 10
111.0
 20
126.8000000000006
 30
0.0
 11
111.0
 21
124.0
 31
0.0
  0
LINE
  5
80
330
2
100
AcDbEntity
  8
L-ZISSEN
100
AcDbLine
 10
107.0
 20
130.3000000000006
 30
0.0
 11
107.0
 21
145.3000000000006
 31
0.0
  0
LINE
  5
81
330
2
100
AcDbEntity
  8
L-ZISSEN
100
AcDbLine
 10
105.1961524227067
 20
130.3000000000006
 30
0.0
 11
105.1961524227067
 21
126.8000000000006
 31
0.0
  0
LINE
  5
82
330
2
100
AcDbEntity
  8
L-ZISSEN
100
AcDbLine
 10
110.0
 20
126.8000000000006
 30
0.0
 11
110.0
 21
130.3000000000006
 31
0.0
  0
LINE
  5
83
330
2
100
AcDbEntity
  8
L-ZISSEN
100
AcDbLine
 10
114.5000000000001
 20
131.5000000000004
 30
0.0
 11
114.5000000000003
 21
124.0
 31
0.0
  0
LINE
  5
88
330
2
100
AcDbEntity
  8
L-ZISSEN
100
AcDbLine
 10
144.9999999999977
 20
81.5000000000009
 30
0.0
 11
144.9999999999977
 21
68.00000000000091
 31
0.0
  0
LINE
  5
89
330
2
100
AcDbEntity
  8
L-ZISSEN
100
AcDbLine
 10
126.5000000000009
 20
116.0000000000004
 30
0.0
 11
126.5000000000009
 21
68.00000000000091
 31
0.0
  0
LINE
  5
99
330
2
100
AcDbEntity
  8
L-ZISSEN
100
AcDbLine
 10
137.5832610894235
 20
-5.001733853814585
 30
0.0
 11
140.0
 21
53.00000000000181
 31
0.0
  0
LINE
  5
9A
330
2
100
AcDbEntity
  8
L-ZISSEN
100
AcDbLine
 10
135.4999999999995
 20
-7.000000000000454
 30
0.0
 11
137.5832610894235
 21
-5.001733853814585
 31
0.0
  0
LINE
  5
9E
330
2
100
AcDbEntity
  8
L-ZISSEN
100
AcDbLine
 10
140.0
 20
53.00000000000181
 30
0.0
 11
144.9999999999977
 21
53.00000000000181
 31
0.0
  0
LINE
  5
9F
330
2
100
AcDbEntity
  8
L-ZISSEN
100
AcDbLine
 10
144.9999999999977
 20
53.00000000000181
 30
0.0
 11
140.9999999999991
 21
53.00000000000181
 31
0.0
  0
LINE
  5
A3
330
2
100
AcDbEntity
  8
L-ZISSEN
100
AcDbLine
 10
136.0000000000013
 20
68.00000000000091
 30
0.0
 11
136.0000000000013
 21
53.00000000000181
 31
0.0
  0
LINE
  5
A4
330
2
100
AcDbEntity
  8
L-ZISSEN
100
AcDbLine
 10
144.9999999999977
 20
53.00000000000181
 30
0.0
 11
144.9999999999977
 21
68.00000000000091
 31
0.0
  0
LINE
  5
A5
330
2
100
AcDbEntity
  8
L-ZISSEN
100
AcDbLine
 10
144.9999999999977
 20
68.00000000000091
 30
0.0
 11
144.9999999999977
 21
53.00000000000181
 31
0.0
  0
LINE
  5
A6
330
2
100
AcDbEntity
  8
L-ZISSEN
100
AcDbLine
 10
126.5000000000009
 20
83.00000000000181
 30
0.0
 11
143.499999999999
 21
83.00000000000181
 31
0.0
  0
LINE
  5
A7
330
2
100
AcDbEntity
  8
L-ZISSEN
100
AcDbLine
 10
126.5000000000009
 20
116.0000000000004
 30
0.0
 11
118.5000000000009
 21
124.0000000000004
 31
0.0
  0
LINE
  5
A8
330
2
100
AcDbEntity
  8
L-ZISSEN
100
AcDbLine
 10
130.4999999999998
 20
131.5000000000004
 30
0.0
 11
130.4999999999996
 21
124.0
 31
0.0
  0
ARC
  5
A9
330
2
100
AcDbEntity
  8
L-ZISSEN
100
AcDbCircle
 10
143.499999999999
 20
81.5000000000009
 30
0.0
 40
1.500000000000341
100
AcDbArc
 50
0.0
 51
90.0
  0
LINE
  5
AA
330
2
100
AcDbEntity
  8
L-ZISSEN
100
AcDbLine
 10
137.0000000000004
 20
124.0000000000009
 30
0.0
 11
137.0000000000004
 21
83.00000000000181
 31
0.0
  0
LINE
  5
AF
330
2
100
AcDbEntity
  8
L-TYUSIN
100
AcDbLine
 10
295.4433704725897
 20
152.2629475473536
 30
0.0
 11
295.4433704725897
 21
-117.0329315571166
 31
0.0
  0
LINE
  5
B9
330
2
100
AcDbEntity
  8
L-ZISSEN
100
AcDbLine
 10
255.6933704725884
 20
121.0
 30
0.0
 11
296.9433704725884
 21
121.0
 31
0.0
  0
LINE
  5
BA
330
2
100
AcDbEntity
  8
L-ZISSEN
100
AcDbLine
 10
301.4433704725888
 20
117.0000000000018
 30
0.0
 11
268.4433704725893
 21
117.0000000000018
 31
0.0
  0
LINE
  5
BB
330
2
100
AcDbEntity
  8
L-ZISSEN
100
AcDbLine
 10
259.9433704725884
 20
83.00000000000181
 30
0.0
 11
259.9433704725884
 21
68.00000000000091
 31
0.0
  0
LINE
  5
BC
330
2
100
AcDbEntity
  8
L-ZISSEN
100
AcDbLine
 10
254.6933704725883
 20
83.00000000000181
 30
0.0
 11
254.6933704725883
 21
68.00000000000091
 31
0.0
  0
LINE
  5
BD
330
2
100
AcDbEntity
  8
L-ZISSEN
100
AcDbLine
 10
250.4433704725897
 20
124.0000000000009
 30
0.0
 11
250.4433704725897
 21
76.20000000000027
 31
0.0
  0
LINE
  5
BE
330
2
100
AcDbEntity
  8
L-ZISSEN
100
AcDbLine
 10
259.9433704725884
 20
68.00000000000091
 30
0.0
 11
259.9433704725884
 21
53.00000000000181
 31
0.0
  0
LINE
  5
BF
330
2
100
AcDbEntity
  8
L-ZISSEN
100
AcDbLine
 10
250.4433704725896
 20
72.20000000000073
 30
0.0
 11
254.1433704725897
 21
72.20000000000073
 31
0.0
  0
LINE
  5
C0
330
2
100
AcDbEntity
  8
L-ZISSEN
100
AcDbLine
 10
254.1433704725897
 20
76.20000000000027
 30
0.0
 11
250.4433704725899
 21
76.20000000000027
 31
0.0
  0
LINE
  5
C1
330
2
100
AcDbEntity
  8
L-ZISSEN
100
AcDbLine
 10
250.4433704725897
 20
72.20000000000027
 30
0.0
 11
250.4433704725897
 21
68.00000000000091
 31
0.0
  0
LINE
  5
C2
330
2
100
AcDbEntity
  8
L-ZISSEN
100
AcDbLine
 10
254.1433704725897
 20
76.19999999999982
 30
0.0
 11
254.1433704725898
 21
72.20000000000027
 31
0.0
  0
LINE
  5
C3
330
2
100
AcDbEntity
  8
L-ZISSEN
100
AcDbLine
 10
257.8601093831662
 20
-5.001733853814585
 30
0.0
 11
255.4433704725898
 21
53.00000000000181
 31
0.0
  0
LINE
  5
C4
330
2
100
AcDbEntity
  8
L-ZISSEN
100
AcDbLine
 10
259.9433704725902
 20
-7.000000000000454
 30
0.0
 11
257.8601093831662
 21
-5.001733853814585
 31
0.0
  0
ARC
  5
C5
330
2
100
AcDbEntity
  8
L-ZISSEN
100
AcDbCircle
 10
252.4433704725902
 20
55.0
 30
0.0
 40
2.000000000001023
100
AcDbArc
 50
180.0
 51
270.0
  0
LINE
  5
C6
330
2
100
AcDbEntity
  8
L-ZISSEN
100
AcDbLine
 10
250.4433704725897
 20
68.00000000000091
 30
0.0
 11
250.4433704725897
 21
55.0
 31
0.0
  0
LINE
  5
C7
330
2
100
AcDbEntity
  8
L-ZISSEN
100
AcDbLine
 10
255.6933704725884
 20
121.0
 30
0.0
 11
255.6933704725884
 21
83.00000000000181
 31
0.0
  0
LINE
  5
C8
330
2
100
AcDbEntity
  8
L-ZISSEN
100
AcDbLine
 10
255.6933704725884
 20
121.0
 30
0.0
 11
253.9433704725885
 21
116.0000000000009
 31
0.0
  0
LINE
  5
C9
330
2
100
AcDbEntity
  8
L-ZISSEN
100
AcDbLine
 10
250.4433704725897
 20
116.0000000000009
 30
0.0
 11
253.9433704725885
 21
116.0000000000009
 31
0.0
  0
LINE
  5
CA
330
2
100
AcDbEntity
  8
L-ZISSEN
100
AcDbLine
 10
253.9433704725885
 20
116.0000000000009
 30
0.0
 11
253.9433704725884
 21
83.00000000000228
 31
0.0
  0
LINE
  5
CB
330
2
100
AcDbEntity
  8
L-ZISSEN
100
AcDbLine
 10
273.4433704725897
 20
117.0000000000018
 30
0.0
 11
273.4433704725897
 21
83.00000000000181
 31
0.0
  0
LINE
  5
CC
330
2
100
AcDbEntity
  8
L-ZISSEN
100
AcDbLine
 10
268.4433704725893
 20
117.0000000000018
 30
0.0
 11
268.4433704725893
 21
83.00000000000181
 31
0.0
  0
LINE
  5
107
330
2
100
AcDbEntity
  8
L-ZISSEN
100
AcDbLine
 10
284.4433704725897
 20
126.8000000000009
 30
0.0
 11
301.4433704725901
 21
126.8000000000009
 31
0.0
  0
LINE
  5
108
330
2
100
AcDbEntity
  8
L-ZISSEN
100
AcDbLine
 10
284.4433704725897
 20
126.8000000000011
 30
0.0
 11
301.4433704725901
 21
126.8000000000011
 31
0.0
  0
LINE
  5
109
330
2
100
AcDbEntity
  8
L-ZISSEN
100
AcDbLine
 10
301.4433704725901
 20
126.800000000001
 30
0.0
 11
285.1933704725897
 21
126.8000000000006
 31
0.0
  0
LINE
  5
10A
330
2
100
AcDbEntity
  8
L-ZISSEN
100
AcDbLine
 10
301.4433704725901
 20
126.8000000000011
 30
0.0
 11
285.4433704725897
 21
126.8000000000011
 31
0.0
  0
LINE
  5
10B
330
2
100
AcDbEntity
  8
L-ZISSEN
100
AcDbLine
 10
301.4433704725901
 20
126.800000000001
 30
0.0
 11
285.1933704725897
 21
126.8000000000006
 31
0.0
  0
LINE
  5
10C
330
2
100
AcDbEntity
  8
L-ZISSEN
100
AcDbLine
 10
285.4433704725897
 20
130.3000000000016
 30
0.0
 11
301.44337047259
 21
130.3000000000015
 31
0.0
  0
LINE
  5
10D
330
2
100
AcDbEntity
  8
L-ZISSEN
100
AcDbLine
 10
302.4433704725897
 20
145.3000000000011
 30
0.0
 11
288.4433704725897
 21
145.3000000000011
 31
0.0
  0
LINE
  5
10E
330
2
100
AcDbEntity
  8
L-ZISSEN
100
AcDbLine
 10
290.2472180498832
 20
130.3000000000011
 30
0.0
 11
290.2472180498832
 21
126.8000000000011
 31
0.0
  0
LINE
  5
10F
330
2
100
AcDbEntity
  8
L-ZISSEN
100
AcDbLine
 10
285.4433704725897
 20
126.8000000000011
 30
0.0
 11
285.4433704725897
 21
130.3000000000011
 31
0.0
  0
LINE
  5
110
330
2
100
AcDbEntity
  8
L-ZISSEN
100
AcDbLine
 10
288.4433704725897
 20
130.3000000000011
 30
0.0
 11
288.4433704725897
 21
145.3000000000011
 31
0.0
  0
LINE
  5
111
330
2
100
AcDbEntity
  8
L-ZISSEN
100
AcDbLine
 10
284.4433704725897
 20
124.0000000000009
 30
0.0
 11
284.4433704725897
 21
126.8000000000009
 31
0.0
  0
LINE
  5
112
330
2
100
AcDbEntity
  8
L-ZISSEN
100
AcDbLine
 10
304.4433704725899
 20
131.5000000000004
 30
0.0
 11
304.4433704725899
 21
135.0000000000018
 31
0.0
  0
LINE
  5
113
330
2
100
AcDbEntity
  8
L-ZISSEN
100
AcDbLine
 10
304.4433704725899
 20
135.0000000000018
 30
0.0
 11
306.1754212801584
 21
138.0000000000018
 31
0.0
  0
LINE
  5
114
330
2
100
AcDbEntity
  8
L-ZISSEN
100
AcDbLine
 10
302.4433704725897
 20
131.5000000000004
 30
0.0
 11
302.4433704725897
 21
145.3000000000011
 31
0.0
  0
LINE
  5
115
330
2
100
AcDbEntity
  8
L-ZISSEN
100
AcDbLine
 10
301.44337047259
 20
131.5000000000004
 30
0.0
 11
301.4433704725902
 21
124.0
 31
0.0
  0
LINE
  5
116
330
2
100
AcDbEntity
  8
L-ZISSEN
100
AcDbLine
 10
300.6395228952965
 20
130.3000000000011
 30
0.0
 11
300.6395228952965
 21
126.8000000000011
 31
0.0
  0
LINE
  5
117
330
2
100
AcDbEntity
  8
L-ZISSEN
100
AcDbLine
 10
296.9433704725884
 20
124.0000000000009
 30
0.0
 11
296.9433704725884
 21
117.0000000000018
 31
0.0
  0
LINE
  5
118
330
2
100
AcDbEntity
  8
L-ZISSEN
100
AcDbLine
 10
301.4433704725888
 20
124.0000000000009
 30
0.0
 11
301.4433704725888
 21
117.0000000000018
 31
0.0
  0
CIRCLE
  5
119
330
2
100
AcDbEntity
  8
L-ZISSEN
100
AcDbCircle
 10
122.4999999999998
 20
314.0
 30
0.0
 40
8.0
  0
LINE
  5
11A
330
2
100
AcDbEntity
  8
L-ZISSEN
100
AcDbLine
 10
73.50000000000136
 20
345.0000000000005
 30
0.0
 11
126.5000000000011
 21
344.9999999999996
 31
0.0
  0
LINE
  5
11B
330
2
100
AcDbEntity
  8
L-ZISSEN
100
AcDbLine
 10
126.5000000000011
 20
345.0000000000005
 30
0.0
 11
73.50000000000125
 21
344.9999999999991
 31
0.0
  0
LINE
  5
11C
330
2
100
AcDbEntity
  8
L-ZISSEN
100
AcDbLine
 10
126.5000000000011
 20
254.9999999999996
 30
0.0
 11
73.50000000000125
 21
255.0000000000009
 31
0.0
  0
LINE
  5
11D
330
2
100
AcDbEntity
  8
L-ZISSEN
100
AcDbLine
 10
78.49999999999988
 20
326.5
 30
0.0
 11
78.49999999999988
 21
340.0000000000005
 31
0.0
  0
LINE
  5
11E
330
2
100
AcDbEntity
  8
L-ZISSEN
100
AcDbLine
 10
81.49999999999876
 20
327.3999999999996
 30
0.0
 11
81.49999999999886
 21
345.0
 31
0.0
  0
LINE
  5
11F
330
2
100
AcDbEntity
  8
L-ZISSEN
100
AcDbLine
 10
73.49999999999898
 20
340.75
 30
0.0
 11
54.99999999999989
 21
335.5
 31
0.0
  0
LINE
  5
120
330
2
100
AcDbEntity
  8
L-ZISSEN
100
AcDbLine
 10
63.5
 20
322.0
 30
0.0
 11
81.49999999999876
 21
327.3999999999996
 31
0.0
  0
LINE
  5
121
330
2
100
AcDbEntity
  8
L-ZISSEN
100
AcDbLine
 10
63.5
 20
278.0
 30
0.0
 11
78.49999999999988
 21
273.5
 31
0.0
  0
LINE
  5
122
330
2
100
AcDbEntity
  8
L-ZISSEN
100
AcDbLine
 10
63.5
 20
306.0
 30
0.0
 11
81.49999999999876
 21
300.6000000000008
 31
0.0
  0
LINE
  5
123
330
2
100
AcDbEntity
  8
L-ZISSEN
100
AcDbLine
 10
73.49999999999898
 20
259.25
 30
0.0
 11
54.99999999999989
 21
264.5
 31
0.0
  0
CIRCLE
  5
124
330
2
100
AcDbEntity
  8
L-ZISSEN
100
AcDbCircle
 10
62.5
 20
330.0
 30
0.0
 40
2.5
  0
LINE
  5
125
330
2
100
AcDbEntity
  8
L-ZISSEN
100
AcDbLine
 10
55.0
 20
264.5
 30
0.0
 11
55.0
 21
335.5
 31
0.0
  0
CIRCLE
  5
126
330
2
100
AcDbEntity
  8
L-ZISSEN
100
AcDbCircle
 10
62.5
 20
270.0
 30
0.0
 40
2.5
  0
LINE
  5
127
330
2
100
AcDbEntity
  8
L-ZISSEN
100
AcDbLine
 10
63.50000000000012
 20
278.0000000000005
 30
0.0
 11
63.50000000000012
 21
321.9999999999996
 31
0.0
  0
LINE
  5
128
330
2
100
AcDbEntity
  8
L-ZISSEN
100
AcDbLine
 10
81.49999999999886
 20
255.0
 30
0.0
 11
81.49999999999876
 21
300.6000000000008
 31
0.0
  0
LINE
  5
129
330
2
100
AcDbEntity
  8
L-ZISSEN
100
AcDbLine
 10
78.49999999999988
 20
259.9999999999996
 30
0.0
 11
78.49999999999988
 21
301.5000000000005
 31
0.0
  0
LINE
  5
12A
330
2
100
AcDbEntity
  8
L-ZISSEN
100
AcDbLine
 10
73.50000000000125
 20
255.0000000000005
 30
0.0
 11
73.50000000000125
 21
259.2499999999986
 31
0.0
  0
LINE
  5
12B
330
2
100
AcDbEntity
  8
L-ZISSEN
100
AcDbLine
 10
78.5
 20
259.9999999999996
 30
0.0
 11
73.49999999999898
 21
258.5000000000005
 31
0.0
  0
CIRCLE
  5
12C
330
2
100
AcDbEntity
  8
L-ZISSEN
100
AcDbCircle
 10
75.50000000000011
 20
314.0
 30
0.0
 40
5.0
  0
CIRCLE
  5
12D
330
2
100
AcDbEntity
  8
L-ZISSEN
100
AcDbCircle
 10
75.50000000000011
 20
314.0
 30
0.0
 40
3.267949192431018
  0
LINE
  5
12E
330
2
100
AcDbEntity
  8
L-ZISSEN
100
AcDbLine
 10
73.50000000000125
 20
344.9999999999996
 30
0.0
 11
73.50000000000125
 21
340.7500000000014
 31
0.0
  0
LINE
  5
12F
330
2
100
AcDbEntity
  8
L-ZISSEN
100
AcDbLine
 10
78.5
 20
340.0000000000005
 30
0.0
 11
73.49999999999898
 21
341.4999999999996
 31
0.0
  0
LINE
  5
130
330
2
100
AcDbEntity
  8
L-TYUSIN
100
AcDbLine
 10
100.0
 20
350.0
 30
0.0
 11
100.0
 21
250.0
 31
0.0
  0
CIRCLE
  5
131
330
2
100
AcDbEntity
  8
L-ZISSEN
100
AcDbCircle
 10
100.0
 20
300.0
 30
0.0
 40
10.25
  0
CIRCLE
  5
132
330
2
100
AcDbEntity
  8
L-ZISSEN
100
AcDbCircle
 10
100.0
 20
300.0
 30
0.0
 40
7.0
  0
CIRCLE
  5
133
330
2
100
AcDbEntity
  8
L-ZISSEN
100
AcDbCircle
 10
100.0
 20
300.0
 30
0.0
 40
11.0
  0
LINE
  5
134
330
2
100
AcDbEntity
  8
L-ZISSEN
100
AcDbLine
 10
121.5000000000001
 20
340.0000000000009
 30
0.0
 11
121.5000000000001
 21
326.4999999999996
 31
0.0
  0
LINE
  5
135
330
2
100
AcDbEntity
  8
L-ZISSEN
100
AcDbLine
 10
118.5000000000013
 20
327.3999999999992
 30
0.0
 11
118.5000000000012
 21
345.0
 31
0.0
  0
LINE
  5
136
330
2
100
AcDbEntity
  8
L-ZISSEN
100
AcDbLine
 10
126.500000000001
 20
340.75
 30
0.0
 11
145.0000000000001
 21
335.5
 31
0.0
  0
LINE
  5
137
330
2
100
AcDbEntity
  8
L-ZISSEN
100
AcDbLine
 10
136.4999999999999
 20
322.0
 30
0.0
 11
118.5000000000013
 21
327.3999999999996
 31
0.0
  0
LINE
  5
138
330
2
100
AcDbEntity
  8
L-ZISSEN
100
AcDbLine
 10
136.4999999999999
 20
278.0
 30
0.0
 11
121.5000000000001
 21
273.5
 31
0.0
  0
LINE
  5
139
330
2
100
AcDbEntity
  8
L-ZISSEN
100
AcDbLine
 10
136.4999999999999
 20
306.0
 30
0.0
 11
118.5000000000012
 21
300.6000000000004
 31
0.0
  0
LINE
  5
13A
330
2
100
AcDbEntity
  8
L-ZISSEN
100
AcDbLine
 10
126.500000000001
 20
259.25
 30
0.0
 11
145.0000000000001
 21
264.5
 31
0.0
  0
LINE
  5
13B
330
2
100
AcDbEntity
  8
L-ZISSEN
100
AcDbLine
 10
118.5000000000011
 20
255.0
 30
0.0
 11
118.5000000000013
 21
300.6000000000004
 31
0.0
  0
LINE
  5
13C
330
2
100
AcDbEntity
  8
L-ZISSEN
100
AcDbLine
 10
121.5000000000002
 20
301.5
 30
0.0
 11
121.5
 21
259.9999999999991
 31
0.0
  0
LINE
  5
13D
330
2
100
AcDbEntity
  8
L-ZISSEN
100
AcDbLine
 10
121.5
 20
259.9999999999996
 30
0.0
 11
126.500000000001
 21
258.5000000000005
 31
0.0
  0
LINE
  5
13E
330
2
100
AcDbEntity
  8
L-ZISSEN
100
AcDbLine
 10
126.5000000000011
 20
255.0
 30
0.0
 11
126.500000000001
 21
259.2499999999996
 31
0.0
  0
CIRCLE
  5
13F
330
2
100
AcDbEntity
  8
L-ZISSEN
100
AcDbCircle
 10
137.5
 20
330.0
 30
0.0
 40
2.5
  0
LINE
  5
140
330
2
100
AcDbEntity
  8
L-ZISSEN
100
AcDbLine
 10
144.9999999999997
 20
335.5
 30
0.0
 11
145.0000000000001
 21
264.5
 31
0.0
  0
CIRCLE
  5
141
330
2
100
AcDbEntity
  8
L-ZISSEN
100
AcDbCircle
 10
137.5
 20
270.0
 30
0.0
 40
2.5
  0
LINE
  5
142
330
2
100
AcDbEntity
  8
L-ZISSEN
100
AcDbLine
 10
136.4999999999998
 20
278.0000000000005
 30
0.0
 11
136.4999999999998
 21
321.9999999999996
 31
0.0
  0
LINE
  5
143
330
2
100
AcDbEntity
  8
L-ZISSEN
100
AcDbLine
 10
126.5000000000011
 20
345.0
 30
0.0
 11
126.500000000001
 21
340.7500000000005
 31
0.0
  0
LINE
  5
144
330
2
100
AcDbEntity
  8
L-ZISSEN
100
AcDbLine
 10
121.5
 20
340.0000000000005
 30
0.0
 11
126.500000000001
 21
341.4999999999996
 31
0.0
  0
ARC
  5
14A
330
2
100
AcDbEntity
  8
L-ZISSEN
100
AcDbCircle
 10
338.4433704725893
 20
55.0
 30
0.0
 40
2.000000000001023
100
AcDbArc
 50
270.0
 51
0.000000000000007
  0
LINE
  5
14B
330
2
100
AcDbEntity
  8
L-ZISSEN
100
AcDbLine
 10
340.4433704725897
 20
124.0000000000009
 30
0.0
 11
340.4433704725897
 21
76.20000000000027
 31
0.0
  0
LINE
  5
14C
330
2
100
AcDbEntity
  8
L-ZISSEN
100
AcDbLine
 10
336.1933704725911
 20
83.00000000000181
 30
0.0
 11
336.1933704725911
 21
68.00000000000091
 31
0.0
  0
LINE
  5
14D
330
2
100
AcDbEntity
  8
L-ZISSEN
100
AcDbLine
 10
330.9433704725911
 20
83.00000000000181
 30
0.0
 11
330.9433704725911
 21
68.00000000000091
 31
0.0
  0
LINE
  5
150
330
2
100
AcDbEntity
  8
L-ZISSEN
100
AcDbLine
 10
340.4433704725897
 20
68.00000000000091
 30
0.0
 11
340.4433704725897
 21
55.0
 31
0.0
  0
LINE
  5
151
330
2
100
AcDbEntity
  8
L-ZISSEN
100
AcDbLine
 10
336.7433704725898
 20
76.19999999999982
 30
0.0
 11
336.7433704725897
 21
72.20000000000027
 31
0.0
  0
LINE
  5
152
330
2
100
AcDbEntity
  8
L-ZISSEN
100
AcDbLine
 10
340.4433704725897
 20
72.20000000000027
 30
0.0
 11
340.4433704725897
 21
68.00000000000091
 31
0.0
  0
LINE
  5
153
330
2
100
AcDbEntity
  8
L-ZISSEN
100
AcDbLine
 10
336.7433704725898
 20
76.20000000000027
 30
0.0
 11
340.4433704725896
 21
76.20000000000027
 31
0.0
  0
LINE
  5
154
330
2
100
AcDbEntity
  8
L-ZISSEN
100
AcDbLine
 10
340.4433704725899
 20
72.20000000000073
 30
0.0
 11
336.7433704725898
 21
72.20000000000073
 31
0.0
  0
LINE
  5
155
330
2
100
AcDbEntity
  8
L-ZISSEN
100
AcDbLine
 10
333.0266315620133
 20
-5.001733853814585
 30
0.0
 11
335.4433704725897
 21
53.00000000000181
 31
0.0
  0
LINE
  5
156
330
2
100
AcDbEntity
  8
L-ZISSEN
100
AcDbLine
 10
330.9433704725893
 20
-7.000000000000454
 30
0.0
 11
333.0266315620133
 21
-5.001733853814585
 31
0.0
  0
LINE
  5
157
330
2
100
AcDbEntity
  8
L-ZISSEN
100
AcDbLine
 10
322.4433704725902
 20
121.0
 30
0.0
 11
335.1933704725888
 21
121.0
 31
0.0
  0
LINE
  5
158
330
2
100
AcDbEntity
  8
L-ZISSEN
100
AcDbLine
 10
314.4433704725896
 20
135.0000000000013
 30
0.0
 11
314.4433704725897
 21
131.5000000000004
 31
0.0
  0
LINE
  5
159
330
2
100
AcDbEntity
  8
L-ZISSEN
100
AcDbLine
 10
314.4433704725898
 20
135.0000000000018
 30
0.0
 11
312.7113196650213
 21
138.0000000000018
 31
0.0
  0
LINE
  5
15A
330
2
100
AcDbEntity
  8
L-ZISSEN
100
AcDbLine
 10
317.4433704725897
 20
131.5000000000004
 30
0.0
 11
317.4433704725895
 21
124.0
 31
0.0
  0
LINE
  5
15B
330
2
100
AcDbEntity
  8
L-ZISSEN
100
AcDbLine
 10
317.4433704725897
 20
124.0000000000009
 30
0.0
 11
317.4433704725897
 21
83.00000000000181
 31
0.0
  0
LINE
  5
15C
330
2
100
AcDbEntity
  8
L-ZISSEN
100
AcDbLine
 10
322.4433704725902
 20
124.0000000000009
 30
0.0
 11
322.4433704725902
 21
83.00000000000181
 31
0.0
  0
LINE
  5
15D
330
2
100
AcDbEntity
  8
L-ZISSEN
100
AcDbLine
 10
336.943370472591
 20
116.0000000000009
 30
0.0
 11
336.9433704725911
 21
83.00000000000228
 31
0.0
  0
LINE
  5
15E
330
2
100
AcDbEntity
  8
L-ZISSEN
100
AcDbLine
 10
340.4433704725897
 20
116.0000000000009
 30
0.0
 11
336.943370472591
 21
116.0000000000009
 31
0.0
  0
LINE
  5
15F
330
2
100
AcDbEntity
  8
L-ZISSEN
100
AcDbLine
 10
335.1933704725911
 20
121.0
 30
0.0
 11
336.943370472591
 21
116.0000000000009
 31
0.0
  0
LINE
  5
160
330
2
100
AcDbEntity
  8
L-ZISSEN
100
AcDbLine
 10
335.1933704725911
 20
121.0
 30
0.0
 11
335.1933704725911
 21
83.00000000000181
 31
0.0
  0
SOLID
  5
168
330
2
100
AcDbEntity
  8
L-ZISSEN
100
AcDbTrace
 10
248.4797797828186
 20
103.5480637039783
 30
0.0
 11
247.4351964566511
 21
102.7194362530267
 31
0.0
 12
250.4433704725897
 22
100.0
 32
0.0
 13
250.4433704725897
 23
100.0
 33
0.0
  0
LINE
  5
169
330
2
100
AcDbEntity
  8
L-ZISSEN
100
AcDbLine
 10
247.9574881197348
 20
103.1337499785025
 30
0.0
 11
226.6764636087295
 21
129.9610091314894
 31
0.0
  0
LINE
  5
16A
330
2
100
AcDbEntity
  8
L-ZISSEN
100
AcDbLine
 10
226.6764636087295
 20
129.9610091314894
 30
0.0
 11
203.3716129734034
 21
129.9610091314894
 31
0.0
  0
TEXT
  5
16B
330
2
100
AcDbEntity
  8
L-ZISSEN
100
AcDbText
 10
210.6144771258314
 20
131.8373256024754
 30
0.0
 40
4.5
  1
IN
100
AcDbText
  0
TEXT
  5
16C
330
2
100
AcDbEntity
  8
L-ZISSEN
100
AcDbText
 10
204.4580434471549
 20
121.9844776759412
 30
0.0
 40
4.5
  1
Rc3/4
100
AcDbText
  0
TEXT
  5
16D
330
2
100
AcDbEntity
  8
L-ZISSEN
100
AcDbText
 10
204.4580434471549
 20
114.4844776759412
 30
0.0
 40
4.5
  1
Rc1
100
AcDbText
  0
TEXT
  5
16F
330
2
100
AcDbEntity
  8
L-ZISSEN
100
AcDbText
 10
213.4257931740353
 20
271.2364794557988
 30
0.0
 40
4.5
  1
MODEL NO. L68- 00-*0**
100
AcDbText
  0
LINE
  5
4AE
330
2
100
AcDbEntity
  8
L-SOUZOU
100
AcDbLine
 10
68.50000000000012
 20
255.0000000000002
 30
0.0
 11
33.00000000000034
 21
255.0000000000002
 31
0.0
  0
LINE
  5
4AF
330
2
100
AcDbEntity
  8
L-SOUZOU
100
AcDbLine
 10
33.00000000000034
 20
345.0000000000002
 30
0.0
 11
68.50000000000034
 21
345.0000000000002
 31
0.0
  0
TEXT
  5
4B2
330
2
100
AcDbEntity
  8
L-ZISSEN
100
AcDbText
 10
40.10536487396826
 20
-42.84214584070747
 30
0.0
 40
4.5
  1
P.P
100
AcDbText
  0
LINE
  5
4B7
330
2
100
AcDbEntity
  8
L-TYUSIN
100
AcDbLine
 10
28.00000000000034
 20
333.0
 30
0.0
 11
41.00000000000034
 21
333.0000000000002
 31
0.0
  0
LINE
  5
4B8
330
2
100
AcDbEntity
  8
L-TYUSIN
100
AcDbLine
 10
28.00000000000034
 20
267.0
 30
0.0
 11
41.00000000000034
 21
267.0
 31
0.0
  0
LINE
  5
4B9
330
2
100
AcDbEntity
  8
L-SOUZOU
100
AcDbLine
 10
33.00000000000034
 20
255.0000000000002
 30
0.0
 11
33.00000000000034
 21
345.0000000000002
 31
0.0
  0
LINE
  5
4BA
330
2
100
AcDbEntity
  8
L-SOUZOU
100
AcDbLine
 10
36.00000000000034
 20
345.0000000000002
 30
0.0
 11
36.00000000000034
 21
255.0000000000002
 31
0.0
  0
LINE
  5
4BB
330
2
100
AcDbEntity
  8
L-ZISSEN
100
AcDbLine
 10
129.9999999999979
 20
-93.40368404398857
 30
0.0
 11
130.0000000000001
 21
-6.999999999999602
 31
0.0
  0
LINE
  5
4BC
330
2
100
AcDbEntity
  8
L-ZISSEN
100
AcDbLine
 10
69.99999999999784
 20
-93.40368404398857
 30
0.0
 11
70.00000000000011
 21
-6.999999999999602
 31
0.0
  0
LINE
  5
4BD
330
2
100
AcDbEntity
  8
L-ZISSEN
100
AcDbLine
 10
125.2800000000003
 20
-17.33873891163199
 30
0.0
 11
125.279999999998
 21
-85.33873891163109
 31
0.0
  0
LINE
  5
4BE
330
2
100
AcDbEntity
  8
L-ZISSEN
100
AcDbLine
 10
83.15000000000067
 20
-17.33873891163199
 30
0.0
 11
83.15000000000067
 21
-85.33873891163109
 31
0.0
  0
LINE
  5
4BF
330
2
100
AcDbEntity
  8
L-ZISSEN
100
AcDbLine
 10
74.71999999999764
 20
-17.33873891163199
 30
0.0
 11
74.71999999999991
 21
-85.33873891163109
 31
0.0
  0
LINE
  5
4C0
330
2
100
AcDbEntity
  8
L-ZISSEN
100
AcDbLine
 10
116.8499999999973
 20
-17.33873891163199
 30
0.0
 11
116.8499999999973
 21
-85.33873891163109
 31
0.0
  0
ARC
  5
4CD
330
2
100
AcDbEntity
  8
L-ZISSEN
100
AcDbCircle
 10
78.0000000000092
 20
-93.40368404398857
 30
0.0
 40
8.000000000000113
100
AcDbArc
 50
180.0
 51
256.0937629347638
  0
ARC
  5
4CE
330
2
100
AcDbEntity
  8
L-ZISSEN
100
AcDbCircle
 10
100.0000000000037
 20
-4.547288918516699
 30
0.0
 40
99.53938471878538
100
AcDbArc
 50
256.0937629349447
 51
264.6679223051358
  0
LINE
  5
4CF
330
2
100
AcDbEntity
  8
L-ZISSEN
100
AcDbLine
 10
78.93499999999915
 20
-87.33873891163199
 30
0.0
 11
74.71999999999991
 21
-85.33873891163109
 31
0.0
  0
LINE
  5
4D0
330
2
100
AcDbEntity
  8
L-ZISSEN
100
AcDbLine
 10
83.15000000000067
 20
-85.33873891163109
 30
0.0
 11
78.93499999999915
 21
-87.33873891163199
 31
0.0
  0
LINE
  5
4DB
330
2
100
AcDbEntity
  8
L-ZISSEN
100
AcDbLine
 10
116.8499999999973
 20
-85.33873891163109
 30
0.0
 11
121.065000000001
 21
-87.33873891163199
 31
0.0
  0
ARC
  5
4DC
330
2
100
AcDbEntity
  8
L-ZISSEN
100
AcDbCircle
 10
100.0000000000037
 20
-4.547288918516699
 30
0.0
 40
99.53938471878515
100
AcDbArc
 50
275.3320776948641
 51
283.906237065045
  0
ARC
  5
4F8
330
2
100
AcDbEntity
  8
L-ZISSEN
100
AcDbCircle
 10
122.0000000000078
 20
-93.40368404398857
 30
0.0
 40
8.000000000000113
100
AcDbArc
 50
283.9062370650552
 51
0.0
  0
LINE
  5
4F9
330
2
100
AcDbEntity
  8
L-ZISSEN
100
AcDbLine
 10
121.065000000001
 20
-87.33873891163199
 30
0.0
 11
125.279999999998
 21
-85.33873891163109
 31
0.0
  0
LINE
  5
4FA
330
2
100
AcDbEntity
  8
L-ZISSEN
100
AcDbLine
 10
98.37264313074786
 20
-8.162630474441414
 30
0.0
 11
52.97575394187163
 21
-40.59547161275673
 31
0.0
  0
LINE
  5
50A
330
2
100
AcDbEntity
  8
L-ZISSEN
100
AcDbLine
 10
52.97575394187163
 20
-40.59547161275673
 30
0.0
 11
50.97575394187163
 21
-40.59547161275673
 31
0.0
  0
LINE
  5
511
330
2
100
AcDbEntity
  8
L-ZISSEN
100
AcDbLine
 10
74.71999999999764
 20
-17.33873891163199
 30
0.0
 11
83.15000000000067
 21
-17.33873891163199
 31
0.0
  0
LINE
  5
515
330
2
100
AcDbEntity
  8
L-SOUZOU
100
AcDbLine
 10
68.50000000000034
 20
345.0000000000002
 30
0.0
 11
76.00000000000034
 21
337.0000000000002
 31
0.0
  0
LINE
  5
516
330
2
100
AcDbEntity
  8
L-SOUZOU
100
AcDbLine
 10
61.00000000000034
 20
323.5000000000002
 30
0.0
 11
76.00000000000034
 21
327.5000000000003
 31
0.0
  0
LINE
  5
517
330
2
100
AcDbEntity
  8
L-SOUZOU
100
AcDbLine
 10
61.00000000000034
 20
276.5000000000002
 30
0.0
 11
76.00000000000034
 21
272.5000000000002
 31
0.0
  0
LINE
  5
518
330
2
100
AcDbEntity
  8
L-SOUZOU
100
AcDbLine
 10
68.50000000000034
 20
255.0000000000002
 30
0.0
 11
76.00000000000034
 21
263.0000000000003
 31
0.0
  0
LINE
  5
51E
330
2
100
AcDbEntity
  8
L-SOUZOU
100
AcDbLine
 10
61.00000000000034
 20
276.5000000000002
 30
0.0
 11
61.00000000000034
 21
323.5000000000002
 31
0.0
  0
LINE
  5
525
330
2
100
AcDbEntity
  8
L-SOUZOU
100
AcDbLine
 10
76.00000000000012
 20
263.0000000000003
 30
0.0
 11
76.00000000000034
 21
272.5000000000002
 31
0.0
  0
LINE
  5
528
330
2
100
AcDbEntity
  8
L-SOUZOU
100
AcDbLine
 10
76.00000000000057
 20
327.5000000000003
 30
0.0
 11
76.00000000000079
 21
337.0
 31
0.0
  0
LINE
  5
52A
330
2
100
AcDbEntity
  8
L-ZISSEN
100
AcDbLine
 10
125.2800000000003
 20
-17.33873891163199
 30
0.0
 11
116.8499999999973
 21
-17.33873891163199
 31
0.0
  0
SOLID
  5
52C
330
2
100
AcDbEntity
  8
L-ZISSEN
100
AcDbTrace
 10
98.17887138500772
 20
-7.891404329565887
 30
0.0
 11
98.56641487648801
 21
-8.433856619316486
 31
0.0
 12
99.99999999999989
 22
-7.000000000000511
 32
0.0
 13
99.99999999999989
 23
-7.000000000000511
 33
0.0
  0
LINE
  5
52E
330
2
100
AcDbEntity
  8
L-ZISSEN
100
AcDbLine
 10
130.0638373500238
 20
-40.12296651463617
 30
0.0
 11
131.8275114937956
 21
-32.64299076719231
 31
0.0
  0
LINE
  5
52F
330
2
100
AcDbEntity
  8
L-ZISSEN
100
AcDbLine
 10
133.3140953245516
 20
-30.80702229708055
 30
0.0
 11
130.0000000000001
 21
-30.80702229708055
 31
0.0
  0
LINE
  5
530
330
2
100
AcDbEntity
  8
L-ZISSEN
100
AcDbLine
 10
131.5504211807798
 20
-40.47348228545939
 30
0.0
 11
133.3140953245516
 21
-32.99350653801553
 31
0.0
  0
LINE
  5
531
330
2
100
AcDbEntity
  8
L-ZISSEN
100
AcDbLine
 10
130.0000000000001
 20
-6.999999999999602
 30
0.0
 11
130.0000000000001
 21
-48.32399445419884
 31
0.0
  0
LINE
  5
532
330
2
100
AcDbEntity
  8
L-ZISSEN
100
AcDbLine
 10
131.5504211807798
 20
-40.47348228545939
 30
0.0
 11
130.0000000000001
 21
-40.47348228545939
 31
0.0
  0
LINE
  5
533
330
2
100
AcDbEntity
  8
L-ZISSEN
100
AcDbLine
 10
135.0000000000001
 20
-7.000000000000511
 30
0.0
 11
135.0000000000001
 21
-27.9999999999996
 31
0.0
  0
LINE
  5
534
330
2
100
AcDbEntity
  8
L-ZISSEN
100
AcDbLine
 10
133.3140953245516
 20
-34.88948590201067
 30
0.0
 11
133.3140953245516
 21
-7.000000000000511
 31
0.0
  0
LINE
  5
535
330
2
100
AcDbEntity
  8
L-ZISSEN
100
AcDbLine
 10
138.9999999999987
 20
-32.94910678838056
 30
0.0
 11
133.5000000000014
 21
-34.88948590201067
 31
0.0
  0
LINE
  5
536
330
2
100
AcDbEntity
  8
L-ZISSEN
100
AcDbLine
 10
135.0000000000001
 20
-27.9999999999996
 30
0.0
 11
138.9999999999987
 21
-28.66493780578236
 31
0.0
  0
LINE
  5
537
330
2
100
AcDbEntity
  8
L-ZISSEN
100
AcDbLine
 10
133.5000000000014
 20
-34.88948590201067
 30
0.0
 11
133.3140953245516
 21
-34.88948590201067
 31
0.0
  0
LINE
  5
538
330
2
100
AcDbEntity
  8
L-ZISSEN
100
AcDbLine
 10
133.3140953245516
 20
-32.99350653801553
 30
0.0
 11
133.3140953245516
 21
-30.80702229708055
 31
0.0
  0
LINE
  5
539
330
2
100
AcDbEntity
  8
L-ZISSEN
100
AcDbLine
 10
131.8275114937956
 20
-30.80702229708146
 30
0.0
 11
131.8275114937956
 21
-32.64299076719231
 31
0.0
  0
LINE
  5
53A
330
2
100
AcDbEntity
  8
L-ZISSEN
100
AcDbLine
 10
138.9999999999987
 20
-28.66493780578236
 30
0.0
 11
138.9999999999987
 21
-32.94910678838056
 31
0.0
  0
LINE
  5
595
330
2
100
AcDbEntity
  8
L-ZISSEN
100
AcDbLine
 10
293.8160136033377
 20
-8.162630474441357
 30
0.0
 11
248.4191244144613
 21
-40.59547161275668
 31
0.0
  0
LINE
  5
5A6
330
2
100
AcDbEntity
  8
L-ZISSEN
100
AcDbLine
 10
248.4191244144613
 20
-40.59547161275668
 30
0.0
 11
246.4191244144612
 21
-40.59547161275668
 31
0.0
  0
TEXT
  5
5A7
330
2
100
AcDbEntity
  8
L-ZISSEN
100
AcDbText
 10
235.548735346558
 20
-42.84214584070741
 30
0.0
 40
4.5
  1
P.P
100
AcDbText
  0
SOLID
  5
5E2
330
2
100
AcDbEntity
  8
L-ZISSEN
100
AcDbTrace
 10
293.6222418575976
 20
-7.89140432956583
 30
0.0
 11
294.0097853490779
 21
-8.433856619316429
 31
0.0
 12
295.4433704725897
 22
-7.000000000000454
 32
0.0
 13
295.4433704725897
 23
-7.000000000000454
 33
0.0
  0
TEXT
  5
606
330
2
100
AcDbEntity
  8
L-ZISSEN
100
AcDbText
 10
438.5187849982869
 20
217.2618895970324
 30
0.0
 40
4.5
  1
MODEL NO. L64- 00-*2**
100
AcDbText
  0
LINE
  5
607
330
2
100
AcDbEntity
  8
L-TYUSIN
100
AcDbLine
 10
416.6098686970571
 20
-131.7850960938026
 30
0.0
 11
416.6098686970571
 21
318.2149471332118
 31
0.0
  0
TEXT
  5
688
330
2
100
AcDbEntity
  8
L-ZISSEN
100
AcDbText
 10
498.6387191506685
 20
220.550863406039
 30
0.0
 40
4.5
  1
6
100
AcDbText
  0
TEXT
  5
689
330
2
100
AcDbEntity
  8
L-ZISSEN
100
AcDbText
 10
498.6387191506685
 20
214.1938451200055
 30
0.0
 40
4.5
  1
8
100
AcDbText
  0
LINE
  5
A36
330
2
100
AcDbEntity
  8
L-ZISSEN
100
AcDbLine
 10
320.7233704725899
 20
-17.3387389116317
 30
0.0
 11
320.7233704725899
 21
-85.33873891163125
 31
0.0
  0
LINE
  5
A37
330
2
100
AcDbEntity
  8
L-ZISSEN
100
AcDbLine
 10
265.4433704725897
 20
-93.40368404398828
 30
0.0
 11
265.4433704725897
 21
-7.000000000000682
 31
0.0
  0
LINE
  5
A38
330
2
100
AcDbEntity
  8
L-ZISSEN
100
AcDbLine
 10
270.1633704725896
 20
-17.3387389116317
 30
0.0
 11
270.1633704725896
 21
-85.33873891163125
 31
0.0
  0
LINE
  5
A39
330
2
100
AcDbEntity
  8
L-ZISSEN
100
AcDbLine
 10
278.5933704725903
 20
-17.3387389116317
 30
0.0
 11
278.5933704725903
 21
-85.33873891163171
 31
0.0
  0
LINE
  5
A3A
330
2
100
AcDbEntity
  8
L-ZISSEN
100
AcDbLine
 10
325.4433704725875
 20
-93.40368404398963
 30
0.0
 11
325.4433704725897
 21
-6.999999999999317
 31
0.0
  0
LINE
  5
A3B
330
2
100
AcDbEntity
  8
L-ZISSEN
100
AcDbLine
 10
312.2933704725892
 20
-17.3387389116317
 30
0.0
 11
312.2933704725892
 21
-85.33873891163171
 31
0.0
  0
ARC
  5
A3C
330
2
100
AcDbEntity
  8
L-ZISSEN
100
AcDbCircle
 10
317.4433704725893
 20
-93.40368404398963
 30
0.0
 40
8.000000000000113
100
AcDbArc
 50
283.9062370652455
 51
0.0
  0
LINE
  5
A3D
330
2
100
AcDbEntity
  8
L-ZISSEN
100
AcDbLine
 10
304.443370472592
 20
-111.5000003877964
 30
0.0
 11
286.4433704725902
 21
-111.5000003877964
 31
0.0
  0
LINE
  5
A3E
330
2
100
AcDbEntity
  8
L-ZISSEN
100
AcDbLine
 10
304.6933704725953
 20
-103.6559495400513
 30
0.0
 11
286.1933704725833
 21
-103.6559495400508
 31
0.0
  0
LINE
  5
A3F
330
2
100
AcDbEntity
  8
L-ZISSEN
100
AcDbLine
 10
274.3783704725888
 20
-87.3387389116317
 30
0.0
 11
270.1633704725896
 21
-85.33873891163125
 31
0.0
  0
LINE
  5
A40
330
2
100
AcDbEntity
  8
L-ZISSEN
100
AcDbLine
 10
278.5933704725903
 20
-85.33873891163171
 30
0.0
 11
274.3783704725888
 21
-87.3387389116317
 31
0.0
  0
ARC
  5
A41
330
2
100
AcDbEntity
  8
L-ZISSEN
100
AcDbCircle
 10
295.4433704725911
 20
-4.547288918517779
 30
0.0
 40
99.53938471878538
100
AcDbArc
 50
256.0937629349557
 51
264.6679223051358
  0
ARC
  5
A42
330
2
100
AcDbEntity
  8
L-ZISSEN
100
AcDbCircle
 10
273.4433704725907
 20
-93.40368404398828
 30
0.0
 40
8.000000000000113
100
AcDbArc
 50
180.0
 51
256.093762934945
  0
LINE
  5
A43
330
2
100
AcDbEntity
  8
L-ZISSEN
100
AcDbLine
 10
286.4433704725902
 20
-111.5000003877969
 30
0.0
 11
286.4433704725902
 21
-103.6559495400508
 31
0.0
  0
LINE
  5
A44
330
2
100
AcDbEntity
  8
L-ZISSEN
100
AcDbLine
 10
316.5083704725907
 20
-87.3387389116317
 30
0.0
 11
320.7233704725899
 21
-85.33873891163125
 31
0.0
  0
LINE
  5
A45
330
2
100
AcDbEntity
  8
L-ZISSEN
100
AcDbLine
 10
312.2933704725892
 20
-85.33873891163171
 30
0.0
 11
316.5083704725907
 21
-87.3387389116317
 31
0.0
  0
ARC
  5
A46
330
2
100
AcDbEntity
  8
L-ZISSEN
100
AcDbCircle
 10
295.4433704725911
 20
-4.547288918517779
 30
0.0
 40
99.53938471878553
100
AcDbArc
 50
275.3320776948641
 51
283.9062370650548
  0
LINE
  5
A47
330
2
100
AcDbEntity
  8
L-ZISSEN
100
AcDbLine
 10
304.443370472592
 20
-111.5000003877969
 30
0.0
 11
304.443370472592
 21
-103.6559495400513
 31
0.0
  0
LINE
  5
A4C
330
2
100
AcDbEntity
  8
L-ZISSEN
100
AcDbLine
 10
292.3183704725897
 20
-14.50000000000068
 30
0.0
 11
287.3183704725897
 21
-14.50000000000068
 31
0.0
  0
LINE
  5
A4D
330
2
100
AcDbEntity
  8
L-ZISSEN
100
AcDbLine
 10
292.3183704725897
 20
-14.50000000000068
 30
0.0
 11
287.3183704725897
 21
-14.50000000000068
 31
0.0
  0
LINE
  5
A4E
330
2
100
AcDbEntity
  8
L-ZISSEN
100
AcDbLine
 10
292.3183704725897
 20
-13.25000000000068
 30
0.0
 11
287.3183704725897
 21
-13.25000000000068
 31
0.0
  0
LINE
  5
A4F
330
2
100
AcDbEntity
  8
L-ZISSEN
100
AcDbLine
 10
292.3183704725897
 20
-13.25000000000068
 30
0.0
 11
287.3183704725897
 21
-13.25000000000068
 31
0.0
  0
LINE
  5
A50
330
2
100
AcDbEntity
  8
L-ZISSEN
100
AcDbLine
 10
295.4433704725897
 20
-42.00000000000068
 30
0.0
 11
281.3808704725875
 21
-38.25000000000068
 31
0.0
  0
LINE
  5
A51
330
2
100
AcDbEntity
  8
L-ZISSEN
100
AcDbLine
 10
283.5289373377554
 20
-36.94202551104513
 30
0.0
 11
295.4433704725897
 21
-39.43638348547597
 31
0.0
  0
LINE
  5
A52
330
2
100
AcDbEntity
  8
L-ZISSEN
100
AcDbLine
 10
295.4433704725897
 20
-33.25000000000068
 30
0.0
 11
282.3183704725875
 21
-31.37500000000068
 31
0.0
  0
LINE
  5
A53
330
2
100
AcDbEntity
  8
L-ZISSEN
100
AcDbLine
 10
295.4433704725897
 20
-34.08117225722776
 30
0.0
 11
283.5289373377554
 21
-32.37911038082325
 31
0.0
  0
LINE
  5
A54
330
2
100
AcDbEntity
  8
L-ZISSEN
100
AcDbLine
 10
282.6308704725897
 20
-47.00000000000068
 30
0.0
 11
308.2558704725897
 21
-47.00000000000068
 31
0.0
  0
LINE
  5
A55
330
2
100
AcDbEntity
  8
L-ZISSEN
100
AcDbLine
 10
283.5289373377554
 20
-32.37911038082325
 30
0.0
 11
283.5289373377554
 21
-36.94202551104513
 31
0.0
  0
LINE
  5
A56
330
2
100
AcDbEntity
  8
L-ZISSEN
100
AcDbLine
 10
281.3808704725875
 20
-7.000000000000682
 30
0.0
 11
281.3808704725875
 21
-45.75000000000068
 31
0.0
  0
ARC
  5
A57
330
2
100
AcDbEntity
  8
L-ZISSEN
100
AcDbCircle
 10
282.6308704725897
 20
-45.75000000000068
 30
0.0
 40
1.250000000000568
100
AcDbArc
 50
180.0
 51
270.0
  0
LINE
  5
A58
330
2
100
AcDbEntity
  8
L-ZISSEN
100
AcDbLine
 10
286.0683704725897
 20
-39.49999999999977
 30
0.0
 11
286.0683704725875
 21
-47.00000000000068
 31
0.0
  0
LINE
  5
A59
330
2
100
AcDbEntity
  8
L-ZISSEN
100
AcDbLine
 10
281.3808704725875
 20
-38.25000000000068
 30
0.0
 11
283.5289373377554
 21
-36.94202551104513
 31
0.0
  0
LINE
  5
A5A
330
2
100
AcDbEntity
  8
L-ZISSEN
100
AcDbLine
 10
270.1633704725896
 20
-17.3387389116317
 30
0.0
 11
278.5933704725903
 21
-17.3387389116317
 31
0.0
  0
LINE
  5
A5B
330
2
100
AcDbEntity
  8
L-ZISSEN
100
AcDbLine
 10
281.3808704725875
 20
-7.000000000000682
 30
0.0
 11
281.3808704725875
 21
-30.78927536713331
 31
0.0
  0
LINE
  5
A5C
330
2
100
AcDbEntity
  8
L-ZISSEN
100
AcDbLine
 10
282.3183704725875
 20
-7.000000000000682
 30
0.0
 11
282.3183704725875
 21
-31.37500000000068
 31
0.0
  0
LINE
  5
A5D
330
2
100
AcDbEntity
  8
L-ZISSEN
100
AcDbLine
 10
283.5289373377554
 20
-31.54793812359571
 30
0.0
 11
282.3183704725875
 21
-31.37500000000068
 31
0.0
  0
LINE
  5
A5E
330
2
100
AcDbEntity
  8
L-ZISSEN
100
AcDbLine
 10
283.5289373377554
 20
-32.37911038082325
 30
0.0
 11
282.3183704725875
 21
-31.37500000000068
 31
0.0
  0
LINE
  5
A5F
330
2
100
AcDbEntity
  8
L-ZISSEN
100
AcDbLine
 10
287.3183704725897
 20
-12.00000000000068
 30
0.0
 11
284.1933704725897
 21
-13.87500000000068
 31
0.0
  0
LINE
  5
A60
330
2
100
AcDbEntity
  8
L-ZISSEN
100
AcDbLine
 10
287.3183704725897
 20
-13.25000000000068
 30
0.0
 11
287.3183704725897
 21
-12.00000000000068
 31
0.0
  0
LINE
  5
A61
330
2
100
AcDbEntity
  8
L-ZISSEN
100
AcDbLine
 10
287.3183704725897
 20
-14.50000000000068
 30
0.0
 11
287.3183704725897
 21
-15.75000000000068
 31
0.0
  0
LINE
  5
A62
330
2
100
AcDbEntity
  8
L-ZISSEN
100
AcDbLine
 10
287.3183704725897
 20
-15.75000000000068
 30
0.0
 11
284.1933704725897
 21
-13.87500000000068
 31
0.0
  0
LINE
  5
A63
330
2
100
AcDbEntity
  8
L-ZISSEN
100
AcDbLine
 10
307.3578036074241
 20
-32.37911038082325
 30
0.0
 11
307.3578036074241
 21
-36.94202551104513
 31
0.0
  0
LINE
  5
A64
330
2
100
AcDbEntity
  8
L-ZISSEN
100
AcDbLine
 10
295.4433704725897
 20
-34.08117225722776
 30
0.0
 11
307.3578036074241
 21
-32.37911038082325
 31
0.0
  0
LINE
  5
A65
330
2
100
AcDbEntity
  8
L-ZISSEN
100
AcDbLine
 10
295.4433704725897
 20
-33.25000000000068
 30
0.0
 11
308.5683704725874
 21
-31.37500000000068
 31
0.0
  0
LINE
  5
A66
330
2
100
AcDbEntity
  8
L-ZISSEN
100
AcDbLine
 10
309.5058704725875
 20
-7.000000000000682
 30
0.0
 11
309.5058704725875
 21
-45.75000000000068
 31
0.0
  0
LINE
  5
A67
330
2
100
AcDbEntity
  8
L-ZISSEN
100
AcDbLine
 10
295.4433704725897
 20
-42.00000000000068
 30
0.0
 11
309.5058704725875
 21
-38.25000000000068
 31
0.0
  0
LINE
  5
A68
330
2
100
AcDbEntity
  8
L-ZISSEN
100
AcDbLine
 10
307.3578036074241
 20
-36.94202551104513
 30
0.0
 11
295.4433704725897
 21
-39.43638348547597
 31
0.0
  0
LINE
  5
A69
330
2
100
AcDbEntity
  8
L-ZISSEN
100
AcDbLine
 10
304.8183704725875
 20
-39.50000000000068
 30
0.0
 11
304.8183704725875
 21
-47.00000000000068
 31
0.0
  0
LINE
  5
A6A
330
2
100
AcDbEntity
  8
L-ZISSEN
100
AcDbLine
 10
295.4433704725897
 20
-42.00000000000068
 30
0.0
 11
295.4433704725897
 21
-39.43638348547597
 31
0.0
  0
ARC
  5
A6B
330
2
100
AcDbEntity
  8
L-ZISSEN
100
AcDbCircle
 10
295.4433704725897
 20
-43.25000000000068
 30
0.0
 40
1.250000000000568
100
AcDbArc
 50
180.0
 51
0.0
  0
LINE
  5
A6C
330
2
100
AcDbEntity
  8
L-ZISSEN
100
AcDbLine
 10
294.1933704725875
 20
-41.66666666666628
 30
0.0
 11
294.1933704725897
 21
-43.25000000000068
 31
0.0
  0
LINE
  5
A6D
330
2
100
AcDbEntity
  8
L-ZISSEN
100
AcDbLine
 10
296.6933704725897
 20
-41.66666666666674
 30
0.0
 11
296.6933704725897
 21
-43.25000000000068
 31
0.0
  0
CIRCLE
  5
A6E
330
2
100
AcDbEntity
  8
L-ZISSEN
100
AcDbCircle
 10
295.4433704725897
 20
-36.99645470117388
 30
0.0
 40
1.25
  0
LINE
  5
A6F
330
2
100
AcDbEntity
  8
L-TYUSIN
100
AcDbLine
 10
293.2565769100347
 20
-36.99645470117388
 30
0.0
 11
297.4513568849465
 21
-36.99645470117388
 31
0.0
  0
LINE
  5
A70
330
2
100
AcDbEntity
  8
L-ZISSEN
100
AcDbLine
 10
295.4433704725897
 20
-33.25000000000068
 30
0.0
 11
295.4433704725897
 21
-34.08117225722776
 31
0.0
  0
ARC
  5
A71
330
2
100
AcDbEntity
  8
L-ZISSEN
100
AcDbCircle
 10
308.2558704725897
 20
-45.75000000000068
 30
0.0
 40
1.249999999999715
100
AcDbArc
 50
270.0
 51
0.0
  0
LINE
  5
A72
330
2
100
AcDbEntity
  8
L-ZISSEN
100
AcDbLine
 10
309.5058704725875
 20
-38.25000000000068
 30
0.0
 11
307.3578036074241
 21
-36.94202551104513
 31
0.0
  0
LINE
  5
A73
330
2
100
AcDbEntity
  8
L-ZISSEN
100
AcDbLine
 10
296.693370472592
 20
-10.74999999999931
 30
0.0
 11
296.693370472592
 21
-20.74999999999931
 31
0.0
  0
LINE
  5
A74
330
2
100
AcDbEntity
  8
L-ZISSEN
100
AcDbLine
 10
296.693370472592
 20
-10.74999999999931
 30
0.0
 11
296.693370472592
 21
-20.74999999999931
 31
0.0
  0
LINE
  5
A75
330
2
100
AcDbEntity
  8
L-ZISSEN
100
AcDbLine
 10
294.193370472592
 20
-10.74999999999931
 30
0.0
 11
294.193370472592
 21
-20.74999999999931
 31
0.0
  0
LINE
  5
A76
330
2
100
AcDbEntity
  8
L-ZISSEN
100
AcDbLine
 10
294.193370472592
 20
-10.74999999999931
 30
0.0
 11
294.193370472592
 21
-20.74999999999931
 31
0.0
  0
LINE
  5
A77
330
2
100
AcDbEntity
  8
L-ZISSEN
100
AcDbLine
 10
291.693370472592
 20
-20.74999999999931
 30
0.0
 11
295.443370472592
 21
-26.99999999999931
 31
0.0
  0
LINE
  5
A78
330
2
100
AcDbEntity
  8
L-ZISSEN
100
AcDbLine
 10
299.193370472592
 20
-20.74999999999931
 30
0.0
 11
295.443370472592
 21
-26.99999999999931
 31
0.0
  0
LINE
  5
A79
330
2
100
AcDbEntity
  8
L-ZISSEN
100
AcDbLine
 10
294.193370472592
 20
-20.74999999999931
 30
0.0
 11
291.693370472592
 21
-20.74999999999931
 31
0.0
  0
LINE
  5
A7A
330
2
100
AcDbEntity
  8
L-ZISSEN
100
AcDbLine
 10
296.693370472592
 20
-20.74999999999931
 30
0.0
 11
299.193370472592
 21
-20.74999999999931
 31
0.0
  0
LINE
  5
A7B
330
2
100
AcDbEntity
  8
L-ZISSEN
100
AcDbLine
 10
298.5683704725897
 20
-14.49999999999977
 30
0.0
 11
303.5683704725897
 21
-14.49999999999977
 31
0.0
  0
LINE
  5
A7C
330
2
100
AcDbEntity
  8
L-ZISSEN
100
AcDbLine
 10
298.5683704725897
 20
-14.49999999999977
 30
0.0
 11
303.5683704725897
 21
-14.49999999999977
 31
0.0
  0
LINE
  5
A7D
330
2
100
AcDbEntity
  8
L-ZISSEN
100
AcDbLine
 10
298.5683704725897
 20
-13.24999999999977
 30
0.0
 11
303.5683704725897
 21
-13.24999999999977
 31
0.0
  0
LINE
  5
A7E
330
2
100
AcDbEntity
  8
L-ZISSEN
100
AcDbLine
 10
298.5683704725897
 20
-13.24999999999977
 30
0.0
 11
303.5683704725897
 21
-13.24999999999977
 31
0.0
  0
LINE
  5
A7F
330
2
100
AcDbEntity
  8
L-ZISSEN
100
AcDbLine
 10
292.3183704725897
 20
-13.25000000000068
 30
0.0
 11
292.3183704725897
 21
-14.50000000000068
 31
0.0
  0
LINE
  5
A80
330
2
100
AcDbEntity
  8
L-ZISSEN
100
AcDbLine
 10
298.5683704725897
 20
-13.24999999999977
 30
0.0
 11
298.5683704725897
 21
-14.49999999999977
 31
0.0
  0
LINE
  5
A81
330
2
100
AcDbEntity
  8
L-ZISSEN
100
AcDbLine
 10
296.693370472592
 20
-10.74999999999931
 30
0.0
 11
294.193370472592
 21
-10.74999999999931
 31
0.0
  0
LINE
  5
A83
330
2
100
AcDbEntity
  8
L-ZISSEN
100
AcDbLine
 10
303.5683704725897
 20
-13.24999999999977
 30
0.0
 11
303.5683704725897
 21
-11.99999999999977
 31
0.0
  0
LINE
  5
A84
330
2
100
AcDbEntity
  8
L-ZISSEN
100
AcDbLine
 10
303.5683704725897
 20
-11.99999999999977
 30
0.0
 11
306.6933704725897
 21
-13.87499999999977
 31
0.0
  0
LINE
  5
A85
330
2
100
AcDbEntity
  8
L-ZISSEN
100
AcDbLine
 10
303.5683704725897
 20
-14.49999999999977
 30
0.0
 11
303.5683704725897
 21
-15.74999999999977
 31
0.0
  0
LINE
  5
A86
330
2
100
AcDbEntity
  8
L-ZISSEN
100
AcDbLine
 10
303.5683704725897
 20
-15.74999999999977
 30
0.0
 11
306.6933704725897
 21
-13.87499999999977
 31
0.0
  0
LINE
  5
A87
330
2
100
AcDbEntity
  8
L-ZISSEN
100
AcDbLine
 10
308.5683704725874
 20
-7.000000000000682
 30
0.0
 11
308.5683704725874
 21
-31.37500000000068
 31
0.0
  0
LINE
  5
A88
330
2
100
AcDbEntity
  8
L-ZISSEN
100
AcDbLine
 10
309.5058704725875
 20
-7.000000000000682
 30
0.0
 11
309.5058704725875
 21
-30.78927536713331
 31
0.0
  0
LINE
  5
A89
330
2
100
AcDbEntity
  8
L-ZISSEN
100
AcDbLine
 10
307.3578036074241
 20
-32.37911038082325
 30
0.0
 11
308.5683704725874
 21
-31.37500000000068
 31
0.0
  0
LINE
  5
A8A
330
2
100
AcDbEntity
  8
L-ZISSEN
100
AcDbLine
 10
307.3578036074241
 20
-31.54793812359571
 30
0.0
 11
308.5683704725874
 21
-31.37500000000068
 31
0.0
  0
LINE
  5
A8B
330
2
100
AcDbEntity
  8
L-ZISSEN
100
AcDbLine
 10
320.7233704725899
 20
-17.3387389116317
 30
0.0
 11
312.2933704725892
 21
-17.3387389116317
 31
0.0
  0
LINE
  5
E55
330
2
100
AcDbEntity
  8
L-ZISSEN
100
AcDbLine
 10
109.0000000000022
 20
-111.5000003877969
 30
0.0
 11
109.0000000000022
 21
-103.6559495400513
 31
0.0
  0
LINE
  5
E56
330
2
100
AcDbEntity
  8
L-ZISSEN
100
AcDbLine
 10
91.00000000000045
 20
-111.5000003877969
 30
0.0
 11
91.00000000000045
 21
-103.6559495400508
 31
0.0
  0
LINE
  5
E57
330
2
100
AcDbEntity
  8
L-ZISSEN
100
AcDbLine
 10
109.0000000000022
 20
-111.5000003877965
 30
0.0
 11
91.00000000000045
 21
-111.5000003877965
 31
0.0
  0
LINE
  5
E58
330
2
100
AcDbEntity
  8
L-ZISSEN
100
AcDbLine
 10
109.2500000000055
 20
-103.6559495400513
 30
0.0
 11
90.74999999999358
 21
-103.6559495400508
 31
0.0
  0
LINE
  5
E59
330
2
100
AcDbEntity
  8
L-SOUZOU
100
AcDbLine
 10
33.0
 20
146.0000000000013
 30
0.0
 11
33.0
 21
83.00000000000181
 31
0.0
  0
LINE
  5
E5A
330
2
100
AcDbEntity
  8
L-SOUZOU
100
AcDbLine
 10
36.0
 20
146.0000000000013
 30
0.0
 11
36.0
 21
86.00000000000182
 31
0.0
  0
LINE
  5
E5B
330
2
100
AcDbEntity
  8
L-SOUZOU
100
AcDbLine
 10
36.0
 20
86.00000000000182
 30
0.0
 11
76.0
 21
86.00000000000182
 31
0.0
  0
LINE
  5
E5C
330
2
100
AcDbEntity
  8
L-SOUZOU
100
AcDbLine
 10
33.0
 20
83.00000000000181
 30
0.0
 11
76.0
 21
83.00000000000181
 31
0.0
  0
LINE
  5
E5D
330
2
100
AcDbEntity
  8
L-TYUSIN
100
AcDbLine
 10
41.0
 20
134.0000000000018
 30
0.0
 11
28.0
 21
134.0000000000018
 31
0.0
  0
LINE
  5
E5E
330
2
100
AcDbEntity
  8
L-SOUZOU
100
AcDbLine
 10
33.0
 20
146.0000000000013
 30
0.0
 11
36.0
 21
146.0000000000013
 31
0.0
  0
LINE
  5
E5F
330
2
100
AcDbEntity
  8
L-SOUZOU
100
AcDbLine
 10
76.0
 20
86.00000000000182
 30
0.0
 11
76.0
 21
83.00000000000181
 31
0.0
  0
LINE
  5
E6D
330
2
100
AcDbEntity
  8
L-SOUZOU
100
AcDbLine
 10
340.4433704725897
 20
142.000000000002
 30
0.0
 11
340.4433704725897
 21
83.00000000000204
 31
0.0
  0
LINE
  5
E6E
330
2
100
AcDbEntity
  8
L-SOUZOU
100
AcDbLine
 10
250.4433704725897
 20
83.00000000000204
 30
0.0
 11
250.4433704725897
 21
142.0000000000015
 31
0.0
  0
LINE
  5
E6F
330
2
100
AcDbEntity
  8
L-SOUZOU
100
AcDbLine
 10
254.4433704725897
 20
146.0000000000015
 30
0.0
 11
336.4433704725897
 21
146.000000000002
 31
0.0
  0
ARC
  5
E70
330
2
100
AcDbEntity
  8
L-SOUZOU
100
AcDbCircle
 10
263.4433704725897
 20
134.000000000002
 30
0.0
 40
6.0
100
AcDbArc
 50
270.0
 51
90.0
  0
LINE
  5
E71
330
2
100
AcDbEntity
  8
L-TYUSIN
100
AcDbLine
 10
274.4433704725897
 20
134.000000000002
 30
0.0
 11
250.4433704725897
 21
134.000000000002
 31
0.0
  0
ARC
  5
E72
330
2
100
AcDbEntity
  8
L-SOUZOU
100
AcDbCircle
 10
261.4433704725897
 20
134.000000000002
 30
0.0
 40
6.0
100
AcDbArc
 50
90.0
 51
270.0
  0
LINE
  5
E73
330
2
100
AcDbEntity
  8
L-TYUSIN
100
AcDbLine
 10
262.4433704725897
 20
145.000000000002
 30
0.0
 11
262.4433704725897
 21
123.000000000002
 31
0.0
  0
LINE
  5
E74
330
2
100
AcDbEntity
  8
L-SOUZOU
100
AcDbLine
 10
250.4433704725897
 20
142.0000000000015
 30
0.0
 11
254.4433704725897
 21
146.0000000000015
 31
0.0
  0
LINE
  5
E75
330
2
100
AcDbEntity
  8
L-SOUZOU
100
AcDbLine
 10
261.4433704725897
 20
140.000000000002
 30
0.0
 11
263.4433704725897
 21
140.000000000002
 31
0.0
  0
LINE
  5
E76
330
2
100
AcDbEntity
  8
L-TYUSIN
100
AcDbLine
 10
340.4433704725897
 20
134.000000000002
 30
0.0
 11
316.4433704725897
 21
134.000000000002
 31
0.0
  0
ARC
  5
E77
330
2
100
AcDbEntity
  8
L-SOUZOU
100
AcDbCircle
 10
327.4433704725897
 20
134.000000000002
 30
0.0
 40
6.0
100
AcDbArc
 50
90.0
 51
270.0
  0
LINE
  5
E78
330
2
100
AcDbEntity
  8
L-TYUSIN
100
AcDbLine
 10
328.4433704725898
 20
145.000000000002
 30
0.0
 11
328.4433704725898
 21
123.000000000002
 31
0.0
  0
ARC
  5
E79
330
2
100
AcDbEntity
  8
L-SOUZOU
100
AcDbCircle
 10
329.4433704725897
 20
134.000000000002
 30
0.0
 40
6.0
100
AcDbArc
 50
270.0
 51
90.0
  0
LINE
  5
E7A
330
2
100
AcDbEntity
  8
L-SOUZOU
100
AcDbLine
 10
329.4433704725897
 20
140.000000000002
 30
0.0
 11
327.4433704725897
 21
140.000000000002
 31
0.0
  0
LINE
  5
E7B
330
2
100
AcDbEntity
  8
L-SOUZOU
100
AcDbLine
 10
340.4433704725897
 20
142.000000000002
 30
0.0
 11
336.4433704725897
 21
146.000000000002
 31
0.0
  0
LINE
  5
E7C
330
2
100
AcDbEntity
  8
L-SOUZOU
100
AcDbLine
 10
250.4433704725897
 20
86.00000000000205
 30
0.0
 11
340.4433704725897
 21
86.00000000000205
 31
0.0
  0
LINE
  5
E7D
330
2
100
AcDbEntity
  8
L-SOUZOU
100
AcDbLine
 10
250.4433704725897
 20
83.00000000000204
 30
0.0
 11
340.4433704725897
 21
83.00000000000204
 31
0.0
  0
LINE
  5
FF6
330
2
100
AcDbEntity
  8
L-ZISSEN
100
AcDbLine
 10
577.9652778166905
 20
75.44484497153212
 30
0.0
 11
577.9652778166905
 21
78.33159631747981
 31
0.0
  0
POLYLINE
  5
FF7
330
2
100
AcDbEntity
  8
L-ZISSEN
100
AcDb2dPolyline
 66
     1
 10
0.0
 20
0.0
 30
0.0
 70
     1
  0
VERTEX
  5
11C7
330
FF7
100
AcDbEntity
  8
L-ZISSEN
100
AcDbVertex
100
AcDb2dVertex
 10
470.3598686970572
 20
77.60990848099322
 30
0.0
  0
VERTEX
  5
11C8
330
FF7
100
AcDbEntity
  8
L-ZISSEN
100
AcDbVertex
100
AcDb2dVertex
 10
471.6098686970572
 20
78.33159631748026
 30
0.0
  0
VERTEX
  5
11C9
330
FF7
100
AcDbEntity
  8
L-ZISSEN
100
AcDbVertex
100
AcDb2dVertex
 10
472.8598686970571
 20
77.60990848099322
 30
0.0
  0
VERTEX
  5
11CA
330
FF7
100
AcDbEntity
  8
L-ZISSEN
100
AcDbVertex
100
AcDb2dVertex
 10
472.8598686970571
 20
76.16653280801916
 30
0.0
  0
VERTEX
  5
11CB
330
FF7
100
AcDbEntity
  8
L-ZISSEN
100
AcDbVertex
100
AcDb2dVertex
 10
471.6098686970572
 20
75.44484497153212
 30
0.0
  0
VERTEX
  5
11CC
330
FF7
100
AcDbEntity
  8
L-ZISSEN
100
AcDbVertex
100
AcDb2dVertex
 10
470.3598686970572
 20
76.16653280801916
 30
0.0
  0
SEQEND
  5
11CD
330
FF7
100
AcDbEntity
  8
L-ZISSEN
  0
LINE
  5
FF8
330
2
100
AcDbEntity
  8
L-ZISSEN
100
AcDbLine
 10
500.8657357585384
 20
152.6382206445066
 30
0.0
 11
499.149874756562
 21
73.39262731356734
 31
0.0
  0
LINE
  5
FF9
330
2
100
AcDbEntity
  8
L-ZISSEN
100
AcDbLine
 10
480.3598686970572
 20
148.6382206445066
 30
0.0
 11
480.359868697059
 21
71.63822064450664
 31
0.0
  0
LINE
  5
FFA
330
2
100
AcDbEntity
  8
L-ZISSEN
100
AcDbLine
 10
462.8598686970572
 20
148.6382206445066
 30
0.0
 11
462.8598686970589
 21
71.63822064450664
 31
0.0
  0
LINE
  5
FFB
330
2
100
AcDbEntity
  8
L-ZISSEN
100
AcDbLine
 10
442.3540016355759
 20
152.6382206445066
 30
0.0
 11
444.0698626375528
 21
73.39262731356734
 31
0.0
  0
CIRCLE
  5
FFC
330
2
100
AcDbEntity
  8
L-ZISSEN
100
AcDbCircle
 10
471.6098686970572
 20
76.88822064450619
 30
0.0
 40
3.75
  0
LINE
  5
FFD
330
2
100
AcDbEntity
  8
L-ZISSEN
100
AcDbLine
 10
579.8652778166902
 20
148.6382206445066
 30
0.0
 11
579.8652778166919
 21
71.63822064450664
 31
0.0
  0
LINE
  5
FFE
330
2
100
AcDbEntity
  8
L-ZISSEN
 48
0.3
100
AcDbLine
 10
594.4630610122072
 20
71.63822064450664
 30
0.0
 11
594.4630610122072
 21
148.6382206445066
 31
0.0
  0
LINE
  5
FFF
330
2
100
AcDbEntity
  8
L-ZISSEN
100
AcDbLine
 10
589.3652778166901
 20
148.6382206445066
 30
0.0
 11
589.365277816692
 21
71.63822064450664
 31
0.0
  0
LINE
  5
1000
330
2
100
AcDbEntity
  8
L-ZISSEN
100
AcDbLine
 10
650.8657357585384
 20
152.6382206445066
 30
0.0
 11
649.1498747565615
 21
73.39262731356734
 31
0.0
  0
LINE
  5
1001
330
2
100
AcDbEntity
  8
L-ZISSEN
100
AcDbLine
 10
481.0450359652763
 20
62.63822064450573
 30
0.0
 11
490.0018960288739
 21
63.68712501043387
 31
0.0
  0
LINE
  5
1002
330
2
100
AcDbEntity
  8
L-ZISSEN
100
AcDbLine
 10
479.1098686970574
 20
57.63822064450573
 30
0.0
 11
464.1098686970574
 21
57.63822064450573
 31
0.0
  0
LINE
  5
1003
330
2
100
AcDbEntity
  8
L-ZISSEN
100
AcDbLine
 10
462.8598686970572
 20
71.63822064450664
 30
0.0
 11
480.3598686970572
 21
71.63822064450619
 31
0.0
  0
LINE
  5
1004
330
2
100
AcDbEntity
  8
L-ZISSEN
100
AcDbLine
 10
462.174701428838
 20
62.63822064450573
 30
0.0
 11
481.0450359652763
 21
62.63822064450573
 31
0.0
  0
LINE
  5
1005
330
2
100
AcDbEntity
  8
L-ZISSEN
100
AcDbLine
 10
462.1747014288384
 20
59.63822064450574
 30
0.0
 11
481.0450359652763
 21
59.63822064450574
 31
0.0
  0
ARC
  5
1006
330
2
100
AcDbEntity
  8
L-ZISSEN
100
AcDbCircle
 10
454.066523045798
 20
73.65104689918258
 30
0.0
 40
10.0
100
AcDbArc
 50
181.0000000000278
 51
265.1315559371153
  0
LINE
  5
1007
330
2
100
AcDbEntity
  8
L-ZISSEN
100
AcDbLine
 10
462.174701428838
 20
62.63822064450573
 30
0.0
 11
453.2178413652409
 21
63.68712501043387
 31
0.0
  0
LINE
  5
1008
330
2
100
AcDbEntity
  8
L-ZISSEN
100
AcDbLine
 10
462.174701428838
 20
62.63822064450573
 30
0.0
 11
462.1747014288383
 21
59.63822064450574
 31
0.0
  0
LINE
  5
1009
330
2
100
AcDbEntity
  8
L-ZISSEN
100
AcDbLine
 10
464.1098686970574
 20
57.63822064450573
 30
0.0
 11
464.1098686970574
 21
59.63822064450574
 31
0.0
  0
LINE
  5
100A
330
2
100
AcDbEntity
  8
L-ZISSEN
100
AcDbLine
 10
471.6098686970574
 20
57.63822064450573
 30
0.0
 11
471.6098686970575
 21
59.63822064450574
 31
0.0
  0
LINE
  5
100B
330
2
100
AcDbEntity
  8
L-ZISSEN
100
AcDbLine
 10
481.0450359652763
 20
62.63822064450573
 30
0.0
 11
481.0450359652763
 21
59.63822064450574
 31
0.0
  0
LINE
  5
100C
330
2
100
AcDbEntity
  8
L-ZISSEN
100
AcDbLine
 10
479.1098686970574
 20
57.63822064450573
 30
0.0
 11
479.1098686970575
 21
59.63822064450574
 31
0.0
  0
LINE
  5
100D
330
2
100
AcDbEntity
  8
L-TYUSIN
100
AcDbLine
 10
477.8598686970572
 20
76.88822064450619
 30
0.0
 11
465.3598686970572
 21
76.88822064450619
 31
0.0
  0
ARC
  5
100E
330
2
100
AcDbEntity
  8
L-ZISSEN
100
AcDbCircle
 10
489.1532143483168
 20
73.65104689918258
 30
0.0
 40
10.0
100
AcDbArc
 50
274.8684440628815
 51
358.9999999999721
  0
LINE
  5
100F
330
2
100
AcDbEntity
  8
L-ZISSEN
100
AcDbLine
 10
631.0450359652763
 20
62.63822064450573
 30
0.0
 11
640.0018960288739
 21
63.68712501043387
 31
0.0
  0
LINE
  5
1010
330
2
100
AcDbEntity
  8
L-ZISSEN
100
AcDbLine
 10
579.8652778166902
 20
71.63822064450664
 30
0.0
 11
589.3652778166901
 21
71.63822064450619
 31
0.0
  0
LINE
  5
1011
330
2
100
AcDbEntity
  8
L-TYUSIN
100
AcDbLine
 10
596.0061535259069
 20
76.63822064450664
 30
0.0
 11
572.9652778166905
 21
76.63822064450664
 31
0.0
  0
ARC
  5
1012
330
2
100
AcDbEntity
  8
L-ZISSEN
100
AcDbCircle
 10
580.2772803844677
 20
75.41343412868787
 30
0.0
 40
2.312215931624567
100
AcDbArc
 50
179.2216280233924
 51
259.7359316277953
  0
LINE
  5
1013
330
2
100
AcDbEntity
  8
L-ZISSEN
100
AcDbLine
 10
612.174701428838
 20
62.63822064450573
 30
0.0
 11
603.2178413652404
 21
63.68712501043387
 31
0.0
  0
ARC
  5
1014
330
2
100
AcDbEntity
  8
L-ZISSEN
100
AcDbCircle
 10
604.0665230457975
 20
73.65104689918258
 30
0.0
 40
10.0
100
AcDbArc
 50
191.6119735011068
 51
265.1315559371153
  0
LINE
  5
1015
330
2
100
AcDbEntity
  8
L-ZISSEN
100
AcDbLine
 10
589.365277816692
 20
71.63822064450664
 30
0.0
 11
593.1630610122069
 21
71.63822064450664
 31
0.0
  0
LINE
  5
1016
330
2
100
AcDbEntity
  8
L-ZISSEN
 48
0.3
100
AcDbLine
 10
593.1630610122069
 20
71.63822064450664
 30
0.0
 11
594.4630610122072
 21
71.63822064450664
 31
0.0
  0
LINE
  5
1017
330
2
100
AcDbEntity
  8
L-ZISSEN
100
AcDbLine
 10
612.1747014288389
 20
62.63822064450573
 30
0.0
 11
631.0450359652763
 21
62.63822064450573
 31
0.0
  0
LINE
  5
1018
330
2
100
AcDbEntity
  8
L-ZISSEN
100
AcDbLine
 10
612.1747014288394
 20
59.63822064450574
 30
0.0
 11
631.0450359652763
 21
59.63822064450574
 31
0.0
  0
LINE
  5
1019
330
2
100
AcDbEntity
  8
L-ZISSEN
100
AcDbLine
 10
630.2701227349023
 20
57.6382206445055
 30
0.0
 11
612.9496146592134
 21
57.6382206445055
 31
0.0
  0
LINE
  5
101A
330
2
100
AcDbEntity
  8
L-ZISSEN
100
AcDbLine
 10
612.1747014288389
 20
62.63822064450573
 30
0.0
 11
612.1747014288392
 21
59.63822064450574
 31
0.0
  0
LINE
  5
101B
330
2
100
AcDbEntity
  8
L-ZISSEN
100
AcDbLine
 10
612.9496146592134
 20
57.6382206445055
 30
0.0
 11
612.9496146592134
 21
59.63822064450551
 31
0.0
  0
LINE
  5
101C
330
2
100
AcDbEntity
  8
L-ZISSEN
100
AcDbLine
 10
617.2797416781357
 20
57.6382206445055
 30
0.0
 11
617.2797416781357
 21
59.63822064450551
 31
0.0
  0
LINE
  5
101D
330
2
100
AcDbEntity
  8
L-ZISSEN
100
AcDbLine
 10
625.9399957159801
 20
57.6382206445055
 30
0.0
 11
625.9399957159801
 21
59.63822064450551
 31
0.0
  0
LINE
  5
101E
330
2
100
AcDbEntity
  8
L-ZISSEN
100
AcDbLine
 10
631.0450359652763
 20
62.63822064450573
 30
0.0
 11
631.045035965276
 21
59.63822064450574
 31
0.0
  0
LINE
  5
101F
330
2
100
AcDbEntity
  8
L-ZISSEN
100
AcDbLine
 10
630.2701227349023
 20
57.6382206445055
 30
0.0
 11
630.2701227349023
 21
59.63822064450551
 31
0.0
  0
ARC
  5
1020
330
2
100
AcDbEntity
  8
L-ZISSEN
100
AcDbCircle
 10
639.1532143483168
 20
73.65104689918258
 30
0.0
 40
10.0
100
AcDbArc
 50
274.8684440628815
 51
358.9999999999721
  0
LINE
  5
1021
330
2
100
AcDbEntity
  8
L-ZISSEN
100
AcDbLine
 10
474.1098686970572
 20
137.1382206445066
 30
0.0
 11
474.1098686970572
 21
83.13822064450665
 31
0.0
  0
LINE
  5
1022
330
2
100
AcDbEntity
  8
L-ZISSEN
100
AcDbLine
 10
469.1098686970572
 20
83.13822064450665
 30
0.0
 11
469.1098686970572
 21
137.1382206445066
 31
0.0
  0
LINE
  5
1023
330
2
100
AcDbEntity
  8
L-ZISSEN
100
AcDbLine
 10
503.2139971067272
 20
125.5382206445062
 30
0.0
 11
503.2139971067281
 21
148.8571760607662
 31
0.0
  0
ARC
  5
1024
330
2
100
AcDbEntity
  8
L-ZISSEN
100
AcDbCircle
 10
502.4458152885454
 20
132.0382206445071
 30
0.0
 40
2.368181818181991
100
AcDbArc
 50
302.3784125140463
 51
57.62158748595358
  0
LINE
  5
1025
330
2
100
AcDbEntity
  8
L-ZISSEN
100
AcDbLine
 10
474.1098686970572
 20
83.13822064450665
 30
0.0
 11
469.1098686970572
 21
83.13822064450665
 31
0.0
  0
LINE
  5
1026
330
2
100
AcDbEntity
  8
L-ZISSEN
100
AcDbLine
 10
500.2139971067272
 20
122.5382206445071
 30
0.0
 11
503.2139971067272
 21
125.5382206445062
 31
0.0
  0
LINE
  5
1027
330
2
100
AcDbEntity
  8
L-ZISSEN
100
AcDbLine
 10
503.2139971067277
 20
130.0382206445071
 30
0.0
 11
503.7139971067277
 21
130.0382206445071
 31
0.0
  0
LINE
  5
1028
330
2
100
AcDbEntity
  8
L-ZISSEN
100
AcDbLine
 10
490.1098686970576
 20
152.6382206445084
 30
0.0
 11
475.3598686970567
 21
152.6382206445066
 31
0.0
  0
LINE
  5
1029
330
2
100
AcDbEntity
  8
L-ZISSEN
100
AcDbLine
 10
467.8598686970572
 20
162.6382206445061
 30
0.0
 11
467.8598686970572
 21
152.6382206445075
 31
0.0
  0
LINE
  5
102A
330
2
100
AcDbEntity
  8
L-ZISSEN
100
AcDbLine
 10
475.3598686970567
 20
162.6382206445061
 30
0.0
 11
475.3598686970567
 21
152.6382206445075
 31
0.0
  0
LINE
  5
102B
330
2
100
AcDbEntity
  8
L-ZISSEN
100
AcDbLine
 10
445.1098686970576
 20
162.6382206445057
 30
0.0
 11
445.1098686970576
 21
152.6382206445066
 31
0.0
  0
LINE
  5
102C
330
2
100
AcDbEntity
  8
L-ZISSEN
100
AcDbLine
 10
441.4064977620232
 20
166.1372011448013
 30
0.0
 11
441.6538840968301
 21
152.6382206445066
 31
0.0
  0
LINE
  5
102D
330
2
100
AcDbEntity
  8
L-ZISSEN
100
AcDbLine
 10
453.1098686970576
 20
162.6382206445057
 30
0.0
 11
453.1098686970576
 21
152.6382206445066
 31
0.0
  0
LINE
  5
102E
330
2
100
AcDbEntity
  8
L-ZISSEN
100
AcDbLine
 10
462.8598686970572
 20
148.6382206445066
 30
0.0
 11
480.3598686970572
 21
148.6382206445071
 31
0.0
  0
LINE
  5
102F
330
2
100
AcDbEntity
  8
L-ZISSEN
100
AcDbLine
 10
453.1098686970576
 20
152.6382206445075
 30
0.0
 11
467.8598686970572
 21
152.6382206445075
 31
0.0
  0
LINE
  5
1030
330
2
100
AcDbEntity
  8
L-ZISSEN
100
AcDbLine
 10
441.6538840968301
 20
152.6382206445066
 30
0.0
 11
445.1098686970576
 21
152.6382206445066
 31
0.0
  0
CIRCLE
  5
1031
330
2
100
AcDbEntity
  8
L-ZISSEN
100
AcDbCircle
 10
471.6098686970572
 20
143.3882206445071
 30
0.0
 40
3.75
  0
POLYLINE
  5
1032
330
2
100
AcDbEntity
  8
L-ZISSEN
100
AcDb2dPolyline
 66
     1
 10
0.0
 20
0.0
 30
0.0
 70
     1
  0
VERTEX
  5
11CE
330
1032
100
AcDbEntity
  8
L-ZISSEN
100
AcDbVertex
100
AcDb2dVertex
 10
470.3598686970572
 20
142.66653280802
 30
0.0
  0
VERTEX
  5
11CF
330
1032
100
AcDbEntity
  8
L-ZISSEN
100
AcDbVertex
100
AcDb2dVertex
 10
471.6098686970572
 20
141.944844971533
 30
0.0
  0
VERTEX
  5
11D0
330
1032
100
AcDbEntity
  8
L-ZISSEN
100
AcDbVertex
100
AcDb2dVertex
 10
472.8598686970571
 20
142.66653280802
 30
0.0
  0
VERTEX
  5
11D1
330
1032
100
AcDbEntity
  8
L-ZISSEN
100
AcDbVertex
100
AcDb2dVertex
 10
472.8598686970571
 20
144.1099084809941
 30
0.0
  0
VERTEX
  5
11D2
330
1032
100
AcDbEntity
  8
L-ZISSEN
100
AcDbVertex
100
AcDb2dVertex
 10
471.6098686970572
 20
144.8315963174811
 30
0.0
  0
VERTEX
  5
11D3
330
1032
100
AcDbEntity
  8
L-ZISSEN
100
AcDbVertex
100
AcDb2dVertex
 10
470.3598686970572
 20
144.1099084809941
 30
0.0
  0
SEQEND
  5
11D4
330
1032
100
AcDbEntity
  8
L-ZISSEN
  0
LINE
  5
1033
330
2
100
AcDbEntity
  8
L-TYUSIN
100
AcDbLine
 10
477.8598686970572
 20
143.3882206445071
 30
0.0
 11
465.3598686970572
 21
143.3882206445071
 31
0.0
  0
LINE
  5
1034
330
2
100
AcDbEntity
  8
L-ZISSEN
100
AcDbLine
 10
469.1098686970572
 20
137.1382206445066
 30
0.0
 11
474.1098686970572
 21
137.1382206445066
 31
0.0
  0
LINE
  5
1035
330
2
100
AcDbEntity
  8
L-ZISSEN
100
AcDbLine
 10
470.0734261378622
 20
167.4175699441304
 30
0.0
 11
456.6098686970572
 21
178.6372011448013
 31
0.0
  0
LINE
  5
1036
330
2
100
AcDbEntity
  8
L-ZISSEN
100
AcDbLine
 10
445.1098686970576
 20
162.6382206445057
 30
0.0
 11
453.1098686970576
 21
162.6382206445057
 31
0.0
  0
TEXT
  5
1037
330
2
100
AcDbEntity
  8
L-ZISSEN
100
AcDbText
 10
443.6098686970572
 20
176.3872011448013
 30
0.0
 40
4.5
  1
P.P
100
AcDbText
  0
LINE
  5
1038
330
2
100
AcDbEntity
  8
L-ZISSEN
100
AcDbLine
 10
456.6098686970572
 20
178.6372011448013
 30
0.0
 11
454.6098686970572
 21
178.6372011448013
 31
0.0
  0
LINE
  5
1039
330
2
100
AcDbEntity
  8
L-ZISSEN
100
AcDbLine
 10
475.3598686970572
 20
162.6382206445061
 30
0.0
 11
467.8598686970572
 21
162.6382206445061
 31
0.0
  0
SOLID
  5
103A
330
2
100
AcDbEntity
  8
L-ZISSEN
100
AcDbTrace
 10
469.8600313379743
 20
167.1614961842644
 30
0.0
 11
470.2868209377505
 21
167.673643703996
 31
0.0
 12
471.6098686970572
 22
166.1372011448013
 32
0.0
 13
471.6098686970572
 23
166.1372011448013
 33
0.0
  0
LINE
  5
103B
330
2
100
AcDbEntity
  8
L-ZISSEN
100
AcDbLine
 10
501.6793831582358
 20
161.1382206445057
 30
0.0
 11
501.6793831582358
 21
152.6382206445075
 31
0.0
  0
LINE
  5
103C
330
2
100
AcDbEntity
  8
L-ZISSEN
100
AcDbLine
 10
505.4139971067279
 20
165.8382206445069
 30
0.0
 11
505.4139971067279
 21
146.3735671331107
 31
0.0
  0
LINE
  5
103D
330
2
100
AcDbEntity
  8
L-ZISSEN
100
AcDbLine
 10
503.7018847924214
 20
161.1382206445057
 30
0.0
 11
503.7018847924214
 21
152.6382206445075
 31
0.0
  0
LINE
  5
103E
330
2
100
AcDbEntity
  8
L-ZISSEN
100
AcDbLine
 10
490.1098686970576
 20
162.6382206445075
 30
0.0
 11
490.1098686970576
 21
152.6382206445084
 31
0.0
  0
LINE
  5
103F
330
2
100
AcDbEntity
  8
L-ZISSEN
100
AcDbLine
 10
495.6212231353151
 20
162.6382206445057
 30
0.0
 11
495.6212231353151
 21
152.6382206445084
 31
0.0
  0
LINE
  5
1040
330
2
100
AcDbEntity
  8
L-ZISSEN
100
AcDbLine
 10
503.2139971067277
 20
139.5382206445072
 30
0.0
 11
503.2139971067277
 21
152.638220644508
 31
0.0
  0
LINE
  5
1041
330
2
100
AcDbEntity
  8
L-ZISSEN
100
AcDbLine
 10
511.2139971067277
 20
145.7627687407355
 30
0.0
 11
511.2139971067277
 21
141.4785997581377
 31
0.0
  0
LINE
  5
1042
330
2
100
AcDbEntity
  8
L-ZISSEN
100
AcDbLine
 10
501.0844561252597
 20
143.6206842494373
 30
0.0
 11
501.0844561252606
 21
152.6382206445066
 31
0.0
  0
LINE
  5
1043
330
2
100
AcDbEntity
  8
L-ZISSEN
100
AcDbLine
 10
501.0844561252606
 20
142.3382206445069
 30
0.0
 11
501.0844561252606
 21
152.6382206445066
 31
0.0
  0
LINE
  5
1044
330
2
100
AcDbEntity
  8
L-ZISSEN
100
AcDbLine
 10
502.0139971067278
 20
136.5382206445058
 30
0.0
 11
502.0139971067278
 21
142.3382206445073
 31
0.0
  0
LINE
  5
1045
330
2
100
AcDbEntity
  8
L-ZISSEN
100
AcDbLine
 10
503.2139971067277
 20
134.0382206445071
 30
0.0
 11
503.7139971067277
 21
134.0382206445071
 31
0.0
  0
LINE
  5
1046
330
2
100
AcDbEntity
  8
L-ZISSEN
100
AcDbLine
 10
500.5171313633836
 20
136.5382206445058
 30
0.0
 11
503.2139971067281
 21
136.5382206445058
 31
0.0
  0
LINE
  5
1047
330
2
100
AcDbEntity
  8
L-ZISSEN
100
AcDbLine
 10
511.2139971067277
 20
141.4785997581377
 30
0.0
 11
503.2139971067277
 21
139.5382206445072
 31
0.0
  0
LINE
  5
1048
330
2
100
AcDbEntity
  8
L-ZISSEN
100
AcDbLine
 10
503.2139971067277
 20
142.3382206445069
 30
0.0
 11
501.0844561252606
 21
142.3382206445073
 31
0.0
  0
LINE
  5
1049
330
2
100
AcDbEntity
  8
L-ZISSEN
100
AcDbLine
 10
495.6212231353151
 20
152.6382206445084
 30
0.0
 11
500.8657357585384
 21
152.6382206445084
 31
0.0
  0
LINE
  5
104A
330
2
100
AcDbEntity
  8
L-ZISSEN
100
AcDbLine
 10
505.4139971067279
 20
146.3735671331107
 30
0.0
 11
511.2139971067277
 21
145.7627687407355
 31
0.0
  0
LINE
  5
104B
330
2
100
AcDbEntity
  8
L-ZISSEN
100
AcDbLine
 10
500.8657357585384
 20
152.6382206445066
 30
0.0
 11
501.5658532972842
 21
152.6382206445066
 31
0.0
  0
LINE
  5
104C
330
2
100
AcDbEntity
  8
L-ZISSEN
100
AcDbLine
 10
503.7018847924214
 20
152.6382206445075
 30
0.0
 11
501.0391451908531
 21
152.6382206445075
 31
0.0
  0
LINE
  5
104D
330
2
100
AcDbEntity
  8
L-ZISSEN
100
AcDbLine
 10
490.1098686970567
 20
162.6382206445075
 30
0.0
 11
495.6212231353151
 21
162.6382206445057
 31
0.0
  0
LINE
  5
104E
330
2
100
AcDbEntity
  8
L-ZISSEN
100
AcDbLine
 10
503.2139971067277
 20
161.1382206445057
 30
0.0
 11
503.2139971067277
 21
165.8382206445073
 31
0.0
  0
LINE
  5
104F
330
2
100
AcDbEntity
  8
L-ZISSEN
100
AcDbLine
 10
503.7018847924214
 20
161.1382206445057
 30
0.0
 11
501.6793831582358
 21
161.1382206445057
 31
0.0
  0
LINE
  5
1050
330
2
100
AcDbEntity
  8
L-ZISSEN
100
AcDbLine
 10
503.2139971067277
 20
166.1372011448013
 30
0.0
 11
503.2139971067277
 21
165.8382206445073
 31
0.0
  0
LINE
  5
1051
330
2
100
AcDbEntity
  8
L-ZISSEN
100
AcDbLine
 10
505.4139971067279
 20
165.8382206445069
 30
0.0
 11
503.2139971067277
 21
165.8382206445069
 31
0.0
  0
LINE
  5
1052
330
2
100
AcDbEntity
  8
L-ZISSEN
100
AcDbLine
 10
633.6098686970572
 20
165.8382206445069
 30
0.0
 11
609.6098686970572
 21
165.8382206445069
 31
0.0
  0
ARC
  5
1053
330
2
100
AcDbEntity
  8
L-ZISSEN
100
AcDbCircle
 10
632.1098686970567
 20
137.0382206445062
 30
0.0
 40
0.5
100
AcDbArc
 50
270.0
 51
0.0
  0
CIRCLE
  5
1054
330
2
100
AcDbEntity
  8
L-ZISSEN
100
AcDbCircle
 10
617.3598686970567
 20
132.0382206445071
 30
0.0
 40
2.0
  0
LINE
  5
1055
330
2
100
AcDbEntity
  8
L-ZISSEN
100
AcDbLine
 10
614.0098686970568
 20
141.5648873111729
 30
0.0
 11
614.0098686970572
 21
127.5382206445071
 31
0.0
  0
LINE
  5
1056
330
2
100
AcDbEntity
  8
L-ZISSEN
100
AcDbLine
 10
612.0098686970564
 20
136.5382206445072
 30
0.0
 11
612.0098686970573
 21
125.5382206445071
 31
0.0
  0
LINE
  5
1057
330
2
100
AcDbEntity
  8
L-TYUSIN
100
AcDbLine
 10
617.3598686970567
 20
135.2882206445071
 30
0.0
 11
617.3598686970567
 21
128.7882206445071
 31
0.0
  0
LINE
  5
1058
330
2
100
AcDbEntity
  8
L-ZISSEN
100
AcDbLine
 10
611.6098686970567
 20
136.5382206445072
 30
0.0
 11
611.6098686970567
 21
122.5382206445071
 31
0.0
  0
CIRCLE
  5
1059
330
2
100
AcDbEntity
  8
L-ZISSEN
100
AcDbCircle
 10
625.8598686970576
 20
132.0382206445071
 30
0.0
 40
2.0
  0
LINE
  5
105A
330
2
100
AcDbEntity
  8
L-TYUSIN
100
AcDbLine
 10
625.8598686970576
 20
135.2882206445071
 30
0.0
 11
625.8598686970576
 21
128.7882206445071
 31
0.0
  0
LINE
  5
105B
330
2
100
AcDbEntity
  8
L-ZISSEN
100
AcDbLine
 10
629.2098686970571
 20
141.5648873111738
 30
0.0
 11
629.2098686970571
 21
127.5382206445071
 31
0.0
  0
LINE
  5
105C
330
2
100
AcDbEntity
  8
L-ZISSEN
100
AcDbLine
 10
631.6098686970576
 20
136.5382206445072
 30
0.0
 11
631.6098686970576
 21
122.5382206445071
 31
0.0
  0
LINE
  5
105D
330
2
100
AcDbEntity
  8
L-ZISSEN
100
AcDbLine
 10
631.2098686970571
 20
136.5382206445072
 30
0.0
 11
631.2098686970571
 21
125.5382206445062
 31
0.0
  0
ARC
  5
105E
330
2
100
AcDbEntity
  8
L-ZISSEN
100
AcDbCircle
 10
580.2772803844677
 20
78.36300716032361
 30
0.0
 40
2.312215931624567
100
AcDbArc
 50
100.2640683722046
 51
180.7783719766075
  0
LINE
  5
105F
330
2
100
AcDbEntity
  8
L-ZISSEN
100
AcDbLine
 10
614.0098686970572
 20
128.5382206445071
 30
0.0
 11
629.2098686970571
 21
128.5382206445071
 31
0.0
  0
LINE
  5
1060
330
2
100
AcDbEntity
  8
L-ZISSEN
100
AcDbLine
 10
614.0098686970572
 20
127.5382206445071
 30
0.0
 11
629.2098686970571
 21
127.5382206445071
 31
0.0
  0
LINE
  5
1061
330
2
100
AcDbEntity
  8
L-ZISSEN
100
AcDbLine
 10
611.6098686970567
 20
122.5382206445071
 30
0.0
 11
631.6098686970567
 21
122.5382206445071
 31
0.0
  0
LINE
  5
1062
330
2
100
AcDbEntity
  8
L-ZISSEN
100
AcDbLine
 10
612.0098686970573
 20
125.5382206445062
 30
0.0
 11
631.2098686970571
 21
125.5382206445062
 31
0.0
  0
LINE
  5
1063
330
2
100
AcDbEntity
  8
L-ZISSEN
100
AcDbLine
 10
612.0098686970573
 20
125.5382206445071
 30
0.0
 11
611.6098686970567
 21
122.5382206445071
 31
0.0
  0
LINE
  5
1064
330
2
100
AcDbEntity
  8
L-ZISSEN
100
AcDbLine
 10
631.2098686970571
 20
125.5382206445062
 30
0.0
 11
631.6098686970576
 21
122.5382206445071
 31
0.0
  0
LINE
  5
1065
330
2
100
AcDbEntity
  8
L-ZISSEN
100
AcDbLine
 10
579.8652778166902
 20
148.6382206445066
 30
0.0
 11
589.3652778166901
 21
148.6382206445066
 31
0.0
  0
LINE
  5
1066
330
2
100
AcDbEntity
  8
L-TYUSIN
100
AcDbLine
 10
572.9652778166905
 20
143.6382206445061
 30
0.0
 11
597.4869525263406
 21
143.6382206445066
 31
0.0
  0
LINE
  5
1067
330
2
100
AcDbEntity
  8
L-ZISSEN
100
AcDbLine
 10
577.9652778166905
 20
144.8315963174807
 30
0.0
 11
577.9652778166905
 21
141.9448449715325
 31
0.0
  0
ARC
  5
1068
330
2
100
AcDbEntity
  8
L-ZISSEN
100
AcDbCircle
 10
580.2772803844677
 20
141.9134341286887
 30
0.0
 40
2.312215931624567
100
AcDbArc
 50
179.2216280233924
 51
259.7359316277953
  0
ARC
  5
1069
330
2
100
AcDbEntity
  8
L-ZISSEN
100
AcDbCircle
 10
580.2772803844677
 20
144.8630071603245
 30
0.0
 40
2.312215931624567
100
AcDbArc
 50
100.2640683722046
 51
180.7783719766075
  0
LINE
  5
106A
330
2
100
AcDbEntity
  8
L-ZISSEN
100
AcDbLine
 10
595.1098686970576
 20
162.6382206445057
 30
0.0
 11
595.1098686970576
 21
152.6382206445066
 31
0.0
  0
LINE
  5
106B
330
2
100
AcDbEntity
  8
L-ZISSEN
100
AcDbLine
 10
591.4064977620232
 20
166.1372011448008
 30
0.0
 11
591.6538840968301
 21
152.6382206445066
 31
0.0
  0
LINE
  5
106C
330
2
100
AcDbEntity
  8
L-ZISSEN
100
AcDbLine
 10
603.1098686970576
 20
162.6382206445057
 30
0.0
 11
603.1098686970576
 21
152.6382206445066
 31
0.0
  0
LINE
  5
106D
330
2
100
AcDbEntity
  8
L-ZISSEN
100
AcDbLine
 10
609.3098686970574
 20
161.1382206445057
 30
0.0
 11
609.3098686970574
 21
152.6382206445075
 31
0.0
  0
LINE
  5
106E
330
2
100
AcDbEntity
  8
L-ZISSEN
100
AcDbLine
 10
610.6098686970567
 20
165.8382206445069
 30
0.0
 11
610.6098686970567
 21
137.0382206445062
 31
0.0
  0
LINE
  5
106F
330
2
100
AcDbEntity
  8
L-ZISSEN
100
AcDbLine
 10
611.5324936970551
 20
165.8382206445069
 30
0.0
 11
611.5324936970551
 21
147.696095644507
 31
0.0
  0
LINE
  5
1070
330
2
100
AcDbEntity
  8
L-ZISSEN
100
AcDbLine
 10
610.8126811970556
 20
165.8382206445069
 30
0.0
 11
610.812681197055
 21
142.4174706445071
 31
0.0
  0
LINE
  5
1071
330
2
100
AcDbEntity
  8
L-ZISSEN
100
AcDbLine
 10
622.5696186970585
 20
163.5319706445077
 30
0.0
 11
622.5696186970585
 21
155.8539706445078
 31
0.0
  0
LINE
  5
1072
330
2
100
AcDbEntity
  8
L-ZISSEN
100
AcDbLine
 10
622.5696186970585
 20
163.5319706445077
 30
0.0
 11
622.5696186970585
 21
155.8539706445078
 31
0.0
  0
LINE
  5
1073
330
2
100
AcDbEntity
  8
L-ZISSEN
100
AcDbLine
 10
620.6501186970585
 20
163.5319706445077
 30
0.0
 11
620.6501186970585
 21
155.8539706445078
 31
0.0
  0
LINE
  5
1074
330
2
100
AcDbEntity
  8
L-ZISSEN
100
AcDbLine
 10
620.6501186970585
 20
163.5319706445077
 30
0.0
 11
620.6501186970585
 21
155.8539706445078
 31
0.0
  0
LINE
  5
1075
330
2
100
AcDbEntity
  8
L-ZISSEN
100
AcDbLine
 10
631.6872436970552
 20
165.8382206445069
 30
0.0
 11
631.6872436970552
 21
147.696095644507
 31
0.0
  0
LINE
  5
1076
330
2
100
AcDbEntity
  8
L-ZISSEN
100
AcDbLine
 10
632.4070561970552
 20
165.8382206445069
 30
0.0
 11
632.4070561970552
 21
142.4174706445071
 31
0.0
  0
LINE
  5
1077
330
2
100
AcDbEntity
  8
L-ZISSEN
100
AcDbLine
 10
603.1098686970576
 20
152.6382206445075
 30
0.0
 11
610.1098686970576
 21
152.6382206445075
 31
0.0
  0
LINE
  5
1078
330
2
100
AcDbEntity
  8
L-ZISSEN
100
AcDbLine
 10
592.3540016355769
 20
152.6382206445066
 30
0.0
 11
592.3918554342654
 21
148.6382206445066
 31
0.0
  0
LINE
  5
1079
330
2
100
AcDbEntity
  8
L-ZISSEN
100
AcDbLine
 10
589.3652778166901
 20
148.6382206445066
 30
0.0
 11
592.4653953554366
 21
148.6382206445066
 31
0.0
  0
LINE
  5
107A
330
2
100
AcDbEntity
  8
L-ZISSEN
100
AcDbLine
 10
587.6538840968301
 20
148.6382206445066
 30
0.0
 11
591.1098686970576
 21
148.6382206445066
 31
0.0
  0
LINE
  5
107B
330
2
100
AcDbEntity
  8
L-ZISSEN
 48
0.3
100
AcDbLine
 10
594.4630610122072
 20
148.6382206445066
 30
0.0
 11
592.4653953554366
 21
148.6382206445066
 31
0.0
  0
LINE
  5
107C
330
2
100
AcDbEntity
  8
L-ZISSEN
100
AcDbLine
 10
591.6538840968301
 20
152.6382206445066
 30
0.0
 11
595.1098686970576
 21
152.6382206445066
 31
0.0
  0
LINE
  5
107D
330
2
100
AcDbEntity
  8
L-ZISSEN
100
AcDbLine
 10
612.4619669361313
 20
146.9251396941115
 30
0.0
 11
612.4619669361313
 21
143.4217334571269
 31
0.0
  0
LINE
  5
107E
330
2
100
AcDbEntity
  8
L-ZISSEN
100
AcDbLine
 10
630.757770457983
 20
146.9251396941115
 30
0.0
 11
630.757770457983
 21
143.4217334571269
 31
0.0
  0
LINE
  5
107F
330
2
100
AcDbEntity
  8
L-ZISSEN
100
AcDbLine
 10
612.4619669361313
 20
143.4217334571269
 30
0.0
 11
621.6098686970572
 21
141.5065654043589
 31
0.0
  0
ARC
  5
1080
330
2
100
AcDbEntity
  8
L-ZISSEN
100
AcDbCircle
 10
621.6098686970572
 20
137.7882206445071
 30
0.0
 40
1.25
100
AcDbArc
 50
180.0
 51
0.0
  0
LINE
  5
1081
330
2
100
AcDbEntity
  8
L-TYUSIN
100
AcDbLine
 10
614.0098686970572
 20
132.0382206445071
 30
0.0
 11
629.2098686970571
 21
132.0382206445071
 31
0.0
  0
LINE
  5
1082
330
2
100
AcDbEntity
  8
L-ZISSEN
100
AcDbLine
 10
621.6098686970572
 20
139.5382206445072
 30
0.0
 11
610.812681197055
 21
142.4174706445071
 31
0.0
  0
LINE
  5
1083
330
2
100
AcDbEntity
  8
L-ZISSEN
100
AcDbLine
 10
620.3598686970572
 20
137.7882206445071
 30
0.0
 11
620.3598686970572
 21
139.8715539778402
 31
0.0
  0
ARC
  5
1084
330
2
100
AcDbEntity
  8
L-ZISSEN
100
AcDbCircle
 10
611.1098686970567
 20
137.0382206445062
 30
0.0
 40
0.5
100
AcDbArc
 50
180.0
 51
270.0
  0
LINE
  5
1085
330
2
100
AcDbEntity
  8
L-ZISSEN
100
AcDbLine
 10
611.1098686970567
 20
136.5382206445062
 30
0.0
 11
614.0098686970568
 21
136.5382206445058
 31
0.0
  0
LINE
  5
1086
330
2
100
AcDbEntity
  8
L-ZISSEN
100
AcDbLine
 10
610.812681197055
 20
142.4174706445071
 30
0.0
 11
612.4619669361313
 21
143.4217334571269
 31
0.0
  0
LINE
  5
1087
330
2
100
AcDbEntity
  8
L-ZISSEN
100
AcDbLine
 10
622.8598686970571
 20
137.7882206445071
 30
0.0
 11
622.8598686970571
 21
139.8715539778402
 31
0.0
  0
LINE
  5
1088
330
2
100
AcDbEntity
  8
L-ZISSEN
100
AcDbLine
 10
629.2098686970571
 20
136.5382206445058
 30
0.0
 11
632.1098686970567
 21
136.5382206445062
 31
0.0
  0
LINE
  5
1089
330
2
100
AcDbEntity
  8
L-ZISSEN
100
AcDbLine
 10
621.6098686970572
 20
139.5382206445072
 30
0.0
 11
632.4070561970552
 21
142.4174706445071
 31
0.0
  0
LINE
  5
108A
330
2
100
AcDbEntity
  8
L-ZISSEN
100
AcDbLine
 10
630.757770457983
 20
143.4217334571269
 30
0.0
 11
621.6098686970572
 21
141.5065654043589
 31
0.0
  0
LINE
  5
108B
330
2
100
AcDbEntity
  8
L-ZISSEN
100
AcDbLine
 10
632.4070561970552
 20
142.4174706445071
 30
0.0
 11
630.757770457983
 21
143.4217334571269
 31
0.0
  0
LINE
  5
108C
330
2
100
AcDbEntity
  8
L-ZISSEN
100
AcDbLine
 10
620.6501186970585
 20
155.8539706445078
 30
0.0
 11
618.7306186970586
 21
155.8539706445078
 31
0.0
  0
LINE
  5
108D
330
2
100
AcDbEntity
  8
L-ZISSEN
100
AcDbLine
 10
618.7306186970586
 20
155.8539706445078
 30
0.0
 11
621.6098686970585
 21
151.0552206445079
 31
0.0
  0
LINE
  5
108E
330
2
100
AcDbEntity
  8
L-ZISSEN
100
AcDbLine
 10
621.6098686970572
 20
145.6182965854079
 30
0.0
 11
612.4619669361313
 21
146.9251396941115
 31
0.0
  0
LINE
  5
108F
330
2
100
AcDbEntity
  8
L-ZISSEN
100
AcDbLine
 10
621.6098686970572
 20
146.256470644507
 30
0.0
 11
611.5324936970551
 21
147.696095644507
 31
0.0
  0
LINE
  5
1090
330
2
100
AcDbEntity
  8
L-ZISSEN
100
AcDbLine
 10
612.4619669361313
 20
146.9251396941115
 30
0.0
 11
611.5324936970551
 21
147.696095644507
 31
0.0
  0
LINE
  5
1091
330
2
100
AcDbEntity
  8
L-ZISSEN
100
AcDbLine
 10
612.4619669361313
 20
147.5633137532106
 30
0.0
 11
611.5324936970551
 21
147.696095644507
 31
0.0
  0
LINE
  5
1092
330
2
100
AcDbEntity
  8
L-ZISSEN
100
AcDbLine
 10
609.3098686970574
 20
152.6382206445075
 30
0.0
 11
610.6098686970567
 21
152.6382206445075
 31
0.0
  0
LINE
  5
1093
330
2
100
AcDbEntity
  8
L-ZISSEN
100
AcDbLine
 10
624.489118697059
 20
155.8539706445078
 30
0.0
 11
621.6098686970585
 21
151.0552206445079
 31
0.0
  0
LINE
  5
1094
330
2
100
AcDbEntity
  8
L-ZISSEN
100
AcDbLine
 10
621.6098686970572
 20
146.256470644507
 30
0.0
 11
631.6872436970552
 21
147.696095644507
 31
0.0
  0
LINE
  5
1095
330
2
100
AcDbEntity
  8
L-ZISSEN
100
AcDbLine
 10
621.6098686970572
 20
145.6182965854079
 30
0.0
 11
630.757770457983
 21
146.9251396941115
 31
0.0
  0
LINE
  5
1096
330
2
100
AcDbEntity
  8
L-ZISSEN
100
AcDbLine
 10
621.6098686970572
 20
146.256470644507
 30
0.0
 11
621.6098686970572
 21
145.6182965854079
 31
0.0
  0
LINE
  5
1097
330
2
100
AcDbEntity
  8
L-ZISSEN
100
AcDbLine
 10
630.757770457983
 20
147.5633137532106
 30
0.0
 11
631.6872436970552
 21
147.696095644507
 31
0.0
  0
LINE
  5
1098
330
2
100
AcDbEntity
  8
L-ZISSEN
100
AcDbLine
 10
630.757770457983
 20
146.9251396941115
 30
0.0
 11
631.6872436970552
 21
147.696095644507
 31
0.0
  0
LINE
  5
1099
330
2
100
AcDbEntity
  8
L-ZISSEN
100
AcDbLine
 10
622.5696186970585
 20
155.8539706445078
 30
0.0
 11
624.489118697059
 21
155.8539706445078
 31
0.0
  0
LINE
  5
109A
330
2
100
AcDbEntity
  8
L-ZISSEN
100
AcDbLine
 10
620.0734261378625
 20
167.41756994413
 30
0.0
 11
606.6098686970572
 21
178.6372011448008
 31
0.0
  0
LINE
  5
109B
330
2
100
AcDbEntity
  8
L-ZISSEN
100
AcDbLine
 10
595.1098686970576
 20
162.6382206445057
 30
0.0
 11
603.1098686970576
 21
162.6382206445057
 31
0.0
  0
TEXT
  5
109C
330
2
100
AcDbEntity
  8
L-ZISSEN
100
AcDbText
 10
593.6098686970572
 20
176.3872011448008
 30
0.0
 40
4.5
  1
P.P
100
AcDbText
  0
LINE
  5
109D
330
2
100
AcDbEntity
  8
L-ZISSEN
100
AcDbLine
 10
606.6098686970572
 20
178.6372011448008
 30
0.0
 11
604.6098686970572
 21
178.6372011448008
 31
0.0
  0
SOLID
  5
109E
330
2
100
AcDbEntity
  8
L-ZISSEN
100
AcDbTrace
 10
619.8600313379743
 20
167.161496184264
 30
0.0
 11
620.2868209377506
 21
167.6736437039956
 31
0.0
 12
621.6098686970572
 22
166.1372011448008
 32
0.0
 13
621.6098686970572
 23
166.1372011448008
 33
0.0
  0
LINE
  5
109F
330
2
100
AcDbEntity
  8
L-ZISSEN
100
AcDbLine
 10
615.3714936970568
 20
159.6929706445068
 30
0.0
 11
612.9721186970568
 21
161.1325956445068
 31
0.0
  0
LINE
  5
10A0
330
2
100
AcDbEntity
  8
L-ZISSEN
100
AcDbLine
 10
615.3714936970568
 20
162.5722206445068
 30
0.0
 11
612.9721186970568
 21
161.1325956445068
 31
0.0
  0
LINE
  5
10A1
330
2
100
AcDbEntity
  8
L-ZISSEN
100
AcDbLine
 10
609.3098686970574
 20
161.1382206445057
 30
0.0
 11
610.6098686970567
 21
161.1382206445057
 31
0.0
  0
LINE
  5
10A2
330
2
100
AcDbEntity
  8
L-ZISSEN
100
AcDbLine
 10
619.2104936970572
 20
161.6124706445068
 30
0.0
 11
619.2104936970572
 21
160.6527206445068
 31
0.0
  0
LINE
  5
10A3
330
2
100
AcDbEntity
  8
L-ZISSEN
100
AcDbLine
 10
615.3714936970568
 20
160.6527206445068
 30
0.0
 11
615.3714936970568
 21
159.6929706445068
 31
0.0
  0
LINE
  5
10A4
330
2
100
AcDbEntity
  8
L-ZISSEN
100
AcDbLine
 10
615.3714936970568
 20
161.6124706445068
 30
0.0
 11
615.3714936970568
 21
162.5722206445068
 31
0.0
  0
LINE
  5
10A5
330
2
100
AcDbEntity
  8
L-ZISSEN
100
AcDbLine
 10
619.2104936970572
 20
161.6124706445068
 30
0.0
 11
615.3714936970568
 21
161.6124706445068
 31
0.0
  0
LINE
  5
10A6
330
2
100
AcDbEntity
  8
L-ZISSEN
100
AcDbLine
 10
619.2104936970572
 20
161.6124706445068
 30
0.0
 11
615.3714936970568
 21
161.6124706445068
 31
0.0
  0
LINE
  5
10A7
330
2
100
AcDbEntity
  8
L-ZISSEN
100
AcDbLine
 10
619.2104936970572
 20
160.6527206445068
 30
0.0
 11
615.3714936970568
 21
160.6527206445068
 31
0.0
  0
LINE
  5
10A8
330
2
100
AcDbEntity
  8
L-ZISSEN
100
AcDbLine
 10
619.2104936970572
 20
160.6527206445068
 30
0.0
 11
615.3714936970568
 21
160.6527206445068
 31
0.0
  0
LINE
  5
10A9
330
2
100
AcDbEntity
  8
L-ZISSEN
100
AcDbLine
 10
609.6098686970572
 20
166.1372011448008
 30
0.0
 11
609.6098686970572
 21
165.8382206445069
 31
0.0
  0
LINE
  5
10AA
330
2
100
AcDbEntity
  8
L-ZISSEN
100
AcDbLine
 10
624.0092436970571
 20
161.6124706445077
 30
0.0
 11
627.8482436970571
 21
161.6124706445077
 31
0.0
  0
LINE
  5
10AB
330
2
100
AcDbEntity
  8
L-ZISSEN
100
AcDbLine
 10
624.0092436970571
 20
161.6124706445077
 30
0.0
 11
627.8482436970571
 21
161.6124706445077
 31
0.0
  0
LINE
  5
10AC
330
2
100
AcDbEntity
  8
L-ZISSEN
100
AcDbLine
 10
624.0092436970571
 20
160.6527206445077
 30
0.0
 11
627.8482436970571
 21
160.6527206445077
 31
0.0
  0
LINE
  5
10AD
330
2
100
AcDbEntity
  8
L-ZISSEN
100
AcDbLine
 10
624.0092436970571
 20
160.6527206445077
 30
0.0
 11
627.8482436970571
 21
160.6527206445077
 31
0.0
  0
LINE
  5
10AE
330
2
100
AcDbEntity
  8
L-ZISSEN
100
AcDbLine
 10
624.0092436970571
 20
161.6124706445077
 30
0.0
 11
624.0092436970571
 21
160.6527206445077
 31
0.0
  0
LINE
  5
10AF
330
2
100
AcDbEntity
  8
L-ZISSEN
100
AcDbLine
 10
622.5696186970585
 20
163.5319706445077
 30
0.0
 11
620.6501186970585
 21
163.5319706445077
 31
0.0
  0
LINE
  5
10B0
330
2
100
AcDbEntity
  8
L-ZISSEN
100
AcDbLine
 10
627.8482436970571
 20
160.6527206445077
 30
0.0
 11
627.8482436970571
 21
159.6929706445077
 31
0.0
  0
LINE
  5
10B1
330
2
100
AcDbEntity
  8
L-ZISSEN
100
AcDbLine
 10
627.8482436970571
 20
161.6124706445077
 30
0.0
 11
627.8482436970571
 21
162.5722206445077
 31
0.0
  0
LINE
  5
10B2
330
2
100
AcDbEntity
  8
L-ZISSEN
100
AcDbLine
 10
627.8482436970571
 20
159.6929706445077
 30
0.0
 11
630.247618697057
 21
161.1325956445077
 31
0.0
  0
LINE
  5
10B3
330
2
100
AcDbEntity
  8
L-ZISSEN
100
AcDbLine
 10
627.8482436970571
 20
162.5722206445077
 30
0.0
 11
630.247618697057
 21
161.1325956445077
 31
0.0
  0
LINE
  5
10B4
330
2
100
AcDbEntity
  8
L-ZISSEN
100
AcDbLine
 10
640.1098686970576
 20
162.6382206445075
 30
0.0
 11
640.1098686970576
 21
152.6382206445084
 31
0.0
  0
LINE
  5
10B5
330
2
100
AcDbEntity
  8
L-ZISSEN
100
AcDbLine
 10
651.7461518124828
 20
166.1372011448008
 30
0.0
 11
651.5658532972842
 21
152.6382206445066
 31
0.0
  0
LINE
  5
10B6
330
2
100
AcDbEntity
  8
L-ZISSEN
100
AcDbLine
 10
645.6212231353151
 20
162.6382206445057
 30
0.0
 11
645.6212231353151
 21
152.6382206445084
 31
0.0
  0
LINE
  5
10B7
330
2
100
AcDbEntity
  8
L-ZISSEN
100
AcDbLine
 10
633.9098686970578
 20
161.1382206445057
 30
0.0
 11
633.9098686970569
 21
152.6382206445075
 31
0.0
  0
LINE
  5
10B8
330
2
100
AcDbEntity
  8
L-ZISSEN
100
AcDbLine
 10
632.6098686970567
 20
165.8382206445069
 30
0.0
 11
632.6098686970567
 21
137.0382206445062
 31
0.0
  0
LINE
  5
10B9
330
2
100
AcDbEntity
  8
L-ZISSEN
100
AcDbLine
 10
640.1098686970576
 20
152.6382206445084
 30
0.0
 11
633.1098686970577
 21
152.6382206445075
 31
0.0
  0
LINE
  5
10BA
330
2
100
AcDbEntity
  8
L-ZISSEN
100
AcDbLine
 10
633.9098686970569
 20
152.6382206445075
 30
0.0
 11
632.6098686970567
 21
152.6382206445066
 31
0.0
  0
LINE
  5
10BB
330
2
100
AcDbEntity
  8
L-ZISSEN
100
AcDbLine
 10
633.9098686970569
 20
152.6382206445075
 30
0.0
 11
632.6098686970567
 21
152.6382206445075
 31
0.0
  0
LINE
  5
10BC
330
2
100
AcDbEntity
  8
L-ZISSEN
100
AcDbLine
 10
645.6212231353151
 20
152.6382206445084
 30
0.0
 11
650.8657357585384
 21
152.6382206445084
 31
0.0
  0
LINE
  5
10BD
330
2
100
AcDbEntity
  8
L-ZISSEN
100
AcDbLine
 10
650.8657357585384
 20
152.6382206445066
 30
0.0
 11
651.5658532972842
 21
152.6382206445066
 31
0.0
  0
LINE
  5
10BE
330
2
100
AcDbEntity
  8
L-ZISSEN
100
AcDbLine
 10
640.1098686970567
 20
162.6382206445075
 30
0.0
 11
645.6212231353151
 21
162.6382206445057
 31
0.0
  0
LINE
  5
10BF
330
2
100
AcDbEntity
  8
L-ZISSEN
100
AcDbLine
 10
633.9098686970578
 20
161.1382206445057
 30
0.0
 11
632.6098686970567
 21
161.1382206445057
 31
0.0
  0
LINE
  5
10C0
330
2
100
AcDbEntity
  8
L-ZISSEN
100
AcDbLine
 10
633.6098686970567
 20
166.1372011448013
 30
0.0
 11
633.6098686970567
 21
165.8382206445069
 31
0.0
  0
TEXT
  5
1147
330
2
100
AcDbEntity
  8
L-ZISSEN
100
AcDbText
 10
273.5457273264169
 20
274.5254532648055
 30
0.0
 40
4.5
  1
6
100
AcDbText
  0
TEXT
  5
1148
330
2
100
AcDbEntity
  8
L-ZISSEN
100
AcDbText
 10
273.5457273264169
 20
268.1684349787719
 30
0.0
 40
4.5
  1
8
100
AcDbText
  0
ENDSEC
  0
SECTION
  2
OBJECTS
  0
DICTIONARY
  5
9
330
0
100
AcDbDictionary
  3
ACAD_GROUP
350
25
  3
ACAD_LAYOUT
350
D
  3
ACAD_MLINESTYLE
350
26
  3
ACAD_PLOTSETTINGS
350
27
1001
ACAD
1000
TREAT_AS_HARD
1070
     0
  0
DICTIONARY
  5
15
330
14
100
AcDbDictionary
  3
ACAD_LAYERSTATES
350
16
1001
ACAD
1000
TREAT_AS_HARD
1070
     1
  0
DICTIONARY
  5
3
330
2
100
AcDbDictionary
  3
ACAD_LAYOUTSELFREF
350
11C5
1001
ACAD
1000
TREAT_AS_HARD
1070
     1
  0
DICTIONARY
  5
F
330
E
100
AcDbDictionary
  3
ACAD_LAYOUTSELFREF
350
11C6
1001
ACAD
1000
TREAT_AS_HARD
1070
     1
  0
DICTIONARY
  5
25
102
{ACAD_REACTORS
330
9
102
}
330
9
100
AcDbDictionary
1001
ACAD
1000
TREAT_AS_HARD
1070
     0
  0
DICTIONARY
  5
D
102
{ACAD_REACTORS
330
9
102
}
330
9
100
AcDbDictionary
1001
ACAD
1000
TREAT_AS_HARD
1070
     0
  0
DICTIONARY
  5
26
102
{ACAD_REACTORS
330
9
102
}
330
9
100
AcDbDictionary
  3
STANDARD
350
2A
1001
ACAD
1000
TREAT_AS_HARD
1070
     0
  0
DICTIONARY
  5
27
102
{ACAD_REACTORS
330
9
102
}
330
9
100
AcDbDictionary
1001
ACAD
1000
TREAT_AS_HARD
1070
     0
  0
DICTIONARY
  5
16
102
{ACAD_REACTORS
330
15
102
}
330
15
100
AcDbDictionary
1001
ACAD
1000
TREAT_AS_HARD
1070
     0
  0
XRECORD
  5
11C5
102
{ACAD_REACTORS
330
3
102
}
330
3
100
AcDbXrecord
340
2
  0
XRECORD
  5
11C6
102
{ACAD_REACTORS
330
F
102
}
330
F
100
AcDbXrecord
340
E
  0
MLINESTYLE
  5
2A
102
{ACAD_REACTORS
330
26
102
}
330
26
100
AcDbMlineStyle
  2
STANDARD
 70
     0
  3

 62
     0
 51
90.0
 52
90.0
 71
     2
 49
0.5
 62
   256
  6
BYLAYER
 49
-0.5
 62
   256
  6
BYLAYER
  0
ENDSEC
  0
EOF
