  0
SECTION
  2
HEADER
  9
$ACADVER
  1
AC1012
  9
$DWGCODEPAGE
  3
dos932
  9
$INSBASE
 10
0.0
 20
0.0
 30
0.0
  9
$EXTMIN
 10
40.0888868774457
 20
-43.20745756466886
 30
-0.0015258207003583
  9
$EXTMAX
 10
565.2636370439308
 20
289.8128675302059
 30
0.0000000349246037
  9
$LIMMIN
 10
0.0
 20
0.0
  9
$LIMMAX
 10
12.0
 20
9.0
  9
$ORTHOMODE
 70
     0
  9
$REGENMODE
 70
     1
  9
$FILLMODE
 70
     1
  9
$QTEXTMODE
 70
     0
  9
$MIRRTEXT
 70
     1
  9
$DRAGMODE
 70
     2
  9
$LTSCALE
 40
1.0
  9
$OSMODE
 70
    39
  9
$ATTMODE
 70
     1
  9
$TEXTSIZE
 40
4.5
  9
$TRACEWID
 40
0.05
  9
$TEXTSTYLE
  7
STANDARD
  9
$CLAYER
  8
L-ZISSEN
  9
$CELTYPE
  6
BYLAYER
  9
$CECOLOR
 62
   256
  9
$CELTSCALE
 40
1.0
  9
$DELOBJ
 70
     1
  9
$DISPSILH
 70
     0
  9
$DIMSCALE
 40
0.0
  9
$DIMASZ
 40
2.0
  9
$DIMEXO
 40
1.0
  9
$DIMDLI
 40
8.0
  9
$DIMRND
 40
0.0
  9
$DIMDLE
 40
0.0
  9
$DIMEXE
 40
1.0
  9
$DIMTP
 40
0.0
  9
$DIMTM
 40
0.0
  9
$DIMTXT
 40
4.5
  9
$DIMCEN
 40
1.5
  9
$DIMTSZ
 40
0.0
  9
$DIMTOL
 70
     0
  9
$DIMLIM
 70
     0
  9
$DIMTIH
 70
     0
  9
$DIMTOH
 70
     0
  9
$DIMSE1
 70
     0
  9
$DIMSE2
 70
     0
  9
$DIMTAD
 70
     1
  9
$DIMZIN
 70
     8
  9
$DIMBLK
  1

  9
$DIMASO
 70
     1
  9
$DIMSHO
 70
     0
  9
$DIMPOST
  1

  9
$DIMAPOST
  1

  9
$DIMALT
 70
     0
  9
$DIMALTD
 70
     2
  9
$DIMALTF
 40
25.4
  9
$DIMLFAC
 40
1.0
  9
$DIMTOFL
 70
     1
  9
$DIMTVP
 40
0.0
  9
$DIMTIX
 70
     1
  9
$DIMSOXD
 70
     0
  9
$DIMSAH
 70
     0
  9
$DIMBLK1
  1

  9
$DIMBLK2
  1

  9
$DIMSTYLE
  2
STANDARD
  9
$DIMCLRD
 70
     0
  9
$DIMCLRE
 70
     0
  9
$DIMCLRT
 70
     0
  9
$DIMTFAC
 40
1.0
  9
$DIMGAP
 40
1.399999999999999
  9
$DIMJUST
 70
     0
  9
$DIMSD1
 70
     0
  9
$DIMSD2
 70
     0
  9
$DIMTOLJ
 70
     1
  9
$DIMTZIN
 70
     8
  9
$DIMALTZ
 70
     0
  9
$DIMALTTZ
 70
     0
  9
$DIMFIT
 70
     3
  9
$DIMUPT
 70
     0
  9
$DIMUNIT
 70
     2
  9
$DIMDEC
 70
     2
  9
$DIMTDEC
 70
     2
  9
$DIMALTU
 70
     2
  9
$DIMALTTD
 70
     2
  9
$DIMTXSTY
  7
STANDARD
  9
$DIMAUNIT
 70
     0
  9
$LUNITS
 70
     2
  9
$LUPREC
 70
     4
  9
$SKETCHINC
 40
0.1
  9
$FILLETRAD
 40
0.0
  9
$AUNITS
 70
     0
  9
$AUPREC
 70
     2
  9
$MENU
  1
acad
  9
$ELEVATION
 40
0.0
  9
$PELEVATION
 40
0.0
  9
$THICKNESS
 40
0.0
  9
$LIMCHECK
 70
     0
  9
$BLIPMODE
 70
     0
  9
$CHAMFERA
 40
5.0
  9
$CHAMFERB
 40
5.0
  9
$CHAMFERC
 40
0.0
  9
$CHAMFERD
 40
0.0
  9
$SKPOLY
 70
     0
  9
$TDCREATE
 40
2450178.569598264
  9
$TDUPDATE
 40
2455065.597813576
  9
$TDINDWG
 40
0.7260255556
  9
$TDUSRTIMER
 40
0.7260255556
  9
$USRTIMER
 70
     1
  9
$ANGBASE
 50
0.0
  9
$ANGDIR
 70
     0
  9
$PDMODE
 70
     0
  9
$PDSIZE
 40
0.0
  9
$PLINEWID
 40
0.0
  9
$COORDS
 70
     2
  9
$SPLFRAME
 70
     0
  9
$SPLINETYPE
 70
     6
  9
$SPLINESEGS
 70
     8
  9
$ATTDIA
 70
     0
  9
$ATTREQ
 70
     1
  9
$HANDLING
 70
-16383
  9
$HANDSEED
  5
6C2
  9
$SURFTAB1
 70
     6
  9
$SURFTAB2
 70
     6
  9
$SURFTYPE
 70
     6
  9
$SURFU
 70
     6
  9
$SURFV
 70
     6
  9
$UCSNAME
  2

  9
$UCSORG
 10
0.0
 20
0.0
 30
0.0
  9
$UCSXDIR
 10
1.0
 20
0.0
 30
0.0
  9
$UCSYDIR
 10
0.0
 20
1.0
 30
0.0
  9
$PUCSNAME
  2

  9
$PUCSORG
 10
0.0
 20
0.0
 30
0.0
  9
$PUCSXDIR
 10
1.0
 20
0.0
 30
0.0
  9
$PUCSYDIR
 10
0.0
 20
1.0
 30
0.0
  9
$USERI1
 70
     0
  9
$USERI2
 70
     0
  9
$USERI3
 70
     0
  9
$USERI4
 70
     0
  9
$USERI5
 70
     0
  9
$USERR1
 40
0.0
  9
$USERR2
 40
0.0
  9
$USERR3
 40
0.0
  9
$USERR4
 40
0.0
  9
$USERR5
 40
0.0
  9
$WORLDVIEW
 70
     1
  9
$SHADEDGE
 70
     3
  9
$SHADEDIF
 70
    70
  9
$TILEMODE
 70
     1
  9
$MAXACTVP
 70
    16
  9
$PINSBASE
 10
0.0
 20
0.0
 30
0.0
  9
$PLIMCHECK
 70
     0
  9
$PEXTMIN
 10
1.000000000000000E+20
 20
1.000000000000000E+20
 30
1.000000000000000E+20
  9
$PEXTMAX
 10
-1.000000000000000E+20
 20
-1.000000000000000E+20
 30
-1.000000000000000E+20
  9
$PLIMMIN
 10
0.0
 20
0.0
  9
$PLIMMAX
 10
12.0
 20
9.0
  9
$UNITMODE
 70
     0
  9
$VISRETAIN
 70
     0
  9
$PLINEGEN
 70
     0
  9
$PSLTSCALE
 70
     0
  9
$TREEDEPTH
 70
  3020
  9
$PICKSTYLE
 70
     1
  9
$CMLSTYLE
  2
STANDARD
  9
$CMLJUST
 70
     0
  9
$CMLSCALE
 40
1.0
  9
$SAVEIMAGES
 70
     1
  0
ENDSEC
  0
SECTION
  2
CLASSES
  0
CLASS
  1
ACDBDICTIONARYWDFLT
  2
AcDbDictionaryWithDefault
  3
AutoCAD 2000
 90
    32768
280
     0
281
     0
  0
CLASS
  1
ACDBPLACEHOLDER
  2
AcDbPlaceHolder
  3
AutoCAD 2000
 90
    32768
280
     0
281
     0
  0
CLASS
  1
LAYOUT
  2
AcDbLayout
  3
AutoCAD 2000
 90
    32768
280
     0
281
     0
  0
CLASS
  1
LONG_TRANSACTION
  2
AcDbLongTransaction
  3
AutoCAD 2000
 90
    32768
280
     0
281
     0
  0
CLASS
  1
LWPOLYLINE
  2
AcDbPolyline
  3
AutoCAD 2000
 90
    32768
280
     0
281
     1
  0
CLASS
  1
HATCH
  2
AcDbHatch
  3
AutoCAD 2000
 90
    32768
280
     0
281
     1
  0
CLASS
  1
XRECORD
  2
AcDbXrecord
  3
AutoCAD 2000
 90
    32768
280
     0
281
     0
  0
CLASS
  1
LONG_TRANSACTION
  2
AcDbLongTransaction
  3
AutoCAD 2000
 90
    32768
280
     0
281
     0
  0
CLASS
  1
LWPOLYLINE
  2
AcDbPolyline
  3
AutoCAD 2000
 90
    32768
280
     0
281
     1
  0
CLASS
  1
HATCH
  2
AcDbHatch
  3
AutoCAD 2000
 90
    32768
280
     0
281
     1
  0
CLASS
  1
XRECORD
  2
AcDbXrecord
  3
AutoCAD 2000
 90
    32768
280
     0
281
     0
  0
CLASS
  1
LONG_TRANSACTION
  2
AcDbLongTransaction
  3
AutoCAD 2000
 90
    32768
280
     0
281
     0
  0
CLASS
  1
LWPOLYLINE
  2
AcDbPolyline
  3
AutoCAD 2000
 90
    32768
280
     0
281
     1
  0
CLASS
  1
HATCH
  2
AcDbHatch
  3
AutoCAD 2000
 90
    32768
280
     0
281
     1
  0
CLASS
  1
XRECORD
  2
AcDbXrecord
  3
AutoCAD 2000
 90
    32768
280
     0
281
     0
  0
CLASS
  1
LONG_TRANSACTION
  2
AcDbLongTransaction
  3
AutoCAD 2000
 90
    32768
280
     0
281
     0
  0
CLASS
  1
LWPOLYLINE
  2
AcDbPolyline
  3
AutoCAD 2000
 90
    32768
280
     0
281
     1
  0
CLASS
  1
HATCH
  2
AcDbHatch
  3
AutoCAD 2000
 90
    32768
280
     0
281
     1
  0
CLASS
  1
XRECORD
  2
AcDbXrecord
  3
AutoCAD 2000
 90
    32768
280
     0
281
     0
  0
CLASS
  1
LONG_TRANSACTION
  2
AcDbLongTransaction
  3
AutoCAD 2000
 90
    32768
280
     0
281
     0
  0
CLASS
  1
LWPOLYLINE
  2
AcDbPolyline
  3
AutoCAD 2000
 90
    32768
280
     0
281
     1
  0
CLASS
  1
HATCH
  2
AcDbHatch
  3
AutoCAD 2000
 90
    32768
280
     0
281
     1
  0
CLASS
  1
XRECORD
  2
AcDbXrecord
  3
AutoCAD 2000
 90
    32768
280
     0
281
     0
  0
CLASS
  1
LONG_TRANSACTION
  2
AcDbLongTransaction
  3
AutoCAD 2000
 90
    32768
280
     0
281
     0
  0
CLASS
  1
LWPOLYLINE
  2
AcDbPolyline
  3
AutoCAD 2000
 90
    32768
280
     0
281
     1
  0
CLASS
  1
HATCH
  2
AcDbHatch
  3
AutoCAD 2000
 90
    32768
280
     0
281
     1
  0
CLASS
  1
XRECORD
  2
AcDbXrecord
  3
AutoCAD 2000
 90
    32768
280
     0
281
     0
  0
CLASS
  1
LONG_TRANSACTION
  2
AcDbLongTransaction
  3
AutoCAD 2000
 90
    32768
280
     0
281
     0
  0
CLASS
  1
LWPOLYLINE
  2
AcDbPolyline
  3
AutoCAD 2000
 90
    32768
280
     0
281
     1
  0
CLASS
  1
HATCH
  2
AcDbHatch
  3
AutoCAD 2000
 90
    32768
280
     0
281
     1
  0
CLASS
  1
XRECORD
  2
AcDbXrecord
  3
AutoCAD 2000
 90
    32768
280
     0
281
     0
  0
CLASS
  1
LONG_TRANSACTION
  2
AcDbLongTransaction
  3
AutoCAD 2000
 90
    32768
280
     0
281
     0
  0
CLASS
  1
LWPOLYLINE
  2
AcDbPolyline
  3
AutoCAD 2000
 90
    32768
280
     0
281
     1
  0
CLASS
  1
HATCH
  2
AcDbHatch
  3
AutoCAD 2000
 90
    32768
280
     0
281
     1
  0
CLASS
  1
XRECORD
  2
AcDbXrecord
  3
AutoCAD 2000
 90
    32768
280
     0
281
     0
  0
CLASS
  1
LONG_TRANSACTION
  2
AcDbLongTransaction
  3
AutoCAD 2000
 90
    32768
280
     0
281
     0
  0
CLASS
  1
LWPOLYLINE
  2
AcDbPolyline
  3
AutoCAD 2000
 90
    32768
280
     0
281
     1
  0
CLASS
  1
HATCH
  2
AcDbHatch
  3
AutoCAD 2000
 90
    32768
280
     0
281
     1
  0
CLASS
  1
XRECORD
  2
AcDbXrecord
  3
AutoCAD 2000
 90
    32768
280
     0
281
     0
  0
CLASS
  1
LONG_TRANSACTION
  2
AcDbLongTransaction
  3
AutoCAD 2000
 90
    32768
280
     0
281
     0
  0
CLASS
  1
LWPOLYLINE
  2
AcDbPolyline
  3
AutoCAD 2000
 90
    32768
280
     0
281
     1
  0
CLASS
  1
HATCH
  2
AcDbHatch
  3
AutoCAD 2000
 90
    32768
280
     0
281
     1
  0
CLASS
  1
XRECORD
  2
AcDbXrecord
  3
AutoCAD 2000
 90
    32768
280
     0
281
     0
  0
CLASS
  1
LONG_TRANSACTION
  2
AcDbLongTransaction
  3
AutoCAD 2000
 90
    32768
280
     0
281
     0
  0
CLASS
  1
LWPOLYLINE
  2
AcDbPolyline
  3
AutoCAD 2000
 90
    32768
280
     0
281
     1
  0
CLASS
  1
HATCH
  2
AcDbHatch
  3
AutoCAD 2000
 90
    32768
280
     0
281
     1
  0
CLASS
  1
XRECORD
  2
AcDbXrecord
  3
AutoCAD 2000
 90
    32768
280
     0
281
     0
  0
CLASS
  1
LONG_TRANSACTION
  2
AcDbLongTransaction
  3
AutoCAD 2000
 90
    32768
280
     0
281
     0
  0
CLASS
  1
LWPOLYLINE
  2
AcDbPolyline
  3
AutoCAD 2000
 90
    32768
280
     0
281
     1
  0
CLASS
  1
HATCH
  2
AcDbHatch
  3
AutoCAD 2000
 90
    32768
280
     0
281
     1
  0
CLASS
  1
XRECORD
  2
AcDbXrecord
  3
AutoCAD 2000
 90
    32768
280
     0
281
     0
  0
CLASS
  1
LONG_TRANSACTION
  2
AcDbLongTransaction
  3
AutoCAD 2000
 90
    32768
280
     0
281
     0
  0
CLASS
  1
LWPOLYLINE
  2
AcDbPolyline
  3
AutoCAD 2000
 90
    32768
280
     0
281
     1
  0
CLASS
  1
HATCH
  2
AcDbHatch
  3
AutoCAD 2000
 90
    32768
280
     0
281
     1
  0
CLASS
  1
XRECORD
  2
AcDbXrecord
  3
AutoCAD 2000
 90
    32768
280
     0
281
     0
  0
CLASS
  1
LONG_TRANSACTION
  2
AcDbLongTransaction
  3
AutoCAD 2000
 90
    32768
280
     0
281
     0
  0
CLASS
  1
LWPOLYLINE
  2
AcDbPolyline
  3
AutoCAD 2000
 90
    32768
280
     0
281
     1
  0
CLASS
  1
HATCH
  2
AcDbHatch
  3
AutoCAD 2000
 90
    32768
280
     0
281
     1
  0
CLASS
  1
XRECORD
  2
AcDbXrecord
  3
AutoCAD 2000
 90
    32768
280
     0
281
     0
  0
CLASS
  1
LONG_TRANSACTION
  2
AcDbLongTransaction
  3
AutoCAD 2000
 90
    32768
280
     0
281
     0
  0
CLASS
  1
LWPOLYLINE
  2
AcDbPolyline
  3
AutoCAD 2000
 90
    32768
280
     0
281
     1
  0
CLASS
  1
HATCH
  2
AcDbHatch
  3
AutoCAD 2000
 90
    32768
280
     0
281
     1
  0
CLASS
  1
XRECORD
  2
AcDbXrecord
  3
AutoCAD 2000
 90
    32768
280
     0
281
     0
  0
CLASS
  1
LONG_TRANSACTION
  2
AcDbLongTransaction
  3
AutoCAD 2000
 90
    32768
280
     0
281
     0
  0
CLASS
  1
LWPOLYLINE
  2
AcDbPolyline
  3
AutoCAD 2000
 90
    32768
280
     0
281
     1
  0
CLASS
  1
HATCH
  2
AcDbHatch
  3
AutoCAD 2000
 90
    32768
280
     0
281
     1
  0
CLASS
  1
XRECORD
  2
AcDbXrecord
  3
AutoCAD 2000
 90
    32768
280
     0
281
     0
  0
CLASS
  1
LONG_TRANSACTION
  2
AcDbLongTransaction
  3
AutoCAD 2000
 90
    32768
280
     0
281
     0
  0
CLASS
  1
LWPOLYLINE
  2
AcDbPolyline
  3
AutoCAD 2000
 90
    32768
280
     0
281
     1
  0
CLASS
  1
HATCH
  2
AcDbHatch
  3
AutoCAD 2000
 90
    32768
280
     0
281
     1
  0
CLASS
  1
XRECORD
  2
AcDbXrecord
  3
AutoCAD 2000
 90
    32768
280
     0
281
     0
  0
CLASS
  1
LONG_TRANSACTION
  2
AcDbLongTransaction
  3
AutoCAD 2000
 90
    32768
280
     0
281
     0
  0
CLASS
  1
LWPOLYLINE
  2
AcDbPolyline
  3
AutoCAD 2000
 90
    32768
280
     0
281
     1
  0
CLASS
  1
HATCH
  2
AcDbHatch
  3
AutoCAD 2000
 90
    32768
280
     0
281
     1
  0
CLASS
  1
XRECORD
  2
AcDbXrecord
  3
AutoCAD 2000
 90
    32768
280
     0
281
     0
  0
CLASS
  1
LONG_TRANSACTION
  2
AcDbLongTransaction
  3
AutoCAD 2000
 90
    32768
280
     0
281
     0
  0
CLASS
  1
LWPOLYLINE
  2
AcDbPolyline
  3
AutoCAD 2000
 90
    32768
280
     0
281
     1
  0
CLASS
  1
HATCH
  2
AcDbHatch
  3
AutoCAD 2000
 90
    32768
280
     0
281
     1
  0
CLASS
  1
XRECORD
  2
AcDbXrecord
  3
AutoCAD 2000
 90
    32768
280
     0
281
     0
  0
ENDSEC
  0
SECTION
  2
TABLES
  0
TABLE
  2
VPORT
  5
1F
330
0
100
AcDbSymbolTable
 70
     3
  0
VPORT
  5
6B1
330
1F
100
AcDbSymbolTableRecord
100
AcDbViewportTableRecord
  2
*ACTIVE
 70
     0
 10
0.0
 20
0.0
 11
1.0
 21
1.0
 12
302.6762619606882
 22
123.3027049827685
 13
0.0
 23
0.0
 14
1.0
 24
1.0
 15
0.0
 25
0.0
 16
0.0
 26
0.0
 36
1.0
 17
0.0
 27
0.0
 37
0.0
 40
335.1258276771395
 41
1.60759493670886
 42
50.0
 43
0.0
 44
0.0
 50
0.0
 51
0.0
 71
     0
 72
   100
 73
     1
 74
     0
 75
     0
 76
     0
 77
     0
 78
     0
  0
ENDTAB
  0
TABLE
  2
LTYPE
  5
1A
330
0
100
AcDbSymbolTable
 70
     3
  0
LTYPE
  5
1B
330
1A
100
AcDbSymbolTableRecord
100
AcDbLinetypeTableRecord
  2
BYBLOCK
 70
     0
  3

 72
    65
 73
     0
 40
0.0
  0
LTYPE
  5
1C
330
1A
100
AcDbSymbolTableRecord
100
AcDbLinetypeTableRecord
  2
BYLAYER
 70
     0
  3

 72
    65
 73
     0
 40
0.0
  0
LTYPE
  5
A
330
1A
100
AcDbSymbolTableRecord
100
AcDbLinetypeTableRecord
  2
CONTINUOUS
 70
     0
  3
Solid line
 72
    65
 73
     0
 40
0.0
  0
LTYPE
  5
35
330
1A
100
AcDbSymbolTableRecord
100
AcDbLinetypeTableRecord
  2
CENTER
 70
     0
  3
----- - ----- - ----- - ----- - -----
 72
    65
 73
     4
 40
35.0
 49
30.0
 74
     0
 49
-1.5
 74
     0
 49
2.0
 74
     0
 49
-1.5
 74
     0
  0
LTYPE
  5
29
330
1A
100
AcDbSymbolTableRecord
100
AcDbLinetypeTableRecord
  2
PHANTOM
 70
     0
  3
----- - - ----- - - ----- - - ----- - - -----
 72
    65
 73
     6
 40
22.5
 49
15.0
 74
     0
 49
-1.5
 74
     0
 49
1.5
 74
     0
 49
-1.5
 74
     0
 49
1.5
 74
     0
 49
-1.5
 74
     0
  0
ENDTAB
  0
TABLE
  2
LAYER
  5
14
102
{ACAD_XDICTIONARY
360
15
102
}
330
0
100
AcDbSymbolTable
 70
     4
  0
LAYER
  5
6
330
14
100
AcDbSymbolTableRecord
100
AcDbLayerTableRecord
  2
0
 70
     0
 62
     7
  6
CONTINUOUS
  0
LAYER
  5
2E
330
14
100
AcDbSymbolTableRecord
100
AcDbLayerTableRecord
  2
L-ZISSEN
 70
     0
 62
     7
  6
CONTINUOUS
  0
LAYER
  5
34
330
14
100
AcDbSymbolTableRecord
100
AcDbLayerTableRecord
  2
L-TYUSIN
 70
     0
 62
     1
  6
CENTER
  0
LAYER
  5
28
330
14
100
AcDbSymbolTableRecord
100
AcDbLayerTableRecord
  2
L-SOUZOU
 70
     0
 62
     2
  6
PHANTOM
  0
ENDTAB
  0
TABLE
  2
STYLE
  5
17
330
0
100
AcDbSymbolTable
 70
     1
  0
STYLE
  5
18
330
17
100
AcDbSymbolTableRecord
100
AcDbTextStyleTableRecord
  2
STANDARD
 70
     0
 40
0.0
 41
1.0
 50
0.0
 71
     0
 42
4.5
  3
txt.shx
  4

  0
ENDTAB
  0
TABLE
  2
VIEW
  5
1D
330
0
100
AcDbSymbolTable
 70
     0
  0
ENDTAB
  0
TABLE
  2
UCS
  5
1E
330
0
100
AcDbSymbolTable
 70
     0
  0
ENDTAB
  0
TABLE
  2
APPID
  5
21
330
0
100
AcDbSymbolTable
 70
     1
  0
APPID
  5
22
330
21
100
AcDbSymbolTableRecord
100
AcDbRegAppTableRecord
  2
ACAD
 70
     0
  0
ENDTAB
  0
TABLE
  2
DIMSTYLE
  5
23
330
0
100
AcDbSymbolTable
 70
     1
  0
DIMSTYLE
105
2C
330
23
100
AcDbSymbolTableRecord
100
AcDbDimStyleTableRecord
  2
STANDARD
 70
     0
  3

  4

  5

  6

  7

 40
1.0
 41
0.18
 42
0.0625
 43
0.38
 44
0.18
 45
0.0
 46
0.0
 47
0.0
 48
0.0
140
0.18
141
0.09
142
0.0
143
25.4
144
1.0
145
0.0
146
1.0
147
0.09
 71
     0
 72
     0
 73
     1
 74
     1
 75
     0
 76
     0
 77
     0
 78
     0
170
     0
171
     2
172
     0
173
     0
174
     0
175
     0
176
     0
177
     0
178
     0
270
     2
271
     4
272
     4
273
     2
274
     2
340
18
275
     0
280
     0
281
     0
282
     0
283
     1
284
     0
285
     0
286
     0
287
     3
288
     0
  0
ENDTAB
  0
TABLE
  2
BLOCK_RECORD
  5
1
330
0
100
AcDbSymbolTable
 70
     0
  0
BLOCK_RECORD
  5
2
102
{ACAD_XDICTIONARY
360
3
102
}
330
1
100
AcDbSymbolTableRecord
100
AcDbBlockTableRecord
  2
*MODEL_SPACE
  0
BLOCK_RECORD
  5
E
102
{ACAD_XDICTIONARY
360
F
102
}
330
1
100
AcDbSymbolTableRecord
100
AcDbBlockTableRecord
  2
*PAPER_SPACE
  0
ENDTAB
  0
ENDSEC
  0
SECTION
  2
BLOCKS
  0
BLOCK
  5
5
330
2
100
AcDbEntity
  8
0
100
AcDbBlockBegin
  2
*MODEL_SPACE
 70
     0
 10
0.0
 20
0.0
 30
0.0
  3
*MODEL_SPACE
  1

  0
ENDBLK
  5
B
330
2
100
AcDbEntity
  8
0
100
AcDbBlockEnd
  0
BLOCK
  5
11
330
E
100
AcDbEntity
 67
     1
  8
0
100
AcDbBlockBegin
  2
*PAPER_SPACE
 70
     0
 10
0.0
 20
0.0
 30
0.0
  3
*PAPER_SPACE
  1

  0
ENDBLK
  5
12
330
E
100
AcDbEntity
 67
     1
  8
0
100
AcDbBlockEnd
  0
ENDSEC
  0
SECTION
  2
ENTITIES
  0
LINE
  5
2D
330
2
100
AcDbEntity
  8
L-ZISSEN
100
AcDbLine
 10
127.0000000000002
 20
88.30270440133062
 30
0.0
 11
127.0000000000002
 21
118.3819530633245
 31
0.0
  0
LINE
  5
2F
330
2
100
AcDbEntity
  8
L-ZISSEN
100
AcDbLine
 10
117.5
 20
66.30270440134063
 30
0.0
 11
117.5
 21
113.3027044013415
 31
0.0
  0
LINE
  5
30
330
2
100
AcDbEntity
  8
L-ZISSEN
100
AcDbLine
 10
73.00000000000159
 20
88.30270440133881
 30
0.0
 11
72.99999999999909
 21
118.302704401342
 31
0.0
  0
LINE
  5
31
330
2
100
AcDbEntity
  8
L-ZISSEN
100
AcDbLine
 10
82.5
 20
66.30270440134063
 30
0.0
 11
82.5
 21
113.3027044013415
 31
0.0
  0
CIRCLE
  5
32
330
2
100
AcDbEntity
  8
L-ZISSEN
100
AcDbCircle
 10
100.0
 20
100.0
 30
0.0
 40
9.272893136968036
  0
LINE
  5
33
330
2
100
AcDbEntity
  8
L-TYUSIN
100
AcDbLine
 10
100.0
 20
146.8027044013415
 30
0.0
 11
100.0
 21
-43.19729598645562
 31
0.0
  0
LINE
  5
36
330
2
100
AcDbEntity
  8
L-SOUZOU
100
AcDbLine
 10
53.0
 20
138.3027044013374
 30
0.0
 11
53.00000000000022
 21
90.30270440133836
 31
0.0
  0
LINE
  5
37
330
2
100
AcDbEntity
  8
L-SOUZOU
100
AcDbLine
 10
51.0
 20
138.3027044013374
 30
0.0
 11
51.0
 21
88.30270440133745
 31
0.0
  0
LINE
  5
38
330
2
100
AcDbEntity
  8
L-ZISSEN
100
AcDbLine
 10
117.5
 20
82.60270440134036
 30
0.0
 11
82.5
 21
82.60270440134082
 31
0.0
  0
LINE
  5
39
330
2
100
AcDbEntity
  8
L-ZISSEN
100
AcDbLine
 10
82.5
 20
79.30270440134108
 30
0.0
 11
117.5
 21
79.30270440134063
 31
0.0
  0
LINE
  5
3D
330
2
100
AcDbEntity
  8
L-ZISSEN
100
AcDbLine
 10
65.0
 20
66.30270440134063
 30
0.0
 11
135.0
 21
66.30270440134063
 31
0.0
  0
LINE
  5
46
330
2
100
AcDbEntity
  8
L-SOUZOU
100
AcDbLine
 10
80.99999999998431
 20
90.3027044013379
 30
0.0
 11
53.0
 21
90.3027044013379
 31
0.0
  0
LINE
  5
47
330
2
100
AcDbEntity
  8
L-SOUZOU
100
AcDbLine
 10
80.99999999998431
 20
88.30270440133791
 30
0.0
 11
51.0
 21
88.30270440133791
 31
0.0
  0
LINE
  5
48
330
2
100
AcDbEntity
  8
L-ZISSEN
100
AcDbLine
 10
82.5
 20
88.30270440133791
 30
0.0
 11
65.0
 21
88.30270440134063
 31
0.0
  0
LINE
  5
49
330
2
100
AcDbEntity
  8
L-ZISSEN
100
AcDbLine
 10
65.0
 20
66.30270440134063
 30
0.0
 11
65.0
 21
88.30270440134063
 31
0.0
  0
LINE
  5
4D
330
2
100
AcDbEntity
  8
L-SOUZOU
100
AcDbLine
 10
81.0
 20
90.3027044013379
 30
0.0
 11
81.0
 21
88.30270440133791
 31
0.0
  0
LINE
  5
57
330
2
100
AcDbEntity
  8
L-ZISSEN
100
AcDbLine
 10
135.0
 20
88.30270440134109
 30
0.0
 11
117.4999999999997
 21
88.30270440134109
 31
0.0
  0
LINE
  5
6F
330
2
100
AcDbEntity
  8
L-ZISSEN
100
AcDbLine
 10
135.0
 20
66.30270440134063
 30
0.0
 11
135.0
 21
88.30270440134109
 31
0.0
  0
LINE
  5
71
330
2
100
AcDbEntity
  8
L-TYUSIN
100
AcDbLine
 10
140.0
 20
249.8027044013406
 30
0.0
 11
60.0
 21
249.8027044013406
 31
0.0
  0
LINE
  5
72
330
2
100
AcDbEntity
  8
L-ZISSEN
100
AcDbLine
 10
82.5
 20
214.8027044013406
 30
0.0
 11
117.5
 21
214.8027044013406
 31
0.0
  0
LINE
  5
73
330
2
100
AcDbEntity
  8
L-ZISSEN
100
AcDbLine
 10
82.5
 20
284.8027044013406
 30
0.0
 11
117.5
 21
284.8027044013406
 31
0.0
  0
CIRCLE
  5
74
330
2
100
AcDbEntity
  8
L-ZISSEN
100
AcDbCircle
 10
100.0
 20
244.0527044013406
 30
0.0
 40
10.25
  0
CIRCLE
  5
75
330
2
100
AcDbEntity
  8
L-ZISSEN
100
AcDbCircle
 10
100.0
 20
244.0527044013406
 30
0.0
 40
7.0
  0
LINE
  5
76
330
2
100
AcDbEntity
  8
L-ZISSEN
100
AcDbLine
 10
90.0
 20
126.802704401342
 30
0.0
 11
110.0
 21
126.802704401342
 31
0.0
  0
LINE
  5
77
330
2
100
AcDbEntity
  8
L-ZISSEN
100
AcDbLine
 10
107.0
 20
141.8027044013415
 30
0.0
 11
93.0
 21
141.8027044013415
 31
0.0
  0
LINE
  5
78
330
2
100
AcDbEntity
  8
L-ZISSEN
100
AcDbLine
 10
110.25
 20
123.3027044013415
 30
0.0
 11
89.74999999999999
 21
123.3027044013411
 31
0.0
  0
LINE
  5
79
330
2
100
AcDbEntity
  8
L-ZISSEN
100
AcDbLine
 10
110.0
 20
123.3027044013415
 30
0.0
 11
90.0
 21
123.3027044013415
 31
0.0
  0
LINE
  5
7A
330
2
100
AcDbEntity
  8
L-ZISSEN
100
AcDbLine
 10
110.25
 20
123.3027044013415
 30
0.0
 11
89.74999999999999
 21
123.3027044013411
 31
0.0
  0
LINE
  5
7B
330
2
100
AcDbEntity
  8
L-ZISSEN
100
AcDbLine
 10
72.99999999999909
 20
118.302704401342
 30
0.0
 11
127.0
 21
118.3027044013415
 31
0.0
  0
LINE
  5
7C
330
2
100
AcDbEntity
  8
L-TYUSIN
100
AcDbLine
 10
69.79134494876689
 20
99.80270440134063
 30
0.0
 11
131.1861338320454
 21
99.80270440134063
 31
0.0
  0
LINE
  5
7D
330
2
100
AcDbEntity
  8
L-SOUZOU
100
AcDbLine
 10
51.0
 20
138.3027044013374
 30
0.0
 11
53.0
 21
138.3027044013379
 31
0.0
  0
LINE
  5
7E
330
2
100
AcDbEntity
  8
L-TYUSIN
100
AcDbLine
 10
48.5
 20
129.8027044013374
 30
0.0
 11
55.29999999999995
 21
129.8027044013374
 31
0.0
  0
LINE
  5
7F
330
2
100
AcDbEntity
  8
L-ZISSEN
100
AcDbLine
 10
72.99999999999909
 20
112.302704401342
 30
0.0
 11
82.5
 21
112.3027044013415
 31
0.0
  0
LINE
  5
80
330
2
100
AcDbEntity
  8
L-ZISSEN
100
AcDbLine
 10
79.73205080756816
 20
132.3027044013424
 30
0.0
 11
86.26794919243025
 21
132.3027044013419
 31
0.0
  0
LINE
  5
81
330
2
100
AcDbEntity
  8
L-ZISSEN
100
AcDbLine
 10
87.99999999999931
 20
120.3027044013424
 30
0.0
 11
77.99999999999932
 21
120.302704401342
 31
0.0
  0
LINE
  5
82
330
2
100
AcDbEntity
  8
L-ZISSEN
100
AcDbLine
 10
80.49999999999954
 20
118.302704401341
 30
0.0
 11
80.49999999999954
 21
120.302704401342
 31
0.0
  0
LINE
  5
83
330
2
100
AcDbEntity
  8
L-ZISSEN
100
AcDbLine
 10
77.99999999999932
 20
129.3027044013419
 30
0.0
 11
79.73205080756793
 21
132.3027044013419
 31
0.0
  0
LINE
  5
84
330
2
100
AcDbEntity
  8
L-ZISSEN
100
AcDbLine
 10
77.99999999999932
 20
120.302704401342
 30
0.0
 11
77.99999999999932
 21
129.3027044013419
 31
0.0
  0
LINE
  5
85
330
2
100
AcDbEntity
  8
L-ZISSEN
100
AcDbLine
 10
90.0
 20
123.3027044013415
 30
0.0
 11
90.0
 21
126.8027044013415
 31
0.0
  0
LINE
  5
86
330
2
100
AcDbEntity
  8
L-ZISSEN
100
AcDbLine
 10
93.0
 20
126.8027044013415
 30
0.0
 11
93.0
 21
141.8027044013415
 31
0.0
  0
LINE
  5
87
330
2
100
AcDbEntity
  8
L-ZISSEN
100
AcDbLine
 10
94.80384757729348
 20
126.8027044013415
 30
0.0
 11
94.80384757729348
 21
123.3027044013415
 31
0.0
  0
LINE
  5
88
330
2
100
AcDbEntity
  8
L-ZISSEN
100
AcDbLine
 10
89.74999999999999
 20
123.3027044013415
 30
0.0
 11
89.74999999999999
 21
118.302704401342
 31
0.0
  0
LINE
  5
89
330
2
100
AcDbEntity
  8
L-ZISSEN
100
AcDbLine
 10
87.9999999999991
 20
129.3027044013415
 30
0.0
 11
87.99999999999931
 21
120.3027044013424
 31
0.0
  0
LINE
  5
8A
330
2
100
AcDbEntity
  8
L-ZISSEN
100
AcDbLine
 10
87.99999999999931
 20
129.3027044013419
 30
0.0
 11
86.26794919243071
 21
132.3027044013419
 31
0.0
  0
LINE
  5
8B
330
2
100
AcDbEntity
  8
L-ZISSEN
100
AcDbLine
 10
85.49999999999931
 20
120.3027044013424
 30
0.0
 11
85.49999999999931
 21
118.3027044013415
 31
0.0
  0
LINE
  5
8C
330
2
100
AcDbEntity
  8
L-ZISSEN
100
AcDbLine
 10
87.5
 20
118.3027044013415
 30
0.0
 11
82.5
 21
113.3027044013415
 31
0.0
  0
LINE
  5
8D
330
2
100
AcDbEntity
  8
L-SOUZOU
100
AcDbLine
 10
81.0
 20
284.8027044013406
 30
0.0
 11
51.0
 21
284.8027044013406
 31
0.0
  0
LINE
  5
8E
330
2
100
AcDbEntity
  8
L-ZISSEN
100
AcDbLine
 10
82.50000000000023
 20
280.6823609975922
 30
0.0
 11
65.0
 21
276.8027044013411
 31
0.0
  0
CIRCLE
  5
8F
330
2
100
AcDbEntity
  8
L-ZISSEN
100
AcDbCircle
 10
70.0
 20
273.3027044013406
 30
0.0
 40
2.0
  0
LINE
  5
90
330
2
100
AcDbEntity
  8
L-SOUZOU
100
AcDbLine
 10
81.0
 20
214.8027044013406
 30
0.0
 11
51.0
 21
214.8027044013406
 31
0.0
  0
LINE
  5
91
330
2
100
AcDbEntity
  8
L-ZISSEN
100
AcDbLine
 10
82.50000000000023
 20
218.9230478050881
 30
0.0
 11
65.0
 21
222.8027044013392
 31
0.0
  0
CIRCLE
  5
92
330
2
100
AcDbEntity
  8
L-ZISSEN
100
AcDbCircle
 10
70.0
 20
226.3027044013406
 30
0.0
 40
2.0
  0
LINE
  5
93
330
2
100
AcDbEntity
  8
L-SOUZOU
100
AcDbLine
 10
52.79999999999995
 20
284.8027044013406
 30
0.0
 11
52.79999999999995
 21
214.8027044013406
 31
0.0
  0
LINE
  5
94
330
2
100
AcDbEntity
  8
L-SOUZOU
100
AcDbLine
 10
51.0
 20
284.8027044013406
 30
0.0
 11
51.0
 21
214.8027044013406
 31
0.0
  0
LINE
  5
95
330
2
100
AcDbEntity
  8
L-ZISSEN
100
AcDbLine
 10
65.0
 20
222.8027044013392
 30
0.0
 11
65.0
 21
276.8027044013406
 31
0.0
  0
LINE
  5
96
330
2
100
AcDbEntity
  8
L-TYUSIN
100
AcDbLine
 10
44.81491566578301
 20
222.8027044013406
 30
0.0
 11
58.31491566578302
 21
222.8027044013406
 31
0.0
  0
LINE
  5
97
330
2
100
AcDbEntity
  8
L-TYUSIN
100
AcDbLine
 10
44.81491566578301
 20
276.8027044013406
 30
0.0
 11
58.31491566578302
 21
276.8027044013406
 31
0.0
  0
LINE
  5
98
330
2
100
AcDbEntity
  8
L-SOUZOU
100
AcDbLine
 10
71.0
 20
267.3027044013406
 30
0.0
 11
71.0
 21
232.3027044013406
 31
0.0
  0
LINE
  5
99
330
2
100
AcDbEntity
  8
L-ZISSEN
100
AcDbLine
 10
73.0
 20
231.802704401341
 30
0.0
 11
73.0
 21
267.8027044013401
 31
0.0
  0
LINE
  5
9A
330
2
100
AcDbEntity
  8
L-ZISSEN
100
AcDbLine
 10
87.49999999999841
 20
243.408803696449
 30
0.0
 11
72.99999999999932
 21
246.6233763047712
 31
0.0
  0
CIRCLE
  5
9B
330
2
100
AcDbEntity
  8
L-ZISSEN
100
AcDbCircle
 10
82.99999999999931
 20
257.302704401341
 30
0.0
 40
3.267949192431387
  0
CIRCLE
  5
9C
330
2
100
AcDbEntity
  8
L-ZISSEN
100
AcDbCircle
 10
82.99999999999931
 20
257.302704401341
 30
0.0
 40
4.999999999999317
  0
LINE
  5
9D
330
2
100
AcDbEntity
  8
L-ZISSEN
100
AcDbLine
 10
73.0
 20
231.802704401341
 30
0.0
 11
85.0
 21
229.0866550186233
 31
0.0
  0
LINE
  5
9E
330
2
100
AcDbEntity
  8
L-SOUZOU
100
AcDbLine
 10
71.0
 20
232.3027044013406
 30
0.0
 11
81.0
 21
229.3027044013406
 31
0.0
  0
LINE
  5
9F
330
2
100
AcDbEntity
  8
L-SOUZOU
100
AcDbLine
 10
81.0
 20
214.8027044013406
 30
0.0
 11
81.0
 21
229.3027044013406
 31
0.0
  0
LINE
  5
A0
330
2
100
AcDbEntity
  8
L-ZISSEN
100
AcDbLine
 10
82.5
 20
214.8027044013406
 30
0.0
 11
82.5
 21
218.9230478050881
 31
0.0
  0
LINE
  5
A1
330
2
100
AcDbEntity
  8
L-ZISSEN
100
AcDbLine
 10
82.5
 20
214.8027044013406
 30
0.0
 11
82.5
 21
217.7027044013402
 31
0.0
  0
LINE
  5
A2
330
2
100
AcDbEntity
  8
L-ZISSEN
100
AcDbLine
 10
82.5
 20
218.3027044013406
 30
0.0
 11
85.0
 21
219.7460800743147
 31
0.0
  0
LINE
  5
A3
330
2
100
AcDbEntity
  8
L-ZISSEN
100
AcDbLine
 10
87.49999999999909
 20
243.4088036964485
 30
0.0
 11
87.49999999999909
 21
214.8027044013406
 31
0.0
  0
LINE
  5
A4
330
2
100
AcDbEntity
  8
L-ZISSEN
100
AcDbLine
 10
85.0
 20
243.9630403530559
 30
0.0
 11
85.0
 21
219.7460800743142
 31
0.0
  0
LINE
  5
A5
330
2
100
AcDbEntity
  8
L-ZISSEN
100
AcDbLine
 10
73.0
 20
267.8027044013401
 30
0.0
 11
87.49999999999909
 21
271.0845974054564
 31
0.0
  0
LINE
  5
A6
330
2
100
AcDbEntity
  8
L-SOUZOU
100
AcDbLine
 10
71.0
 20
267.3027044013406
 30
0.0
 11
81.0
 21
270.3027044013406
 31
0.0
  0
LINE
  5
A7
330
2
100
AcDbEntity
  8
L-SOUZOU
100
AcDbLine
 10
81.0
 20
284.8027044013406
 30
0.0
 11
81.0
 21
270.3027044013406
 31
0.0
  0
LINE
  5
A8
330
2
100
AcDbEntity
  8
L-ZISSEN
100
AcDbLine
 10
84.99999999999955
 20
279.8027044013406
 30
0.0
 11
84.99999999999955
 21
270.518753784057
 31
0.0
  0
LINE
  5
A9
330
2
100
AcDbEntity
  8
L-ZISSEN
100
AcDbLine
 10
82.5
 20
284.8027044013406
 30
0.0
 11
82.5
 21
280.6823609975917
 31
0.0
  0
LINE
  5
AA
330
2
100
AcDbEntity
  8
L-ZISSEN
100
AcDbLine
 10
82.5
 20
281.3027044013406
 30
0.0
 11
85.0
 21
279.8593287283665
 31
0.0
  0
LINE
  5
AB
330
2
100
AcDbEntity
  8
L-ZISSEN
100
AcDbLine
 10
82.5
 20
284.8027044013406
 30
0.0
 11
82.5
 21
281.9027044013409
 31
0.0
  0
LINE
  5
AC
330
2
100
AcDbEntity
  8
L-ZISSEN
100
AcDbLine
 10
87.49999999999909
 20
284.8027044013406
 30
0.0
 11
87.49999999999909
 21
271.0845974054564
 31
0.0
  0
LINE
  5
AD
330
2
100
AcDbEntity
  8
L-ZISSEN
100
AcDbLine
 10
109.0000000000002
 20
125.8027044013415
 30
0.0
 11
125.0000000000002
 21
125.8027044013415
 31
0.0
  0
LINE
  5
AE
330
2
100
AcDbEntity
  8
L-ZISSEN
100
AcDbLine
 10
117.5
 20
112.302704401341
 30
0.0
 11
127.0
 21
112.3027044013415
 31
0.0
  0
LINE
  5
AF
330
2
100
AcDbEntity
  8
L-ZISSEN
100
AcDbLine
 10
105.1961524227067
 20
126.8027044013415
 30
0.0
 11
105.1961524227067
 21
123.3027044013415
 31
0.0
  0
LINE
  5
B0
330
2
100
AcDbEntity
  8
L-ZISSEN
100
AcDbLine
 10
107.0
 20
126.8027044013415
 30
0.0
 11
107.0
 21
141.8027044013415
 31
0.0
  0
LINE
  5
B1
330
2
100
AcDbEntity
  8
L-ZISSEN
100
AcDbLine
 10
110.0
 20
123.3027044013415
 30
0.0
 11
110.0
 21
126.8027044013415
 31
0.0
  0
LINE
  5
B2
330
2
100
AcDbEntity
  8
L-ZISSEN
100
AcDbLine
 10
110.25
 20
118.3027044013415
 30
0.0
 11
110.25
 21
123.3027044013415
 31
0.0
  0
LINE
  5
B3
330
2
100
AcDbEntity
  8
L-ZISSEN
100
AcDbLine
 10
109.0000000000002
 20
125.8027044013415
 30
0.0
 11
109.0
 21
118.3027044013415
 31
0.0
  0
LINE
  5
B4
330
2
100
AcDbEntity
  8
L-ZISSEN
100
AcDbLine
 10
112.5
 20
118.3027044013415
 30
0.0
 11
117.5
 21
113.3027044013415
 31
0.0
  0
LINE
  5
B5
330
2
100
AcDbEntity
  8
L-ZISSEN
100
AcDbLine
 10
125.0000000000002
 20
125.8027044013415
 30
0.0
 11
125.0
 21
118.302704401341
 31
0.0
  0
LINE
  5
B6
330
2
100
AcDbEntity
  8
L-ZISSEN
100
AcDbLine
 10
117.4999999999997
 20
280.6823609975922
 30
0.0
 11
135.0
 21
276.8027044013411
 31
0.0
  0
LINE
  5
B7
330
2
100
AcDbEntity
  8
L-ZISSEN
100
AcDbLine
 10
112.5000000000009
 20
271.0172770096633
 30
0.0
 11
127.0
 21
267.802704401341
 31
0.0
  0
LINE
  5
B8
330
2
100
AcDbEntity
  8
L-ZISSEN
100
AcDbLine
 10
112.5000000000011
 20
243.408803696449
 30
0.0
 11
127.0000000000002
 21
246.6233763047712
 31
0.0
  0
CIRCLE
  5
B9
330
2
100
AcDbEntity
  8
L-ZISSEN
100
AcDbCircle
 10
117.0000000000002
 20
257.302704401341
 30
0.0
 40
8.0
  0
LINE
  5
BA
330
2
100
AcDbEntity
  8
L-ZISSEN
100
AcDbLine
 10
117.4999999999997
 20
218.9230478050881
 30
0.0
 11
135.0
 21
222.8027044013392
 31
0.0
  0
LINE
  5
BB
330
2
100
AcDbEntity
  8
L-ZISSEN
100
AcDbLine
 10
115.0
 20
229.1423684496257
 30
0.0
 11
127.0
 21
231.802704401341
 31
0.0
  0
LINE
  5
BC
330
2
100
AcDbEntity
  8
L-TYUSIN
100
AcDbLine
 10
100.0
 20
209.8027044013406
 30
0.0
 11
100.0
 21
289.8027044013406
 31
0.0
  0
LINE
  5
BD
330
2
100
AcDbEntity
  8
L-ZISSEN
100
AcDbLine
 10
117.5
 20
218.3027044013406
 30
0.0
 11
115.0
 21
219.7460800743147
 31
0.0
  0
LINE
  5
BE
330
2
100
AcDbEntity
  8
L-ZISSEN
100
AcDbLine
 10
117.5
 20
214.8027044013406
 30
0.0
 11
117.4999999999997
 21
218.9230478050881
 31
0.0
  0
LINE
  5
BF
330
2
100
AcDbEntity
  8
L-ZISSEN
100
AcDbLine
 10
117.5
 20
214.8027044013406
 30
0.0
 11
117.5
 21
217.7027044013402
 31
0.0
  0
LINE
  5
C0
330
2
100
AcDbEntity
  8
L-ZISSEN
100
AcDbLine
 10
112.5000000000009
 20
243.408803696449
 30
0.0
 11
112.5000000000009
 21
214.8027044013406
 31
0.0
  0
LINE
  5
C1
330
2
100
AcDbEntity
  8
L-ZISSEN
100
AcDbLine
 10
115.0
 20
243.9630403530559
 30
0.0
 11
115.0
 21
219.7460800743142
 31
0.0
  0
LINE
  5
C2
330
2
100
AcDbEntity
  8
L-ZISSEN
100
AcDbLine
 10
112.5000000000009
 20
284.8027044013406
 30
0.0
 11
112.5000000000009
 21
271.0172770096637
 31
0.0
  0
LINE
  5
C3
330
2
100
AcDbEntity
  8
L-ZISSEN
100
AcDbLine
 10
115.0000000000004
 20
279.8027044013406
 30
0.0
 11
115.0000000000002
 21
270.4630403530559
 31
0.0
  0
LINE
  5
C4
330
2
100
AcDbEntity
  8
L-ZISSEN
100
AcDbLine
 10
117.5
 20
281.3027044013406
 30
0.0
 11
115.0
 21
279.8593287283665
 31
0.0
  0
LINE
  5
C5
330
2
100
AcDbEntity
  8
L-ZISSEN
100
AcDbLine
 10
117.5
 20
284.8027044013406
 30
0.0
 11
117.5
 21
280.6823609975922
 31
0.0
  0
LINE
  5
C6
330
2
100
AcDbEntity
  8
L-ZISSEN
100
AcDbLine
 10
117.5
 20
284.8027044013406
 30
0.0
 11
117.5
 21
281.9027044013409
 31
0.0
  0
LINE
  5
C7
330
2
100
AcDbEntity
  8
L-ZISSEN
100
AcDbLine
 10
135.0
 20
222.8027044013392
 30
0.0
 11
135.0
 21
276.8027044013406
 31
0.0
  0
LINE
  5
C8
330
2
100
AcDbEntity
  8
L-ZISSEN
100
AcDbLine
 10
127.0
 20
231.802704401341
 30
0.0
 11
127.0
 21
267.8027044013401
 31
0.0
  0
CIRCLE
  5
C9
330
2
100
AcDbEntity
  8
L-ZISSEN
100
AcDbCircle
 10
130.0
 20
226.3027044013406
 30
0.0
 40
2.0
  0
CIRCLE
  5
CA
330
2
100
AcDbEntity
  8
L-ZISSEN
100
AcDbCircle
 10
130.0
 20
273.3027044013406
 30
0.0
 40
2.0
  0
LINE
  5
CB
330
2
100
AcDbEntity
  8
L-TYUSIN
100
AcDbLine
 10
249.9999999999998
 20
-43.19729598645471
 30
0.0
 11
250.0
 21
146.5586633470929
 31
0.0
  0
LINE
  5
CC
330
2
100
AcDbEntity
  8
L-ZISSEN
100
AcDbLine
 10
218.4999999999996
 20
113.302704401342
 30
0.0
 11
218.4999999999998
 21
87.89580728277588
 31
0.0
  0
LINE
  5
CD
330
2
100
AcDbEntity
  8
L-ZISSEN
100
AcDbLine
 10
220.0216518328921
 20
116.2940436681851
 30
0.0
 11
220.0216518328921
 21
87.89580728277588
 31
0.0
  0
LINE
  5
CE
330
2
100
AcDbEntity
  8
L-ZISSEN
100
AcDbLine
 10
215.0
 20
82.60270440134082
 30
0.0
 11
214.9999999999998
 21
118.3027044013424
 31
0.0
  0
LINE
  5
CF
330
2
100
AcDbEntity
  8
L-SOUZOU
100
AcDbLine
 10
215.0
 20
135.3027044013374
 30
0.0
 11
215.0
 21
88.30270440133791
 31
0.0
  0
LINE
  5
D0
330
2
100
AcDbEntity
  8
L-ZISSEN
100
AcDbLine
 10
229.3396640482849
 20
112.302704401342
 30
0.0
 11
229.3396640482849
 21
87.89580728277588
 31
0.0
  0
LINE
  5
D1
330
2
100
AcDbEntity
  8
L-ZISSEN
100
AcDbLine
 10
232.0000000000002
 20
112.302704401342
 30
0.0
 11
232.0000000000002
 21
87.89580728277588
 31
0.0
  0
LINE
  5
D2
330
2
100
AcDbEntity
  8
L-ZISSEN
100
AcDbLine
 10
268.0000000000002
 20
118.302704401342
 30
0.0
 11
268.0000000000002
 21
87.89580728277588
 31
0.0
  0
LINE
  5
D3
330
2
100
AcDbEntity
  8
L-ZISSEN
100
AcDbLine
 10
271.2145726083225
 20
87.89580728277588
 30
0.0
 11
271.2145726083225
 21
118.3027044013424
 31
0.0
  0
LINE
  5
D4
330
2
100
AcDbEntity
  8
L-ZISSEN
100
AcDbLine
 10
281.5
 20
113.302704401342
 30
0.0
 11
281.4999999999998
 21
87.89580728277588
 31
0.0
  0
LINE
  5
D5
330
2
100
AcDbEntity
  8
L-ZISSEN
100
AcDbLine
 10
284.9999999999996
 20
82.60270440134082
 30
0.0
 11
284.9999999999998
 21
118.3027044013424
 31
0.0
  0
LINE
  5
D6
330
2
100
AcDbEntity
  8
L-ZISSEN
100
AcDbLine
 10
279.9783481671075
 20
116.2940436681851
 30
0.0
 11
279.9783481671075
 21
87.89580728277588
 31
0.0
  0
LINE
  5
D7
330
2
100
AcDbEntity
  8
L-SOUZOU
100
AcDbLine
 10
285.0
 20
135.3027044013374
 30
0.0
 11
285.0
 21
88.30270440133791
 31
0.0
  0
LINE
  5
E5
330
2
100
AcDbEntity
  8
L-ZISSEN
100
AcDbLine
 10
215.0000000000003
 20
66.30270440134063
 30
0.0
 11
285.0200618763309
 21
66.302704401342
 31
0.0
  0
LINE
  5
E7
330
2
100
AcDbEntity
  8
L-SOUZOU
100
AcDbLine
 10
215.0
 20
88.30270440133791
 30
0.0
 11
285.0
 21
88.30270440133791
 31
0.0
  0
LINE
  5
E8
330
2
100
AcDbEntity
  8
L-ZISSEN
100
AcDbLine
 10
281.5
 20
87.89580728277588
 30
0.0
 11
250.0184990460896
 21
87.89580728277588
 31
0.0
  0
LINE
  5
F2
330
2
100
AcDbEntity
  8
L-ZISSEN
100
AcDbLine
 10
218.5
 20
87.89580728277588
 30
0.0
 11
250.0184990460896
 21
87.89580728277588
 31
0.0
  0
LINE
  5
F3
330
2
100
AcDbEntity
  8
L-ZISSEN
100
AcDbLine
 10
215.0000000000003
 20
79.30270440134155
 30
0.0
 11
217.5
 21
79.30270440134108
 31
0.0
  0
LINE
  5
F4
330
2
100
AcDbEntity
  8
L-ZISSEN
100
AcDbLine
 10
215.0
 20
82.60270440134082
 30
0.0
 11
217.5
 21
82.60270440134036
 31
0.0
  0
LINE
  5
F5
330
2
100
AcDbEntity
  8
L-ZISSEN
100
AcDbLine
 10
215.0
 20
66.30270440134063
 30
0.0
 11
215.0
 21
79.30270440134155
 31
0.0
  0
LINE
  5
F6
330
2
100
AcDbEntity
  8
L-ZISSEN
100
AcDbLine
 10
219.1199999999999
 20
66.30270440134063
 30
0.0
 11
219.1199999999999
 21
87.89580728277588
 31
0.0
  0
LINE
  5
F7
330
2
100
AcDbEntity
  8
L-ZISSEN
100
AcDbLine
 10
217.5
 20
82.60270440134036
 30
0.0
 11
217.5
 21
79.30270440134063
 31
0.0
  0
LINE
  5
F8
330
2
100
AcDbEntity
  8
L-ZISSEN
100
AcDbLine
 10
222.3994139651866
 20
66.30270440134063
 30
0.0
 11
222.3994139651866
 21
87.89580728277588
 31
0.0
  0
LINE
  5
12D
330
2
100
AcDbEntity
  8
L-ZISSEN
100
AcDbLine
 10
284.9999999999996
 20
82.60270440134082
 30
0.0
 11
282.4999999999996
 21
82.60270440134036
 31
0.0
  0
LINE
  5
12E
330
2
100
AcDbEntity
  8
L-ZISSEN
100
AcDbLine
 10
284.9999999999993
 20
79.30270440134155
 30
0.0
 11
282.4999999999996
 21
79.30270440134108
 31
0.0
  0
LINE
  5
13D
330
2
100
AcDbEntity
  8
L-ZISSEN
100
AcDbLine
 10
282.4999999999996
 20
82.60270440134036
 30
0.0
 11
282.4999999999996
 21
79.30270440134063
 31
0.0
  0
LINE
  5
13E
330
2
100
AcDbEntity
  8
L-ZISSEN
100
AcDbLine
 10
280.8799999999997
 20
66.30270440134063
 30
0.0
 11
280.8799999999997
 21
87.89580728277588
 31
0.0
  0
LINE
  5
13F
330
2
100
AcDbEntity
  8
L-ZISSEN
100
AcDbLine
 10
277.600586034813
 20
66.30270440134063
 30
0.0
 11
277.600586034813
 21
87.89580728277588
 31
0.0
  0
LINE
  5
140
330
2
100
AcDbEntity
  8
L-ZISSEN
100
AcDbLine
 10
284.9999999999996
 20
66.30270440134063
 30
0.0
 11
284.9999999999996
 21
79.30270440134155
 31
0.0
  0
LINE
  5
141
330
2
100
AcDbEntity
  8
L-TYUSIN
100
AcDbLine
 10
289.3141480524976
 20
99.80270440134018
 30
0.0
 11
211.2681604380425
 21
99.80270440134018
 31
0.0
  0
LINE
  5
142
330
2
100
AcDbEntity
  8
L-ZISSEN
100
AcDbLine
 10
249.5000000000004
 20
125.8027044013415
 30
0.0
 11
265.5000000000005
 21
125.8027044013415
 31
0.0
  0
LINE
  5
143
330
2
100
AcDbEntity
  8
L-ZISSEN
100
AcDbLine
 10
254.2320508075693
 20
132.3027044013424
 30
0.0
 11
260.7679491924314
 21
132.3027044013419
 31
0.0
  0
LINE
  5
144
330
2
100
AcDbEntity
  8
L-ZISSEN
100
AcDbLine
 10
214.9999999999998
 20
118.302704401342
 30
0.0
 11
285.0200618763306
 21
118.3027044013424
 31
0.0
  0
LINE
  5
145
330
2
100
AcDbEntity
  8
L-SOUZOU
100
AcDbLine
 10
218.0
 20
138.3027044013374
 30
0.0
 11
282.0
 21
138.3027044013374
 31
0.0
  0
LINE
  5
146
330
2
100
AcDbEntity
  8
L-ZISSEN
100
AcDbLine
 10
220.0216518328921
 20
116.2940436681851
 30
0.0
 11
243.6060992951082
 21
116.294043668186
 31
0.0
  0
LINE
  5
147
330
2
100
AcDbEntity
  8
L-ZISSEN
100
AcDbLine
 10
246.8206719034302
 20
112.302704401342
 30
0.0
 11
229.3396640482849
 21
112.302704401342
 31
0.0
  0
LINE
  5
148
330
2
100
AcDbEntity
  8
L-TYUSIN
100
AcDbLine
 10
215.5
 20
129.8027044013374
 30
0.0
 11
230.5
 21
129.8027044013374
 31
0.0
  0
LINE
  5
149
330
2
100
AcDbEntity
  8
L-SOUZOU
100
AcDbLine
 10
218.0
 20
138.3027044013374
 30
0.0
 11
215.0
 21
135.3027044013374
 31
0.0
  0
LINE
  5
14A
330
2
100
AcDbEntity
  8
L-ZISSEN
100
AcDbLine
 10
214.9999999999998
 20
113.3027044013415
 30
0.0
 11
218.4999999999996
 21
113.302704401342
 31
0.0
  0
ARC
  5
14B
330
2
100
AcDbEntity
  8
L-SOUZOU
100
AcDbCircle
 10
222.25
 20
129.8027044013374
 30
0.0
 40
4.25
100
AcDbArc
 50
90.0
 51
270.0
  0
LINE
  5
14C
330
2
100
AcDbEntity
  8
L-ZISSEN
100
AcDbLine
 10
218.4999999999996
 20
113.2507400024042
 30
0.0
 11
220.0216518328921
 21
116.2940436681851
 31
0.0
  0
LINE
  5
14D
330
2
100
AcDbEntity
  8
L-SOUZOU
100
AcDbLine
 10
222.25
 20
134.0527044013374
 30
0.0
 11
223.75
 21
134.0527044013374
 31
0.0
  0
LINE
  5
14E
330
2
100
AcDbEntity
  8
L-SOUZOU
100
AcDbLine
 10
222.25
 20
125.5527044013374
 30
0.0
 11
223.75
 21
125.5527044013374
 31
0.0
  0
LINE
  5
14F
330
2
100
AcDbEntity
  8
L-TYUSIN
100
AcDbLine
 10
223.0
 20
136.5527044013374
 30
0.0
 11
223.0
 21
123.0527044013374
 31
0.0
  0
ARC
  5
150
330
2
100
AcDbEntity
  8
L-SOUZOU
100
AcDbCircle
 10
223.75
 20
129.8027044013374
 30
0.0
 40
4.25
100
AcDbArc
 50
270.0
 51
90.0
  0
LINE
  5
151
330
2
100
AcDbEntity
  8
L-ZISSEN
100
AcDbLine
 10
229.3396640482849
 20
112.302704401342
 30
0.0
 11
229.3396640482849
 21
102.0269915322069
 31
0.0
  0
LINE
  5
152
330
2
100
AcDbEntity
  8
L-ZISSEN
100
AcDbLine
 10
249.5000000000004
 20
123.3027044013415
 30
0.0
 11
234.0
 21
123.3027044013411
 31
0.0
  0
LINE
  5
153
330
2
100
AcDbEntity
  8
L-ZISSEN
100
AcDbLine
 10
254.25
 20
126.8027044013415
 30
0.0
 11
234.25
 21
126.8027044013415
 31
0.0
  0
LINE
  5
154
330
2
100
AcDbEntity
  8
L-ZISSEN
100
AcDbLine
 10
249.5000000000004
 20
123.3027044013411
 30
0.0
 11
234.25
 21
123.3027044013415
 31
0.0
  0
LINE
  5
155
330
2
100
AcDbEntity
  8
L-ZISSEN
100
AcDbLine
 10
251.25
 20
141.8027044013415
 30
0.0
 11
237.25
 21
141.8027044013415
 31
0.0
  0
LINE
  5
156
330
2
100
AcDbEntity
  8
L-ZISSEN
100
AcDbLine
 10
243.6060992951082
 20
118.302704401342
 30
0.0
 11
243.6060992951082
 21
112.302704401342
 31
0.0
  0
LINE
  5
157
330
2
100
AcDbEntity
  8
L-ZISSEN
100
AcDbLine
 10
234.0
 20
123.3027044013415
 30
0.0
 11
234.0
 21
118.302704401342
 31
0.0
  0
LINE
  5
158
330
2
100
AcDbEntity
  8
L-ZISSEN
100
AcDbLine
 10
234.25
 20
123.3027044013415
 30
0.0
 11
234.25
 21
126.8027044013415
 31
0.0
  0
LINE
  5
159
330
2
100
AcDbEntity
  8
L-ZISSEN
100
AcDbLine
 10
237.25
 20
126.8027044013415
 30
0.0
 11
237.25
 21
141.8027044013415
 31
0.0
  0
LINE
  5
15A
330
2
100
AcDbEntity
  8
L-ZISSEN
100
AcDbLine
 10
239.0538475772935
 20
126.8027044013415
 30
0.0
 11
239.0538475772935
 21
123.3027044013415
 31
0.0
  0
LINE
  5
15B
330
2
100
AcDbEntity
  8
L-ZISSEN
100
AcDbLine
 10
244.25
 20
126.8027044013415
 30
0.0
 11
251.25
 21
126.8027044013415
 31
0.0
  0
LINE
  5
15C
330
2
100
AcDbEntity
  8
L-ZISSEN
100
AcDbLine
 10
246.8206719034304
 20
118.302704401342
 30
0.0
 11
246.8206719034304
 21
112.302704401342
 31
0.0
  0
LINE
  5
15D
330
2
100
AcDbEntity
  8
L-ZISSEN
100
AcDbLine
 10
249.5000000000004
 20
125.8027044013415
 30
0.0
 11
249.5000000000002
 21
118.3027044013415
 31
0.0
  0
LINE
  5
15E
330
2
100
AcDbEntity
  8
L-ZISSEN
100
AcDbLine
 10
251.25
 20
126.8027044013415
 30
0.0
 11
251.25
 21
141.8027044013415
 31
0.0
  0
LINE
  5
15F
330
2
100
AcDbEntity
  8
L-ZISSEN
100
AcDbLine
 10
249.4461524227068
 20
126.8027044013415
 30
0.0
 11
249.4461524227068
 21
123.3027044013415
 31
0.0
  0
LINE
  5
160
330
2
100
AcDbEntity
  8
L-ZISSEN
100
AcDbLine
 10
254.25
 20
125.8027044013415
 30
0.0
 11
254.25
 21
126.8027044013415
 31
0.0
  0
LINE
  5
161
330
2
100
AcDbEntity
  8
L-ZISSEN
100
AcDbLine
 10
252.5000000000005
 20
129.3027044013419
 30
0.0
 11
254.2320508075691
 21
132.3027044013419
 31
0.0
  0
LINE
  5
162
330
2
100
AcDbEntity
  8
L-ZISSEN
100
AcDbLine
 10
252.5000000000005
 20
126.8027044013415
 30
0.0
 11
252.5000000000005
 21
129.3027044013419
 31
0.0
  0
LINE
  5
163
330
2
100
AcDbEntity
  8
L-TYUSIN
100
AcDbLine
 10
269.5
 20
129.8027044013374
 30
0.0
 11
284.5
 21
129.8027044013374
 31
0.0
  0
LINE
  5
164
330
2
100
AcDbEntity
  8
L-SOUZOU
100
AcDbLine
 10
282.0
 20
138.3027044013374
 30
0.0
 11
285.0
 21
135.3027044013374
 31
0.0
  0
LINE
  5
165
330
2
100
AcDbEntity
  8
L-ZISSEN
100
AcDbLine
 10
284.9999999999998
 20
113.3027044013415
 30
0.0
 11
281.5
 21
113.302704401342
 31
0.0
  0
LINE
  5
166
330
2
100
AcDbEntity
  8
L-ZISSEN
100
AcDbLine
 10
262.5000000000005
 20
129.3027044013419
 30
0.0
 11
260.7679491924319
 21
132.3027044013419
 31
0.0
  0
LINE
  5
167
330
2
100
AcDbEntity
  8
L-ZISSEN
100
AcDbLine
 10
265.5000000000005
 20
125.8027044013415
 30
0.0
 11
265.5000000000002
 21
118.302704401341
 31
0.0
  0
LINE
  5
168
330
2
100
AcDbEntity
  8
L-ZISSEN
100
AcDbLine
 10
262.5000000000003
 20
129.3027044013415
 30
0.0
 11
262.5000000000005
 21
125.8027044013415
 31
0.0
  0
LINE
  5
169
330
2
100
AcDbEntity
  8
L-ZISSEN
100
AcDbLine
 10
279.9783481671075
 20
116.2940436681851
 30
0.0
 11
271.2145726083225
 21
116.2940436681856
 31
0.0
  0
ARC
  5
16A
330
2
100
AcDbEntity
  8
L-SOUZOU
100
AcDbCircle
 10
276.25
 20
129.8027044013374
 30
0.0
 40
4.25
100
AcDbArc
 50
90.0
 51
270.0
  0
LINE
  5
16B
330
2
100
AcDbEntity
  8
L-SOUZOU
100
AcDbLine
 10
276.25
 20
134.0527044013374
 30
0.0
 11
277.75
 21
134.0527044013374
 31
0.0
  0
LINE
  5
16C
330
2
100
AcDbEntity
  8
L-SOUZOU
100
AcDbLine
 10
276.25
 20
125.5527044013374
 30
0.0
 11
277.75
 21
125.5527044013374
 31
0.0
  0
ARC
  5
16D
330
2
100
AcDbEntity
  8
L-SOUZOU
100
AcDbCircle
 10
277.75
 20
129.8027044013374
 30
0.0
 40
4.25
100
AcDbArc
 50
270.0
 51
90.0
  0
LINE
  5
16E
330
2
100
AcDbEntity
  8
L-TYUSIN
100
AcDbLine
 10
277.0
 20
136.5527044013374
 30
0.0
 11
277.0
 21
123.0527044013374
 31
0.0
  0
LINE
  5
16F
330
2
100
AcDbEntity
  8
L-ZISSEN
100
AcDbLine
 10
281.5
 20
113.2507400024042
 30
0.0
 11
279.9783481671075
 21
116.2940436681851
 31
0.0
  0
SOLID
  5
17A
330
2
100
AcDbEntity
  8
L-ZISSEN
100
AcDbTrace
 10
213.933809274731
 20
101.5273343467086
 30
0.0
 11
213.4321017640855
 21
101.0883195198446
 31
0.0
 12
215.0
 22
99.80270440134018
 32
0.0
 13
215.0
 23
99.80270440134018
 33
0.0
  0
LINE
  5
17B
330
2
100
AcDbEntity
  8
L-ZISSEN
100
AcDbLine
 10
213.6829555194083
 20
101.3078269332766
 30
0.0
 11
198.3474671090698
 21
118.833270822826
 31
0.0
  0
LINE
  5
17C
330
2
100
AcDbEntity
  8
L-ZISSEN
100
AcDbLine
 10
198.3474671090698
 20
118.833270822826
 30
0.0
 11
179.999966405915
 21
118.833270822826
 31
0.0
  0
TEXT
  5
17D
330
2
100
AcDbEntity
  8
L-ZISSEN
100
AcDbText
 10
180.8154116670634
 20
120.4634099723605
 30
0.0
 40
4.5
  1
IN
100
AcDbText
  0
TEXT
  5
17E
330
2
100
AcDbEntity
  8
L-ZISSEN
100
AcDbText
 10
178.2695629477143
 20
112.9634099723605
 30
0.0
 40
4.5
  1
Rc3/8
100
AcDbText
  0
TEXT
  5
17F
330
2
100
AcDbEntity
  8
L-ZISSEN
100
AcDbText
 10
178.2695629477143
 20
105.4634099723605
 30
0.0
 40
4.5
  1
Rc1/2
100
AcDbText
  0
TEXT
  5
180
330
2
100
AcDbEntity
  8
L-ZISSEN
100
AcDbText
 10
191.2663525012778
 20
261.8779479595027
 30
0.0
 40
4.5
  1
MODEL NO. L64- 00-*0**
100
AcDbText
  0
LINE
  5
313
330
2
100
AcDbEntity
  8
L-ZISSEN
100
AcDbLine
 10
414.3659697231619
 20
197.183338613624
 30
0.0
 11
412.6501087211854
 21
117.9377452826847
 31
0.0
  0
LINE
  5
314
330
2
100
AcDbEntity
  8
L-ZISSEN
100
AcDbLine
 10
393.8601026616806
 20
193.183338613624
 30
0.0
 11
393.8601026616824
 21
116.183338613624
 31
0.0
  0
LINE
  5
315
330
2
100
AcDbEntity
  8
L-ZISSEN
100
AcDbLine
 10
387.6101026616806
 20
181.683338613624
 30
0.0
 11
387.6101026616806
 21
127.683338613624
 31
0.0
  0
LINE
  5
316
330
2
100
AcDbEntity
  8
L-ZISSEN
100
AcDbLine
 10
376.3601026616806
 20
193.183338613624
 30
0.0
 11
376.3601026616825
 21
116.183338613624
 31
0.0
  0
LINE
  5
317
330
2
100
AcDbEntity
  8
L-ZISSEN
100
AcDbLine
 10
382.6101026616806
 20
127.683338613624
 30
0.0
 11
382.6101026616806
 21
181.683338613624
 31
0.0
  0
LINE
  5
318
330
2
100
AcDbEntity
  8
L-ZISSEN
100
AcDbLine
 10
355.8542356001994
 20
197.183338613624
 30
0.0
 11
357.5700966021763
 21
117.9377452826847
 31
0.0
  0
LINE
  5
319
330
2
100
AcDbEntity
  8
L-ZISSEN
100
AcDbLine
 10
394.5452699298998
 20
107.1833386136231
 30
0.0
 11
403.5021299934974
 21
108.2322429795512
 31
0.0
  0
LINE
  5
31A
330
2
100
AcDbEntity
  8
L-ZISSEN
100
AcDbLine
 10
375.6749353934615
 20
107.1833386136231
 30
0.0
 11
366.7180753298644
 21
108.2322429795512
 31
0.0
  0
ARC
  5
31B
330
2
100
AcDbEntity
  8
L-ZISSEN
100
AcDbCircle
 10
367.5667570104215
 20
118.1961648682999
 30
0.0
 40
10.0
100
AcDbArc
 50
181.0000000000278
 51
265.1315559371153
  0
LINE
  5
31C
330
2
100
AcDbEntity
  8
L-ZISSEN
100
AcDbLine
 10
376.3601026616806
 20
116.183338613624
 30
0.0
 11
393.8601026616806
 21
116.1833386136235
 31
0.0
  0
LINE
  5
322
330
2
100
AcDbEntity
  8
L-TYUSIN
100
AcDbLine
 10
391.3601026616806
 20
121.4333386136235
 30
0.0
 11
378.8601026616806
 21
121.4333386136235
 31
0.0
  0
LINE
  5
323
330
2
100
AcDbEntity
  8
L-ZISSEN
100
AcDbLine
 10
375.6749353934615
 20
107.1833386136231
 30
0.0
 11
394.5452699298998
 21
107.1833386136231
 31
0.0
  0
LINE
  5
324
330
2
100
AcDbEntity
  8
L-ZISSEN
100
AcDbLine
 10
375.6749353934619
 20
104.1833386136231
 30
0.0
 11
394.5452699298998
 21
104.1833386136231
 31
0.0
  0
LINE
  5
32D
330
2
100
AcDbEntity
  8
L-ZISSEN
100
AcDbLine
 10
375.6749353934615
 20
107.1833386136231
 30
0.0
 11
375.6749353934618
 21
104.183338613623
 31
0.0
  0
CIRCLE
  5
346
330
2
100
AcDbEntity
  8
L-ZISSEN
100
AcDbCircle
 10
385.1101026616806
 20
121.4333386136235
 30
0.0
 40
3.75
  0
POLYLINE
  5
347
330
2
100
AcDbEntity
  8
L-ZISSEN
100
AcDb2dPolyline
 66
     1
 10
0.0
 20
0.0
 30
0.0
 70
     1
  0
VERTEX
  5
6B4
330
347
100
AcDbEntity
  8
L-ZISSEN
100
AcDbVertex
100
AcDb2dVertex
 10
383.8601026616807
 20
122.1550264501106
 30
0.0
  0
VERTEX
  5
6B5
330
347
100
AcDbEntity
  8
L-ZISSEN
100
AcDbVertex
100
AcDb2dVertex
 10
385.1101026616806
 20
122.8767142865976
 30
0.0
  0
VERTEX
  5
6B6
330
347
100
AcDbEntity
  8
L-ZISSEN
100
AcDbVertex
100
AcDb2dVertex
 10
386.3601026616807
 20
122.1550264501106
 30
0.0
  0
VERTEX
  5
6B7
330
347
100
AcDbEntity
  8
L-ZISSEN
100
AcDbVertex
100
AcDb2dVertex
 10
386.3601026616807
 20
120.7116507771365
 30
0.0
  0
VERTEX
  5
6B8
330
347
100
AcDbEntity
  8
L-ZISSEN
100
AcDbVertex
100
AcDb2dVertex
 10
385.1101026616806
 20
119.9899629406494
 30
0.0
  0
VERTEX
  5
6B9
330
347
100
AcDbEntity
  8
L-ZISSEN
100
AcDbVertex
100
AcDb2dVertex
 10
383.8601026616807
 20
120.7116507771365
 30
0.0
  0
SEQEND
  5
6BA
330
347
100
AcDbEntity
  8
L-ZISSEN
  0
LINE
  5
348
330
2
100
AcDbEntity
  8
L-ZISSEN
100
AcDbLine
 10
387.6101026616806
 20
127.683338613624
 30
0.0
 11
382.6101026616806
 21
127.683338613624
 31
0.0
  0
LINE
  5
349
330
2
100
AcDbEntity
  8
L-ZISSEN
100
AcDbLine
 10
394.5452699298998
 20
107.1833386136231
 30
0.0
 11
394.5452699298998
 21
104.183338613623
 31
0.0
  0
ARC
  5
34A
330
2
100
AcDbEntity
  8
L-ZISSEN
100
AcDbCircle
 10
402.6534483129402
 20
118.1961648682999
 30
0.0
 40
10.0
100
AcDbArc
 50
274.8684440628814
 51
358.9999999999721
  0
LINE
  5
34B
330
2
100
AcDbEntity
  8
L-ZISSEN
100
AcDbLine
 10
403.6101026616811
 20
197.1833386136258
 30
0.0
 11
388.8601026616802
 21
197.183338613624
 31
0.0
  0
TEXT
  5
34C
330
2
100
AcDbEntity
  8
L-ZISSEN
100
AcDbText
 10
352.0190189629102
 20
261.8070075661498
 30
0.0
 40
4.5
  1
MODEL NO. L64- 00-*2**
100
AcDbText
  0
LINE
  5
34D
330
2
100
AcDbEntity
  8
L-ZISSEN
100
AcDbLine
 10
366.6101026616811
 20
197.1833386136249
 30
0.0
 11
381.3601026616806
 21
197.1833386136249
 31
0.0
  0
TEXT
  5
34E
330
2
100
AcDbEntity
  8
L-ZISSEN
100
AcDbText
 10
357.1101026616807
 20
220.9323191139187
 30
0.0
 40
4.5
  1
P.P
100
AcDbText
  0
LINE
  5
34F
330
2
100
AcDbEntity
  8
L-ZISSEN
100
AcDbLine
 10
358.6101026616811
 20
207.1833386136231
 30
0.0
 11
366.6101026616811
 21
207.1833386136231
 31
0.0
  0
LINE
  5
350
330
2
100
AcDbEntity
  8
L-ZISSEN
100
AcDbLine
 10
358.6101026616811
 20
207.1833386136231
 30
0.0
 11
358.6101026616811
 21
197.183338613624
 31
0.0
  0
LINE
  5
351
330
2
100
AcDbEntity
  8
L-ZISSEN
100
AcDbLine
 10
354.9067317266467
 20
210.6823191139187
 30
0.0
 11
355.1541180614535
 21
197.183338613624
 31
0.0
  0
LINE
  5
352
330
2
100
AcDbEntity
  8
L-ZISSEN
100
AcDbLine
 10
355.1541180614535
 20
197.183338613624
 30
0.0
 11
358.6101026616811
 21
197.183338613624
 31
0.0
  0
LINE
  5
353
330
2
100
AcDbEntity
  8
L-ZISSEN
100
AcDbLine
 10
366.6101026616811
 20
207.1833386136231
 30
0.0
 11
366.6101026616811
 21
197.183338613624
 31
0.0
  0
LINE
  5
354
330
2
100
AcDbEntity
  8
L-ZISSEN
100
AcDbLine
 10
376.3601026616806
 20
193.183338613624
 30
0.0
 11
393.8601026616806
 21
193.1833386136244
 31
0.0
  0
LINE
  5
355
330
2
100
AcDbEntity
  8
L-TYUSIN
100
AcDbLine
 10
391.3601026616806
 20
187.9333386136244
 30
0.0
 11
378.8601026616806
 21
187.9333386136244
 31
0.0
  0
LINE
  5
356
330
2
100
AcDbEntity
  8
L-ZISSEN
100
AcDbLine
 10
383.5736601024857
 20
211.9626879132478
 30
0.0
 11
370.1101026616806
 21
223.1823191139187
 31
0.0
  0
LINE
  5
357
330
2
100
AcDbEntity
  8
L-ZISSEN
100
AcDbLine
 10
370.1101026616806
 20
223.1823191139187
 30
0.0
 11
368.1101026616806
 21
223.1823191139187
 31
0.0
  0
CIRCLE
  5
358
330
2
100
AcDbEntity
  8
L-ZISSEN
100
AcDbCircle
 10
385.1101026616806
 20
187.9333386136244
 30
0.0
 40
3.75
  0
LINE
  5
359
330
2
100
AcDbEntity
  8
L-ZISSEN
100
AcDbLine
 10
388.8601026616806
 20
207.1833386136235
 30
0.0
 11
381.3601026616806
 21
207.1833386136235
 31
0.0
  0
POLYLINE
  5
35A
330
2
100
AcDbEntity
  8
L-ZISSEN
100
AcDb2dPolyline
 66
     1
 10
0.0
 20
0.0
 30
0.0
 70
     1
  0
VERTEX
  5
6BB
330
35A
100
AcDbEntity
  8
L-ZISSEN
100
AcDbVertex
100
AcDb2dVertex
 10
383.8601026616807
 20
187.2116507771374
 30
0.0
  0
VERTEX
  5
6BC
330
35A
100
AcDbEntity
  8
L-ZISSEN
100
AcDbVertex
100
AcDb2dVertex
 10
385.1101026616806
 20
186.4899629406504
 30
0.0
  0
VERTEX
  5
6BD
330
35A
100
AcDbEntity
  8
L-ZISSEN
100
AcDbVertex
100
AcDb2dVertex
 10
386.3601026616807
 20
187.2116507771374
 30
0.0
  0
VERTEX
  5
6BE
330
35A
100
AcDbEntity
  8
L-ZISSEN
100
AcDbVertex
100
AcDb2dVertex
 10
386.3601026616807
 20
188.6550264501115
 30
0.0
  0
VERTEX
  5
6BF
330
35A
100
AcDbEntity
  8
L-ZISSEN
100
AcDbVertex
100
AcDb2dVertex
 10
385.1101026616806
 20
189.3767142865985
 30
0.0
  0
VERTEX
  5
6C0
330
35A
100
AcDbEntity
  8
L-ZISSEN
100
AcDbVertex
100
AcDb2dVertex
 10
383.8601026616807
 20
188.6550264501115
 30
0.0
  0
SEQEND
  5
6C1
330
35A
100
AcDbEntity
  8
L-ZISSEN
  0
LINE
  5
35B
330
2
100
AcDbEntity
  8
L-ZISSEN
100
AcDbLine
 10
382.6101026616806
 20
181.683338613624
 30
0.0
 11
387.6101026616806
 21
181.683338613624
 31
0.0
  0
SOLID
  5
35C
330
2
100
AcDbEntity
  8
L-ZISSEN
100
AcDbTrace
 10
383.3602653025977
 20
211.7066141533818
 30
0.0
 11
383.7870549023739
 21
212.2187616731134
 31
0.0
 12
385.1101026616806
 22
210.6823191139187
 32
0.0
 13
385.1101026616806
 23
210.6823191139187
 33
0.0
  0
LINE
  5
35D
330
2
100
AcDbEntity
  8
L-ZISSEN
100
AcDbLine
 10
381.3601026616806
 20
207.1833386136235
 30
0.0
 11
381.3601026616806
 21
197.1833386136249
 31
0.0
  0
LINE
  5
35E
330
2
100
AcDbEntity
  8
L-ZISSEN
100
AcDbLine
 10
388.8601026616802
 20
207.1833386136235
 30
0.0
 11
388.8601026616802
 21
197.1833386136249
 31
0.0
  0
LINE
  5
35F
330
2
100
AcDbEntity
  8
L-ZISSEN
100
AcDbLine
 10
418.9142310713513
 20
190.9186851022281
 30
0.0
 11
424.7142310713512
 21
190.3078867098528
 31
0.0
  0
LINE
  5
360
330
2
100
AcDbEntity
  8
L-ZISSEN
100
AcDbLine
 10
424.7142310713512
 20
186.0237177272551
 30
0.0
 11
416.7142310713511
 21
184.0833386136245
 31
0.0
  0
LINE
  5
361
330
2
100
AcDbEntity
  8
L-ZISSEN
100
AcDbLine
 10
403.6101026616802
 20
207.1833386136249
 30
0.0
 11
409.1214570999386
 21
207.1833386136231
 31
0.0
  0
LINE
  5
362
330
2
100
AcDbEntity
  8
L-ZISSEN
100
AcDbLine
 10
403.6101026616811
 20
207.1833386136249
 30
0.0
 11
403.6101026616811
 21
197.1833386136258
 31
0.0
  0
LINE
  5
363
330
2
100
AcDbEntity
  8
L-ZISSEN
100
AcDbLine
 10
414.0173653280071
 20
181.0833386136232
 30
0.0
 11
416.7142310713516
 21
181.0833386136232
 31
0.0
  0
LINE
  5
364
330
2
100
AcDbEntity
  8
L-ZISSEN
100
AcDbLine
 10
417.2021187570448
 20
197.1833386136249
 30
0.0
 11
414.5393791554766
 21
197.1833386136249
 31
0.0
  0
LINE
  5
365
330
2
100
AcDbEntity
  8
L-ZISSEN
100
AcDbLine
 10
416.7142310713511
 20
186.8833386136243
 30
0.0
 11
414.5846900898841
 21
186.8833386136247
 31
0.0
  0
LINE
  5
366
330
2
100
AcDbEntity
  8
L-ZISSEN
100
AcDbLine
 10
413.7142310713507
 20
167.0833386136245
 30
0.0
 11
416.7142310713506
 21
170.0833386136236
 31
0.0
  0
LINE
  5
367
330
2
100
AcDbEntity
  8
L-ZISSEN
100
AcDbLine
 10
417.2021187570448
 20
205.6833386136231
 30
0.0
 11
415.1796171228593
 21
205.6833386136231
 31
0.0
  0
LINE
  5
368
330
2
100
AcDbEntity
  8
L-ZISSEN
100
AcDbLine
 10
415.1796171228593
 20
205.6833386136231
 30
0.0
 11
415.1796171228593
 21
197.1833386136249
 31
0.0
  0
LINE
  5
369
330
2
100
AcDbEntity
  8
L-ZISSEN
100
AcDbLine
 10
414.3659697231619
 20
197.183338613624
 30
0.0
 11
415.0660872619077
 21
197.183338613624
 31
0.0
  0
LINE
  5
36A
330
2
100
AcDbEntity
  8
L-ZISSEN
100
AcDbLine
 10
414.5846900898832
 20
188.1658022185547
 30
0.0
 11
414.5846900898841
 21
197.183338613624
 31
0.0
  0
LINE
  5
36B
330
2
100
AcDbEntity
  8
L-ZISSEN
100
AcDbLine
 10
414.5846900898841
 20
186.8833386136243
 30
0.0
 11
414.5846900898841
 21
197.183338613624
 31
0.0
  0
LINE
  5
36C
330
2
100
AcDbEntity
  8
L-ZISSEN
100
AcDbLine
 10
409.1214570999386
 20
207.1833386136231
 30
0.0
 11
409.1214570999386
 21
197.1833386136258
 31
0.0
  0
LINE
  5
36D
330
2
100
AcDbEntity
  8
L-ZISSEN
100
AcDbLine
 10
409.1214570999386
 20
197.1833386136258
 30
0.0
 11
414.3659697231619
 21
197.1833386136258
 31
0.0
  0
LINE
  5
36E
330
2
100
AcDbEntity
  8
L-ZISSEN
100
AcDbLine
 10
418.9142310713513
 20
210.3833386136242
 30
0.0
 11
418.9142310713513
 21
190.9186851022281
 31
0.0
  0
LINE
  5
36F
330
2
100
AcDbEntity
  8
L-ZISSEN
100
AcDbLine
 10
417.2021187570448
 20
205.6833386136231
 30
0.0
 11
417.2021187570448
 21
197.1833386136249
 31
0.0
  0
LINE
  5
370
330
2
100
AcDbEntity
  8
L-ZISSEN
100
AcDbLine
 10
416.7142310713511
 20
184.0833386136245
 30
0.0
 11
416.7142310713511
 21
197.1833386136253
 31
0.0
  0
LINE
  5
371
330
2
100
AcDbEntity
  8
L-ZISSEN
100
AcDbLine
 10
415.5142310713513
 20
181.0833386136232
 30
0.0
 11
415.5142310713513
 21
186.8833386136247
 31
0.0
  0
LINE
  5
372
330
2
100
AcDbEntity
  8
L-ZISSEN
100
AcDbLine
 10
416.7142310713511
 20
178.5833386136245
 30
0.0
 11
417.2142310713511
 21
178.5833386136245
 31
0.0
  0
LINE
  5
373
330
2
100
AcDbEntity
  8
L-ZISSEN
100
AcDbLine
 10
416.7142310713511
 20
174.5833386136245
 30
0.0
 11
417.2142310713511
 21
174.5833386136245
 31
0.0
  0
LINE
  5
374
330
2
100
AcDbEntity
  8
L-ZISSEN
100
AcDbLine
 10
416.7142310713506
 20
170.0833386136236
 30
0.0
 11
416.7142310713516
 21
193.4022940298836
 31
0.0
  0
LINE
  5
375
330
2
100
AcDbEntity
  8
L-ZISSEN
100
AcDbLine
 10
416.7142310713511
 20
210.6823191139187
 30
0.0
 11
416.7142310713511
 21
210.3833386136247
 31
0.0
  0
LINE
  5
376
330
2
100
AcDbEntity
  8
L-ZISSEN
100
AcDbLine
 10
416.7142310713511
 20
205.6833386136231
 30
0.0
 11
416.7142310713511
 21
210.3833386136247
 31
0.0
  0
ARC
  5
377
330
2
100
AcDbEntity
  8
L-ZISSEN
100
AcDbCircle
 10
415.9460492531689
 20
176.5833386136245
 30
0.0
 40
2.368181818181991
100
AcDbArc
 50
302.3784125140468
 51
57.62158748595314
  0
LINE
  5
378
330
2
100
AcDbEntity
  8
L-ZISSEN
100
AcDbLine
 10
418.9142310713513
 20
210.3833386136242
 30
0.0
 11
416.7142310713511
 21
210.3833386136242
 31
0.0
  0
TEXT
  5
379
330
2
100
AcDbEntity
  8
L-ZISSEN
100
AcDbText
 10
412.1179516712131
 20
258.6525889329641
 30
0.0
 40
4.5
  1
4
100
AcDbText
  0
TEXT
  5
37A
330
2
100
AcDbEntity
  8
L-ZISSEN
100
AcDbText
 10
412.1179516712131
 20
265.1634526031638
 30
0.0
 40
4.5
  1
3
100
AcDbText
  0
LINE
  5
37B
330
2
100
AcDbEntity
  8
L-ZISSEN
100
AcDbLine
 10
424.7142310713512
 20
190.3078867098528
 30
0.0
 11
424.7142310713512
 21
186.0237177272551
 31
0.0
  0
LINE
  5
37C
330
2
100
AcDbEntity
  8
L-ZISSEN
100
AcDbLine
 10
553.6101026616802
 20
207.1833386136249
 30
0.0
 11
559.1214570999386
 21
207.1833386136231
 31
0.0
  0
ARC
  5
37D
330
2
100
AcDbEntity
  8
L-ZISSEN
100
AcDbCircle
 10
552.6534483129402
 20
118.1961648682999
 30
0.0
 40
10.0
100
AcDbArc
 50
274.8684440628814
 51
358.9999999999721
  0
LINE
  5
37E
330
2
100
AcDbEntity
  8
L-ZISSEN
100
AcDbLine
 10
493.3655117813136
 20
193.183338613624
 30
0.0
 11
493.3655117813154
 21
116.183338613624
 31
0.0
  0
LINE
  5
37F
330
2
100
AcDbEntity
  8
L-ZISSEN
 48
0.3
100
AcDbLine
 10
507.9632949768306
 20
116.183338613624
 30
0.0
 11
507.9632949768306
 21
193.183338613624
 31
0.0
  0
LINE
  5
380
330
2
100
AcDbEntity
  8
L-ZISSEN
100
AcDbLine
 10
502.8655117813136
 20
193.183338613624
 30
0.0
 11
502.8655117813155
 21
116.183338613624
 31
0.0
  0
LINE
  5
381
330
2
100
AcDbEntity
  8
L-ZISSEN
100
AcDbLine
 10
502.8655117813155
 20
116.183338613624
 30
0.0
 11
506.6632949768304
 21
116.183338613624
 31
0.0
  0
LINE
  5
382
330
2
100
AcDbEntity
  8
L-TYUSIN
100
AcDbLine
 10
509.5063874905304
 20
121.183338613624
 30
0.0
 11
486.465511781314
 21
121.183338613624
 31
0.0
  0
LINE
  5
383
330
2
100
AcDbEntity
  8
L-ZISSEN
100
AcDbLine
 10
493.3655117813136
 20
116.183338613624
 30
0.0
 11
502.8655117813136
 21
116.1833386136235
 31
0.0
  0
LINE
  5
384
330
2
100
AcDbEntity
  8
L-ZISSEN
100
AcDbLine
 10
491.465511781314
 20
119.9899629406494
 30
0.0
 11
491.465511781314
 21
122.8767142865971
 31
0.0
  0
ARC
  5
385
330
2
100
AcDbEntity
  8
L-ZISSEN
100
AcDbCircle
 10
493.7775143490912
 20
119.9585520978052
 30
0.0
 40
2.312215931624567
100
AcDbArc
 50
179.2216280233924
 51
259.7359316277953
  0
ARC
  5
386
330
2
100
AcDbEntity
  8
L-ZISSEN
100
AcDbCircle
 10
493.7775143490912
 20
122.9081251294409
 30
0.0
 40
2.312215931624567
100
AcDbArc
 50
100.2640683722046
 51
180.7783719766075
  0
LINE
  5
38D
330
2
100
AcDbEntity
  8
L-ZISSEN
100
AcDbLine
 10
525.6749353934623
 20
107.1833386136231
 30
0.0
 11
544.5452699298998
 21
107.1833386136231
 31
0.0
  0
LINE
  5
38E
330
2
100
AcDbEntity
  8
L-ZISSEN
100
AcDbLine
 10
525.6749353934629
 20
104.1833386136231
 30
0.0
 11
544.5452699298998
 21
104.1833386136231
 31
0.0
  0
LINE
  5
38F
330
2
100
AcDbEntity
  8
L-ZISSEN
100
AcDbLine
 10
525.6749353934615
 20
107.1833386136231
 30
0.0
 11
516.7180753298639
 21
108.2322429795512
 31
0.0
  0
ARC
  5
390
330
2
100
AcDbEntity
  8
L-ZISSEN
100
AcDbCircle
 10
517.566757010421
 20
118.1961648682999
 30
0.0
 40
10.0
100
AcDbArc
 50
191.6119735011068
 51
265.1315559371153
  0
LINE
  5
391
330
2
100
AcDbEntity
  8
L-ZISSEN
 48
0.3
100
AcDbLine
 10
506.6632949768304
 20
116.183338613624
 30
0.0
 11
507.9632949768306
 21
116.183338613624
 31
0.0
  0
LINE
  5
39C
330
2
100
AcDbEntity
  8
L-ZISSEN
100
AcDbLine
 10
525.6749353934623
 20
107.1833386136231
 30
0.0
 11
525.6749353934627
 21
104.1833386136231
 31
0.0
  0
LINE
  5
39E
330
2
100
AcDbEntity
  8
L-ZISSEN
100
AcDbLine
 10
544.5452699298998
 20
107.1833386136231
 30
0.0
 11
553.5021299934974
 21
108.2322429795512
 31
0.0
  0
LINE
  5
3B3
330
2
100
AcDbEntity
  8
L-ZISSEN
100
AcDbLine
 10
544.5452699298998
 20
107.1833386136231
 30
0.0
 11
544.5452699298995
 21
104.1833386136231
 31
0.0
  0
LINE
  5
3B5
330
2
100
AcDbEntity
  8
L-ZISSEN
100
AcDbLine
 10
502.8655117813136
 20
193.183338613624
 30
0.0
 11
505.9656293200601
 21
193.183338613624
 31
0.0
  0
LINE
  5
3B6
330
2
100
AcDbEntity
  8
L-ZISSEN
100
AcDbLine
 10
501.1541180614536
 20
193.183338613624
 30
0.0
 11
504.6101026616811
 21
193.183338613624
 31
0.0
  0
LINE
  5
3B7
330
2
100
AcDbEntity
  8
L-TYUSIN
100
AcDbLine
 10
486.465511781314
 20
188.1833386136235
 30
0.0
 11
510.9871864909641
 21
188.183338613624
 31
0.0
  0
LINE
  5
3B8
330
2
100
AcDbEntity
  8
L-ZISSEN
100
AcDbLine
 10
493.3655117813136
 20
193.183338613624
 30
0.0
 11
502.8655117813136
 21
193.183338613624
 31
0.0
  0
ARC
  5
3B9
330
2
100
AcDbEntity
  8
L-ZISSEN
100
AcDbCircle
 10
493.7775143490912
 20
186.4585520978061
 30
0.0
 40
2.312215931624567
100
AcDbArc
 50
179.2216280233924
 51
259.7359316277953
  0
ARC
  5
3BA
330
2
100
AcDbEntity
  8
L-ZISSEN
100
AcDbCircle
 10
493.7775143490912
 20
189.4081251294418
 30
0.0
 40
2.312215931624567
100
AcDbArc
 50
100.2640683722046
 51
180.7783719766075
  0
LINE
  5
3BB
330
2
100
AcDbEntity
  8
L-ZISSEN
100
AcDbLine
 10
491.465511781314
 20
189.376714286598
 30
0.0
 11
491.465511781314
 21
186.4899629406499
 31
0.0
  0
LINE
  5
3BC
330
2
100
AcDbEntity
  8
L-ZISSEN
100
AcDbLine
 10
535.1101026616807
 20
190.1634145545253
 30
0.0
 11
525.9622009007548
 21
191.4702576632288
 31
0.0
  0
LINE
  5
3BD
330
2
100
AcDbEntity
  8
L-ZISSEN
100
AcDbLine
 10
525.9622009007548
 20
187.9668514262443
 30
0.0
 11
535.1101026616807
 21
186.0516833734763
 31
0.0
  0
CIRCLE
  5
3BE
330
2
100
AcDbEntity
  8
L-ZISSEN
100
AcDbCircle
 10
530.8601026616802
 20
176.5833386136245
 30
0.0
 40
2.0
  0
LINE
  5
3BF
330
2
100
AcDbEntity
  8
L-ZISSEN
100
AcDbLine
 10
532.7107276616807
 20
206.1575886136242
 30
0.0
 11
528.8717276616803
 21
206.1575886136242
 31
0.0
  0
LINE
  5
3C0
330
2
100
AcDbEntity
  8
L-ZISSEN
100
AcDbLine
 10
532.7107276616807
 20
206.1575886136242
 30
0.0
 11
528.8717276616803
 21
206.1575886136242
 31
0.0
  0
LINE
  5
3C1
330
2
100
AcDbEntity
  8
L-ZISSEN
100
AcDbLine
 10
532.7107276616807
 20
205.1978386136242
 30
0.0
 11
528.8717276616803
 21
205.1978386136242
 31
0.0
  0
LINE
  5
3C2
330
2
100
AcDbEntity
  8
L-ZISSEN
100
AcDbLine
 10
532.7107276616807
 20
205.1978386136242
 30
0.0
 11
528.8717276616803
 21
205.1978386136242
 31
0.0
  0
LINE
  5
3C3
330
2
100
AcDbEntity
  8
L-ZISSEN
100
AcDbLine
 10
535.1101026616807
 20
190.8015886136244
 30
0.0
 11
525.0327276616785
 21
192.2412136136244
 31
0.0
  0
LINE
  5
3C4
330
2
100
AcDbEntity
  8
L-ZISSEN
100
AcDbLine
 10
535.1101026616807
 20
184.0833386136245
 30
0.0
 11
524.3129151616785
 21
186.9625886136245
 31
0.0
  0
LINE
  5
3C5
330
2
100
AcDbEntity
  8
L-ZISSEN
100
AcDbLine
 10
533.5736601024859
 20
211.9626879132474
 30
0.0
 11
520.1101026616806
 21
223.1823191139182
 31
0.0
  0
LINE
  5
3C6
330
2
100
AcDbEntity
  8
L-TYUSIN
100
AcDbLine
 10
527.5101026616807
 20
176.5833386136245
 30
0.0
 11
542.7101026616806
 21
176.5833386136245
 31
0.0
  0
LINE
  5
3C7
330
2
100
AcDbEntity
  8
L-ZISSEN
100
AcDbLine
 10
527.5101026616807
 20
173.0833386136245
 30
0.0
 11
542.7101026616806
 21
173.0833386136245
 31
0.0
  0
LINE
  5
3C8
330
2
100
AcDbEntity
  8
L-ZISSEN
100
AcDbLine
 10
527.5101026616807
 20
172.0833386136245
 30
0.0
 11
542.7101026616806
 21
172.0833386136245
 31
0.0
  0
LINE
  5
3C9
330
2
100
AcDbEntity
  8
L-ZISSEN
100
AcDbLine
 10
525.1101026616802
 20
167.0833386136245
 30
0.0
 11
545.1101026616802
 21
167.0833386136245
 31
0.0
  0
LINE
  5
3CA
330
2
100
AcDbEntity
  8
L-ZISSEN
100
AcDbLine
 10
525.5101026616808
 20
170.0833386136236
 30
0.0
 11
544.7101026616805
 21
170.0833386136236
 31
0.0
  0
LINE
  5
3CB
330
2
100
AcDbEntity
  8
L-ZISSEN
100
AcDbLine
 10
547.1101026616806
 20
210.3833386136242
 30
0.0
 11
523.1101026616807
 21
210.3833386136242
 31
0.0
  0
LINE
  5
3CC
330
2
100
AcDbEntity
  8
L-ZISSEN
100
AcDbLine
 10
516.6101026616811
 20
197.1833386136249
 30
0.0
 11
523.6101026616811
 21
197.1833386136249
 31
0.0
  0
TEXT
  5
3CD
330
2
100
AcDbEntity
  8
L-ZISSEN
100
AcDbText
 10
507.1101026616807
 20
220.9323191139182
 30
0.0
 40
4.5
  1
P.P
100
AcDbText
  0
LINE
  5
3CE
330
2
100
AcDbEntity
  8
L-ZISSEN
100
AcDbLine
 10
508.6101026616811
 20
207.1833386136231
 30
0.0
 11
516.6101026616811
 21
207.1833386136231
 31
0.0
  0
LINE
  5
3CF
330
2
100
AcDbEntity
  8
L-ZISSEN
100
AcDbLine
 10
508.6101026616811
 20
207.1833386136231
 30
0.0
 11
508.6101026616811
 21
197.183338613624
 31
0.0
  0
LINE
  5
3D0
330
2
100
AcDbEntity
  8
L-ZISSEN
100
AcDbLine
 10
505.8542356002003
 20
197.183338613624
 30
0.0
 11
505.8920893988888
 21
193.183338613624
 31
0.0
  0
LINE
  5
3D1
330
2
100
AcDbEntity
  8
L-ZISSEN
100
AcDbLine
 10
504.9067317266467
 20
210.6823191139182
 30
0.0
 11
505.1541180614536
 21
197.183338613624
 31
0.0
  0
LINE
  5
3D2
330
2
100
AcDbEntity
  8
L-ZISSEN
 48
0.3
100
AcDbLine
 10
507.9632949768306
 20
193.183338613624
 30
0.0
 11
505.9656293200601
 21
193.183338613624
 31
0.0
  0
LINE
  5
3D3
330
2
100
AcDbEntity
  8
L-ZISSEN
100
AcDbLine
 10
505.1541180614536
 20
197.183338613624
 30
0.0
 11
508.6101026616811
 21
197.183338613624
 31
0.0
  0
LINE
  5
3D4
330
2
100
AcDbEntity
  8
L-ZISSEN
100
AcDbLine
 10
516.6101026616811
 20
207.1833386136231
 30
0.0
 11
516.6101026616811
 21
197.183338613624
 31
0.0
  0
ARC
  5
3D5
330
2
100
AcDbEntity
  8
L-ZISSEN
100
AcDbCircle
 10
524.6101026616802
 20
181.5833386136236
 30
0.0
 40
0.5
100
AcDbArc
 50
180.0
 51
270.0
  0
LINE
  5
3D6
330
2
100
AcDbEntity
  8
L-ZISSEN
100
AcDbLine
 10
522.8101026616809
 20
197.1833386136249
 30
0.0
 11
524.1101026616802
 21
197.1833386136249
 31
0.0
  0
LINE
  5
3D7
330
2
100
AcDbEntity
  8
L-ZISSEN
100
AcDbLine
 10
522.8101026616809
 20
205.6833386136231
 30
0.0
 11
524.1101026616802
 21
205.6833386136231
 31
0.0
  0
LINE
  5
3D8
330
2
100
AcDbEntity
  8
L-ZISSEN
100
AcDbLine
 10
522.8101026616809
 20
205.6833386136231
 30
0.0
 11
522.8101026616809
 21
197.1833386136249
 31
0.0
  0
LINE
  5
3D9
330
2
100
AcDbEntity
  8
L-ZISSEN
100
AcDbLine
 10
523.1101026616807
 20
210.6823191139182
 30
0.0
 11
523.1101026616807
 21
210.3833386136242
 31
0.0
  0
LINE
  5
3DA
330
2
100
AcDbEntity
  8
L-ZISSEN
100
AcDbLine
 10
524.1101026616802
 20
210.3833386136242
 30
0.0
 11
524.1101026616802
 21
181.5833386136236
 31
0.0
  0
LINE
  5
3DB
330
2
100
AcDbEntity
  8
L-ZISSEN
100
AcDbLine
 10
525.9622009007548
 20
191.4702576632288
 30
0.0
 11
525.9622009007548
 21
187.9668514262443
 31
0.0
  0
LINE
  5
3DC
330
2
100
AcDbEntity
  8
L-ZISSEN
100
AcDbLine
 10
527.5101026616803
 20
186.1100052802902
 30
0.0
 11
527.5101026616807
 21
172.0833386136245
 31
0.0
  0
LINE
  5
3DD
330
2
100
AcDbEntity
  8
L-ZISSEN
100
AcDbLine
 10
525.5101026616798
 20
181.0833386136245
 30
0.0
 11
525.5101026616808
 21
170.0833386136245
 31
0.0
  0
LINE
  5
3DE
330
2
100
AcDbEntity
  8
L-TYUSIN
100
AcDbLine
 10
530.8601026616802
 20
179.8333386136245
 30
0.0
 11
530.8601026616802
 21
173.3333386136245
 31
0.0
  0
LINE
  5
3DF
330
2
100
AcDbEntity
  8
L-ZISSEN
100
AcDbLine
 10
528.8717276616803
 20
205.1978386136242
 30
0.0
 11
528.8717276616803
 21
204.2380886136242
 31
0.0
  0
LINE
  5
3E0
330
2
100
AcDbEntity
  8
L-ZISSEN
100
AcDbLine
 10
528.8717276616803
 20
204.2380886136242
 30
0.0
 11
526.4723526616803
 21
205.6777136136242
 31
0.0
  0
LINE
  5
3E1
330
2
100
AcDbEntity
  8
L-ZISSEN
100
AcDbLine
 10
528.8717276616803
 20
206.1575886136242
 30
0.0
 11
528.8717276616803
 21
207.1173386136242
 31
0.0
  0
LINE
  5
3E2
330
2
100
AcDbEntity
  8
L-ZISSEN
100
AcDbLine
 10
528.8717276616803
 20
207.1173386136242
 30
0.0
 11
526.4723526616803
 21
205.6777136136242
 31
0.0
  0
LINE
  5
3E3
330
2
100
AcDbEntity
  8
L-ZISSEN
100
AcDbLine
 10
525.0327276616785
 20
210.3833386136242
 30
0.0
 11
525.0327276616785
 21
192.2412136136244
 31
0.0
  0
LINE
  5
3E4
330
2
100
AcDbEntity
  8
L-ZISSEN
100
AcDbLine
 10
525.1101026616802
 20
181.0833386136245
 30
0.0
 11
525.1101026616802
 21
167.0833386136245
 31
0.0
  0
LINE
  5
3E5
330
2
100
AcDbEntity
  8
L-ZISSEN
100
AcDbLine
 10
524.312915161679
 20
210.3833386136242
 30
0.0
 11
524.3129151616785
 21
186.9625886136245
 31
0.0
  0
LINE
  5
3E6
330
2
100
AcDbEntity
  8
L-ZISSEN
100
AcDbLine
 10
525.9622009007548
 20
191.4702576632288
 30
0.0
 11
525.0327276616785
 21
192.2412136136244
 31
0.0
  0
LINE
  5
3E7
330
2
100
AcDbEntity
  8
L-ZISSEN
100
AcDbLine
 10
525.9622009007548
 20
192.108431722328
 30
0.0
 11
525.0327276616785
 21
192.2412136136244
 31
0.0
  0
LINE
  5
3E8
330
2
100
AcDbEntity
  8
L-ZISSEN
100
AcDbLine
 10
525.5101026616808
 20
170.0833386136245
 30
0.0
 11
525.1101026616802
 21
167.0833386136245
 31
0.0
  0
LINE
  5
3E9
330
2
100
AcDbEntity
  8
L-ZISSEN
100
AcDbLine
 10
524.3129151616785
 20
186.9625886136245
 30
0.0
 11
525.9622009007548
 21
187.9668514262443
 31
0.0
  0
LINE
  5
3EA
330
2
100
AcDbEntity
  8
L-ZISSEN
100
AcDbLine
 10
524.6101026616802
 20
181.0833386136236
 30
0.0
 11
527.5101026616803
 21
181.0833386136232
 31
0.0
  0
LINE
  5
3EB
330
2
100
AcDbEntity
  8
L-ZISSEN
100
AcDbLine
 10
520.1101026616806
 20
223.1823191139182
 30
0.0
 11
518.1101026616807
 21
223.1823191139182
 31
0.0
  0
LINE
  5
3EC
330
2
100
AcDbEntity
  8
L-ZISSEN
100
AcDbLine
 10
544.2580044226065
 20
192.108431722328
 30
0.0
 11
545.1874776616786
 21
192.2412136136244
 31
0.0
  0
LINE
  5
3ED
330
2
100
AcDbEntity
  8
L-ZISSEN
100
AcDbLine
 10
544.2580044226065
 20
191.4702576632288
 30
0.0
 11
545.1874776616786
 21
192.2412136136244
 31
0.0
  0
LINE
  5
3EE
330
2
100
AcDbEntity
  8
L-ZISSEN
100
AcDbLine
 10
545.9072901616787
 20
186.9625886136245
 30
0.0
 11
544.2580044226065
 21
187.9668514262443
 31
0.0
  0
LINE
  5
3EF
330
2
100
AcDbEntity
  8
L-ZISSEN
100
AcDbLine
 10
542.7101026616806
 20
181.0833386136232
 30
0.0
 11
545.6101026616802
 21
181.0833386136236
 31
0.0
  0
LINE
  5
3F0
330
2
100
AcDbEntity
  8
L-ZISSEN
100
AcDbLine
 10
535.1101026616807
 20
190.8015886136244
 30
0.0
 11
545.1874776616786
 21
192.2412136136244
 31
0.0
  0
LINE
  5
3F1
330
2
100
AcDbEntity
  8
L-ZISSEN
100
AcDbLine
 10
535.1101026616807
 20
184.0833386136245
 30
0.0
 11
545.9072901616787
 21
186.9625886136245
 31
0.0
  0
CIRCLE
  5
3F2
330
2
100
AcDbEntity
  8
L-ZISSEN
100
AcDbCircle
 10
539.3601026616811
 20
176.5833386136245
 30
0.0
 40
2.0
  0
LINE
  5
3F3
330
2
100
AcDbEntity
  8
L-ZISSEN
100
AcDbLine
 10
537.5094776616806
 20
206.1575886136251
 30
0.0
 11
541.3484776616805
 21
206.1575886136251
 31
0.0
  0
LINE
  5
3F4
330
2
100
AcDbEntity
  8
L-ZISSEN
100
AcDbLine
 10
537.5094776616806
 20
206.1575886136251
 30
0.0
 11
541.3484776616805
 21
206.1575886136251
 31
0.0
  0
LINE
  5
3F5
330
2
100
AcDbEntity
  8
L-ZISSEN
100
AcDbLine
 10
537.5094776616806
 20
205.1978386136251
 30
0.0
 11
541.3484776616805
 21
205.1978386136251
 31
0.0
  0
LINE
  5
3F6
330
2
100
AcDbEntity
  8
L-ZISSEN
100
AcDbLine
 10
537.5094776616806
 20
205.1978386136251
 30
0.0
 11
541.3484776616805
 21
205.1978386136251
 31
0.0
  0
LINE
  5
3F7
330
2
100
AcDbEntity
  8
L-ZISSEN
100
AcDbLine
 10
535.1101026616807
 20
190.1634145545253
 30
0.0
 11
544.2580044226065
 21
191.4702576632288
 31
0.0
  0
LINE
  5
3F8
330
2
100
AcDbEntity
  8
L-ZISSEN
100
AcDbLine
 10
544.2580044226065
 20
187.9668514262443
 30
0.0
 11
535.1101026616807
 21
186.0516833734763
 31
0.0
  0
LINE
  5
3F9
330
2
100
AcDbEntity
  8
L-ZISSEN
100
AcDbLine
 10
536.069852661682
 20
200.3990886136252
 30
0.0
 11
537.9893526616824
 21
200.3990886136252
 31
0.0
  0
LINE
  5
3FA
330
2
100
AcDbEntity
  8
L-ZISSEN
100
AcDbLine
 10
537.9893526616824
 20
200.3990886136252
 30
0.0
 11
535.110102661682
 21
195.6003386136252
 31
0.0
  0
LINE
  5
3FB
330
2
100
AcDbEntity
  8
L-ZISSEN
100
AcDbLine
 10
537.5094776616806
 20
206.1575886136251
 30
0.0
 11
537.5094776616806
 21
205.1978386136251
 31
0.0
  0
LINE
  5
3FC
330
2
100
AcDbEntity
  8
L-ZISSEN
100
AcDbLine
 10
534.150352661682
 20
200.3990886136252
 30
0.0
 11
532.230852661682
 21
200.3990886136252
 31
0.0
  0
LINE
  5
3FD
330
2
100
AcDbEntity
  8
L-ZISSEN
100
AcDbLine
 10
532.230852661682
 20
200.3990886136252
 30
0.0
 11
535.110102661682
 21
195.6003386136252
 31
0.0
  0
LINE
  5
3FE
330
2
100
AcDbEntity
  8
L-ZISSEN
100
AcDbLine
 10
532.7107276616807
 20
206.1575886136242
 30
0.0
 11
532.7107276616807
 21
205.1978386136242
 31
0.0
  0
LINE
  5
3FF
330
2
100
AcDbEntity
  8
L-ZISSEN
100
AcDbLine
 10
536.069852661682
 20
208.0770886136251
 30
0.0
 11
536.069852661682
 21
200.3990886136252
 31
0.0
  0
LINE
  5
400
330
2
100
AcDbEntity
  8
L-ZISSEN
100
AcDbLine
 10
536.069852661682
 20
208.0770886136251
 30
0.0
 11
536.069852661682
 21
200.3990886136252
 31
0.0
  0
LINE
  5
401
330
2
100
AcDbEntity
  8
L-ZISSEN
100
AcDbLine
 10
536.3601026616806
 20
182.3333386136245
 30
0.0
 11
536.3601026616806
 21
184.4166719469575
 31
0.0
  0
LINE
  5
402
330
2
100
AcDbEntity
  8
L-ZISSEN
100
AcDbLine
 10
535.1101026616807
 20
190.8015886136244
 30
0.0
 11
535.1101026616807
 21
190.1634145545253
 31
0.0
  0
LINE
  5
403
330
2
100
AcDbEntity
  8
L-ZISSEN
100
AcDbLine
 10
534.150352661682
 20
208.0770886136251
 30
0.0
 11
534.150352661682
 21
200.3990886136252
 31
0.0
  0
LINE
  5
404
330
2
100
AcDbEntity
  8
L-ZISSEN
100
AcDbLine
 10
534.150352661682
 20
208.0770886136251
 30
0.0
 11
534.150352661682
 21
200.3990886136252
 31
0.0
  0
LINE
  5
405
330
2
100
AcDbEntity
  8
L-ZISSEN
100
AcDbLine
 10
533.8601026616807
 20
182.3333386136245
 30
0.0
 11
533.8601026616807
 21
184.4166719469575
 31
0.0
  0
ARC
  5
406
330
2
100
AcDbEntity
  8
L-ZISSEN
100
AcDbCircle
 10
535.1101026616807
 20
182.3333386136245
 30
0.0
 40
1.25
100
AcDbArc
 50
180.0
 51
0.0
  0
LINE
  5
407
330
2
100
AcDbEntity
  8
L-ZISSEN
100
AcDbLine
 10
536.069852661682
 20
208.0770886136251
 30
0.0
 11
534.150352661682
 21
208.0770886136251
 31
0.0
  0
SOLID
  5
408
330
2
100
AcDbEntity
  8
L-ZISSEN
100
AcDbTrace
 10
533.3602653025978
 20
211.7066141533813
 30
0.0
 11
533.7870549023741
 21
212.2187616731129
 31
0.0
 12
535.1101026616807
 22
210.6823191139182
 32
0.0
 13
535.1101026616807
 23
210.6823191139182
 33
0.0
  0
LINE
  5
409
330
2
100
AcDbEntity
  8
L-ZISSEN
100
AcDbLine
 10
544.2580044226065
 20
191.4702576632288
 30
0.0
 11
544.2580044226065
 21
187.9668514262443
 31
0.0
  0
LINE
  5
40A
330
2
100
AcDbEntity
  8
L-TYUSIN
100
AcDbLine
 10
539.3601026616811
 20
179.8333386136245
 30
0.0
 11
539.3601026616811
 21
173.3333386136245
 31
0.0
  0
LINE
  5
40B
330
2
100
AcDbEntity
  8
L-ZISSEN
100
AcDbLine
 10
542.7101026616806
 20
186.1100052802911
 30
0.0
 11
542.7101026616806
 21
172.0833386136245
 31
0.0
  0
LINE
  5
40C
330
2
100
AcDbEntity
  8
L-ZISSEN
100
AcDbLine
 10
541.3484776616805
 20
205.1978386136251
 30
0.0
 11
541.3484776616805
 21
204.2380886136251
 31
0.0
  0
LINE
  5
40D
330
2
100
AcDbEntity
  8
L-ZISSEN
100
AcDbLine
 10
541.3484776616805
 20
206.1575886136251
 30
0.0
 11
541.3484776616805
 21
207.1173386136251
 31
0.0
  0
LINE
  5
40E
330
2
100
AcDbEntity
  8
L-ZISSEN
100
AcDbLine
 10
541.3484776616805
 20
204.2380886136251
 30
0.0
 11
543.7478526616805
 21
205.6777136136251
 31
0.0
  0
LINE
  5
40F
330
2
100
AcDbEntity
  8
L-ZISSEN
100
AcDbLine
 10
541.3484776616805
 20
207.1173386136251
 30
0.0
 11
543.7478526616805
 21
205.6777136136251
 31
0.0
  0
LINE
  5
410
330
2
100
AcDbEntity
  8
L-ZISSEN
100
AcDbLine
 10
553.6101026616811
 20
197.1833386136258
 30
0.0
 11
546.6101026616811
 21
197.1833386136249
 31
0.0
  0
LINE
  5
411
330
2
100
AcDbEntity
  8
L-ZISSEN
100
AcDbLine
 10
547.4101026616813
 20
205.6833386136231
 30
0.0
 11
547.4101026616803
 21
197.1833386136249
 31
0.0
  0
LINE
  5
412
330
2
100
AcDbEntity
  8
L-ZISSEN
100
AcDbLine
 10
545.1874776616786
 20
210.3833386136242
 30
0.0
 11
545.1874776616786
 21
192.2412136136244
 31
0.0
  0
LINE
  5
413
330
2
100
AcDbEntity
  8
L-ZISSEN
100
AcDbLine
 10
545.9072901616787
 20
210.3833386136242
 30
0.0
 11
545.9072901616787
 21
186.9625886136245
 31
0.0
  0
LINE
  5
414
330
2
100
AcDbEntity
  8
L-ZISSEN
100
AcDbLine
 10
546.1101026616802
 20
210.3833386136242
 30
0.0
 11
546.1101026616802
 21
181.5833386136236
 31
0.0
  0
LINE
  5
415
330
2
100
AcDbEntity
  8
L-ZISSEN
100
AcDbLine
 10
547.4101026616803
 20
197.1833386136249
 30
0.0
 11
546.1101026616802
 21
197.183338613624
 31
0.0
  0
LINE
  5
416
330
2
100
AcDbEntity
  8
L-ZISSEN
100
AcDbLine
 10
547.4101026616803
 20
197.1833386136249
 30
0.0
 11
546.1101026616802
 21
197.1833386136249
 31
0.0
  0
ARC
  5
417
330
2
100
AcDbEntity
  8
L-ZISSEN
100
AcDbCircle
 10
545.6101026616802
 20
181.5833386136236
 30
0.0
 40
0.5
100
AcDbArc
 50
270.0
 51
0.0
  0
LINE
  5
418
330
2
100
AcDbEntity
  8
L-ZISSEN
100
AcDbLine
 10
544.7101026616805
 20
170.0833386136236
 30
0.0
 11
545.1101026616811
 21
167.0833386136245
 31
0.0
  0
LINE
  5
419
330
2
100
AcDbEntity
  8
L-ZISSEN
100
AcDbLine
 10
545.1101026616811
 20
181.0833386136245
 30
0.0
 11
545.1101026616811
 21
167.0833386136245
 31
0.0
  0
LINE
  5
41A
330
2
100
AcDbEntity
  8
L-ZISSEN
100
AcDbLine
 10
544.7101026616805
 20
181.0833386136245
 30
0.0
 11
544.7101026616805
 21
170.0833386136236
 31
0.0
  0
LINE
  5
41B
330
2
100
AcDbEntity
  8
L-ZISSEN
100
AcDbLine
 10
547.4101026616813
 20
205.6833386136231
 30
0.0
 11
546.1101026616802
 21
205.6833386136231
 31
0.0
  0
LINE
  5
41C
330
2
100
AcDbEntity
  8
L-ZISSEN
100
AcDbLine
 10
547.1101026616802
 20
210.6823191139187
 30
0.0
 11
547.1101026616802
 21
210.3833386136242
 31
0.0
  0
LINE
  5
41D
330
2
100
AcDbEntity
  8
L-ZISSEN
100
AcDbLine
 10
553.6101026616811
 20
207.1833386136249
 30
0.0
 11
553.6101026616811
 21
197.1833386136258
 31
0.0
  0
LINE
  5
41E
330
2
100
AcDbEntity
  8
L-ZISSEN
100
AcDbLine
 10
564.3659697231619
 20
197.183338613624
 30
0.0
 11
562.650108721185
 21
117.9377452826847
 31
0.0
  0
LINE
  5
41F
330
2
100
AcDbEntity
  8
L-ZISSEN
100
AcDbLine
 10
565.2463857771063
 20
210.6823191139182
 30
0.0
 11
565.0660872619077
 21
197.183338613624
 31
0.0
  0
LINE
  5
420
330
2
100
AcDbEntity
  8
L-ZISSEN
100
AcDbLine
 10
564.3659697231619
 20
197.183338613624
 30
0.0
 11
565.0660872619077
 21
197.183338613624
 31
0.0
  0
LINE
  5
421
330
2
100
AcDbEntity
  8
L-ZISSEN
100
AcDbLine
 10
559.1214570999386
 20
207.1833386136231
 30
0.0
 11
559.1214570999386
 21
197.1833386136258
 31
0.0
  0
LINE
  5
422
330
2
100
AcDbEntity
  8
L-ZISSEN
100
AcDbLine
 10
559.1214570999386
 20
197.1833386136258
 30
0.0
 11
564.3659697231619
 21
197.1833386136258
 31
0.0
  0
LINE
  5
423
330
2
100
AcDbEntity
  8
L-TYUSIN
100
AcDbLine
 10
330.1101026616807
 20
-34.47364475221643
 30
0.0
 11
330.1101026616807
 21
285.526349153557
 31
0.0
  0
LINE
  5
424
330
2
100
AcDbEntity
  8
L-ZISSEN
100
AcDbLine
 10
129.9999999999977
 20
-20.10097964264832
 30
0.0
 11
130.0
 21
66.30270440134063
 31
0.0
  0
LINE
  5
425
330
2
100
AcDbEntity
  8
L-ZISSEN
100
AcDbLine
 10
130.0
 20
66.30270440134063
 30
0.0
 11
130.0
 21
24.97870994714139
 31
0.0
  0
LINE
  5
426
330
2
100
AcDbEntity
  8
L-ZISSEN
100
AcDbLine
 10
125.2800000000002
 20
55.96396548970824
 30
0.0
 11
125.2799999999979
 21
-12.03603451029084
 31
0.0
  0
LINE
  5
427
330
2
100
AcDbEntity
  8
L-ZISSEN
100
AcDbLine
 10
116.8499999999971
 20
55.96396548970824
 30
0.0
 11
116.8499999999971
 21
-12.03603451029084
 31
0.0
  0
LINE
  5
428
330
2
100
AcDbEntity
  8
L-ZISSEN
100
AcDbLine
 10
83.15000000000054
 20
55.96396548970824
 30
0.0
 11
83.15000000000054
 21
-12.03603451029084
 31
0.0
  0
LINE
  5
429
330
2
100
AcDbEntity
  8
L-ZISSEN
100
AcDbLine
 10
74.71999999999752
 20
55.96396548970824
 30
0.0
 11
74.71999999999979
 21
-12.03603451029084
 31
0.0
  0
LINE
  5
42A
330
2
100
AcDbEntity
  8
L-ZISSEN
100
AcDbLine
 10
69.99999999999772
 20
-20.10097964264832
 30
0.0
 11
70.0
 21
66.30270440134063
 31
0.0
  0
LINE
  5
42B
330
2
100
AcDbEntity
  8
L-ZISSEN
100
AcDbLine
 10
116.8499999999971
 20
-12.03603451029084
 30
0.0
 11
121.0650000000009
 21
-14.03603451029175
 31
0.0
  0
ARC
  5
42C
330
2
100
AcDbEntity
  8
L-ZISSEN
100
AcDbCircle
 10
100.0000000000035
 20
68.75541548282353
 30
0.0
 40
99.53938471878515
100
AcDbArc
 50
275.3320776948642
 51
283.906237065045
  0
LINE
  5
42D
330
2
100
AcDbEntity
  8
L-ZISSEN
100
AcDbLine
 10
91.06249999999931
 20
-38.19729598645608
 30
0.0
 11
108.9375000000006
 21
-38.19729598645517
 31
0.0
  0
LINE
  5
42E
330
2
100
AcDbEntity
  8
L-ZISSEN
100
AcDbLine
 10
109.2499999999968
 20
-30.35324513871046
 30
0.0
 11
90.75000000000533
 21
-30.35324513871046
 31
0.0
  0
LINE
  5
42F
330
2
100
AcDbEntity
  8
L-ZISSEN
100
AcDbLine
 10
78.93499999999903
 20
-14.03603451029175
 30
0.0
 11
74.71999999999979
 21
-12.03603451029084
 31
0.0
  0
ARC
  5
430
330
2
100
AcDbEntity
  8
L-ZISSEN
100
AcDbCircle
 10
100.0000000000035
 20
68.75541548282353
 30
0.0
 40
99.53938471878538
100
AcDbArc
 50
256.0937629349449
 51
264.6679223051358
  0
ARC
  5
431
330
2
100
AcDbEntity
  8
L-ZISSEN
100
AcDbCircle
 10
78.0000000000091
 20
-20.10097964264832
 30
0.0
 40
8.000000000000113
100
AcDbArc
 50
180.0
 51
256.0937629347638
  0
LINE
  5
432
330
2
100
AcDbEntity
  8
L-ZISSEN
100
AcDbLine
 10
91.06249999999931
 20
-38.19729598645608
 30
0.0
 11
91.06249999999931
 21
-30.35324513871046
 31
0.0
  0
LINE
  5
433
330
2
100
AcDbEntity
  8
L-ZISSEN
100
AcDbLine
 10
83.15000000000054
 20
-12.03603451029084
 30
0.0
 11
78.93499999999903
 21
-14.03603451029175
 31
0.0
  0
LINE
  5
434
330
2
100
AcDbEntity
  8
L-ZISSEN
100
AcDbLine
 10
108.9375000000006
 20
-38.19729598645517
 30
0.0
 11
108.9375000000006
 21
-30.35324513871046
 31
0.0
  0
ARC
  5
435
330
2
100
AcDbEntity
  8
L-ZISSEN
100
AcDbCircle
 10
122.0000000000077
 20
-20.10097964264832
 30
0.0
 40
8.000000000000113
100
AcDbArc
 50
283.906237065055
 51
0.0
  0
LINE
  5
436
330
2
100
AcDbEntity
  8
L-ZISSEN
100
AcDbLine
 10
121.0650000000009
 20
-14.03603451029175
 30
0.0
 11
125.2799999999979
 21
-12.03603451029084
 31
0.0
  0
LINE
  5
437
330
2
100
AcDbEntity
  8
L-ZISSEN
100
AcDbLine
 10
125.2800000000002
 20
55.96396548970824
 30
0.0
 11
116.8499999999971
 21
55.96396548970824
 31
0.0
  0
LINE
  5
439
330
2
100
AcDbEntity
  8
L-ZISSEN
100
AcDbLine
 10
74.71999999999752
 20
55.96396548970824
 30
0.0
 11
83.15000000000054
 21
55.96396548970824
 31
0.0
  0
LINE
  5
43A
330
2
100
AcDbEntity
  8
L-ZISSEN
100
AcDbLine
 10
131.5504211807797
 20
32.82922211588084
 30
0.0
 11
133.3140953245515
 21
40.3091978633247
 31
0.0
  0
LINE
  5
43B
330
2
100
AcDbEntity
  8
L-ZISSEN
100
AcDbLine
 10
133.3140953245515
 20
42.49568210425969
 30
0.0
 11
130.0
 21
42.49568210425969
 31
0.0
  0
LINE
  5
43C
330
2
100
AcDbEntity
  8
L-ZISSEN
100
AcDbLine
 10
131.5504211807797
 20
32.82922211588084
 30
0.0
 11
130.0
 21
32.82922211588084
 31
0.0
  0
LINE
  5
43D
330
2
100
AcDbEntity
  8
L-ZISSEN
100
AcDbLine
 10
130.0638373500237
 20
33.17973788670406
 30
0.0
 11
131.8275114937955
 21
40.65971363414791
 31
0.0
  0
LINE
  5
43E
330
2
100
AcDbEntity
  8
L-ZISSEN
100
AcDbLine
 10
131.8275114937955
 20
42.49568210425877
 30
0.0
 11
131.8275114937955
 21
40.65971363414791
 31
0.0
  0
LINE
  5
43F
330
2
100
AcDbEntity
  8
L-ZISSEN
100
AcDbLine
 10
135.0
 20
66.30270440133973
 30
0.0
 11
135.0
 21
45.30270440134063
 31
0.0
  0
LINE
  5
440
330
2
100
AcDbEntity
  8
L-ZISSEN
100
AcDbLine
 10
133.3140953245515
 20
38.41321849932956
 30
0.0
 11
133.3140953245515
 21
66.30270440133973
 31
0.0
  0
LINE
  5
441
330
2
100
AcDbEntity
  8
L-ZISSEN
100
AcDbLine
 10
138.9999999999986
 20
44.63776659555787
 30
0.0
 11
138.9999999999986
 21
40.35359761295967
 31
0.0
  0
LINE
  5
442
330
2
100
AcDbEntity
  8
L-ZISSEN
100
AcDbLine
 10
133.5000000000013
 20
38.41321849932956
 30
0.0
 11
133.3140953245515
 21
38.41321849932956
 31
0.0
  0
LINE
  5
443
330
2
100
AcDbEntity
  8
L-ZISSEN
100
AcDbLine
 10
133.3140953245515
 20
40.3091978633247
 30
0.0
 11
133.3140953245515
 21
42.49568210425969
 31
0.0
  0
LINE
  5
444
330
2
100
AcDbEntity
  8
L-ZISSEN
100
AcDbLine
 10
138.9999999999986
 20
40.35359761295967
 30
0.0
 11
133.5000000000013
 21
38.41321849932956
 31
0.0
  0
LINE
  5
445
330
2
100
AcDbEntity
  8
L-ZISSEN
100
AcDbLine
 10
135.0
 20
45.30270440134063
 30
0.0
 11
138.9999999999986
 21
44.63776659555787
 31
0.0
  0
LINE
  5
49B
330
2
100
AcDbEntity
  8
L-TYUSIN
100
AcDbLine
 10
247.8132064374448
 20
36.30624970016789
 30
0.0
 11
252.0079864123567
 21
36.30624970016789
 31
0.0
  0
LINE
  5
49C
330
2
100
AcDbEntity
  8
L-ZISSEN
100
AcDbLine
 10
253.7500000000022
 20
52.55270440134246
 30
0.0
 11
250.0000000000022
 21
46.30270440134246
 31
0.0
  0
LINE
  5
49D
330
2
100
AcDbEntity
  8
L-ZISSEN
100
AcDbLine
 10
251.2500000000022
 20
52.55270440134246
 30
0.0
 11
253.7500000000022
 21
52.55270440134246
 31
0.0
  0
LINE
  5
49E
330
2
100
AcDbEntity
  8
L-ZISSEN
100
AcDbLine
 10
249.9999999999999
 20
40.0527044013411
 30
0.0
 11
263.1249999999976
 21
41.9277044013411
 31
0.0
  0
LINE
  5
49F
330
2
100
AcDbEntity
  8
L-ZISSEN
100
AcDbLine
 10
249.9999999999999
 20
39.22153214411402
 30
0.0
 11
261.9144331348342
 21
40.92359402051854
 31
0.0
  0
LINE
  5
4A0
330
2
100
AcDbEntity
  8
L-ZISSEN
100
AcDbLine
 10
261.9144331348342
 20
36.36067889029665
 30
0.0
 11
249.9999999999999
 21
33.86632091586581
 31
0.0
  0
LINE
  5
4A1
330
2
100
AcDbEntity
  8
L-ZISSEN
100
AcDbLine
 10
249.9999999999999
 20
31.3027044013411
 30
0.0
 11
264.0624999999976
 21
35.0527044013411
 31
0.0
  0
LINE
  5
4A2
330
2
100
AcDbEntity
  8
L-ZISSEN
100
AcDbLine
 10
259.2500000000055
 20
-30.35324513870955
 30
0.0
 11
240.7499999999935
 21
-30.35324513870908
 31
0.0
  0
LINE
  5
4A3
330
2
100
AcDbEntity
  8
L-ZISSEN
100
AcDbLine
 10
259.0000000000022
 20
-38.1972959864547
 30
0.0
 11
241.0000000000004
 21
-38.1972959864547
 31
0.0
  0
LINE
  5
4A4
330
2
100
AcDbEntity
  8
L-ZISSEN
100
AcDbLine
 10
237.1874999999999
 20
26.3027044013411
 30
0.0
 11
262.8124999999999
 21
26.3027044013411
 31
0.0
  0
LINE
  5
4A5
330
2
100
AcDbEntity
  8
L-ZISSEN
100
AcDbLine
 10
233.1500000000005
 20
55.96396548971007
 30
0.0
 11
233.1500000000005
 21
-12.03603451028992
 31
0.0
  0
LINE
  5
4A6
330
2
100
AcDbEntity
  8
L-ZISSEN
100
AcDbLine
 10
224.7199999999997
 20
55.96396548971007
 30
0.0
 11
224.7199999999997
 21
-12.03603451028946
 31
0.0
  0
LINE
  5
4A7
330
2
100
AcDbEntity
  8
L-ZISSEN
100
AcDbLine
 10
219.9999999999999
 20
-20.10097964264649
 30
0.0
 11
219.9999999999999
 21
66.3027044013411
 31
0.0
  0
ARC
  5
4A8
330
2
100
AcDbEntity
  8
L-ZISSEN
100
AcDbCircle
 10
228.0000000000008
 20
-20.10097964264649
 30
0.0
 40
8.000000000000113
100
AcDbArc
 50
180.0
 51
256.0937629349449
  0
LINE
  5
4A9
330
2
100
AcDbEntity
  8
L-ZISSEN
100
AcDbLine
 10
228.934999999999
 20
-14.03603451028992
 30
0.0
 11
224.7199999999997
 21
-12.03603451028946
 31
0.0
  0
LINE
  5
4AA
330
2
100
AcDbEntity
  8
L-ZISSEN
100
AcDbLine
 10
241.0000000000004
 20
-38.19729598645515
 30
0.0
 11
241.0000000000004
 21
-30.35324513870908
 31
0.0
  0
ARC
  5
4AB
330
2
100
AcDbEntity
  8
L-ZISSEN
100
AcDbCircle
 10
250.0000000000013
 20
68.755415482824
 30
0.0
 40
99.53938471878538
100
AcDbArc
 50
256.093762934955
 51
264.6679223051358
  0
LINE
  5
4AC
330
2
100
AcDbEntity
  8
L-ZISSEN
100
AcDbLine
 10
233.1500000000005
 20
-12.03603451028992
 30
0.0
 11
228.934999999999
 21
-14.03603451028992
 31
0.0
  0
LINE
  5
4AE
330
2
100
AcDbEntity
  8
L-ZISSEN
100
AcDbLine
 10
236.8749999999976
 20
66.3027044013411
 30
0.0
 11
236.8749999999976
 21
41.9277044013411
 31
0.0
  0
LINE
  5
4AF
330
2
100
AcDbEntity
  8
L-ZISSEN
100
AcDbLine
 10
235.9374999999976
 20
66.3027044013411
 30
0.0
 11
235.9374999999976
 21
42.51342903420847
 31
0.0
  0
LINE
  5
4B0
330
2
100
AcDbEntity
  8
L-ZISSEN
100
AcDbLine
 10
235.9374999999976
 20
66.3027044013411
 30
0.0
 11
235.9374999999976
 21
27.5527044013411
 31
0.0
  0
LINE
  5
4B1
330
2
100
AcDbEntity
  8
L-ZISSEN
100
AcDbLine
 10
249.9999999999999
 20
39.22153214411402
 30
0.0
 11
238.0855668651656
 21
40.92359402051854
 31
0.0
  0
LINE
  5
4B2
330
2
100
AcDbEntity
  8
L-ZISSEN
100
AcDbLine
 10
238.0855668651656
 20
36.36067889029665
 30
0.0
 11
249.9999999999999
 21
33.86632091586581
 31
0.0
  0
LINE
  5
4B3
330
2
100
AcDbEntity
  8
L-ZISSEN
100
AcDbLine
 10
249.9999999999999
 20
40.0527044013411
 30
0.0
 11
236.8749999999976
 21
41.9277044013411
 31
0.0
  0
LINE
  5
4B4
330
2
100
AcDbEntity
  8
L-ZISSEN
100
AcDbLine
 10
249.9999999999999
 20
31.3027044013411
 30
0.0
 11
235.9374999999976
 21
35.0527044013411
 31
0.0
  0
ARC
  5
4B5
330
2
100
AcDbEntity
  8
L-ZISSEN
100
AcDbCircle
 10
237.1874999999999
 20
27.5527044013411
 30
0.0
 40
1.250000000000568
100
AcDbArc
 50
180.0
 51
270.0
  0
LINE
  5
4B6
330
2
100
AcDbEntity
  8
L-ZISSEN
100
AcDbLine
 10
238.0855668651656
 20
40.92359402051854
 30
0.0
 11
238.0855668651656
 21
36.36067889029665
 31
0.0
  0
LINE
  5
4B7
330
2
100
AcDbEntity
  8
L-ZISSEN
100
AcDbLine
 10
235.9374999999976
 20
35.0527044013411
 30
0.0
 11
238.0855668651656
 21
36.36067889029665
 31
0.0
  0
LINE
  5
4B8
330
2
100
AcDbEntity
  8
L-ZISSEN
100
AcDbLine
 10
238.0855668651656
 20
40.92359402051854
 30
0.0
 11
236.8749999999976
 21
41.9277044013411
 31
0.0
  0
LINE
  5
4B9
330
2
100
AcDbEntity
  8
L-ZISSEN
100
AcDbLine
 10
238.0855668651656
 20
41.75476627774607
 30
0.0
 11
236.8749999999976
 21
41.9277044013411
 31
0.0
  0
LINE
  5
4BA
330
2
100
AcDbEntity
  8
L-ZISSEN
100
AcDbLine
 10
248.7499999999976
 20
31.63603773467549
 30
0.0
 11
248.7499999999999
 21
30.0527044013411
 31
0.0
  0
LINE
  5
4BB
330
2
100
AcDbEntity
  8
L-ZISSEN
100
AcDbLine
 10
251.2499999999999
 20
31.63603773467504
 30
0.0
 11
251.2499999999999
 21
30.0527044013411
 31
0.0
  0
LINE
  5
4BC
330
2
100
AcDbEntity
  8
L-ZISSEN
100
AcDbLine
 10
240.6249999999999
 20
33.80270440134201
 30
0.0
 11
240.6249999999976
 21
26.3027044013411
 31
0.0
  0
ARC
  5
4BD
330
2
100
AcDbEntity
  8
L-ZISSEN
100
AcDbCircle
 10
249.9999999999999
 20
30.0527044013411
 30
0.0
 40
1.250000000000568
100
AcDbArc
 50
180.0
 51
0.0
  0
CIRCLE
  5
4BE
330
2
100
AcDbEntity
  8
L-ZISSEN
100
AcDbCircle
 10
249.9999999999999
 20
36.30624970016789
 30
0.0
 40
1.25
  0
LINE
  5
4BF
330
2
100
AcDbEntity
  8
L-ZISSEN
100
AcDbLine
 10
249.9999999999999
 20
31.3027044013411
 30
0.0
 11
249.9999999999999
 21
33.86632091586581
 31
0.0
  0
LINE
  5
4C0
330
2
100
AcDbEntity
  8
L-ZISSEN
100
AcDbLine
 10
249.9999999999999
 20
40.0527044013411
 30
0.0
 11
249.9999999999999
 21
39.22153214411402
 31
0.0
  0
LINE
  5
4C1
330
2
100
AcDbEntity
  8
L-ZISSEN
100
AcDbLine
 10
224.7199999999997
 20
55.96396548971007
 30
0.0
 11
233.1500000000005
 21
55.96396548971007
 31
0.0
  0
LINE
  5
4C2
330
2
100
AcDbEntity
  8
L-ZISSEN
100
AcDbLine
 10
248.7500000000022
 20
62.55270440134246
 30
0.0
 11
248.7500000000022
 21
52.55270440134246
 31
0.0
  0
LINE
  5
4C3
330
2
100
AcDbEntity
  8
L-ZISSEN
100
AcDbLine
 10
248.7500000000022
 20
62.55270440134246
 30
0.0
 11
248.7500000000022
 21
52.55270440134246
 31
0.0
  0
LINE
  5
4C4
330
2
100
AcDbEntity
  8
L-ZISSEN
100
AcDbLine
 10
251.2500000000022
 20
62.55270440134246
 30
0.0
 11
251.2500000000022
 21
52.55270440134246
 31
0.0
  0
LINE
  5
4C5
330
2
100
AcDbEntity
  8
L-ZISSEN
100
AcDbLine
 10
251.2500000000022
 20
62.55270440134246
 30
0.0
 11
251.2500000000022
 21
52.55270440134246
 31
0.0
  0
LINE
  5
4C6
330
2
100
AcDbEntity
  8
L-ZISSEN
100
AcDbLine
 10
246.2500000000022
 20
52.55270440134246
 30
0.0
 11
250.0000000000022
 21
46.30270440134246
 31
0.0
  0
LINE
  5
4C7
330
2
100
AcDbEntity
  8
L-ZISSEN
100
AcDbLine
 10
248.7500000000022
 20
52.55270440134246
 30
0.0
 11
246.2500000000022
 21
52.55270440134246
 31
0.0
  0
LINE
  5
4C8
330
2
100
AcDbEntity
  8
L-ZISSEN
100
AcDbLine
 10
246.8749999999999
 20
60.0527044013411
 30
0.0
 11
241.8749999999999
 21
60.0527044013411
 31
0.0
  0
LINE
  5
4C9
330
2
100
AcDbEntity
  8
L-ZISSEN
100
AcDbLine
 10
246.8749999999999
 20
60.0527044013411
 30
0.0
 11
241.8749999999999
 21
60.0527044013411
 31
0.0
  0
LINE
  5
4CA
330
2
100
AcDbEntity
  8
L-ZISSEN
100
AcDbLine
 10
246.8749999999999
 20
58.8027044013411
 30
0.0
 11
241.8749999999999
 21
58.8027044013411
 31
0.0
  0
LINE
  5
4CB
330
2
100
AcDbEntity
  8
L-ZISSEN
100
AcDbLine
 10
246.8749999999999
 20
58.8027044013411
 30
0.0
 11
241.8749999999999
 21
58.8027044013411
 31
0.0
  0
LINE
  5
4CC
330
2
100
AcDbEntity
  8
L-ZISSEN
100
AcDbLine
 10
241.8749999999999
 20
58.8027044013411
 30
0.0
 11
241.8749999999999
 21
57.5527044013411
 31
0.0
  0
LINE
  5
4CD
330
2
100
AcDbEntity
  8
L-ZISSEN
100
AcDbLine
 10
241.8749999999999
 20
60.0527044013411
 30
0.0
 11
241.8749999999999
 21
61.3027044013411
 31
0.0
  0
LINE
  5
4CE
330
2
100
AcDbEntity
  8
L-ZISSEN
100
AcDbLine
 10
241.8749999999999
 20
57.5527044013411
 30
0.0
 11
238.7499999999999
 21
59.4277044013411
 31
0.0
  0
LINE
  5
4CF
330
2
100
AcDbEntity
  8
L-ZISSEN
100
AcDbLine
 10
241.8749999999999
 20
61.3027044013411
 30
0.0
 11
238.7499999999999
 21
59.4277044013411
 31
0.0
  0
LINE
  5
4D0
330
2
100
AcDbEntity
  8
L-ZISSEN
100
AcDbLine
 10
246.8749999999999
 20
60.0527044013411
 30
0.0
 11
246.8749999999999
 21
58.8027044013411
 31
0.0
  0
LINE
  5
4D1
330
2
100
AcDbEntity
  8
L-ZISSEN
100
AcDbLine
 10
251.2500000000022
 20
62.55270440134246
 30
0.0
 11
248.7500000000022
 21
62.55270440134246
 31
0.0
  0
LINE
  5
4D2
330
2
100
AcDbEntity
  8
L-ZISSEN
100
AcDbLine
 10
275.2800000000001
 20
55.96396548971007
 30
0.0
 11
275.2800000000001
 21
-12.03603451028946
 31
0.0
  0
LINE
  5
4D3
330
2
100
AcDbEntity
  8
L-ZISSEN
100
AcDbLine
 10
266.8499999999994
 20
55.96396548971007
 30
0.0
 11
266.8499999999994
 21
-12.03603451028992
 31
0.0
  0
LINE
  5
4D4
330
2
100
AcDbEntity
  8
L-ZISSEN
100
AcDbLine
 10
279.9999999999976
 20
-20.10097964264785
 30
0.0
 11
279.9999999999999
 21
66.30270440134246
 31
0.0
  0
ARC
  5
4D5
330
2
100
AcDbEntity
  8
L-ZISSEN
100
AcDbCircle
 10
271.9999999999994
 20
-20.10097964264785
 30
0.0
 40
8.000000000000113
100
AcDbArc
 50
283.9062370652463
 51
0.0
  0
LINE
  5
4D6
330
2
100
AcDbEntity
  8
L-ZISSEN
100
AcDbLine
 10
259.0000000000022
 20
-38.19729598645515
 30
0.0
 11
259.0000000000022
 21
-30.35324513870953
 31
0.0
  0
ARC
  5
4D7
330
2
100
AcDbEntity
  8
L-ZISSEN
100
AcDbCircle
 10
250.0000000000013
 20
68.755415482824
 30
0.0
 40
99.53938471878553
100
AcDbArc
 50
275.3320776948642
 51
283.906237065055
  0
LINE
  5
4DA
330
2
100
AcDbEntity
  8
L-ZISSEN
100
AcDbLine
 10
271.0650000000009
 20
-14.03603451028992
 30
0.0
 11
275.2800000000001
 21
-12.03603451028946
 31
0.0
  0
LINE
  5
4DB
330
2
100
AcDbEntity
  8
L-ZISSEN
100
AcDbLine
 10
266.8499999999994
 20
-12.03603451028992
 30
0.0
 11
271.0650000000009
 21
-14.03603451028992
 31
0.0
  0
LINE
  5
4DC
330
2
100
AcDbEntity
  8
L-ZISSEN
100
AcDbLine
 10
264.0624999999976
 20
66.3027044013411
 30
0.0
 11
264.0624999999976
 21
42.51342903420847
 31
0.0
  0
LINE
  5
4DD
330
2
100
AcDbEntity
  8
L-ZISSEN
100
AcDbLine
 10
263.1249999999976
 20
66.3027044013411
 30
0.0
 11
263.1249999999976
 21
41.9277044013411
 31
0.0
  0
LINE
  5
4DE
330
2
100
AcDbEntity
  8
L-ZISSEN
100
AcDbLine
 10
264.0624999999976
 20
66.3027044013411
 30
0.0
 11
264.0624999999976
 21
27.5527044013411
 31
0.0
  0
LINE
  5
4DF
330
2
100
AcDbEntity
  8
L-ZISSEN
100
AcDbLine
 10
259.3749999999976
 20
33.8027044013411
 30
0.0
 11
259.3749999999976
 21
26.3027044013411
 31
0.0
  0
ARC
  5
4E0
330
2
100
AcDbEntity
  8
L-ZISSEN
100
AcDbCircle
 10
262.8124999999999
 20
27.5527044013411
 30
0.0
 40
1.249999999999715
100
AcDbArc
 50
270.0
 51
0.0
  0
LINE
  5
4E1
330
2
100
AcDbEntity
  8
L-ZISSEN
100
AcDbLine
 10
261.9144331348342
 20
40.92359402051854
 30
0.0
 11
261.9144331348342
 21
36.36067889029665
 31
0.0
  0
LINE
  5
4E2
330
2
100
AcDbEntity
  8
L-ZISSEN
100
AcDbLine
 10
264.0624999999976
 20
35.0527044013411
 30
0.0
 11
261.9144331348342
 21
36.36067889029665
 31
0.0
  0
LINE
  5
4E3
330
2
100
AcDbEntity
  8
L-ZISSEN
100
AcDbLine
 10
261.9144331348342
 20
41.75476627774607
 30
0.0
 11
263.1249999999976
 21
41.9277044013411
 31
0.0
  0
LINE
  5
4E4
330
2
100
AcDbEntity
  8
L-ZISSEN
100
AcDbLine
 10
261.9144331348342
 20
40.92359402051854
 30
0.0
 11
263.1249999999976
 21
41.9277044013411
 31
0.0
  0
LINE
  5
4E5
330
2
100
AcDbEntity
  8
L-ZISSEN
100
AcDbLine
 10
258.1249999999999
 20
57.55270440134201
 30
0.0
 11
261.2499999999999
 21
59.42770440134201
 31
0.0
  0
LINE
  5
4E6
330
2
100
AcDbEntity
  8
L-ZISSEN
100
AcDbLine
 10
258.1249999999999
 20
61.30270440134201
 30
0.0
 11
261.2499999999999
 21
59.42770440134201
 31
0.0
  0
LINE
  5
4E7
330
2
100
AcDbEntity
  8
L-ZISSEN
100
AcDbLine
 10
253.1249999999999
 20
60.05270440134201
 30
0.0
 11
258.1249999999999
 21
60.05270440134201
 31
0.0
  0
LINE
  5
4E8
330
2
100
AcDbEntity
  8
L-ZISSEN
100
AcDbLine
 10
253.1249999999999
 20
60.05270440134201
 30
0.0
 11
258.1249999999999
 21
60.05270440134201
 31
0.0
  0
LINE
  5
4E9
330
2
100
AcDbEntity
  8
L-ZISSEN
100
AcDbLine
 10
253.1249999999999
 20
58.80270440134201
 30
0.0
 11
258.1249999999999
 21
58.80270440134201
 31
0.0
  0
LINE
  5
4EA
330
2
100
AcDbEntity
  8
L-ZISSEN
100
AcDbLine
 10
253.1249999999999
 20
58.80270440134201
 30
0.0
 11
258.1249999999999
 21
58.80270440134201
 31
0.0
  0
LINE
  5
4EB
330
2
100
AcDbEntity
  8
L-ZISSEN
100
AcDbLine
 10
253.1249999999999
 20
60.05270440134201
 30
0.0
 11
253.1249999999999
 21
58.80270440134201
 31
0.0
  0
LINE
  5
4EC
330
2
100
AcDbEntity
  8
L-ZISSEN
100
AcDbLine
 10
258.1249999999999
 20
58.80270440134201
 30
0.0
 11
258.1249999999999
 21
57.55270440134201
 31
0.0
  0
LINE
  5
4ED
330
2
100
AcDbEntity
  8
L-ZISSEN
100
AcDbLine
 10
258.1249999999999
 20
60.05270440134201
 30
0.0
 11
258.1249999999999
 21
61.30270440134201
 31
0.0
  0
LINE
  5
4EE
330
2
100
AcDbEntity
  8
L-ZISSEN
100
AcDbLine
 10
275.2800000000001
 20
55.96396548971007
 30
0.0
 11
266.8499999999994
 21
55.96396548971007
 31
0.0
  0
LINE
  5
50C
330
2
100
AcDbEntity
  8
L-ZISSEN
100
AcDbLine
 10
248.3726431307479
 20
65.14007392690041
 30
0.0
 11
202.9757539418715
 21
32.70723278858508
 31
0.0
  0
TEXT
  5
50D
330
2
100
AcDbEntity
  8
L-ZISSEN
100
AcDbText
 10
190.1053648739682
 20
30.46055856063435
 30
0.0
 40
4.5
  1
P.P
100
AcDbText
  0
LINE
  5
50E
330
2
100
AcDbEntity
  8
L-ZISSEN
100
AcDbLine
 10
202.9757539418715
 20
32.70723278858508
 30
0.0
 11
200.9757539418715
 21
32.70723278858508
 31
0.0
  0
LINE
  5
50F
330
2
100
AcDbEntity
  8
L-ZISSEN
100
AcDbLine
 10
98.37264313074797
 20
65.14007392689973
 30
0.0
 11
52.97575394187163
 21
32.7072327885844
 31
0.0
  0
TEXT
  5
510
330
2
100
AcDbEntity
  8
L-ZISSEN
100
AcDbText
 10
40.10536487396831
 20
30.46055856063367
 30
0.0
 40
4.5
  1
P.P
100
AcDbText
  0
LINE
  5
511
330
2
100
AcDbEntity
  8
L-ZISSEN
100
AcDbLine
 10
52.97575394187163
 20
32.7072327885844
 30
0.0
 11
50.97575394187163
 21
32.7072327885844
 31
0.0
  0
SOLID
  5
512
330
2
100
AcDbEntity
  8
L-ZISSEN
100
AcDbTrace
 10
98.17887138500783
 20
65.41130007177526
 30
0.0
 11
98.56641487648813
 21
64.86884778202465
 31
0.0
 12
100.0
 22
66.30270440134063
 32
0.0
 13
100.0
 23
66.30270440134063
 33
0.0
  0
SOLID
  5
513
330
2
100
AcDbEntity
  8
L-ZISSEN
100
AcDbTrace
 10
248.1788713850077
 20
65.41130007177594
 30
0.0
 11
248.566414876488
 21
64.86884778202534
 31
0.0
 12
249.9999999999999
 22
66.30270440134132
 32
0.0
 13
249.9999999999999
 23
66.30270440134132
 33
0.0
  0
LINE
  5
516
330
2
100
AcDbEntity
  8
L-ZISSEN
100
AcDbLine
 10
392.6101026616809
 20
102.1833386136231
 30
0.0
 11
377.6101026616809
 21
102.1833386136231
 31
0.0
  0
LINE
  5
53C
330
2
100
AcDbEntity
  8
L-ZISSEN
100
AcDbLine
 10
543.7703566995257
 20
102.1833386136228
 30
0.0
 11
543.7703566995257
 21
104.1833386136229
 31
0.0
  0
LINE
  5
53D
330
2
100
AcDbEntity
  8
L-ZISSEN
100
AcDbLine
 10
526.4498486238369
 20
102.1833386136228
 30
0.0
 11
526.4498486238369
 21
104.1833386136229
 31
0.0
  0
LINE
  5
53E
330
2
100
AcDbEntity
  8
L-ZISSEN
100
AcDbLine
 10
543.7703566995257
 20
102.1833386136228
 30
0.0
 11
526.4498486238369
 21
102.1833386136228
 31
0.0
  0
LINE
  5
540
330
2
100
AcDbEntity
  8
L-ZISSEN
100
AcDbLine
 10
539.4402296806036
 20
102.1833386136228
 30
0.0
 11
539.4402296806036
 21
104.1833386136229
 31
0.0
  0
LINE
  5
541
330
2
100
AcDbEntity
  8
L-ZISSEN
100
AcDbLine
 10
530.7799756427591
 20
102.1833386136228
 30
0.0
 11
530.7799756427591
 21
104.1833386136229
 31
0.0
  0
LINE
  5
543
330
2
100
AcDbEntity
  8
L-ZISSEN
100
AcDbLine
 10
377.6101026616809
 20
102.1833386136231
 30
0.0
 11
377.6101026616808
 21
104.1833386136231
 31
0.0
  0
LINE
  5
544
330
2
100
AcDbEntity
  8
L-ZISSEN
100
AcDbLine
 10
392.6101026616809
 20
102.1833386136231
 30
0.0
 11
392.6101026616809
 21
104.1833386136231
 31
0.0
  0
LINE
  5
545
330
2
100
AcDbEntity
  8
L-ZISSEN
100
AcDbLine
 10
385.1101026616809
 20
102.1833386136231
 30
0.0
 11
385.1101026616809
 21
104.1833386136231
 31
0.0
  0
TEXT
  5
592
330
2
100
AcDbEntity
  8
L-ZISSEN
100
AcDbText
 10
251.3652852095808
 20
265.2343929965168
 30
0.0
 40
4.5
  1
3
100
AcDbText
  0
TEXT
  5
593
330
2
100
AcDbEntity
  8
L-ZISSEN
100
AcDbText
 10
251.3652852095808
 20
258.723529326317
 30
0.0
 40
4.5
  1
4
100
AcDbText
  0
ENDSEC
  0
SECTION
  2
OBJECTS
  0
DICTIONARY
  5
9
330
0
100
AcDbDictionary
  3
ACAD_GROUP
350
25
  3
ACAD_LAYOUT
350
D
  3
ACAD_MLINESTYLE
350
26
  3
ACAD_PLOTSETTINGS
350
27
1001
ACAD
1000
TREAT_AS_HARD
1070
     0
  0
DICTIONARY
  5
15
330
14
100
AcDbDictionary
  3
ACAD_LAYERSTATES
350
16
1001
ACAD
1000
TREAT_AS_HARD
1070
     1
  0
DICTIONARY
  5
3
330
2
100
AcDbDictionary
  3
ACAD_LAYOUTSELFREF
350
6B2
1001
ACAD
1000
TREAT_AS_HARD
1070
     1
  0
DICTIONARY
  5
F
330
E
100
AcDbDictionary
  3
ACAD_LAYOUTSELFREF
350
6B3
1001
ACAD
1000
TREAT_AS_HARD
1070
     1
  0
DICTIONARY
  5
25
102
{ACAD_REACTORS
330
9
102
}
330
9
100
AcDbDictionary
1001
ACAD
1000
TREAT_AS_HARD
1070
     0
  0
DICTIONARY
  5
D
102
{ACAD_REACTORS
330
9
102
}
330
9
100
AcDbDictionary
1001
ACAD
1000
TREAT_AS_HARD
1070
     0
  0
DICTIONARY
  5
26
102
{ACAD_REACTORS
330
9
102
}
330
9
100
AcDbDictionary
  3
STANDARD
350
2B
1001
ACAD
1000
TREAT_AS_HARD
1070
     0
  0
DICTIONARY
  5
27
102
{ACAD_REACTORS
330
9
102
}
330
9
100
AcDbDictionary
1001
ACAD
1000
TREAT_AS_HARD
1070
     0
  0
DICTIONARY
  5
16
102
{ACAD_REACTORS
330
15
102
}
330
15
100
AcDbDictionary
1001
ACAD
1000
TREAT_AS_HARD
1070
     0
  0
XRECORD
  5
6B2
102
{ACAD_REACTORS
330
3
102
}
330
3
100
AcDbXrecord
340
2
  0
XRECORD
  5
6B3
102
{ACAD_REACTORS
330
F
102
}
330
F
100
AcDbXrecord
340
E
  0
MLINESTYLE
  5
2B
102
{ACAD_REACTORS
330
26
102
}
330
26
100
AcDbMlineStyle
  2
STANDARD
 70
     0
  3

 62
     0
 51
90.0
 52
90.0
 71
     2
 49
0.5
 62
   256
  6
BYLAYER
 49
-0.5
 62
   256
  6
BYLAYER
  0
ENDSEC
  0
EOF
