  0
SECTION
  2
HEADER
  9
$ACADVER
  1
AC1012
  9
$DWGCODEPAGE
  3
dos932
  9
$INSBASE
 10
0.0
 20
0.0
 30
0.0
  9
$EXTMIN
 10
56.96319229132495
 20
-22.15624704279139
 30
-0.0000000000112498
  9
$EXTMAX
 10
498.5268174017355
 20
287.873759528821
 30
0.0000000000002956
  9
$LIMMIN
 10
0.0
 20
0.0
  9
$LIMMAX
 10
12.0
 20
9.0
  9
$ORTHOMODE
 70
     1
  9
$REGENMODE
 70
     1
  9
$FILLMODE
 70
     1
  9
$QTEXTMODE
 70
     0
  9
$MIRRTEXT
 70
     1
  9
$DRAGMODE
 70
     2
  9
$LTSCALE
 40
1.0
  9
$OSMODE
 70
    39
  9
$ATTMODE
 70
     1
  9
$TEXTSIZE
 40
4.5
  9
$TRACEWID
 40
0.05
  9
$TEXTSTYLE
  7
STANDARD
  9
$CLAYER
  8
L-ZISSEN
  9
$CELTYPE
  6
BYLAYER
  9
$CECOLOR
 62
   256
  9
$CELTSCALE
 40
1.0
  9
$DELOBJ
 70
     1
  9
$DISPSILH
 70
     0
  9
$DIMSCALE
 40
0.0
  9
$DIMASZ
 40
2.0
  9
$DIMEXO
 40
1.0
  9
$DIMDLI
 40
8.0
  9
$DIMRND
 40
0.0
  9
$DIMDLE
 40
0.0
  9
$DIMEXE
 40
1.0
  9
$DIMTP
 40
0.0
  9
$DIMTM
 40
0.0
  9
$DIMTXT
 40
4.5
  9
$DIMCEN
 40
1.5
  9
$DIMTSZ
 40
0.0
  9
$DIMTOL
 70
     0
  9
$DIMLIM
 70
     0
  9
$DIMTIH
 70
     0
  9
$DIMTOH
 70
     0
  9
$DIMSE1
 70
     0
  9
$DIMSE2
 70
     0
  9
$DIMTAD
 70
     1
  9
$DIMZIN
 70
     8
  9
$DIMBLK
  1

  9
$DIMASO
 70
     1
  9
$DIMSHO
 70
     0
  9
$DIMPOST
  1

  9
$DIMAPOST
  1

  9
$DIMALT
 70
     0
  9
$DIMALTD
 70
     2
  9
$DIMALTF
 40
25.4
  9
$DIMLFAC
 40
1.0
  9
$DIMTOFL
 70
     1
  9
$DIMTVP
 40
0.0
  9
$DIMTIX
 70
     1
  9
$DIMSOXD
 70
     0
  9
$DIMSAH
 70
     0
  9
$DIMBLK1
  1

  9
$DIMBLK2
  1

  9
$DIMSTYLE
  2
STANDARD
  9
$DIMCLRD
 70
     0
  9
$DIMCLRE
 70
     0
  9
$DIMCLRT
 70
     0
  9
$DIMTFAC
 40
1.0
  9
$DIMGAP
 40
1.399999999999999
  9
$DIMJUST
 70
     0
  9
$DIMSD1
 70
     0
  9
$DIMSD2
 70
     0
  9
$DIMTOLJ
 70
     1
  9
$DIMTZIN
 70
     8
  9
$DIMALTZ
 70
     0
  9
$DIMALTTZ
 70
     0
  9
$DIMFIT
 70
     3
  9
$DIMUPT
 70
     0
  9
$DIMUNIT
 70
     2
  9
$DIMDEC
 70
     4
  9
$DIMTDEC
 70
     4
  9
$DIMALTU
 70
     2
  9
$DIMALTTD
 70
     2
  9
$DIMTXSTY
  7
STANDARD
  9
$DIMAUNIT
 70
     0
  9
$LUNITS
 70
     2
  9
$LUPREC
 70
     4
  9
$SKETCHINC
 40
0.1
  9
$FILLETRAD
 40
0.0
  9
$AUNITS
 70
     0
  9
$AUPREC
 70
     0
  9
$MENU
  1
acad
  9
$ELEVATION
 40
0.0
  9
$PELEVATION
 40
0.0
  9
$THICKNESS
 40
0.0
  9
$LIMCHECK
 70
     0
  9
$BLIPMODE
 70
     0
  9
$CHAMFERA
 40
5.0
  9
$CHAMFERB
 40
5.0
  9
$CHAMFERC
 40
0.0
  9
$CHAMFERD
 40
0.0
  9
$SKPOLY
 70
     0
  9
$TDCREATE
 40
2450178.569598264
  9
$TDUPDATE
 40
2455065.597053669
  9
$TDINDWG
 40
0.9260577662
  9
$TDUSRTIMER
 40
0.9260577662
  9
$USRTIMER
 70
     1
  9
$ANGBASE
 50
0.0
  9
$ANGDIR
 70
     0
  9
$PDMODE
 70
     0
  9
$PDSIZE
 40
0.0
  9
$PLINEWID
 40
0.0
  9
$COORDS
 70
     2
  9
$SPLFRAME
 70
     0
  9
$SPLINETYPE
 70
     6
  9
$SPLINESEGS
 70
     8
  9
$ATTDIA
 70
     0
  9
$ATTREQ
 70
     1
  9
$HANDLING
 70
-16383
  9
$HANDSEED
  5
1058
  9
$SURFTAB1
 70
     6
  9
$SURFTAB2
 70
     6
  9
$SURFTYPE
 70
     6
  9
$SURFU
 70
     6
  9
$SURFV
 70
     6
  9
$UCSNAME
  2

  9
$UCSORG
 10
0.0
 20
0.0
 30
0.0
  9
$UCSXDIR
 10
1.0
 20
0.0
 30
0.0
  9
$UCSYDIR
 10
0.0
 20
1.0
 30
0.0
  9
$PUCSNAME
  2

  9
$PUCSORG
 10
0.0
 20
0.0
 30
0.0
  9
$PUCSXDIR
 10
1.0
 20
0.0
 30
0.0
  9
$PUCSYDIR
 10
0.0
 20
1.0
 30
0.0
  9
$USERI1
 70
     0
  9
$USERI2
 70
     0
  9
$USERI3
 70
     0
  9
$USERI4
 70
     0
  9
$USERI5
 70
     0
  9
$USERR1
 40
0.0
  9
$USERR2
 40
0.0
  9
$USERR3
 40
0.0
  9
$USERR4
 40
0.0
  9
$USERR5
 40
0.0
  9
$WORLDVIEW
 70
     1
  9
$SHADEDGE
 70
     3
  9
$SHADEDIF
 70
    70
  9
$TILEMODE
 70
     1
  9
$MAXACTVP
 70
    16
  9
$PINSBASE
 10
0.0
 20
0.0
 30
0.0
  9
$PLIMCHECK
 70
     0
  9
$PEXTMIN
 10
1.000000000000000E+20
 20
1.000000000000000E+20
 30
1.000000000000000E+20
  9
$PEXTMAX
 10
-1.000000000000000E+20
 20
-1.000000000000000E+20
 30
-1.000000000000000E+20
  9
$PLIMMIN
 10
0.0
 20
0.0
  9
$PLIMMAX
 10
12.0
 20
9.0
  9
$UNITMODE
 70
     0
  9
$VISRETAIN
 70
     0
  9
$PLINEGEN
 70
     0
  9
$PSLTSCALE
 70
     0
  9
$TREEDEPTH
 70
  3020
  9
$PICKSTYLE
 70
     1
  9
$CMLSTYLE
  2
STANDARD
  9
$CMLJUST
 70
     0
  9
$CMLSCALE
 40
1.0
  9
$SAVEIMAGES
 70
     1
  0
ENDSEC
  0
SECTION
  2
CLASSES
  0
CLASS
  1
ACDBDICTIONARYWDFLT
  2
AcDbDictionaryWithDefault
  3
AutoCAD 2000
 90
    32768
280
     0
281
     0
  0
CLASS
  1
ACDBPLACEHOLDER
  2
AcDbPlaceHolder
  3
AutoCAD 2000
 90
    32768
280
     0
281
     0
  0
CLASS
  1
LAYOUT
  2
AcDbLayout
  3
AutoCAD 2000
 90
    32768
280
     0
281
     0
  0
CLASS
  1
LONG_TRANSACTION
  2
AcDbLongTransaction
  3
AutoCAD 2000
 90
    32768
280
     0
281
     0
  0
CLASS
  1
LWPOLYLINE
  2
AcDbPolyline
  3
AutoCAD 2000
 90
    32768
280
     0
281
     1
  0
CLASS
  1
HATCH
  2
AcDbHatch
  3
AutoCAD 2000
 90
    32768
280
     0
281
     1
  0
CLASS
  1
XRECORD
  2
AcDbXrecord
  3
AutoCAD 2000
 90
    32768
280
     0
281
     0
  0
CLASS
  1
LONG_TRANSACTION
  2
AcDbLongTransaction
  3
AutoCAD 2000
 90
    32768
280
     0
281
     0
  0
CLASS
  1
LWPOLYLINE
  2
AcDbPolyline
  3
AutoCAD 2000
 90
    32768
280
     0
281
     1
  0
CLASS
  1
HATCH
  2
AcDbHatch
  3
AutoCAD 2000
 90
    32768
280
     0
281
     1
  0
CLASS
  1
XRECORD
  2
AcDbXrecord
  3
AutoCAD 2000
 90
    32768
280
     0
281
     0
  0
CLASS
  1
LONG_TRANSACTION
  2
AcDbLongTransaction
  3
AutoCAD 2000
 90
    32768
280
     0
281
     0
  0
CLASS
  1
LWPOLYLINE
  2
AcDbPolyline
  3
AutoCAD 2000
 90
    32768
280
     0
281
     1
  0
CLASS
  1
HATCH
  2
AcDbHatch
  3
AutoCAD 2000
 90
    32768
280
     0
281
     1
  0
CLASS
  1
XRECORD
  2
AcDbXrecord
  3
AutoCAD 2000
 90
    32768
280
     0
281
     0
  0
CLASS
  1
LONG_TRANSACTION
  2
AcDbLongTransaction
  3
AutoCAD 2000
 90
    32768
280
     0
281
     0
  0
CLASS
  1
LWPOLYLINE
  2
AcDbPolyline
  3
AutoCAD 2000
 90
    32768
280
     0
281
     1
  0
CLASS
  1
HATCH
  2
AcDbHatch
  3
AutoCAD 2000
 90
    32768
280
     0
281
     1
  0
CLASS
  1
XRECORD
  2
AcDbXrecord
  3
AutoCAD 2000
 90
    32768
280
     0
281
     0
  0
CLASS
  1
LONG_TRANSACTION
  2
AcDbLongTransaction
  3
AutoCAD 2000
 90
    32768
280
     0
281
     0
  0
CLASS
  1
LWPOLYLINE
  2
AcDbPolyline
  3
AutoCAD 2000
 90
    32768
280
     0
281
     1
  0
CLASS
  1
HATCH
  2
AcDbHatch
  3
AutoCAD 2000
 90
    32768
280
     0
281
     1
  0
CLASS
  1
XRECORD
  2
AcDbXrecord
  3
AutoCAD 2000
 90
    32768
280
     0
281
     0
  0
CLASS
  1
LONG_TRANSACTION
  2
AcDbLongTransaction
  3
AutoCAD 2000
 90
    32768
280
     0
281
     0
  0
CLASS
  1
LWPOLYLINE
  2
AcDbPolyline
  3
AutoCAD 2000
 90
    32768
280
     0
281
     1
  0
CLASS
  1
HATCH
  2
AcDbHatch
  3
AutoCAD 2000
 90
    32768
280
     0
281
     1
  0
CLASS
  1
XRECORD
  2
AcDbXrecord
  3
AutoCAD 2000
 90
    32768
280
     0
281
     0
  0
CLASS
  1
LONG_TRANSACTION
  2
AcDbLongTransaction
  3
AutoCAD 2000
 90
    32768
280
     0
281
     0
  0
CLASS
  1
LWPOLYLINE
  2
AcDbPolyline
  3
AutoCAD 2000
 90
    32768
280
     0
281
     1
  0
CLASS
  1
HATCH
  2
AcDbHatch
  3
AutoCAD 2000
 90
    32768
280
     0
281
     1
  0
CLASS
  1
XRECORD
  2
AcDbXrecord
  3
AutoCAD 2000
 90
    32768
280
     0
281
     0
  0
CLASS
  1
LONG_TRANSACTION
  2
AcDbLongTransaction
  3
AutoCAD 2000
 90
    32768
280
     0
281
     0
  0
CLASS
  1
LWPOLYLINE
  2
AcDbPolyline
  3
AutoCAD 2000
 90
    32768
280
     0
281
     1
  0
CLASS
  1
HATCH
  2
AcDbHatch
  3
AutoCAD 2000
 90
    32768
280
     0
281
     1
  0
CLASS
  1
XRECORD
  2
AcDbXrecord
  3
AutoCAD 2000
 90
    32768
280
     0
281
     0
  0
CLASS
  1
LONG_TRANSACTION
  2
AcDbLongTransaction
  3
AutoCAD 2000
 90
    32768
280
     0
281
     0
  0
CLASS
  1
LWPOLYLINE
  2
AcDbPolyline
  3
AutoCAD 2000
 90
    32768
280
     0
281
     1
  0
CLASS
  1
HATCH
  2
AcDbHatch
  3
AutoCAD 2000
 90
    32768
280
     0
281
     1
  0
CLASS
  1
XRECORD
  2
AcDbXrecord
  3
AutoCAD 2000
 90
    32768
280
     0
281
     0
  0
CLASS
  1
LONG_TRANSACTION
  2
AcDbLongTransaction
  3
AutoCAD 2000
 90
    32768
280
     0
281
     0
  0
CLASS
  1
LWPOLYLINE
  2
AcDbPolyline
  3
AutoCAD 2000
 90
    32768
280
     0
281
     1
  0
CLASS
  1
HATCH
  2
AcDbHatch
  3
AutoCAD 2000
 90
    32768
280
     0
281
     1
  0
CLASS
  1
XRECORD
  2
AcDbXrecord
  3
AutoCAD 2000
 90
    32768
280
     0
281
     0
  0
CLASS
  1
LONG_TRANSACTION
  2
AcDbLongTransaction
  3
AutoCAD 2000
 90
    32768
280
     0
281
     0
  0
CLASS
  1
LWPOLYLINE
  2
AcDbPolyline
  3
AutoCAD 2000
 90
    32768
280
     0
281
     1
  0
CLASS
  1
HATCH
  2
AcDbHatch
  3
AutoCAD 2000
 90
    32768
280
     0
281
     1
  0
CLASS
  1
XRECORD
  2
AcDbXrecord
  3
AutoCAD 2000
 90
    32768
280
     0
281
     0
  0
CLASS
  1
LONG_TRANSACTION
  2
AcDbLongTransaction
  3
AutoCAD 2000
 90
    32768
280
     0
281
     0
  0
CLASS
  1
LWPOLYLINE
  2
AcDbPolyline
  3
AutoCAD 2000
 90
    32768
280
     0
281
     1
  0
CLASS
  1
HATCH
  2
AcDbHatch
  3
AutoCAD 2000
 90
    32768
280
     0
281
     1
  0
CLASS
  1
XRECORD
  2
AcDbXrecord
  3
AutoCAD 2000
 90
    32768
280
     0
281
     0
  0
CLASS
  1
LONG_TRANSACTION
  2
AcDbLongTransaction
  3
AutoCAD 2000
 90
    32768
280
     0
281
     0
  0
CLASS
  1
LWPOLYLINE
  2
AcDbPolyline
  3
AutoCAD 2000
 90
    32768
280
     0
281
     1
  0
CLASS
  1
HATCH
  2
AcDbHatch
  3
AutoCAD 2000
 90
    32768
280
     0
281
     1
  0
CLASS
  1
XRECORD
  2
AcDbXrecord
  3
AutoCAD 2000
 90
    32768
280
     0
281
     0
  0
CLASS
  1
LONG_TRANSACTION
  2
AcDbLongTransaction
  3
AutoCAD 2000
 90
    32768
280
     0
281
     0
  0
CLASS
  1
LWPOLYLINE
  2
AcDbPolyline
  3
AutoCAD 2000
 90
    32768
280
     0
281
     1
  0
CLASS
  1
HATCH
  2
AcDbHatch
  3
AutoCAD 2000
 90
    32768
280
     0
281
     1
  0
CLASS
  1
XRECORD
  2
AcDbXrecord
  3
AutoCAD 2000
 90
    32768
280
     0
281
     0
  0
CLASS
  1
LONG_TRANSACTION
  2
AcDbLongTransaction
  3
AutoCAD 2000
 90
    32768
280
     0
281
     0
  0
CLASS
  1
LWPOLYLINE
  2
AcDbPolyline
  3
AutoCAD 2000
 90
    32768
280
     0
281
     1
  0
CLASS
  1
HATCH
  2
AcDbHatch
  3
AutoCAD 2000
 90
    32768
280
     0
281
     1
  0
CLASS
  1
XRECORD
  2
AcDbXrecord
  3
AutoCAD 2000
 90
    32768
280
     0
281
     0
  0
CLASS
  1
LONG_TRANSACTION
  2
AcDbLongTransaction
  3
AutoCAD 2000
 90
    32768
280
     0
281
     0
  0
CLASS
  1
LWPOLYLINE
  2
AcDbPolyline
  3
AutoCAD 2000
 90
    32768
280
     0
281
     1
  0
CLASS
  1
HATCH
  2
AcDbHatch
  3
AutoCAD 2000
 90
    32768
280
     0
281
     1
  0
CLASS
  1
XRECORD
  2
AcDbXrecord
  3
AutoCAD 2000
 90
    32768
280
     0
281
     0
  0
CLASS
  1
LONG_TRANSACTION
  2
AcDbLongTransaction
  3
AutoCAD 2000
 90
    32768
280
     0
281
     0
  0
CLASS
  1
LWPOLYLINE
  2
AcDbPolyline
  3
AutoCAD 2000
 90
    32768
280
     0
281
     1
  0
CLASS
  1
HATCH
  2
AcDbHatch
  3
AutoCAD 2000
 90
    32768
280
     0
281
     1
  0
CLASS
  1
XRECORD
  2
AcDbXrecord
  3
AutoCAD 2000
 90
    32768
280
     0
281
     0
  0
CLASS
  1
LONG_TRANSACTION
  2
AcDbLongTransaction
  3
AutoCAD 2000
 90
    32768
280
     0
281
     0
  0
CLASS
  1
LWPOLYLINE
  2
AcDbPolyline
  3
AutoCAD 2000
 90
    32768
280
     0
281
     1
  0
CLASS
  1
HATCH
  2
AcDbHatch
  3
AutoCAD 2000
 90
    32768
280
     0
281
     1
  0
CLASS
  1
XRECORD
  2
AcDbXrecord
  3
AutoCAD 2000
 90
    32768
280
     0
281
     0
  0
CLASS
  1
LONG_TRANSACTION
  2
AcDbLongTransaction
  3
AutoCAD 2000
 90
    32768
280
     0
281
     0
  0
CLASS
  1
LWPOLYLINE
  2
AcDbPolyline
  3
AutoCAD 2000
 90
    32768
280
     0
281
     1
  0
CLASS
  1
HATCH
  2
AcDbHatch
  3
AutoCAD 2000
 90
    32768
280
     0
281
     1
  0
CLASS
  1
XRECORD
  2
AcDbXrecord
  3
AutoCAD 2000
 90
    32768
280
     0
281
     0
  0
CLASS
  1
LONG_TRANSACTION
  2
AcDbLongTransaction
  3
AutoCAD 2000
 90
    32768
280
     0
281
     0
  0
CLASS
  1
LWPOLYLINE
  2
AcDbPolyline
  3
AutoCAD 2000
 90
    32768
280
     0
281
     1
  0
CLASS
  1
HATCH
  2
AcDbHatch
  3
AutoCAD 2000
 90
    32768
280
     0
281
     1
  0
CLASS
  1
XRECORD
  2
AcDbXrecord
  3
AutoCAD 2000
 90
    32768
280
     0
281
     0
  0
CLASS
  1
LONG_TRANSACTION
  2
AcDbLongTransaction
  3
AutoCAD 2000
 90
    32768
280
     0
281
     0
  0
CLASS
  1
LWPOLYLINE
  2
AcDbPolyline
  3
AutoCAD 2000
 90
    32768
280
     0
281
     1
  0
CLASS
  1
HATCH
  2
AcDbHatch
  3
AutoCAD 2000
 90
    32768
280
     0
281
     1
  0
CLASS
  1
XRECORD
  2
AcDbXrecord
  3
AutoCAD 2000
 90
    32768
280
     0
281
     0
  0
CLASS
  1
LONG_TRANSACTION
  2
AcDbLongTransaction
  3
AutoCAD 2000
 90
    32768
280
     0
281
     0
  0
CLASS
  1
LWPOLYLINE
  2
AcDbPolyline
  3
AutoCAD 2000
 90
    32768
280
     0
281
     1
  0
CLASS
  1
HATCH
  2
AcDbHatch
  3
AutoCAD 2000
 90
    32768
280
     0
281
     1
  0
CLASS
  1
XRECORD
  2
AcDbXrecord
  3
AutoCAD 2000
 90
    32768
280
     0
281
     0
  0
CLASS
  1
LONG_TRANSACTION
  2
AcDbLongTransaction
  3
AutoCAD 2000
 90
    32768
280
     0
281
     0
  0
CLASS
  1
LWPOLYLINE
  2
AcDbPolyline
  3
AutoCAD 2000
 90
    32768
280
     0
281
     1
  0
CLASS
  1
HATCH
  2
AcDbHatch
  3
AutoCAD 2000
 90
    32768
280
     0
281
     1
  0
CLASS
  1
XRECORD
  2
AcDbXrecord
  3
AutoCAD 2000
 90
    32768
280
     0
281
     0
  0
CLASS
  1
LONG_TRANSACTION
  2
AcDbLongTransaction
  3
AutoCAD 2000
 90
    32768
280
     0
281
     0
  0
CLASS
  1
LWPOLYLINE
  2
AcDbPolyline
  3
AutoCAD 2000
 90
    32768
280
     0
281
     1
  0
CLASS
  1
HATCH
  2
AcDbHatch
  3
AutoCAD 2000
 90
    32768
280
     0
281
     1
  0
CLASS
  1
XRECORD
  2
AcDbXrecord
  3
AutoCAD 2000
 90
    32768
280
     0
281
     0
  0
CLASS
  1
LONG_TRANSACTION
  2
AcDbLongTransaction
  3
AutoCAD 2000
 90
    32768
280
     0
281
     0
  0
CLASS
  1
LWPOLYLINE
  2
AcDbPolyline
  3
AutoCAD 2000
 90
    32768
280
     0
281
     1
  0
CLASS
  1
HATCH
  2
AcDbHatch
  3
AutoCAD 2000
 90
    32768
280
     0
281
     1
  0
CLASS
  1
XRECORD
  2
AcDbXrecord
  3
AutoCAD 2000
 90
    32768
280
     0
281
     0
  0
CLASS
  1
LONG_TRANSACTION
  2
AcDbLongTransaction
  3
AutoCAD 2000
 90
    32768
280
     0
281
     0
  0
CLASS
  1
LWPOLYLINE
  2
AcDbPolyline
  3
AutoCAD 2000
 90
    32768
280
     0
281
     1
  0
CLASS
  1
HATCH
  2
AcDbHatch
  3
AutoCAD 2000
 90
    32768
280
     0
281
     1
  0
CLASS
  1
XRECORD
  2
AcDbXrecord
  3
AutoCAD 2000
 90
    32768
280
     0
281
     0
  0
ENDSEC
  0
SECTION
  2
TABLES
  0
TABLE
  2
VPORT
  5
20
330
0
100
AcDbSymbolTable
 70
     3
  0
VPORT
  5
1047
330
20
100
AcDbSymbolTableRecord
100
AcDbViewportTableRecord
  2
*ACTIVE
 70
     0
 10
0.0
 20
0.0
 11
1.0
 21
1.0
 12
277.7450048465301
 22
132.8587562430148
 13
0.0
 23
0.0
 14
1.0
 24
1.0
 15
0.0
 25
0.0
 16
0.0
 26
0.0
 36
1.0
 17
0.0
 27
0.0
 37
0.0
 40
311.9901541368702
 41
1.60759493670886
 42
50.0
 43
0.0
 44
0.0
 50
0.0
 51
0.0
 71
     0
 72
   100
 73
     1
 74
     0
 75
     0
 76
     0
 77
     0
 78
     0
  0
ENDTAB
  0
TABLE
  2
LTYPE
  5
1B
330
0
100
AcDbSymbolTable
 70
     3
  0
LTYPE
  5
1C
330
1B
100
AcDbSymbolTableRecord
100
AcDbLinetypeTableRecord
  2
BYBLOCK
 70
     0
  3

 72
    65
 73
     0
 40
0.0
  0
LTYPE
  5
1D
330
1B
100
AcDbSymbolTableRecord
100
AcDbLinetypeTableRecord
  2
BYLAYER
 70
     0
  3

 72
    65
 73
     0
 40
0.0
  0
LTYPE
  5
B
330
1B
100
AcDbSymbolTableRecord
100
AcDbLinetypeTableRecord
  2
CONTINUOUS
 70
     0
  3
Solid line
 72
    65
 73
     0
 40
0.0
  0
LTYPE
  5
33
330
1B
100
AcDbSymbolTableRecord
100
AcDbLinetypeTableRecord
  2
CENTER
 70
     0
  3
----- - ----- - ----- - ----- - -----
 72
    65
 73
     4
 40
35.0
 49
30.0
 74
     0
 49
-1.5
 74
     0
 49
2.0
 74
     0
 49
-1.5
 74
     0
  0
LTYPE
  5
2D
330
1B
100
AcDbSymbolTableRecord
100
AcDbLinetypeTableRecord
  2
PHANTOM
 70
     0
  3
----- - - ----- - - ----- - - ----- - - -----
 72
    65
 73
     6
 40
22.5
 49
15.0
 74
     0
 49
-1.5
 74
     0
 49
1.5
 74
     0
 49
-1.5
 74
     0
 49
1.5
 74
     0
 49
-1.5
 74
     0
  0
ENDTAB
  0
TABLE
  2
LAYER
  5
15
102
{ACAD_XDICTIONARY
360
16
102
}
330
0
100
AcDbSymbolTable
 70
     4
  0
LAYER
  5
6
330
15
100
AcDbSymbolTableRecord
100
AcDbLayerTableRecord
  2
0
 70
     0
 62
     7
  6
CONTINUOUS
  0
LAYER
  5
29
330
15
100
AcDbSymbolTableRecord
100
AcDbLayerTableRecord
  2
L-ZISSEN
 70
     0
 62
     7
  6
CONTINUOUS
  0
LAYER
  5
32
330
15
100
AcDbSymbolTableRecord
100
AcDbLayerTableRecord
  2
L-TYUSIN
 70
     0
 62
     1
  6
CENTER
  0
LAYER
  5
2C
330
15
100
AcDbSymbolTableRecord
100
AcDbLayerTableRecord
  2
L-SOUZOU
 70
     0
 62
     2
  6
PHANTOM
  0
ENDTAB
  0
TABLE
  2
STYLE
  5
18
330
0
100
AcDbSymbolTable
 70
     1
  0
STYLE
  5
19
330
18
100
AcDbSymbolTableRecord
100
AcDbTextStyleTableRecord
  2
STANDARD
 70
     0
 40
0.0
 41
1.0
 50
0.0
 71
     0
 42
4.5
  3
txt.shx
  4

  0
ENDTAB
  0
TABLE
  2
VIEW
  5
1E
330
0
100
AcDbSymbolTable
 70
     1
  0
VIEW
  5
53B
330
1E
100
AcDbSymbolTableRecord
100
AcDbViewTableRecord
  2
OLE1
 70
     0
 40
48.97507291767033
 10
253.8509651256854
 20
133.6511787313575
 41
80.05652488795934
 11
0.0
 21
0.0
 31
1.0
 12
0.0
 22
0.0
 32
0.0
 42
50.0
 43
0.0
 44
0.0
 50
0.0
 71
     0
  0
ENDTAB
  0
TABLE
  2
UCS
  5
1F
330
0
100
AcDbSymbolTable
 70
     0
  0
ENDTAB
  0
TABLE
  2
APPID
  5
22
330
0
100
AcDbSymbolTable
 70
     1
  0
APPID
  5
A
330
22
100
AcDbSymbolTableRecord
100
AcDbRegAppTableRecord
  2
ACAD
 70
     0
  0
ENDTAB
  0
TABLE
  2
DIMSTYLE
  5
23
330
0
100
AcDbSymbolTable
 70
     1
  0
DIMSTYLE
105
24
330
23
100
AcDbSymbolTableRecord
100
AcDbDimStyleTableRecord
  2
STANDARD
 70
     0
  3

  4

  5

  6

  7

 40
1.0
 41
0.18
 42
0.0625
 43
0.38
 44
0.18
 45
0.0
 46
0.0
 47
0.0
 48
0.0
140
0.18
141
0.09
142
0.0
143
25.4
144
1.0
145
0.0
146
1.0
147
0.09
 71
     0
 72
     0
 73
     1
 74
     1
 75
     0
 76
     0
 77
     0
 78
     0
170
     0
171
     2
172
     0
173
     0
174
     0
175
     0
176
     0
177
     0
178
     0
270
     2
271
     4
272
     4
273
     2
274
     2
340
19
275
     0
280
     0
281
     0
282
     0
283
     1
284
     0
285
     0
286
     0
287
     3
288
     0
  0
ENDTAB
  0
TABLE
  2
BLOCK_RECORD
  5
1
330
0
100
AcDbSymbolTable
 70
     0
  0
BLOCK_RECORD
  5
2
102
{ACAD_XDICTIONARY
360
3
102
}
330
1
100
AcDbSymbolTableRecord
100
AcDbBlockTableRecord
  2
*MODEL_SPACE
  0
BLOCK_RECORD
  5
F
102
{ACAD_XDICTIONARY
360
10
102
}
330
1
100
AcDbSymbolTableRecord
100
AcDbBlockTableRecord
  2
*PAPER_SPACE
  0
ENDTAB
  0
ENDSEC
  0
SECTION
  2
BLOCKS
  0
BLOCK
  5
5
330
2
100
AcDbEntity
  8
0
100
AcDbBlockBegin
  2
*MODEL_SPACE
 70
     0
 10
0.0
 20
0.0
 30
0.0
  3
*MODEL_SPACE
  1

  0
ENDBLK
  5
C
330
2
100
AcDbEntity
  8
0
100
AcDbBlockEnd
  0
BLOCK
  5
12
330
F
100
AcDbEntity
 67
     1
  8
0
100
AcDbBlockBegin
  2
*PAPER_SPACE
 70
     0
 10
0.0
 20
0.0
 30
0.0
  3
*PAPER_SPACE
  1

  0
ENDBLK
  5
13
330
F
100
AcDbEntity
 67
     1
  8
0
100
AcDbBlockEnd
  0
ENDSEC
  0
SECTION
  2
ENTITIES
  0
LINE
  5
34
330
2
100
AcDbEntity
  8
L-TYUSIN
100
AcDbLine
 10
99.99999999999934
 20
-12.49999999999909
 30
0.0
 11
99.99999999999932
 21
143.0000000000009
 31
0.0
  0
LINE
  5
B4
330
2
100
AcDbEntity
  8
L-TYUSIN
100
AcDbLine
 10
56.99999999999931
 20
250.0
 30
0.0
 11
129.9999999999993
 21
250.0
 31
0.0
  0
LINE
  5
D3
330
2
100
AcDbEntity
  8
L-TYUSIN
100
AcDbLine
 10
99.99999999999932
 20
220.0
 30
0.0
 11
99.99999999999932
 21
280.0
 31
0.0
  0
TEXT
  5
194
330
2
100
AcDbEntity
  8
L-ZISSEN
100
AcDbText
 10
184.801438720566
 20
259.8995614788573
 30
0.0
 40
4.5
  1
MODEL NO. L63- 00-*0**
100
AcDbText
  0
LINE
  5
1D1
330
2
100
AcDbEntity
  8
L-ZISSEN
100
AcDbLine
 10
109.9999999999993
 20
244.3066106747141
 30
0.0
 11
123.9999999999993
 21
247.4103359517152
 31
0.0
  0
CIRCLE
  5
1DA
330
2
100
AcDbEntity
  8
L-ZISSEN
100
AcDbCircle
 10
99.99999999999932
 20
245.1999999999999
 30
0.0
 40
10.0
  0
LINE
  5
1DB
330
2
100
AcDbEntity
  8
L-ZISSEN
100
AcDbLine
 10
89.99999999999932
 20
244.306610674714
 30
0.0
 11
75.9999999999993
 21
247.4103359517152
 31
0.0
  0
CIRCLE
  5
1E6
330
2
100
AcDbEntity
  8
L-ZISSEN
100
AcDbCircle
 10
85.49999999999931
 20
255.25
 30
0.0
 40
5.099999999999999
  0
CIRCLE
  5
1EA
330
2
100
AcDbEntity
  8
L-ZISSEN
100
AcDbCircle
 10
116.4999999999993
 20
255.25
 30
0.0
 40
6.5
  0
LINE
  5
1EC
330
2
100
AcDbEntity
  8
L-ZISSEN
100
AcDbLine
 10
126.4999999999993
 20
73.0
 30
0.0
 11
126.4999999999993
 21
91.0
 31
0.0
  0
LINE
  5
1ED
330
2
100
AcDbEntity
  8
L-ZISSEN
100
AcDbLine
 10
126.4999999999993
 20
91.0
 30
0.0
 11
115.2499999999993
 21
91.00000000000001
 31
0.0
  0
LINE
  5
1EE
330
2
100
AcDbEntity
  8
L-ZISSEN
100
AcDbLine
 10
73.49999999999932
 20
91.0
 30
0.0
 11
73.49999999999932
 21
73.0
 31
0.0
  0
LINE
  5
1F4
330
2
100
AcDbEntity
  8
L-ZISSEN
100
AcDbLine
 10
73.49999999999932
 20
73.0
 30
0.0
 11
126.4999999999993
 21
73.0
 31
0.0
  0
LINE
  5
1F5
330
2
100
AcDbEntity
  8
L-ZISSEN
100
AcDbLine
 10
123.9999999999993
 20
114.0000000000009
 30
0.0
 11
123.9999999999993
 21
91.00000000000001
 31
0.0
  0
LINE
  5
1F7
330
2
100
AcDbEntity
  8
L-ZISSEN
100
AcDbLine
 10
75.99999999999929
 20
114.0000000000009
 30
0.0
 11
75.99999999999929
 21
91.00000000000001
 31
0.0
  0
LINE
  5
1F8
330
2
100
AcDbEntity
  8
L-ZISSEN
100
AcDbLine
 10
123.9999999999993
 20
109.000000000001
 30
0.0
 11
114.9999999999993
 21
109.0000000000011
 31
0.0
  0
LINE
  5
1FA
330
2
100
AcDbEntity
  8
L-ZISSEN
100
AcDbLine
 10
84.74999999999932
 20
91.00000000000001
 30
0.0
 11
73.49999999999932
 21
91.0
 31
0.0
  0
LINE
  5
1FD
330
2
100
AcDbEntity
  8
L-TYUSIN
100
AcDbLine
 10
74.99999999999932
 20
100.0
 30
0.0
 11
124.9999999999993
 21
100.0
 31
0.0
  0
LINE
  5
1FF
330
2
100
AcDbEntity
  8
L-TYUSIN
100
AcDbLine
 10
116.4999999999993
 20
128.1032419684329
 30
0.0
 11
116.4999999999993
 21
109.9775957147205
 31
0.0
  0
LINE
  5
201
330
2
100
AcDbEntity
  8
L-TYUSIN
100
AcDbLine
 10
85.49999999999931
 20
133.0000000000009
 30
0.0
 11
85.49999999999931
 21
108.5275439825765
 31
0.0
  0
LINE
  5
238
330
2
100
AcDbEntity
  8
L-SOUZOU
100
AcDbLine
 10
81.99999999999931
 20
223.4999999999999
 30
0.0
 11
61.99999999999931
 21
223.4999999999999
 31
0.0
  0
LINE
  5
239
330
2
100
AcDbEntity
  8
L-SOUZOU
100
AcDbLine
 10
81.99999999999931
 20
276.5
 30
0.0
 11
61.99999999999931
 21
276.5
 31
0.0
  0
LINE
  5
23A
330
2
100
AcDbEntity
  8
L-SOUZOU
100
AcDbLine
 10
63.79999999999927
 20
223.4999999999999
 30
0.0
 11
63.79999999999927
 21
276.5
 31
0.0
  0
LINE
  5
23B
330
2
100
AcDbEntity
  8
L-SOUZOU
100
AcDbLine
 10
61.99999999999931
 20
223.4999999999999
 30
0.0
 11
61.99999999999931
 21
276.5
 31
0.0
  0
LINE
  5
23C
330
2
100
AcDbEntity
  8
L-TYUSIN
100
AcDbLine
 10
59.49999999999931
 20
230.0000000000009
 30
0.0
 11
66.2999999999995
 21
230.0000000000004
 31
0.0
  0
LINE
  5
23D
330
2
100
AcDbEntity
  8
L-TYUSIN
100
AcDbLine
 10
59.49999999999931
 20
270.0000000000004
 30
0.0
 11
66.2999999999995
 21
270.0000000000004
 31
0.0
  0
LINE
  5
23E
330
2
100
AcDbEntity
  8
L-ZISSEN
100
AcDbLine
 10
75.99999999999932
 20
237.5
 30
0.0
 11
88.24999999999931
 21
233.9873690244548
 31
0.0
  0
LINE
  5
23F
330
2
100
AcDbEntity
  8
L-ZISSEN
100
AcDbLine
 10
73.49999999999932
 20
270.0
 30
0.0
 11
73.49999999999932
 21
230.0
 31
0.0
  0
LINE
  5
240
330
2
100
AcDbEntity
  8
L-ZISSEN
100
AcDbLine
 10
123.9999999999993
 20
237.5
 30
0.0
 11
111.7499999999993
 21
233.9873690244548
 31
0.0
  0
LINE
  5
242
330
2
100
AcDbEntity
  8
L-ZISSEN
100
AcDbLine
 10
88.24999999999887
 20
227.7280556528985
 30
0.0
 11
88.24999999999901
 21
244.6945763343392
 31
0.0
  0
LINE
  5
243
330
2
100
AcDbEntity
  8
L-SOUZOU
100
AcDbLine
 10
73.99999999999931
 20
237.0
 30
0.0
 11
81.99999999999931
 21
235.4999999999999
 31
0.0
  0
LINE
  5
244
330
2
100
AcDbEntity
  8
L-ZISSEN
100
AcDbLine
 10
126.4999999999993
 20
270.0
 30
0.0
 11
126.4999999999993
 21
230.0
 31
0.0
  0
LINE
  5
246
330
2
100
AcDbEntity
  8
L-ZISSEN
100
AcDbLine
 10
111.7499999999993
 20
227.786
 30
0.0
 11
111.7499999999993
 21
244.6945763343392
 31
0.0
  0
LINE
  5
247
330
2
100
AcDbEntity
  8
L-ZISSEN
100
AcDbLine
 10
89.99999999999932
 20
276.5
 30
0.0
 11
89.99999999999932
 21
223.4999999999995
 31
0.0
  0
LINE
  5
248
330
2
100
AcDbEntity
  8
L-ZISSEN
100
AcDbLine
 10
109.9999999999993
 20
276.5
 30
0.0
 11
109.9999999999993
 21
223.4999999999995
 31
0.0
  0
LINE
  5
249
330
2
100
AcDbEntity
  8
L-ZISSEN
100
AcDbLine
 10
84.99999999999932
 20
223.4999999999999
 30
0.0
 11
114.9999999999993
 21
223.4999999999999
 31
0.0
  0
LINE
  5
24A
330
2
100
AcDbEntity
  8
L-ZISSEN
100
AcDbLine
 10
73.49999999999932
 20
230.0
 30
0.0
 11
84.99999999999932
 21
226.7024280637738
 31
0.0
  0
LINE
  5
24B
330
2
100
AcDbEntity
  8
L-ZISSEN
100
AcDbLine
 10
84.99999999999932
 20
223.4999999999999
 30
0.0
 11
84.99999999999932
 21
226.7024280637733
 31
0.0
  0
LINE
  5
24C
330
2
100
AcDbEntity
  8
L-ZISSEN
100
AcDbLine
 10
84.99999999999932
 20
226.0
 30
0.0
 11
88.24999999999931
 21
227.7280556528994
 31
0.0
  0
LINE
  5
24D
330
2
100
AcDbEntity
  8
L-SOUZOU
100
AcDbLine
 10
81.99999999999931
 20
223.4999999999999
 30
0.0
 11
81.99999999999931
 21
235.4999999999999
 31
0.0
  0
CIRCLE
  5
24E
330
2
100
AcDbEntity
  8
L-ZISSEN
100
AcDbCircle
 10
77.99999999999932
 20
232.5000000000004
 30
0.0
 40
1.75
  0
LINE
  5
24F
330
2
100
AcDbEntity
  8
L-ZISSEN
100
AcDbLine
 10
126.4999999999993
 20
230.0
 30
0.0
 11
114.9999999999993
 21
226.7024280637738
 31
0.0
  0
LINE
  5
250
330
2
100
AcDbEntity
  8
L-ZISSEN
100
AcDbLine
 10
114.9999999999993
 20
223.4999999999999
 30
0.0
 11
114.9999999999993
 21
226.7024280637733
 31
0.0
  0
LINE
  5
251
330
2
100
AcDbEntity
  8
L-ZISSEN
100
AcDbLine
 10
114.9999999999993
 20
226.0
 30
0.0
 11
111.7499999999993
 21
227.7280556528994
 31
0.0
  0
CIRCLE
  5
252
330
2
100
AcDbEntity
  8
L-ZISSEN
100
AcDbCircle
 10
121.9999999999993
 20
232.5000000000004
 30
0.0
 40
1.75
  0
LINE
  5
253
330
2
100
AcDbEntity
  8
L-ZISSEN
100
AcDbLine
 10
84.99999999999932
 20
276.5
 30
0.0
 11
114.9999999999993
 21
276.5
 31
0.0
  0
LINE
  5
254
330
2
100
AcDbEntity
  8
L-ZISSEN
100
AcDbLine
 10
75.99999999999932
 20
262.5
 30
0.0
 11
75.99999999999932
 21
237.5
 31
0.0
  0
LINE
  5
255
330
2
100
AcDbEntity
  8
L-ZISSEN
100
AcDbLine
 10
84.99999999999932
 20
274.0
 30
0.0
 11
88.24999999999931
 21
272.2719443471005
 31
0.0
  0
LINE
  5
256
330
2
100
AcDbEntity
  8
L-ZISSEN
100
AcDbLine
 10
84.99999999999932
 20
276.5
 30
0.0
 11
84.99999999999932
 21
273.2975719362266
 31
0.0
  0
LINE
  5
257
330
2
100
AcDbEntity
  8
L-ZISSEN
100
AcDbLine
 10
73.49999999999932
 20
270.0
 30
0.0
 11
84.99999999999932
 21
273.2975719362266
 31
0.0
  0
LINE
  5
258
330
2
100
AcDbEntity
  8
L-ZISSEN
100
AcDbLine
 10
75.99999999999932
 20
262.5
 30
0.0
 11
89.99999999999932
 21
266.5144354006229
 31
0.0
  0
LINE
  5
259
330
2
100
AcDbEntity
  8
L-SOUZOU
100
AcDbLine
 10
81.99999999999931
 20
276.5
 30
0.0
 11
81.99999999999931
 21
264.5
 31
0.0
  0
CIRCLE
  5
25A
330
2
100
AcDbEntity
  8
L-ZISSEN
100
AcDbCircle
 10
77.99999999999932
 20
267.5000000000004
 30
0.0
 40
1.75
  0
LINE
  5
25B
330
2
100
AcDbEntity
  8
L-SOUZOU
100
AcDbLine
 10
73.99999999999931
 20
263.0
 30
0.0
 11
73.99999999999931
 21
237.0
 31
0.0
  0
LINE
  5
25C
330
2
100
AcDbEntity
  8
L-SOUZOU
100
AcDbLine
 10
73.99999999999931
 20
263.0
 30
0.0
 11
81.99999999999931
 21
264.5
 31
0.0
  0
LINE
  5
25D
330
2
100
AcDbEntity
  8
L-ZISSEN
100
AcDbLine
 10
126.4999999999993
 20
270.0
 30
0.0
 11
114.9999999999993
 21
273.2975719362266
 31
0.0
  0
LINE
  5
25E
330
2
100
AcDbEntity
  8
L-ZISSEN
100
AcDbLine
 10
114.9999999999993
 20
276.5
 30
0.0
 11
114.9999999999993
 21
273.2975719362266
 31
0.0
  0
LINE
  5
25F
330
2
100
AcDbEntity
  8
L-ZISSEN
100
AcDbLine
 10
123.9999999999993
 20
262.5
 30
0.0
 11
109.9999999999993
 21
266.514435400623
 31
0.0
  0
LINE
  5
260
330
2
100
AcDbEntity
  8
L-ZISSEN
100
AcDbLine
 10
114.9999999999993
 20
274.0
 30
0.0
 11
111.7499999999993
 21
272.2719443471005
 31
0.0
  0
CIRCLE
  5
261
330
2
100
AcDbEntity
  8
L-ZISSEN
100
AcDbCircle
 10
121.9999999999993
 20
267.5000000000004
 30
0.0
 40
1.75
  0
LINE
  5
262
330
2
100
AcDbEntity
  8
L-ZISSEN
100
AcDbLine
 10
123.9999999999993
 20
262.5
 30
0.0
 11
123.9999999999993
 21
237.5
 31
0.0
  0
LINE
  5
263
330
2
100
AcDbEntity
  8
L-ZISSEN
100
AcDbLine
 10
111.7499999999993
 20
266.0126309755451
 30
0.0
 11
111.7499999999993
 21
272.2139999999999
 31
0.0
  0
LINE
  5
264
330
2
100
AcDbEntity
  8
L-ZISSEN
100
AcDbLine
 10
88.24999999999926
 20
266.012630975545
 30
0.0
 11
88.24999999999931
 21
272.2719443471005
 31
0.0
  0
LINE
  5
39A
330
2
100
AcDbEntity
  8
L-ZISSEN
100
AcDbLine
 10
227.3716918346039
 20
73.00000000000061
 30
0.0
 11
227.3716918346039
 21
5.050457177431027
 31
0.0
  0
LINE
  5
39B
330
2
100
AcDbEntity
  8
L-ZISSEN
100
AcDbLine
 10
272.1899327306041
 20
5.050457177431027
 30
0.0
 11
272.1899327306041
 21
73.00000000000061
 31
0.0
  0
LINE
  5
39C
330
2
100
AcDbEntity
  8
L-ZISSEN
100
AcDbLine
 10
230.7647857142921
 20
66.46580121493086
 30
0.0
 11
230.7647857142923
 21
14.19663833204383
 31
0.0
  0
LINE
  5
39D
330
2
100
AcDbEntity
  8
L-ZISSEN
100
AcDbLine
 10
237.1475000000084
 20
66.46580121493086
 30
0.0
 11
237.1475000000079
 21
14.19663833204337
 31
0.0
  0
LINE
  5
39E
330
2
100
AcDbEntity
  8
L-ZISSEN
100
AcDbLine
 10
262.6632142857231
 20
66.46580121493086
 30
0.0
 11
262.6632142857231
 21
14.19663833204292
 31
0.0
  0
LINE
  5
39F
330
2
100
AcDbEntity
  8
L-ZISSEN
100
AcDbLine
 10
269.0459285714375
 20
66.46580121493086
 30
0.0
 11
269.045928571438
 21
14.19663833204337
 31
0.0
  0
LINE
  5
3A0
330
2
100
AcDbEntity
  8
L-TYUSIN
100
AcDbLine
 10
249.9999999999992
 20
143.0000000000009
 30
0.0
 11
249.9999999999992
 21
-12.49999999999909
 31
0.0
  0
LINE
  5
3E0
330
2
100
AcDbEntity
  8
L-ZISSEN
100
AcDbLine
 10
256.8142857142875
 20
-2.711972412444849
 30
0.0
 11
243.0910714285761
 21
-2.711972412446655
 31
0.0
  0
ARC
  5
3E6
330
2
100
AcDbEntity
  8
L-ZISSEN
100
AcDbCircle
 10
233.4288346917478
 20
5.050457177431027
 30
0.0
 40
6.057142857143803
100
AcDbArc
 50
180.0
 51
256.0937629349095
  0
LINE
  5
3E9
330
2
100
AcDbEntity
  8
L-ZISSEN
100
AcDbLine
 10
243.1857142857133
 20
-3.623270812547914
 30
0.0
 11
243.1857142857133
 21
-2.711972412444836
 31
0.0
  0
LINE
  5
3EA
330
2
100
AcDbEntity
  8
L-ZISSEN
100
AcDbLine
 10
243.1857142857133
 20
-7.499999999999089
 30
0.0
 11
243.1857142857133
 21
-2.711972412444836
 31
0.0
  0
LINE
  5
3F1
330
2
100
AcDbEntity
  8
L-ZISSEN
100
AcDbLine
 10
233.956142857148
 20
12.68235261775787
 30
0.0
 11
230.7647857142921
 21
14.19663833204383
 31
0.0
  0
LINE
  5
3F2
330
2
100
AcDbEntity
  8
L-ZISSEN
100
AcDbLine
 10
237.1475000000079
 20
14.19663833204337
 30
0.0
 11
233.956142857148
 21
12.68235261775787
 31
0.0
  0
ARC
  5
3F3
330
2
100
AcDbEntity
  8
L-ZISSEN
100
AcDbCircle
 10
250.0567627056867
 20
72.18714223613351
 30
0.0
 40
75.22232534366962
100
AcDbArc
 50
256.0896801379934
 51
264.6867195311589
  0
ARC
  5
3F9
330
2
100
AcDbEntity
  8
L-ZISSEN
100
AcDbCircle
 10
248.0885767600587
 20
78.98863509317838
 30
0.0
 40
82.1652436468231
100
AcDbArc
 50
276.0961398375389
 51
283.728772365397
  0
LINE
  5
3FA
330
2
100
AcDbEntity
  8
L-ZISSEN
100
AcDbLine
 10
262.6632142857226
 20
14.19663833204337
 30
0.0
 11
265.8545714285785
 21
12.68235261775787
 31
0.0
  0
LINE
  5
3FC
330
2
100
AcDbEntity
  8
L-ZISSEN
100
AcDbLine
 10
256.8142857142875
 20
-7.499999999999089
 30
0.0
 11
256.8142857142875
 21
-2.711972412444836
 31
0.0
  0
LINE
  5
416
330
2
100
AcDbEntity
  8
L-ZISSEN
100
AcDbLine
 10
265.8545714285785
 20
12.68235261775787
 30
0.0
 11
269.0459285714375
 21
14.19663833204383
 31
0.0
  0
ARC
  5
417
330
2
100
AcDbEntity
  8
L-ZISSEN
100
AcDbCircle
 10
266.1327898734612
 20
5.050457177431027
 30
0.0
 40
6.057142857142908
100
AcDbArc
 50
283.9062370650903
 51
0.0
  0
LINE
  5
418
330
2
100
AcDbEntity
  8
L-SOUZOU
100
AcDbLine
 10
81.99999999999931
 20
91.00000000000092
 30
0.0
 11
61.99999999999931
 21
91.00000000000092
 31
0.0
  0
LINE
  5
419
330
2
100
AcDbEntity
  8
L-SOUZOU
100
AcDbLine
 10
81.99999999999931
 20
92.80000000000109
 30
0.0
 11
63.79999999999927
 21
92.80000000000109
 31
0.0
  0
LINE
  5
41A
330
2
100
AcDbEntity
  8
L-SOUZOU
100
AcDbLine
 10
61.99999999999931
 20
91.00000000000092
 30
0.0
 11
61.99999999999931
 21
132.5000000000009
 31
0.0
  0
LINE
  5
41B
330
2
100
AcDbEntity
  8
L-SOUZOU
100
AcDbLine
 10
63.79999999999927
 20
92.80000000000109
 30
0.0
 11
63.79999999999927
 21
132.5000000000009
 31
0.0
  0
LINE
  5
41C
330
2
100
AcDbEntity
  8
L-TYUSIN
100
AcDbLine
 10
59.49999999999931
 20
125.2500000000009
 30
0.0
 11
66.29999999999927
 21
125.2500000000009
 31
0.0
  0
LINE
  5
41D
330
2
100
AcDbEntity
  8
L-SOUZOU
100
AcDbLine
 10
61.99999999999931
 20
132.5000000000009
 30
0.0
 11
63.79999999999927
 21
132.5000000000009
 31
0.0
  0
LINE
  5
427
330
2
100
AcDbEntity
  8
L-SOUZOU
100
AcDbLine
 10
81.99999999999931
 20
91.00000000000092
 30
0.0
 11
81.99999999999931
 21
92.80000000000109
 31
0.0
  0
LINE
  5
445
330
2
100
AcDbEntity
  8
L-ZISSEN
100
AcDbLine
 10
227.4999999999992
 20
112.485714285715
 30
0.0
 11
244.0000214285708
 21
112.485714285715
 31
0.0
  0
LINE
  5
447
330
2
100
AcDbEntity
  8
L-ZISSEN
100
AcDbLine
 10
249.9999999999992
 20
52.45245553373813
 30
0.0
 11
241.8095319999995
 21
54.63658033373819
 31
0.0
  0
LINE
  5
448
330
2
100
AcDbEntity
  8
L-ZISSEN
100
AcDbLine
 10
249.9999999999992
 20
57.54874673373858
 30
0.0
 11
242.3555631999999
 21
58.64080913373861
 31
0.0
  0
LINE
  5
449
330
2
100
AcDbEntity
  8
L-ZISSEN
100
AcDbLine
 10
249.9999999999992
 20
57.06464434971592
 30
0.0
 11
243.0606376299367
 21
58.05598183115368
 31
0.0
  0
LINE
  5
44A
330
2
100
AcDbEntity
  8
L-ZISSEN
100
AcDbLine
 10
243.0606376299367
 20
55.39838820549691
 30
0.0
 11
249.9999999999992
 21
53.94559110895504
 31
0.0
  0
LINE
  5
44B
330
2
100
AcDbEntity
  8
L-ZISSEN
100
AcDbLine
 10
241.8095319999995
 20
72.83762033373811
 30
0.0
 11
258.190468
 21
72.83762033373811
 31
0.0
  0
LINE
  5
44C
330
2
100
AcDbEntity
  8
L-ZISSEN
100
AcDbLine
 10
257.6444367999995
 20
72.83762033373811
 30
0.0
 11
242.3555631999999
 21
72.83762033373811
 31
0.0
  0
LINE
  5
44D
330
2
100
AcDbEntity
  8
L-ZISSEN
100
AcDbLine
 10
258.9185095999994
 20
72.83762033373811
 30
0.0
 11
241.0814903999991
 21
72.83762033373811
 31
0.0
  0
LINE
  5
44E
330
2
100
AcDbEntity
  8
L-ZISSEN
100
AcDbLine
 10
248.1798959999966
 20
69.19741233373558
 30
0.0
 11
245.2677295999967
 21
69.19741233373558
 31
0.0
  0
LINE
  5
44F
330
2
100
AcDbEntity
  8
L-ZISSEN
100
AcDbLine
 10
248.1798959999966
 20
69.19741233373558
 30
0.0
 11
245.2677295999967
 21
69.19741233373558
 31
0.0
  0
LINE
  5
450
330
2
100
AcDbEntity
  8
L-ZISSEN
100
AcDbLine
 10
248.1798959999966
 20
68.46937073373571
 30
0.0
 11
245.2677295999967
 21
68.46937073373571
 31
0.0
  0
LINE
  5
451
330
2
100
AcDbEntity
  8
L-ZISSEN
100
AcDbLine
 10
248.1798959999966
 20
68.46937073373571
 30
0.0
 11
245.2677295999967
 21
68.46937073373571
 31
0.0
  0
LINE
  5
452
330
2
100
AcDbEntity
  8
L-SOUZOU
100
AcDbLine
 10
276.4999999999993
 20
92.80000000000079
 30
0.0
 11
223.4999999999992
 21
92.80000000000079
 31
0.0
  0
LINE
  5
453
330
2
100
AcDbEntity
  8
L-SOUZOU
100
AcDbLine
 10
276.4999999999993
 20
91.00000000000061
 30
0.0
 11
223.4999999999992
 21
91.00000000000061
 31
0.0
  0
LINE
  5
454
330
2
100
AcDbEntity
  8
L-SOUZOU
100
AcDbLine
 10
223.4999999999992
 20
132.5000000000005
 30
0.0
 11
276.4999999999993
 21
132.5000000000005
 31
0.0
  0
LINE
  5
455
330
2
100
AcDbEntity
  8
L-ZISSEN
100
AcDbLine
 10
223.4999999999992
 20
114.0000000000005
 30
0.0
 11
276.4999999999993
 21
114.0000000000005
 31
0.0
  0
LINE
  5
456
330
2
100
AcDbEntity
  8
L-TYUSIN
100
AcDbLine
 10
280.2857142857137
 20
100.0000000000005
 30
0.0
 11
219.7142857142853
 21
99.99999999999969
 31
0.0
  0
LINE
  5
457
330
2
100
AcDbEntity
  8
L-ZISSEN
100
AcDbLine
 10
223.4999999999992
 20
73.00000000000061
 30
0.0
 11
276.5000000000009
 21
73.00000000000061
 31
0.0
  0
LINE
  5
458
330
2
100
AcDbEntity
  8
L-ZISSEN
100
AcDbLine
 10
225.7714285714275
 20
91.00000000000061
 30
0.0
 11
274.2285714285708
 21
91.00000000000061
 31
0.0
  0
LINE
  5
459
330
2
100
AcDbEntity
  8
L-SOUZOU
100
AcDbLine
 10
223.4999999999992
 20
91.00000000000061
 30
0.0
 11
223.4999999999992
 21
132.5000000000005
 31
0.0
  0
LINE
  5
45A
330
2
100
AcDbEntity
  8
L-ZISSEN
100
AcDbLine
 10
223.4999999999992
 20
86.5000000000006
 30
0.0
 11
223.4999999999992
 21
114.0000000000005
 31
0.0
  0
LINE
  5
45B
330
2
100
AcDbEntity
  8
L-ZISSEN
100
AcDbLine
 10
225.7714285714278
 20
109.4571428571431
 30
0.0
 11
225.7714285714278
 21
91.00000000000061
 31
0.0
  0
LINE
  5
45C
330
2
100
AcDbEntity
  8
L-ZISSEN
100
AcDbLine
 10
227.4999999999992
 20
112.485714285715
 30
0.0
 11
227.4999999999992
 21
91.00000000000061
 31
0.0
  0
LINE
  5
45D
330
2
100
AcDbEntity
  8
L-ZISSEN
100
AcDbLine
 10
237.4999999999992
 20
109.0000000000006
 30
0.0
 11
237.4999999999992
 21
91.00000000000061
 31
0.0
  0
LINE
  5
45E
330
2
100
AcDbEntity
  8
L-ZISSEN
100
AcDbLine
 10
234.0000214285709
 20
91.00000000000061
 30
0.0
 11
234.0000214285708
 21
109.0000000000006
 31
0.0
  0
LINE
  5
45F
330
2
100
AcDbEntity
  8
L-ZISSEN
100
AcDbLine
 10
223.4999999999995
 20
86.50000000000016
 30
0.0
 11
225.4999999999995
 21
86.5000000000006
 31
0.0
  0
LINE
  5
460
330
2
100
AcDbEntity
  8
L-ZISSEN
100
AcDbLine
 10
223.4999999999992
 20
83.3000000000008
 30
0.0
 11
225.4999999999992
 21
83.3000000000008
 31
0.0
  0
LINE
  5
461
330
2
100
AcDbEntity
  8
L-ZISSEN
100
AcDbLine
 10
223.4999999999995
 20
73.00000000000015
 30
0.0
 11
223.4999999999992
 21
83.3000000000008
 31
0.0
  0
LINE
  5
462
330
2
100
AcDbEntity
  8
L-ZISSEN
100
AcDbLine
 10
225.4999999999992
 20
83.3000000000008
 30
0.0
 11
225.4999999999992
 21
86.50000000000016
 31
0.0
  0
LINE
  5
463
330
2
100
AcDbEntity
  8
L-ZISSEN
100
AcDbLine
 10
226.1499999999978
 20
73.00000000000061
 30
0.0
 11
226.1499999999982
 21
91.00000000000061
 31
0.0
  0
LINE
  5
464
330
2
100
AcDbEntity
  8
L-ZISSEN
100
AcDbLine
 10
229.1785714285719
 20
73.00000000000061
 30
0.0
 11
229.1785714285719
 21
91.00000000000061
 31
0.0
  0
LINE
  5
465
330
2
100
AcDbEntity
  8
L-ZISSEN
100
AcDbLine
 10
241.0814903999991
 20
72.83762033373811
 30
0.0
 11
241.0814903999991
 21
73.00000000000061
 31
0.0
  0
LINE
  5
466
330
2
100
AcDbEntity
  8
L-ZISSEN
100
AcDbLine
 10
242.3555631999999
 20
72.83762033373811
 30
0.0
 11
242.3555631999999
 21
58.64080913373861
 31
0.0
  0
LINE
  5
467
330
2
100
AcDbEntity
  8
L-ZISSEN
100
AcDbLine
 10
241.0814903999991
 20
49.27232782548405
 30
0.0
 11
241.0814903999991
 21
72.83762033373811
 31
0.0
  0
LINE
  5
468
330
2
100
AcDbEntity
  8
L-ZISSEN
100
AcDbLine
 10
241.8095319999995
 20
72.83762033373811
 30
0.0
 11
241.8095319999995
 21
54.63658033373819
 31
0.0
  0
LINE
  5
469
330
2
100
AcDbEntity
  8
L-ZISSEN
100
AcDbLine
 10
241.8095319999995
 20
72.83762033373811
 30
0.0
 11
241.8095319999995
 21
58.98195465283577
 31
0.0
  0
LINE
  5
46A
330
2
100
AcDbEntity
  8
L-ZISSEN
100
AcDbLine
 10
244.7138187578986
 20
53.80565387722588
 30
0.0
 11
244.7138187578986
 21
49.27232782548405
 31
0.0
  0
LINE
  5
46B
330
2
100
AcDbEntity
  8
L-ZISSEN
100
AcDbLine
 10
243.0606376299367
 20
58.05598183115368
 30
0.0
 11
243.0606376299367
 21
55.39838820549691
 31
0.0
  0
LINE
  5
46C
330
2
100
AcDbEntity
  8
L-ZISSEN
100
AcDbLine
 10
243.0606376299367
 20
58.05598183115368
 30
0.0
 11
242.3555631999999
 21
58.64080913373861
 31
0.0
  0
LINE
  5
46D
330
2
100
AcDbEntity
  8
L-ZISSEN
100
AcDbLine
 10
243.0606376299367
 20
58.54008421517544
 30
0.0
 11
242.3555631999999
 21
58.64080913373861
 31
0.0
  0
LINE
  5
46E
330
2
100
AcDbEntity
  8
L-ZISSEN
100
AcDbLine
 10
244.7138187578986
 20
49.27232782548405
 30
0.0
 11
241.0814903999991
 21
49.27232782548405
 31
0.0
  0
LINE
  5
46F
330
2
100
AcDbEntity
  8
L-ZISSEN
100
AcDbLine
 10
241.8095319999995
 20
54.63658033373819
 30
0.0
 11
243.0606376299367
 21
55.39838820549691
 31
0.0
  0
LINE
  5
470
330
2
100
AcDbEntity
  8
L-ZISSEN
100
AcDbLine
 10
245.2677295999967
 20
69.19741233373558
 30
0.0
 11
245.2677295999967
 21
69.92545393373591
 31
0.0
  0
LINE
  5
471
330
2
100
AcDbEntity
  8
L-ZISSEN
100
AcDbLine
 10
245.2677295999967
 20
69.92545393373591
 30
0.0
 11
243.4476255999968
 21
68.83339153373587
 31
0.0
  0
LINE
  5
472
330
2
100
AcDbEntity
  8
L-ZISSEN
100
AcDbLine
 10
245.2677295999967
 20
68.46937073373571
 30
0.0
 11
245.2677295999967
 21
67.74132913373584
 31
0.0
  0
LINE
  5
473
330
2
100
AcDbEntity
  8
L-ZISSEN
100
AcDbLine
 10
245.2677295999967
 20
67.74132913373584
 30
0.0
 11
243.4476255999968
 21
68.83339153373587
 31
0.0
  0
LINE
  5
474
330
2
100
AcDbEntity
  8
L-ZISSEN
100
AcDbLine
 10
230.7647857142921
 20
66.46580121493086
 30
0.0
 11
237.1475000000084
 21
66.46580121493086
 31
0.0
  0
LINE
  5
475
330
2
100
AcDbEntity
  8
L-TYUSIN
100
AcDbLine
 10
223.4999999999992
 20
125.2500000000005
 30
0.0
 11
236.4999999999993
 21
125.2500000000005
 31
0.0
  0
LINE
  5
476
330
2
100
AcDbEntity
  8
L-SOUZOU
100
AcDbLine
 10
229.2499999999992
 20
128.5000000000005
 30
0.0
 11
230.7499999999993
 21
128.5000000000005
 31
0.0
  0
LINE
  5
477
330
2
100
AcDbEntity
  8
L-SOUZOU
100
AcDbLine
 10
229.2499999999992
 20
122.0000000000005
 30
0.0
 11
230.7499999999993
 21
122.0000000000005
 31
0.0
  0
LINE
  5
478
330
2
100
AcDbEntity
  8
L-ZISSEN
100
AcDbLine
 10
223.4999999999992
 20
109.4571428571431
 30
0.0
 11
225.7714285714278
 21
109.4571428571431
 31
0.0
  0
LINE
  5
479
330
2
100
AcDbEntity
  8
L-ZISSEN
100
AcDbLine
 10
223.4999999999992
 20
114.0000000000005
 30
0.0
 11
227.2857142857135
 21
114.0000000000005
 31
0.0
  0
LINE
  5
47A
330
2
100
AcDbEntity
  8
L-ZISSEN
100
AcDbLine
 10
223.4999999999992
 20
114.0000000000005
 30
0.0
 11
223.4999999999992
 21
109.4571428571431
 31
0.0
  0
ARC
  5
47B
330
2
100
AcDbEntity
  8
L-SOUZOU
100
AcDbCircle
 10
229.2499999999992
 20
125.2500000000005
 30
0.0
 40
3.25
100
AcDbArc
 50
90.0
 51
270.0
  0
LINE
  5
47C
330
2
100
AcDbEntity
  8
L-TYUSIN
100
AcDbLine
 10
229.9999999999993
 20
131.0000000000006
 30
0.0
 11
229.9999999999993
 21
119.5000000000006
 31
0.0
  0
LINE
  5
47D
330
2
100
AcDbEntity
  8
L-ZISSEN
100
AcDbLine
 10
225.7714285714278
 20
109.4571428571431
 30
0.0
 11
227.4999999999992
 21
112.485714285715
 31
0.0
  0
ARC
  5
47E
330
2
100
AcDbEntity
  8
L-SOUZOU
100
AcDbCircle
 10
230.7499999999993
 20
125.2500000000005
 30
0.0
 40
3.25
100
AcDbArc
 50
270.0
 51
90.0
  0
LINE
  5
47F
330
2
100
AcDbEntity
  8
L-SOUZOU
100
AcDbLine
 10
276.4999999999993
 20
132.5000000000005
 30
0.0
 11
276.4999999999993
 21
91.00000000000061
 31
0.0
  0
LINE
  5
480
330
2
100
AcDbEntity
  8
L-ZISSEN
100
AcDbLine
 10
276.4999999999993
 20
109.457142857144
 30
0.0
 11
276.4999999999993
 21
87.12142857143014
 31
0.0
  0
LINE
  5
481
330
2
100
AcDbEntity
  8
L-ZISSEN
100
AcDbLine
 10
274.2285714285708
 20
109.457142857144
 30
0.0
 11
274.2285714285708
 21
91.00000000000061
 31
0.0
  0
LINE
  5
482
330
2
100
AcDbEntity
  8
L-ZISSEN
100
AcDbLine
 10
272.4999999999993
 20
112.485714285715
 30
0.0
 11
272.5000000000008
 21
90.99999999999971
 31
0.0
  0
LINE
  5
483
330
2
100
AcDbEntity
  8
L-ZISSEN
100
AcDbLine
 10
262.4999999999993
 20
114.0000000000006
 30
0.0
 11
262.4999999999993
 21
91.00000000000061
 31
0.0
  0
LINE
  5
484
330
2
100
AcDbEntity
  8
L-ZISSEN
100
AcDbLine
 10
265.9999785714294
 20
91.00000000000061
 30
0.0
 11
265.9999785714276
 21
114.0000000000006
 31
0.0
  0
LINE
  5
485
330
2
100
AcDbEntity
  8
L-ZISSEN
100
AcDbLine
 10
269.0459285714375
 20
66.46580121493086
 30
0.0
 11
262.6632142857231
 21
66.46580121493086
 31
0.0
  0
LINE
  5
486
330
2
100
AcDbEntity
  8
L-ZISSEN
100
AcDbLine
 10
258.9185095999992
 20
73.00000000000061
 30
0.0
 11
258.9185095999994
 21
72.83762033373811
 31
0.0
  0
LINE
  5
487
330
2
100
AcDbEntity
  8
L-ZISSEN
100
AcDbLine
 10
255.2861812420978
 20
53.80565387722588
 30
0.0
 11
255.2861812420978
 21
49.27232782548405
 31
0.0
  0
LINE
  5
488
330
2
100
AcDbEntity
  8
L-ZISSEN
100
AcDbLine
 10
249.9999999999992
 20
52.45245553373813
 30
0.0
 11
249.9999999999992
 21
57.54874673373858
 31
0.0
  0
LINE
  5
489
330
2
100
AcDbEntity
  8
L-ZISSEN
100
AcDbLine
 10
249.9999999999992
 20
52.45245553373813
 30
0.0
 11
249.9999999999992
 21
57.06464434971592
 31
0.0
  0
LINE
  5
48A
330
2
100
AcDbEntity
  8
L-ZISSEN
100
AcDbLine
 10
250.7280415999982
 20
64.82916273373728
 30
0.0
 11
252.1841247999982
 21
64.82916273373728
 31
0.0
  0
LINE
  5
48B
330
2
100
AcDbEntity
  8
L-ZISSEN
100
AcDbLine
 10
252.1841247999982
 20
64.82916273373728
 30
0.0
 11
249.9999999999981
 21
61.18895473373747
 31
0.0
  0
LINE
  5
48C
330
2
100
AcDbEntity
  8
L-ZISSEN
100
AcDbLine
 10
249.2719583999982
 20
64.82916273373728
 30
0.0
 11
247.8158751999983
 21
64.82916273373728
 31
0.0
  0
LINE
  5
48D
330
2
100
AcDbEntity
  8
L-ZISSEN
100
AcDbLine
 10
247.8158751999983
 20
64.82916273373728
 30
0.0
 11
249.9999999999981
 21
61.18895473373747
 31
0.0
  0
LINE
  5
48E
330
2
100
AcDbEntity
  8
L-ZISSEN
100
AcDbLine
 10
258.190468
 20
54.63658033373819
 30
0.0
 11
256.9393623700609
 21
55.39838820549691
 31
0.0
  0
LINE
  5
48F
330
2
100
AcDbEntity
  8
L-ZISSEN
100
AcDbLine
 10
256.9393623700609
 20
58.54008421517544
 30
0.0
 11
257.6444367999995
 21
58.64080913373861
 31
0.0
  0
LINE
  5
490
330
2
100
AcDbEntity
  8
L-ZISSEN
100
AcDbLine
 10
256.9393623700609
 20
58.05598183115368
 30
0.0
 11
257.6444367999995
 21
58.64080913373861
 31
0.0
  0
LINE
  5
491
330
2
100
AcDbEntity
  8
L-ZISSEN
100
AcDbLine
 10
256.9393623700609
 20
58.05598183115368
 30
0.0
 11
256.9393623700609
 21
55.39838820549691
 31
0.0
  0
LINE
  5
492
330
2
100
AcDbEntity
  8
L-ZISSEN
100
AcDbLine
 10
254.7322704000009
 20
69.92545393373591
 30
0.0
 11
256.5523744000008
 21
68.83339153373587
 31
0.0
  0
LINE
  5
493
330
2
100
AcDbEntity
  8
L-ZISSEN
100
AcDbLine
 10
254.7322704000009
 20
67.74132913373584
 30
0.0
 11
256.5523744000008
 21
68.83339153373587
 31
0.0
  0
LINE
  5
494
330
2
100
AcDbEntity
  8
L-ZISSEN
100
AcDbLine
 10
254.7322704000009
 20
69.19741233373558
 30
0.0
 11
254.7322704000009
 21
69.92545393373591
 31
0.0
  0
LINE
  5
495
330
2
100
AcDbEntity
  8
L-ZISSEN
100
AcDbLine
 10
254.7322704000009
 20
68.46937073373571
 30
0.0
 11
254.7322704000009
 21
67.74132913373584
 31
0.0
  0
LINE
  5
496
330
2
100
AcDbEntity
  8
L-ZISSEN
100
AcDbLine
 10
251.820104000001
 20
69.19741233373558
 30
0.0
 11
251.820104000001
 21
68.46937073373571
 31
0.0
  0
LINE
  5
497
330
2
100
AcDbEntity
  8
L-ZISSEN
100
AcDbLine
 10
251.820104000001
 20
69.19741233373558
 30
0.0
 11
254.7322704000009
 21
69.19741233373558
 31
0.0
  0
LINE
  5
498
330
2
100
AcDbEntity
  8
L-ZISSEN
100
AcDbLine
 10
251.820104000001
 20
69.19741233373558
 30
0.0
 11
254.7322704000009
 21
69.19741233373558
 31
0.0
  0
LINE
  5
499
330
2
100
AcDbEntity
  8
L-ZISSEN
100
AcDbLine
 10
251.820104000001
 20
68.46937073373571
 30
0.0
 11
254.7322704000009
 21
68.46937073373571
 31
0.0
  0
LINE
  5
49A
330
2
100
AcDbEntity
  8
L-ZISSEN
100
AcDbLine
 10
251.820104000001
 20
68.46937073373571
 30
0.0
 11
254.7322704000009
 21
68.46937073373571
 31
0.0
  0
LINE
  5
49B
330
2
100
AcDbEntity
  8
L-ZISSEN
100
AcDbLine
 10
248.1798959999966
 20
69.19741233373558
 30
0.0
 11
248.1798959999966
 21
68.46937073373571
 31
0.0
  0
LINE
  5
49C
330
2
100
AcDbEntity
  8
L-ZISSEN
100
AcDbLine
 10
250.7280415999982
 20
70.6534955337376
 30
0.0
 11
249.2719583999982
 21
70.6534955337376
 31
0.0
  0
LINE
  5
49D
330
2
100
AcDbEntity
  8
L-ZISSEN
100
AcDbLine
 10
258.9185095999973
 20
49.27232782548405
 30
0.0
 11
258.9185095999973
 21
72.83762033373811
 31
0.0
  0
LINE
  5
49E
330
2
100
AcDbEntity
  8
L-ZISSEN
100
AcDbLine
 10
258.190468
 20
72.83762033373811
 30
0.0
 11
258.190468
 21
58.98195465283577
 31
0.0
  0
LINE
  5
49F
330
2
100
AcDbEntity
  8
L-ZISSEN
100
AcDbLine
 10
257.6444367999995
 20
72.83762033373811
 30
0.0
 11
257.6444367999995
 21
58.64080913373861
 31
0.0
  0
LINE
  5
4A0
330
2
100
AcDbEntity
  8
L-ZISSEN
100
AcDbLine
 10
258.190468
 20
72.83762033373811
 30
0.0
 11
258.190468
 21
54.63658033373819
 31
0.0
  0
LINE
  5
4A1
330
2
100
AcDbEntity
  8
L-ZISSEN
100
AcDbLine
 10
250.7280415999982
 20
70.6534955337376
 30
0.0
 11
250.7280415999982
 21
64.82916273373728
 31
0.0
  0
LINE
  5
4A2
330
2
100
AcDbEntity
  8
L-ZISSEN
100
AcDbLine
 10
250.7280415999982
 20
70.6534955337376
 30
0.0
 11
250.7280415999982
 21
64.82916273373728
 31
0.0
  0
LINE
  5
4A3
330
2
100
AcDbEntity
  8
L-ZISSEN
100
AcDbLine
 10
249.2719583999982
 20
70.6534955337376
 30
0.0
 11
249.2719583999982
 21
64.82916273373728
 31
0.0
  0
LINE
  5
4A4
330
2
100
AcDbEntity
  8
L-ZISSEN
100
AcDbLine
 10
249.2719583999982
 20
70.6534955337376
 30
0.0
 11
249.2719583999982
 21
64.82916273373728
 31
0.0
  0
LINE
  5
4A5
330
2
100
AcDbEntity
  8
L-ZISSEN
100
AcDbLine
 10
255.2861812420978
 20
49.27232782548405
 30
0.0
 11
258.9185095999973
 21
49.27232782548405
 31
0.0
  0
LINE
  5
4A6
330
2
100
AcDbEntity
  8
L-ZISSEN
100
AcDbLine
 10
249.9999999999992
 20
52.45245553373813
 30
0.0
 11
258.190468
 21
54.63658033373819
 31
0.0
  0
LINE
  5
4A7
330
2
100
AcDbEntity
  8
L-ZISSEN
100
AcDbLine
 10
249.9999999999992
 20
57.54874673373858
 30
0.0
 11
257.6444367999995
 21
58.64080913373861
 31
0.0
  0
LINE
  5
4A8
330
2
100
AcDbEntity
  8
L-ZISSEN
100
AcDbLine
 10
249.9999999999992
 20
57.06464434971592
 30
0.0
 11
256.9393623700609
 21
58.05598183115368
 31
0.0
  0
LINE
  5
4A9
330
2
100
AcDbEntity
  8
L-ZISSEN
100
AcDbLine
 10
256.9393623700609
 20
55.39838820549691
 30
0.0
 11
249.9999999999992
 21
53.94559110895504
 31
0.0
  0
LINE
  5
4AA
330
2
100
AcDbEntity
  8
L-ZISSEN
100
AcDbLine
 10
276.4999999999993
 20
87.12142857143014
 30
0.0
 11
274.6071428571435
 21
87.12142857143014
 31
0.0
  0
LINE
  5
4AB
330
2
100
AcDbEntity
  8
L-ZISSEN
100
AcDbLine
 10
276.4999999999993
 20
84.47142857143051
 30
0.0
 11
274.6071428571435
 21
84.47142857143051
 31
0.0
  0
LINE
  5
4AC
330
2
100
AcDbEntity
  8
L-ZISSEN
100
AcDbLine
 10
276.5000000000006
 20
73.00000000000061
 30
0.0
 11
276.4999999999993
 21
84.47142857143051
 31
0.0
  0
LINE
  5
4AD
330
2
100
AcDbEntity
  8
L-ZISSEN
100
AcDbLine
 10
274.6071428571435
 20
84.47142857143051
 30
0.0
 11
274.6071428571435
 21
87.12142857143014
 31
0.0
  0
LINE
  5
4AE
330
2
100
AcDbEntity
  8
L-ZISSEN
100
AcDbLine
 10
273.8500000000021
 20
73.00000000000061
 30
0.0
 11
273.8500000000024
 21
91.00000000000061
 31
0.0
  0
LINE
  5
4AF
330
2
100
AcDbEntity
  8
L-ZISSEN
100
AcDbLine
 10
270.8214285714293
 20
73.00000000000061
 30
0.0
 11
270.8214285714277
 21
91.00000000000061
 31
0.0
  0
LINE
  5
4B0
330
2
100
AcDbEntity
  8
L-TYUSIN
100
AcDbLine
 10
263.4999999999993
 20
125.2500000000005
 30
0.0
 11
276.4999999999993
 21
125.2500000000005
 31
0.0
  0
LINE
  5
4B1
330
2
100
AcDbEntity
  8
L-ZISSEN
100
AcDbLine
 10
276.4999999999993
 20
114.0000000000005
 30
0.0
 11
276.4999999999993
 21
109.457142857144
 31
0.0
  0
LINE
  5
4B2
330
2
100
AcDbEntity
  8
L-ZISSEN
100
AcDbLine
 10
276.4999999999993
 20
109.457142857144
 30
0.0
 11
274.2285714285708
 21
109.457142857144
 31
0.0
  0
LINE
  5
4B3
330
2
100
AcDbEntity
  8
L-SOUZOU
100
AcDbLine
 10
269.2499999999993
 20
122.0000000000005
 30
0.0
 11
270.7499999999993
 21
122.0000000000005
 31
0.0
  0
LINE
  5
4B4
330
2
100
AcDbEntity
  8
L-SOUZOU
100
AcDbLine
 10
269.2499999999993
 20
128.5000000000005
 30
0.0
 11
270.7499999999993
 21
128.5000000000005
 31
0.0
  0
ARC
  5
4B5
330
2
100
AcDbEntity
  8
L-SOUZOU
100
AcDbCircle
 10
269.2499999999993
 20
125.2500000000005
 30
0.0
 40
3.25
100
AcDbArc
 50
90.0
 51
270.0
  0
LINE
  5
4B6
330
2
100
AcDbEntity
  8
L-TYUSIN
100
AcDbLine
 10
269.9999999999993
 20
131.0000000000006
 30
0.0
 11
269.9999999999993
 21
119.5000000000006
 31
0.0
  0
ARC
  5
4B7
330
2
100
AcDbEntity
  8
L-SOUZOU
100
AcDbCircle
 10
270.7499999999993
 20
125.2500000000005
 30
0.0
 40
3.25
100
AcDbArc
 50
270.0
 51
90.0
  0
LINE
  5
4B8
330
2
100
AcDbEntity
  8
L-ZISSEN
100
AcDbLine
 10
272.4999999999993
 20
112.485714285715
 30
0.0
 11
274.2285714285708
 21
109.457142857144
 31
0.0
  0
CIRCLE
  5
4BC
330
2
100
AcDbEntity
  8
L-ZISSEN
100
AcDbCircle
 10
100.0
 20
100.0
 30
0.0
 40
7.474999999999999
  0
LINE
  5
4BD
330
2
100
AcDbEntity
  8
L-ZISSEN
100
AcDbLine
 10
84.99999999999932
 20
73.00000000000091
 30
0.0
 11
84.99999999999932
 21
109.0000000000009
 31
0.0
  0
LINE
  5
4BE
330
2
100
AcDbEntity
  8
L-ZISSEN
100
AcDbLine
 10
114.9999999999993
 20
73.00000000000091
 30
0.0
 11
114.9999999999993
 21
109.0000000000009
 31
0.0
  0
LINE
  5
4BF
330
2
100
AcDbEntity
  8
L-ZISSEN
100
AcDbLine
 10
84.99999999999932
 20
83.3000000000011
 30
0.0
 11
114.9999999999993
 21
83.3000000000011
 31
0.0
  0
LINE
  5
4C0
330
2
100
AcDbEntity
  8
L-ZISSEN
100
AcDbLine
 10
84.99999999999932
 20
86.50000000000137
 30
0.0
 11
114.9999999999993
 21
86.50000000000046
 31
0.0
  0
LINE
  5
4C1
330
2
100
AcDbEntity
  8
L-ZISSEN
100
AcDbLine
 10
89.99999999999932
 20
114.0000000000009
 30
0.0
 11
109.9999999999993
 21
114.0000000000009
 31
0.0
  0
LINE
  5
4C2
330
2
100
AcDbEntity
  8
L-ZISSEN
100
AcDbLine
 10
75.99999999999927
 20
114.0000000000009
 30
0.0
 11
123.9999999999993
 21
114.0000000000009
 31
0.0
  0
LINE
  5
4C3
330
2
100
AcDbEntity
  8
L-ZISSEN
100
AcDbLine
 10
84.99999999999932
 20
109.0000000000009
 30
0.0
 11
89.99999999999932
 21
114.0000000000009
 31
0.0
  0
LINE
  5
4C4
330
2
100
AcDbEntity
  8
L-ZISSEN
100
AcDbLine
 10
114.9999999999995
 20
109.0000000000009
 30
0.0
 11
109.9999999999993
 21
114.0000000000009
 31
0.0
  0
LINE
  5
4C5
330
2
100
AcDbEntity
  8
L-ZISSEN
100
AcDbLine
 10
75.99999999999927
 20
109.000000000001
 30
0.0
 11
84.99999999999932
 21
109.0000000000011
 31
0.0
  0
ARC
  5
4D6
330
2
100
AcDbEntity
  8
L-ZISSEN
100
AcDbCircle
 10
100.0866518523503
 20
72.32744205814515
 30
0.0
 40
75.36553414422357
100
AcDbArc
 50
256.0937629349095
 51
264.6679223051352
  0
LINE
  5
4D7
330
2
100
AcDbEntity
  8
L-ZISSEN
100
AcDbLine
 10
84.13743756663439
 20
12.68235261775726
 30
0.0
 11
80.94608042377718
 21
14.19663833204367
 31
0.0
  0
LINE
  5
4D8
330
2
100
AcDbEntity
  8
L-ZISSEN
100
AcDbLine
 10
80.94608042377718
 20
66.65370379962133
 30
0.0
 11
87.32879470949432
 21
66.65370379962133
 31
0.0
  0
LINE
  5
4D9
330
2
100
AcDbEntity
  8
L-ZISSEN
100
AcDbLine
 10
80.94608042377718
 20
66.65370379962133
 30
0.0
 11
80.94608042377718
 21
14.19663833204367
 31
0.0
  0
LINE
  5
4DA
330
2
100
AcDbEntity
  8
L-ZISSEN
100
AcDbLine
 10
77.37236613806476
 20
5.050457177432235
 30
0.0
 11
77.37236613806476
 21
73.00000000000091
 31
0.0
  0
ARC
  5
4DB
330
2
100
AcDbEntity
  8
L-ZISSEN
100
AcDbCircle
 10
83.42950899520747
 20
5.050457177432235
 30
0.0
 40
6.057142857143116
100
AcDbArc
 50
180.0
 51
256.0937629349095
  0
ARC
  5
4DC
330
2
100
AcDbEntity
  8
L-ZISSEN
100
AcDbCircle
 10
100.666169180086
 20
69.54439861115833
 30
0.0
 40
72.52486118797114
100
AcDbArc
 50
274.9316521901777
 51
283.9902373284871
  0
LINE
  5
4DD
330
2
100
AcDbEntity
  8
L-ZISSEN
100
AcDbLine
 10
87.32879470949432
 20
66.65370379962133
 30
0.0
 11
87.32879470949432
 21
14.19663833204367
 31
0.0
  0
LINE
  5
4DF
330
2
100
AcDbEntity
  8
L-ZISSEN
100
AcDbLine
 10
106.9009375666362
 20
-2.711972412444538
 30
0.0
 11
93.08308042377758
 21
-2.711972412444538
 31
0.0
  0
LINE
  5
4E6
330
2
100
AcDbEntity
  8
L-ZISSEN
100
AcDbLine
 10
87.32879470949432
 20
14.19663833204367
 30
0.0
 11
84.13743756663439
 21
12.68235261775726
 31
0.0
  0
LINE
  5
4EC
330
2
100
AcDbEntity
  8
L-ZISSEN
100
AcDbLine
 10
93.23303571428438
 20
-7.499999999999089
 30
0.0
 11
93.23303571428438
 21
-2.711972412444538
 31
0.0
  0
LINE
  5
501
330
2
100
AcDbEntity
  8
L-ZISSEN
100
AcDbLine
 10
106.7669642857142
 20
-7.499999999999089
 30
0.0
 11
106.7669642857142
 21
-2.711972412444538
 31
0.0
  0
LINE
  5
503
330
2
100
AcDbEntity
  8
L-ZISSEN
100
AcDbLine
 10
119.2272232809223
 20
66.65370379962133
 30
0.0
 11
119.2272232809209
 21
14.19663833204367
 31
0.0
  0
LINE
  5
504
330
2
100
AcDbEntity
  8
L-ZISSEN
100
AcDbLine
 10
122.8009375666347
 20
5.050457177432235
 30
0.0
 11
122.8009375666356
 21
56.74024627301605
 31
0.0
  0
LINE
  5
505
330
2
100
AcDbEntity
  8
L-ZISSEN
100
AcDbLine
 10
112.8445089952065
 20
66.65370379962133
 30
0.0
 11
112.8445089952065
 21
14.19663833204413
 31
0.0
  0
ARC
  5
506
330
2
100
AcDbEntity
  8
L-ZISSEN
100
AcDbCircle
 10
116.7437947094917
 20
5.050457177432235
 30
0.0
 40
6.057142857142703
100
AcDbArc
 50
283.9062370650903
 51
0.0
  0
LINE
  5
507
330
2
100
AcDbEntity
  8
L-ZISSEN
100
AcDbLine
 10
116.0358661380637
 20
12.68235261775726
 30
0.0
 11
119.2272232809209
 21
14.19663833204367
 31
0.0
  0
LINE
  5
508
330
2
100
AcDbEntity
  8
L-ZISSEN
100
AcDbLine
 10
112.8445089952065
 20
14.19663833204367
 30
0.0
 11
116.0358661380637
 21
12.68235261775726
 31
0.0
  0
LINE
  5
509
330
2
100
AcDbEntity
  8
L-ZISSEN
100
AcDbLine
 10
124.7656789187299
 20
56.74024627301605
 30
0.0
 11
122.7858113026145
 21
56.74024627301605
 31
0.0
  0
LINE
  5
50A
330
2
100
AcDbEntity
  8
L-ZISSEN
100
AcDbLine
 10
124.2418945026152
 20
72.3931406730162
 30
0.0
 11
122.4217905026148
 21
72.3931406730162
 31
0.0
  0
LINE
  5
50B
330
2
100
AcDbEntity
  8
L-ZISSEN
100
AcDbLine
 10
121.1763253569647
 20
56.74024627301605
 30
0.0
 11
124.7656789187299
 21
56.74024627301605
 31
0.0
  0
LINE
  5
50C
330
2
100
AcDbEntity
  8
L-ZISSEN
100
AcDbLine
 10
123.5521142447528
 20
72.3931406730162
 30
0.0
 11
121.1763253569647
 21
72.3931406730162
 31
0.0
  0
ARC
  5
50D
330
2
100
AcDbEntity
  8
L-ZISSEN
100
AcDbCircle
 10
112.4974773398748
 20
56.14607492838922
 30
0.0
 40
12.28258155137619
100
AcDbArc
 50
327.020737907156
 51
2.772772323679433
  0
LINE
  5
50E
330
2
100
AcDbEntity
  8
L-ZISSEN
100
AcDbLine
 10
122.7637581002234
 20
73.00000000000046
 30
0.0
 11
122.7637581002231
 21
72.3931406730162
 31
0.0
  0
LINE
  5
50F
330
2
100
AcDbEntity
  8
L-ZISSEN
100
AcDbLine
 10
122.8009375666361
 20
56.74024627301605
 30
0.0
 11
122.8009375666361
 21
43.19343888882031
 31
0.0
  0
LINE
  5
510
330
2
100
AcDbEntity
  8
L-ZISSEN
100
AcDbLine
 10
119.2272232809223
 20
66.65370379962133
 30
0.0
 11
112.8445089952065
 21
66.65370379962133
 31
0.0
  0
LINE
  5
511
330
2
100
AcDbEntity
  8
L-ZISSEN
100
AcDbLine
 10
121.1763253569647
 20
72.3931406730162
 30
0.0
 11
121.1763253569647
 21
56.74024627301605
 31
0.0
  0
LINE
  5
512
330
2
100
AcDbEntity
  8
L-ZISSEN
100
AcDbLine
 10
129.3381857026147
 20
53.86513224823284
 30
0.0
 11
125.3339569026152
 21
52.45245553373843
 31
0.0
  0
LINE
  5
513
330
2
100
AcDbEntity
  8
L-ZISSEN
100
AcDbLine
 10
125.3339569026152
 20
72.75716147301591
 30
0.0
 11
126.4260193026152
 21
72.75716147301591
 31
0.0
  0
LINE
  5
514
330
2
100
AcDbEntity
  8
L-ZISSEN
100
AcDbLine
 10
125.3339569026152
 20
73.00000000000091
 30
0.0
 11
125.3339569026152
 21
72.75716147301591
 31
0.0
  0
LINE
  5
515
330
2
100
AcDbEntity
  8
L-ZISSEN
100
AcDbLine
 10
124.2418945026152
 20
73.00000000000091
 30
0.0
 11
124.2418945026152
 21
72.3931406730162
 31
0.0
  0
LINE
  5
516
330
2
100
AcDbEntity
  8
L-ZISSEN
100
AcDbLine
 10
124.7656789187299
 20
52.45245553373843
 30
0.0
 11
124.786685361932
 21
73.00000000000091
 31
0.0
  0
LINE
  5
517
330
2
100
AcDbEntity
  8
L-ZISSEN
100
AcDbLine
 10
125.3339569026152
 20
52.45245553373843
 30
0.0
 11
124.7656789187299
 21
52.45245553373843
 31
0.0
  0
LINE
  5
518
330
2
100
AcDbEntity
  8
L-ZISSEN
100
AcDbLine
 10
126.4260193026152
 20
72.75716147301591
 30
0.0
 11
126.4260193026152
 21
57.46828787301637
 31
0.0
  0
LINE
  5
519
330
2
100
AcDbEntity
  8
L-ZISSEN
100
AcDbLine
 10
126.4260193026152
 20
57.46828787301637
 30
0.0
 11
129.3381857026147
 21
56.98418548899372
 31
0.0
  0
LINE
  5
51A
330
2
100
AcDbEntity
  8
L-ZISSEN
100
AcDbLine
 10
129.3381857026147
 20
56.98418548899372
 30
0.0
 11
129.3381857026147
 21
53.86513224823284
 31
0.0
  0
LINE
  5
51E
330
2
100
AcDbEntity
  8
L-ZISSEN
100
AcDbLine
 10
99.99999999999932
 20
114.0000000000009
 30
0.0
 11
109.9999999999993
 21
114.0000000000009
 31
0.0
  0
LINE
  5
51F
330
2
100
AcDbEntity
  8
L-ZISSEN
100
AcDbLine
 10
109.9999999999993
 20
114.0000000000009
 30
0.0
 11
109.9999999999993
 21
120.0000000000009
 31
0.0
  0
LINE
  5
520
330
2
100
AcDbEntity
  8
L-ZISSEN
100
AcDbLine
 10
109.9999999999993
 20
120.0000000000009
 30
0.0
 11
89.99999999999932
 21
120.0000000000009
 31
0.0
  0
LINE
  5
521
330
2
100
AcDbEntity
  8
L-ZISSEN
100
AcDbLine
 10
89.99999999999932
 20
123.5000000000009
 30
0.0
 11
89.99999999999932
 21
114.0000000000009
 31
0.0
  0
LINE
  5
523
330
2
100
AcDbEntity
  8
L-ZISSEN
100
AcDbLine
 10
109.9999999999993
 20
120.0000000000009
 30
0.0
 11
109.9999999999993
 21
123.5000000000009
 31
0.0
  0
LINE
  5
524
330
2
100
AcDbEntity
  8
L-ZISSEN
100
AcDbLine
 10
109.9999999999993
 20
123.5000000000009
 30
0.0
 11
89.99999999999932
 21
123.5000000000008
 31
0.0
  0
LINE
  5
526
330
2
100
AcDbEntity
  8
L-ZISSEN
100
AcDbLine
 10
94.8038475772927
 20
123.5000000000008
 30
0.0
 11
94.8038475772927
 21
120.0000000000009
 31
0.0
  0
LINE
  5
528
330
2
100
AcDbEntity
  8
L-ZISSEN
100
AcDbLine
 10
105.1961524227059
 20
123.5000000000009
 30
0.0
 11
105.1961524227059
 21
120.0000000000009
 31
0.0
  0
LINE
  5
529
330
2
100
AcDbEntity
  8
L-ZISSEN
100
AcDbLine
 10
99.99999999999932
 20
123.5000000000009
 30
0.0
 11
106.9999999999993
 21
123.5000000000009
 31
0.0
  0
LINE
  5
52A
330
2
100
AcDbEntity
  8
L-ZISSEN
100
AcDbLine
 10
106.9999999999993
 20
123.5000000000009
 30
0.0
 11
106.9999999999993
 21
138.5000000000009
 31
0.0
  0
LINE
  5
52B
330
2
100
AcDbEntity
  8
L-ZISSEN
100
AcDbLine
 10
106.9999999999993
 20
138.5000000000009
 30
0.0
 11
92.99999999999931
 21
138.5000000000009
 31
0.0
  0
LINE
  5
52C
330
2
100
AcDbEntity
  8
L-ZISSEN
100
AcDbLine
 10
92.99999999999931
 20
123.5000000000009
 30
0.0
 11
92.99999999999931
 21
138.5000000000009
 31
0.0
  0
LINE
  5
52E
330
2
100
AcDbEntity
  8
L-ZISSEN
100
AcDbLine
 10
109.9999999999992
 20
124.0000000000009
 30
0.0
 11
122.9999999999993
 21
124.0000000000009
 31
0.0
  0
LINE
  5
52F
330
2
100
AcDbEntity
  8
L-ZISSEN
100
AcDbLine
 10
122.9999999999993
 20
124.0000000000009
 30
0.0
 11
122.9999999999993
 21
114.0000000000009
 31
0.0
  0
LINE
  5
530
330
2
100
AcDbEntity
  8
L-ZISSEN
100
AcDbLine
 10
109.9999999999992
 20
124.0000000000009
 30
0.0
 11
109.9999999999992
 21
114.0000000000009
 31
0.0
  0
LINE
  5
532
330
2
100
AcDbEntity
  8
L-ZISSEN
100
AcDbLine
 10
80.49999999999931
 20
115.0000000000009
 30
0.0
 11
80.49999999999931
 21
125.4019237886475
 31
0.0
  0
LINE
  5
533
330
2
100
AcDbEntity
  8
L-ZISSEN
100
AcDbLine
 10
81.9999999999993
 20
128.0000000000009
 30
0.0
 11
88.99999999999929
 21
128.0000000000009
 31
0.0
  0
LINE
  5
535
330
2
100
AcDbEntity
  8
L-ZISSEN
100
AcDbLine
 10
80.49999999999931
 20
115.0000000000009
 30
0.0
 11
89.99999999999932
 21
115.0000000000008
 31
0.0
  0
LINE
  5
537
330
2
100
AcDbEntity
  8
L-ZISSEN
100
AcDbLine
 10
85.49999999999931
 20
128.0000000000009
 30
0.0
 11
81.9999999999993
 21
128.0000000000009
 31
0.0
  0
LINE
  5
538
330
2
100
AcDbEntity
  8
L-ZISSEN
100
AcDbLine
 10
81.9999999999993
 20
128.0000000000009
 30
0.0
 11
80.49999999999931
 21
125.4019237886476
 31
0.0
  0
LINE
  5
539
330
2
100
AcDbEntity
  8
L-ZISSEN
100
AcDbLine
 10
88.99999999999931
 20
128.0000000000009
 30
0.0
 11
90.49999999999929
 21
125.4019237886475
 31
0.0
  0
LINE
  5
53A
330
2
100
AcDbEntity
  8
L-ZISSEN
100
AcDbLine
 10
247.4999999999993
 20
114.0000000000006
 30
0.0
 11
247.4999999999993
 21
91.00000000000061
 31
0.0
  0
LINE
  5
53E
330
2
100
AcDbEntity
  8
L-ZISSEN
100
AcDbLine
 10
244.0000214285706
 20
109.0000000000006
 30
0.0
 11
244.0000214285709
 21
114.0000000000006
 31
0.0
  0
LINE
  5
53F
330
2
100
AcDbEntity
  8
L-ZISSEN
100
AcDbLine
 10
265.9999785714277
 20
112.485714285715
 30
0.0
 11
272.4999999999993
 21
112.485714285715
 31
0.0
  0
LINE
  5
541
330
2
100
AcDbEntity
  8
L-ZISSEN
100
AcDbLine
 10
234.0000214285708
 20
109.0000000000006
 30
0.0
 11
247.4999999999992
 21
109.0000000000006
 31
0.0
  0
LINE
  5
548
330
2
100
AcDbEntity
  8
L-TYUSIN
100
AcDbLine
 10
255.2499999999993
 20
133.0000000000009
 30
0.0
 11
255.2499999999993
 21
106.1810038513326
 31
0.0
  0
LINE
  5
54C
330
2
100
AcDbEntity
  8
L-TYUSIN
100
AcDbLine
 10
245.1999999999993
 20
138.5000000000009
 30
0.0
 11
245.1999999999993
 21
99.38707080407812
 31
0.0
  0
LINE
  5
54D
330
2
100
AcDbEntity
  8
L-ZISSEN
100
AcDbLine
 10
252.1999999999993
 20
138.5000000000009
 30
0.0
 11
238.1999999999993
 21
138.5000000000009
 31
0.0
  0
LINE
  5
54E
330
2
100
AcDbEntity
  8
L-ZISSEN
100
AcDbLine
 10
248.7499999999993
 20
123.5000000000008
 30
0.0
 11
235.1999999999993
 21
123.5000000000008
 31
0.0
  0
LINE
  5
54F
330
2
100
AcDbEntity
  8
L-ZISSEN
100
AcDbLine
 10
248.7499999999993
 20
120.0000000000009
 30
0.0
 11
235.1999999999993
 21
120.0000000000009
 31
0.0
  0
LINE
  5
551
330
2
100
AcDbEntity
  8
L-ZISSEN
100
AcDbLine
 10
238.1999999999993
 20
123.5000000000009
 30
0.0
 11
238.1999999999993
 21
138.5000000000009
 31
0.0
  0
LINE
  5
552
330
2
100
AcDbEntity
  8
L-ZISSEN
100
AcDbLine
 10
240.0038475772927
 20
123.5000000000008
 30
0.0
 11
240.0038475772927
 21
120.0000000000009
 31
0.0
  0
LINE
  5
553
330
2
100
AcDbEntity
  8
L-ZISSEN
100
AcDbLine
 10
252.1999999999993
 20
124.0000000000009
 30
0.0
 11
252.1999999999993
 21
138.5000000000009
 31
0.0
  0
LINE
  5
554
330
2
100
AcDbEntity
  8
L-ZISSEN
100
AcDbLine
 10
245.1999999999993
 20
123.5000000000009
 30
0.0
 11
248.7499999999993
 21
123.5000000000009
 31
0.0
  0
LINE
  5
557
330
2
100
AcDbEntity
  8
L-ZISSEN
100
AcDbLine
 10
245.1999999999993
 20
114.0000000000005
 30
0.0
 11
235.1999999999993
 21
114.0000000000005
 31
0.0
  0
LINE
  5
558
330
2
100
AcDbEntity
  8
L-ZISSEN
100
AcDbLine
 10
235.1999999999993
 20
114.0000000000005
 30
0.0
 11
235.1999999999993
 21
123.5000000000008
 31
0.0
  0
LINE
  5
55A
330
2
100
AcDbEntity
  8
L-ZISSEN
100
AcDbLine
 10
261.7499999999993
 20
124.0000000000009
 30
0.0
 11
261.7499999999993
 21
114.0000000000009
 31
0.0
  0
LINE
  5
55B
330
2
100
AcDbEntity
  8
L-ZISSEN
100
AcDbLine
 10
248.7499999999993
 20
124.0000000000009
 30
0.0
 11
261.7499999999993
 21
124.0000000000009
 31
0.0
  0
LINE
  5
55C
330
2
100
AcDbEntity
  8
L-ZISSEN
100
AcDbLine
 10
248.7499999999993
 20
124.0000000000009
 30
0.0
 11
248.7499999999993
 21
114.0000000000009
 31
0.0
  0
LINE
  5
55F
330
2
100
AcDbEntity
  8
L-ZISSEN
100
AcDbLine
 10
90.49999999999929
 20
123.5000000000008
 30
0.0
 11
90.49999999999929
 21
125.4019237886475
 31
0.0
  0
LINE
  5
562
330
2
100
AcDbEntity
  8
L-ZISSEN
100
AcDbLine
 10
255.2499999999993
 20
128.0000000000009
 30
0.0
 11
252.1999999999993
 21
128.0000000000009
 31
0.0
  0
LINE
  5
563
330
2
100
AcDbEntity
  8
L-ZISSEN
100
AcDbLine
 10
252.1999999999993
 20
128.0000000000009
 30
0.0
 11
258.7499999999993
 21
128.0000000000009
 31
0.0
  0
LINE
  5
565
330
2
100
AcDbEntity
  8
L-ZISSEN
100
AcDbLine
 10
260.2499999999993
 20
124.0000000000009
 30
0.0
 11
260.2499999999993
 21
125.4019237886475
 31
0.0
  0
LINE
  5
566
330
2
100
AcDbEntity
  8
L-ZISSEN
100
AcDbLine
 10
258.7499999999993
 20
128.0000000000009
 30
0.0
 11
260.2499999999993
 21
125.4019237886475
 31
0.0
  0
SOLID
  5
581
330
2
100
AcDbEntity
  8
L-ZISSEN
100
AcDbTrace
 10
222.4351512325376
 20
101.7254588414522
 30
0.0
 11
221.9331023524699
 21
101.2868344389537
 31
0.0
 12
223.4999999999992
 22
99.99999999999975
 32
0.0
 13
223.4999999999992
 23
99.99999999999975
 33
0.0
  0
LINE
  5
582
330
2
100
AcDbEntity
  8
L-ZISSEN
100
AcDbLine
 10
222.1841267925038
 20
101.506146640203
 30
0.0
 11
206.3809223345215
 21
119.5944724479286
 31
0.0
  0
LINE
  5
583
330
2
100
AcDbEntity
  8
L-ZISSEN
100
AcDbLine
 10
206.3809223345215
 20
119.5944724479286
 30
0.0
 11
186.1146486470315
 21
119.5944724479286
 31
0.0
  0
TEXT
  5
584
330
2
100
AcDbEntity
  8
L-ZISSEN
100
AcDbText
 10
187.9241355513477
 20
121.0413918826652
 30
0.0
 40
4.5
  1
IN
100
AcDbText
  0
TEXT
  5
585
330
2
100
AcDbEntity
  8
L-ZISSEN
100
AcDbText
 10
187.9241355513477
 20
111.3710058112064
 30
0.0
 40
4.5
  1
Rc1/4
100
AcDbText
  0
TEXT
  5
586
330
2
100
AcDbEntity
  8
L-ZISSEN
100
AcDbText
 10
187.9241355513477
 20
103.8710058112064
 30
0.0
 40
4.5
  1
Rc3/8
100
AcDbText
  0
LINE
  5
D64
330
2
100
AcDbEntity
  8
L-ZISSEN
100
AcDbLine
 10
256.8142857142875
 20
-7.499999999999091
 30
0.0
 11
243.1857142857133
 21
-7.499999999999091
 31
0.0
  0
LINE
  5
D66
330
2
100
AcDbEntity
  8
L-ZISSEN
100
AcDbLine
 10
106.7669642857142
 20
-7.49999999999909
 30
0.0
 11
93.23303571428438
 21
-7.49999999999909
 31
0.0
  0
LINE
  5
D82
330
2
100
AcDbEntity
  8
L-ZISSEN
100
AcDbLine
 10
489.4544805248101
 20
158.8689932697313
 30
0.0
 11
494.4544805248101
 21
158.8689932697313
 31
0.0
  0
ARC
  5
D83
330
2
100
AcDbEntity
  8
L-ZISSEN
100
AcDbCircle
 10
486.7488332920807
 20
103.4856360308665
 30
0.0
 40
21.14865360703842
100
AcDbArc
 50
269.4734534758807
 51
290.2982352280634
  0
LINE
  5
D84
330
2
100
AcDbEntity
  8
L-TYUSIN
100
AcDbLine
 10
313.7839025102473
 20
287.8527158604722
 30
0.0
 11
313.7839025102473
 21
-22.14730912605944
 31
0.0
  0
LINE
  5
D85
330
2
100
AcDbEntity
  8
L-ZISSEN
 48
5.0
100
AcDbLine
 10
404.9690568786671
 20
146.2944689927082
 30
0.0
 11
400.9648280786676
 21
144.8013334174913
 31
0.0
  0
LINE
  5
D86
330
2
100
AcDbEntity
  8
L-ZISSEN
 48
5.0
100
AcDbLine
 10
402.0568904786675
 20
149.8976246174909
 30
0.0
 11
404.9690568786671
 21
149.4135222334691
 31
0.0
  0
LINE
  5
D87
330
2
100
AcDbEntity
  8
L-ZISSEN
100
AcDbLine
 10
378.6716817465553
 20
149.8378754782136
 30
0.0
 11
378.6716817465553
 21
95.83787547821362
 31
0.0
  0
LINE
  5
D88
330
2
100
AcDbEntity
  8
L-ZISSEN
100
AcDbLine
 10
373.6716817465553
 20
95.83787547821362
 30
0.0
 11
373.6716817465553
 21
149.8378754782136
 31
0.0
  0
LINE
  5
D89
330
2
100
AcDbEntity
  8
L-ZISSEN
100
AcDbLine
 10
367.4216817465553
 20
161.3378754782136
 30
0.0
 11
367.4216817465571
 21
84.33787547821362
 31
0.0
  0
LINE
  5
D8A
330
2
100
AcDbEntity
  8
L-ZISSEN
100
AcDbLine
 10
384.9216817465553
 20
161.3378754782136
 30
0.0
 11
384.9216817465571
 21
84.33787547821362
 31
0.0
  0
LINE
  5
D8B
330
2
100
AcDbEntity
  8
L-ZISSEN
100
AcDbLine
 10
353.862424982248
 20
166.8817922782138
 30
0.0
 11
356.0698661000365
 21
87.19826728459635
 31
0.0
  0
LINE
  5
D8C
330
2
100
AcDbEntity
  8
L-ZISSEN
100
AcDbLine
 10
398.4809385108637
 20
166.8817922782138
 30
0.0
 11
396.2734973930744
 21
87.19826728459588
 31
0.0
  0
ARC
  5
D8D
330
2
100
AcDbEntity
  8
L-ZISSEN
100
AcDbCircle
 10
365.6273289792857
 20
103.4856360308665
 30
0.0
 40
21.14865360703842
100
AcDbArc
 50
249.7017647719364
 51
270.5265465241192
  0
ARC
  5
D8E
330
2
100
AcDbEntity
  8
L-ZISSEN
100
AcDbCircle
 10
360.0229263383182
 20
87.20365388162395
 30
0.0
 40
3.95306390827567
100
AcDbArc
 50
180.0780734585509
 51
244.0113010331024
  0
LINE
  5
D94
330
2
100
AcDbEntity
  8
L-ZISSEN
100
AcDbLine
 10
367.4216817465553
 20
84.33787547821362
 30
0.0
 11
384.9216817465553
 21
84.33787547821271
 31
0.0
  0
LINE
  5
D95
330
2
100
AcDbEntity
  8
L-ZISSEN
100
AcDbLine
 10
365.8216817465554
 20
82.33787547821362
 30
0.0
 11
386.5216817465552
 21
82.33787547821362
 31
0.0
  0
LINE
  5
D96
330
2
100
AcDbEntity
  8
L-ZISSEN
100
AcDbLine
 10
365.8216817465554
 20
77.54417194447637
 30
0.0
 11
386.5216817465555
 21
77.54417194447637
 31
0.0
  0
LINE
  5
D97
330
2
100
AcDbEntity
  8
L-TYUSIN
100
AcDbLine
 10
382.4216817465553
 20
89.58787547821316
 30
0.0
 11
369.9216817465553
 21
89.58787547821316
 31
0.0
  0
CIRCLE
  5
D99
330
2
100
AcDbEntity
  8
L-ZISSEN
100
AcDbCircle
 10
376.1716817465553
 20
89.58787547821316
 30
0.0
 40
3.75
  0
LINE
  5
D9C
330
2
100
AcDbEntity
  8
L-ZISSEN
100
AcDbLine
 10
365.821681746556
 20
77.54417194447639
 30
0.0
 11
365.8216817465554
 21
82.33787547821362
 31
0.0
  0
LINE
  5
DB3
330
2
100
AcDbEntity
  8
L-ZISSEN
100
AcDbLine
 10
378.6716817465553
 20
95.83787547821362
 30
0.0
 11
373.6716817465553
 21
95.83787547821362
 31
0.0
  0
POLYLINE
  5
DB4
330
2
100
AcDbEntity
  8
L-ZISSEN
100
AcDb2dPolyline
 66
     1
 10
0.0
 20
0.0
 30
0.0
 70
     1
  0
VERTEX
  5
104A
330
DB4
100
AcDbEntity
  8
L-ZISSEN
100
AcDbVertex
100
AcDb2dVertex
 10
374.9216817465553
 20
90.3095633147002
 30
0.0
  0
VERTEX
  5
104B
330
DB4
100
AcDbEntity
  8
L-ZISSEN
100
AcDbVertex
100
AcDb2dVertex
 10
376.1716817465553
 20
91.03125115118723
 30
0.0
  0
VERTEX
  5
104C
330
DB4
100
AcDbEntity
  8
L-ZISSEN
100
AcDbVertex
100
AcDb2dVertex
 10
377.4216817465553
 20
90.3095633147002
 30
0.0
  0
VERTEX
  5
104D
330
DB4
100
AcDbEntity
  8
L-ZISSEN
100
AcDbVertex
100
AcDb2dVertex
 10
377.4216817465553
 20
88.86618764172613
 30
0.0
  0
VERTEX
  5
104E
330
DB4
100
AcDbEntity
  8
L-ZISSEN
100
AcDbVertex
100
AcDb2dVertex
 10
376.1716817465553
 20
88.14449980523908
 30
0.0
  0
VERTEX
  5
104F
330
DB4
100
AcDbEntity
  8
L-ZISSEN
100
AcDbVertex
100
AcDb2dVertex
 10
374.9216817465553
 20
88.86618764172613
 30
0.0
  0
SEQEND
  5
1050
330
DB4
100
AcDbEntity
  8
L-ZISSEN
  0
ARC
  5
DB5
330
2
100
AcDbEntity
  8
L-ZISSEN
100
AcDbCircle
 10
392.3204371547924
 20
87.20365388162395
 30
0.0
 40
3.95306390827567
100
AcDbArc
 50
295.9886989668974
 51
359.9219265414491
  0
ARC
  5
DB6
330
2
100
AcDbEntity
  8
L-ZISSEN
100
AcDbCircle
 10
386.7160345138249
 20
103.4856360308665
 30
0.0
 40
21.14865360703842
100
AcDbArc
 50
269.4734534758807
 51
290.2982352280634
  0
LINE
  5
DBF
330
2
100
AcDbEntity
  8
L-ZISSEN
100
AcDbLine
 10
386.5216817465557
 20
77.54417194447639
 30
0.0
 11
386.5216817465552
 21
82.33787547821362
 31
0.0
  0
LINE
  5
DC0
330
2
100
AcDbEntity
  8
L-ZISSEN
100
AcDbLine
 10
362.9216817465562
 20
158.8689932697313
 30
0.0
 11
357.9216817465562
 21
158.8689932697313
 31
0.0
  0
LINE
  5
DC1
330
2
100
AcDbEntity
  8
L-ZISSEN
100
AcDbLine
 10
357.9216817465562
 20
158.8689932697313
 30
0.0
 11
357.9216817465562
 21
149.837875478214
 31
0.0
  0
LINE
  5
DC2
330
2
100
AcDbEntity
  8
L-ZISSEN
100
AcDbLine
 10
357.9216817465562
 20
149.837875478214
 30
0.0
 11
354.3345858555969
 21
149.837875478214
 31
0.0
  0
TEXT
  5
DC3
330
2
100
AcDbEntity
  8
L-ZISSEN
100
AcDbText
 10
348.2044805248112
 20
177.2941719444763
 30
0.0
 40
4.5
  1
P.P
100
AcDbText
  0
POLYLINE
  5
DC4
330
2
100
AcDbEntity
  8
L-ZISSEN
100
AcDb2dPolyline
 66
     1
 10
0.0
 20
0.0
 30
0.0
 70
     1
  0
VERTEX
  5
1051
330
DC4
100
AcDbEntity
  8
L-ZISSEN
100
AcDbVertex
100
AcDb2dVertex
 10
374.9216817465553
 20
155.3661876417265
 30
0.0
  0
VERTEX
  5
1052
330
DC4
100
AcDbEntity
  8
L-ZISSEN
100
AcDbVertex
100
AcDb2dVertex
 10
376.1716817465553
 20
154.6444998052395
 30
0.0
  0
VERTEX
  5
1053
330
DC4
100
AcDbEntity
  8
L-ZISSEN
100
AcDbVertex
100
AcDb2dVertex
 10
377.4216817465553
 20
155.3661876417265
 30
0.0
  0
VERTEX
  5
1054
330
DC4
100
AcDbEntity
  8
L-ZISSEN
100
AcDbVertex
100
AcDb2dVertex
 10
377.4216817465553
 20
156.8095633147006
 30
0.0
  0
VERTEX
  5
1055
330
DC4
100
AcDbEntity
  8
L-ZISSEN
100
AcDbVertex
100
AcDb2dVertex
 10
376.1716817465553
 20
157.5312511511876
 30
0.0
  0
VERTEX
  5
1056
330
DC4
100
AcDbEntity
  8
L-ZISSEN
100
AcDbVertex
100
AcDb2dVertex
 10
374.9216817465553
 20
156.8095633147006
 30
0.0
  0
SEQEND
  5
1057
330
DC4
100
AcDbEntity
  8
L-ZISSEN
  0
CIRCLE
  5
DC5
330
2
100
AcDbEntity
  8
L-ZISSEN
100
AcDbCircle
 10
376.1716817465553
 20
156.0878754782136
 30
0.0
 40
3.75
  0
LINE
  5
DC6
330
2
100
AcDbEntity
  8
L-ZISSEN
100
AcDbLine
 10
362.9216817465565
 20
158.8689932697313
 30
0.0
 11
362.9216817465562
 21
149.837875478214
 31
0.0
  0
LINE
  5
DC7
330
2
100
AcDbEntity
  8
L-ZISSEN
100
AcDbLine
 10
394.4216817465546
 20
158.8689932697313
 30
0.0
 11
394.4216817465544
 21
149.837875478214
 31
0.0
  0
LINE
  5
DC8
330
2
100
AcDbEntity
  8
L-ZISSEN
100
AcDbLine
 10
389.4216817465544
 20
158.8689932697313
 30
0.0
 11
389.4216817465544
 21
149.837875478214
 31
0.0
  0
LINE
  5
DC9
330
2
100
AcDbEntity
  8
L-ZISSEN
 48
5.0
100
AcDbLine
 10
402.0568904786675
 20
166.8817922782134
 30
0.0
 11
402.0568904786675
 21
149.8976246174909
 31
0.0
  0
LINE
  5
DCA
330
2
100
AcDbEntity
  8
L-ZISSEN
 48
5.0
100
AcDbLine
 10
400.3965500947822
 20
144.8817922782138
 30
0.0
 11
400.4171671538474
 21
166.8817922782134
 31
0.0
  0
LINE
  5
DCB
330
2
100
AcDbEntity
  8
L-TYUSIN
100
AcDbLine
 10
382.4216817465553
 20
156.0878754782136
 30
0.0
 11
369.9216817465553
 21
156.0878754782136
 31
0.0
  0
LINE
  5
DCC
330
2
100
AcDbEntity
  8
L-ZISSEN
100
AcDbLine
 10
362.9216817465553
 20
149.837875478214
 30
0.0
 11
367.4216817465556
 21
149.837875478214
 31
0.0
  0
LINE
  5
DCD
330
2
100
AcDbEntity
  8
L-ZISSEN
100
AcDbLine
 10
373.6716817465553
 20
149.837875478214
 30
0.0
 11
378.6716817465553
 21
149.8378754782136
 31
0.0
  0
LINE
  5
DCE
330
2
100
AcDbEntity
  8
L-ZISSEN
100
AcDbLine
 10
400.3965500947822
 20
144.8817922782138
 30
0.0
 11
400.3965500947822
 21
127.737875478215
 31
0.0
  0
LINE
  5
DCF
330
2
100
AcDbEntity
  8
L-ZISSEN
100
AcDbLine
 10
400.3965500947822
 20
127.737875478215
 30
0.0
 11
397.3282410707417
 21
125.2720775094496
 31
0.0
  0
LINE
  5
DD0
330
2
100
AcDbEntity
  8
L-ZISSEN
100
AcDbLine
 10
389.4216817465553
 20
149.837875478214
 30
0.0
 11
384.9216817465555
 21
149.837875478214
 31
0.0
  0
LINE
  5
DD1
330
2
100
AcDbEntity
  8
L-ZISSEN
100
AcDbLine
 10
399.1965500947817
 20
137.7720775094496
 30
0.0
 11
399.1965500947817
 21
149.1695830174915
 31
0.0
  0
LINE
  5
DD2
330
2
100
AcDbEntity
  8
L-ZISSEN
100
AcDbLine
 10
397.6745236175365
 20
137.7720775094496
 30
0.0
 11
400.396550094782
 21
137.7720775094496
 31
0.0
  0
LINE
  5
DD3
330
2
100
AcDbEntity
  8
L-ZISSEN
 48
5.0
100
AcDbLine
 10
400.9648280786676
 20
144.8013334174913
 30
0.0
 11
400.3965500947822
 21
144.8013334174913
 31
0.0
  0
LINE
  5
DD4
330
2
100
AcDbEntity
  8
L-ZISSEN
100
AcDbLine
 10
394.4216817465544
 20
149.837875478214
 30
0.0
 11
398.0087776375153
 21
149.837875478214
 31
0.0
  0
LINE
  5
DD5
330
2
100
AcDbEntity
  8
L-ZISSEN
 48
5.0
100
AcDbLine
 10
397.9902641962908
 20
149.1695830174915
 30
0.0
 11
400.3965500947822
 21
149.1695830174915
 31
0.0
  0
LINE
  5
DD6
330
2
100
AcDbEntity
  8
L-ZISSEN
 48
5.0
100
AcDbLine
 10
400.3965500947822
 20
149.1695830174915
 30
0.0
 11
398.4166824786668
 21
149.1695830174915
 31
0.0
  0
LINE
  5
DD7
330
2
100
AcDbEntity
  8
L-ZISSEN
100
AcDbLine
 10
367.4216817465553
 20
161.3378754782136
 30
0.0
 11
384.9216817465553
 21
161.3378754782136
 31
0.0
  0
LINE
  5
DD8
330
2
100
AcDbEntity
  8
L-ZISSEN
100
AcDbLine
 10
374.6680379656163
 20
168.3245407438055
 30
0.0
 11
361.2044805248113
 21
179.5441719444763
 31
0.0
  0
LINE
  5
DD9
330
2
100
AcDbEntity
  8
L-ZISSEN
100
AcDbLine
 10
361.2044805248113
 20
179.5441719444763
 30
0.0
 11
359.2044805248113
 21
179.5441719444763
 31
0.0
  0
SOLID
  5
DDA
330
2
100
AcDbEntity
  8
L-ZISSEN
100
AcDbTrace
 10
374.4546431657281
 20
168.0684669839395
 30
0.0
 11
374.8814327655045
 21
168.5806145036711
 31
0.0
 12
376.204480524811
 22
167.0441719444763
 32
0.0
 13
376.204480524811
 23
167.0441719444763
 33
0.0
  0
LINE
  5
DDB
330
2
100
AcDbEntity
  8
L-ZISSEN
100
AcDbLine
 10
389.4216817465544
 20
158.8689932697313
 30
0.0
 11
394.4216817465544
 21
158.8689932697313
 31
0.0
  0
LINE
  5
DDC
330
2
100
AcDbEntity
  8
L-ZISSEN
100
AcDbLine
 10
402.0568904786675
 20
166.8817922782138
 30
0.0
 11
398.4809385108642
 21
166.8817922782138
 31
0.0
  0
LINE
  5
DDD
330
2
100
AcDbEntity
  8
L-ZISSEN
100
AcDbLine
 10
442.2445571185003
 20
161.3378754782136
 30
0.0
 11
442.2445571185021
 21
84.33787547821362
 31
0.0
  0
LINE
  5
DDE
330
2
100
AcDbEntity
  8
L-ZISSEN
100
AcDbLine
 10
451.7445571185012
 20
84.33787547821271
 30
0.0
 11
451.7445571185012
 21
161.3378754782145
 31
0.0
  0
LINE
  5
DDF
330
2
100
AcDbEntity
  8
L-ZISSEN
100
AcDbLine
 10
453.8952237605037
 20
166.8817922782138
 30
0.0
 11
456.1026648782922
 21
87.19826728459635
 31
0.0
  0
LINE
  5
DE0
330
2
100
AcDbEntity
  8
L-ZISSEN
100
AcDbLine
 10
442.2445571185003
 20
84.33787547821362
 30
0.0
 11
451.7445571185003
 21
84.33787547821362
 31
0.0
  0
LINE
  5
DE1
330
2
100
AcDbEntity
  8
L-TYUSIN
100
AcDbLine
 10
456.7526188295728
 20
89.43787547821306
 30
0.0
 11
435.3445571185006
 21
89.43787547821035
 31
0.0
  0
ARC
  5
DE2
330
2
100
AcDbEntity
  8
L-ZISSEN
100
AcDbCircle
 10
442.6565596862778
 20
88.11308896239529
 30
0.0
 40
2.312215931624567
100
AcDbArc
 50
179.2216280233924
 51
259.7359316277906
  0
ARC
  5
DE3
330
2
100
AcDbEntity
  8
L-ZISSEN
100
AcDbCircle
 10
442.6565596862778
 20
91.06266199403103
 30
0.0
 40
2.312215931624567
100
AcDbArc
 50
100.2640683722092
 51
180.7783719766075
  0
LINE
  5
DE4
330
2
100
AcDbEntity
  8
L-ZISSEN
100
AcDbLine
 10
440.3445571185007
 20
88.14449980523955
 30
0.0
 11
440.3445571185004
 21
91.03125115118723
 31
0.0
  0
LINE
  5
DE5
330
2
100
AcDbEntity
  8
L-ZISSEN
100
AcDbLine
 10
465.8544805248111
 20
82.33787547821362
 30
0.0
 11
486.5544805248109
 21
82.33787547821362
 31
0.0
  0
LINE
  5
DE6
330
2
100
AcDbEntity
  8
L-ZISSEN
100
AcDbLine
 10
465.8544805248111
 20
77.38179227821341
 30
0.0
 11
486.5544805248112
 21
77.38179227821341
 31
0.0
  0
ARC
  5
DE9
330
2
100
AcDbEntity
  8
L-ZISSEN
100
AcDbCircle
 10
460.0557251165739
 20
87.20365388162395
 30
0.0
 40
3.95306390827567
100
AcDbArc
 50
180.0780734585509
 51
244.0113010331024
  0
LINE
  5
DEA
330
2
100
AcDbEntity
  8
L-ZISSEN
100
AcDbLine
 10
457.3583496683097
 20
84.33787547821271
 30
0.0
 11
451.7445571185012
 21
84.33787547821271
 31
0.0
  0
ARC
  5
DEB
330
2
100
AcDbEntity
  8
L-ZISSEN
100
AcDbCircle
 10
465.6601277575414
 20
103.4856360308665
 30
0.0
 40
21.14865360703842
100
AcDbArc
 50
249.7017647719364
 51
270.5265465241192
  0
LINE
  5
DEC
330
2
100
AcDbEntity
  8
L-ZISSEN
100
AcDbLine
 10
465.8544805248111
 20
77.38179227821341
 30
0.0
 11
465.8544805248111
 21
82.33787547821362
 31
0.0
  0
LINE
  5
E10
330
2
100
AcDbEntity
  8
L-ZISSEN
100
AcDbLine
 10
486.5544805248114
 20
77.38179227821341
 30
0.0
 11
486.5544805248109
 21
82.33787547821362
 31
0.0
  0
LINE
  5
E12
330
2
100
AcDbEntity
  8
L-ZISSEN
100
AcDbLine
 10
442.2445571185003
 20
161.3378754782136
 30
0.0
 11
451.7445571185003
 21
161.3378754782136
 31
0.0
  0
LINE
  5
E13
330
2
100
AcDbEntity
  8
L-TYUSIN
100
AcDbLine
 10
435.3445571185004
 20
156.1378754782124
 30
0.0
 11
455.0101776505812
 21
156.1378754782119
 31
0.0
  0
LINE
  5
E14
330
2
100
AcDbEntity
  8
L-ZISSEN
100
AcDbLine
 10
440.3445571185007
 20
157.5312511511876
 30
0.0
 11
440.3445571185004
 21
154.6444998052399
 31
0.0
  0
LINE
  5
E15
330
2
100
AcDbEntity
  8
L-ZISSEN
 48
5.0
100
AcDbLine
 10
404.9690568786671
 20
149.4135222334691
 30
0.0
 11
404.9690568786671
 21
146.2944689927082
 31
0.0
  0
ARC
  5
E16
330
2
100
AcDbEntity
  8
L-ZISSEN
100
AcDbCircle
 10
442.6565596862778
 20
154.6130889623962
 30
0.0
 40
2.312215931624567
100
AcDbArc
 50
179.2216280233924
 51
259.7359316277906
  0
ARC
  5
E17
330
2
100
AcDbEntity
  8
L-ZISSEN
100
AcDbCircle
 10
442.6565596862778
 20
157.5626619940319
 30
0.0
 40
2.312215931624567
100
AcDbArc
 50
100.2640683722092
 51
180.7783719766075
  0
LINE
  5
E18
330
2
100
AcDbEntity
  8
L-ZISSEN
100
AcDbLine
 10
478.3886053248102
 20
157.258499478213
 30
0.0
 11
476.2044805248101
 21
153.6182914782132
 31
0.0
  0
LINE
  5
E19
330
2
100
AcDbEntity
  8
L-ZISSEN
100
AcDbLine
 10
474.0203557248101
 20
157.258499478213
 30
0.0
 11
476.2044805248101
 21
153.6182914782132
 31
0.0
  0
LINE
  5
E1A
330
2
100
AcDbEntity
  8
L-ZISSEN
100
AcDbLine
 10
462.9544805248122
 20
158.8689932697313
 30
0.0
 11
462.9544805248119
 21
149.837875478214
 31
0.0
  0
LINE
  5
E1B
330
2
100
AcDbEntity
  8
L-ZISSEN
100
AcDbLine
 10
457.954480524812
 20
158.8689932697313
 30
0.0
 11
457.954480524812
 21
149.837875478214
 31
0.0
  0
LINE
  5
E1C
330
2
100
AcDbEntity
  8
L-ZISSEN
100
AcDbLine
 10
467.9544805248103
 20
166.8817922782138
 30
0.0
 11
467.954480524811
 21
125.9378754782148
 31
0.0
  0
LINE
  5
E1D
330
2
100
AcDbEntity
  8
L-ZISSEN
100
AcDbLine
 10
468.0140125248112
 20
166.8817922782138
 30
0.0
 11
468.0140125248112
 21
147.0659170782139
 31
0.0
  0
LINE
  5
E1E
330
2
100
AcDbEntity
  8
L-ZISSEN
100
AcDbLine
 10
468.0140125248112
 20
165.2669570782138
 30
0.0
 11
468.0140125248112
 21
151.4112913973115
 31
0.0
  0
LINE
  5
E1F
330
2
100
AcDbEntity
  8
L-ZISSEN
100
AcDbLine
 10
468.5600437248117
 20
166.8817922782138
 30
0.0
 11
468.5600437248117
 21
151.0701458782134
 31
0.0
  0
LINE
  5
E20
330
2
100
AcDbEntity
  8
L-ZISSEN
100
AcDbLine
 10
489.4544805248101
 20
158.8689932697313
 30
0.0
 11
489.4544805248101
 21
149.837875478214
 31
0.0
  0
LINE
  5
E21
330
2
100
AcDbEntity
  8
L-ZISSEN
100
AcDbLine
 10
484.4544805248101
 20
166.8817922782138
 30
0.0
 11
484.454480524811
 21
125.9378754782148
 31
0.0
  0
LINE
  5
E22
330
2
100
AcDbEntity
  8
L-ZISSEN
100
AcDbLine
 10
484.3949485248117
 20
166.8817922782138
 30
0.0
 11
484.3949485248117
 21
147.0659170782139
 31
0.0
  0
LINE
  5
E23
330
2
100
AcDbEntity
  8
L-ZISSEN
100
AcDbLine
 10
483.8489173248112
 20
166.8817922782138
 30
0.0
 11
483.8489173248112
 21
151.0701458782134
 31
0.0
  0
LINE
  5
E24
330
2
100
AcDbEntity
  8
L-ZISSEN
100
AcDbLine
 10
484.3949485248117
 20
165.2669570782138
 30
0.0
 11
484.3949485248117
 21
151.4112913973115
 31
0.0
  0
LINE
  5
E25
330
2
100
AcDbEntity
  8
L-ZISSEN
100
AcDbLine
 10
467.954480524811
 20
137.9378754782148
 30
0.0
 11
470.4544805248111
 21
137.9378754782148
 31
0.0
  0
LINE
  5
E26
330
2
100
AcDbEntity
  8
L-ZISSEN
100
AcDbLine
 10
468.0140125248112
 20
147.0659170782139
 30
0.0
 11
469.2651181547485
 21
147.8277249499717
 31
0.0
  0
LINE
  5
E27
330
2
100
AcDbEntity
  8
L-ZISSEN
100
AcDbLine
 10
469.2651181547485
 20
150.9694209596512
 30
0.0
 11
468.5600437248117
 21
151.0701458782134
 31
0.0
  0
LINE
  5
E28
330
2
100
AcDbEntity
  8
L-ZISSEN
100
AcDbLine
 10
469.2651181547485
 20
150.4853185756289
 30
0.0
 11
468.5600437248117
 21
151.0701458782134
 31
0.0
  0
LINE
  5
E29
330
2
100
AcDbEntity
  8
L-ZISSEN
100
AcDbLine
 10
467.954480524811
 20
125.9378754782148
 30
0.0
 11
484.454480524811
 21
125.9378754782148
 31
0.0
  0
LINE
  5
E2A
330
2
100
AcDbEntity
  8
L-ZISSEN
100
AcDbLine
 10
468.3044805248114
 20
127.7378754782159
 30
0.0
 11
484.1044805248107
 21
127.7378754782159
 31
0.0
  0
LINE
  5
E2B
330
2
100
AcDbEntity
  8
L-ZISSEN
100
AcDbLine
 10
476.204480524811
 20
144.8817922782138
 30
0.0
 11
468.0140125248112
 21
147.0659170782139
 31
0.0
  0
LINE
  5
E2C
330
2
100
AcDbEntity
  8
L-ZISSEN
100
AcDbLine
 10
476.204480524811
 20
149.9780834782134
 30
0.0
 11
468.5600437248117
 21
151.0701458782134
 31
0.0
  0
LINE
  5
E2D
330
2
100
AcDbEntity
  8
L-ZISSEN
100
AcDbLine
 10
468.3044805248114
 20
137.9378754782148
 30
0.0
 11
468.3044805248114
 21
127.7378754782159
 31
0.0
  0
LINE
  5
E2E
330
2
100
AcDbEntity
  8
L-ZISSEN
100
AcDbLine
 10
468.3044805248114
 20
127.7378754782159
 30
0.0
 11
467.954480524811
 21
125.9378754782148
 31
0.0
  0
LINE
  5
E2F
330
2
100
AcDbEntity
  8
L-ZISSEN
100
AcDbLine
 10
457.954480524812
 20
149.837875478214
 30
0.0
 11
454.3673846338527
 21
149.837875478214
 31
0.0
  0
LINE
  5
E30
330
2
100
AcDbEntity
  8
L-ZISSEN
100
AcDbLine
 10
462.954480524811
 20
149.837875478214
 30
0.0
 11
467.954480524811
 21
149.837875478214
 31
0.0
  0
LINE
  5
E31
330
2
100
AcDbEntity
  8
L-ZISSEN
100
AcDbLine
 10
482.204480524811
 20
137.9378754782148
 30
0.0
 11
482.204480524811
 21
129.9378754782148
 31
0.0
  0
LINE
  5
E32
330
2
100
AcDbEntity
  8
L-TYUSIN
100
AcDbLine
 10
479.204480524811
 20
135.2342959542813
 30
0.0
 11
479.204480524811
 21
132.5871978875213
 31
0.0
  0
LINE
  5
E33
330
2
100
AcDbEntity
  8
L-ZISSEN
100
AcDbLine
 10
481.9544805248113
 20
146.4151256115467
 30
0.0
 11
481.954480524811
 21
129.9378754782148
 31
0.0
  0
LINE
  5
E34
330
2
100
AcDbEntity
  8
L-TYUSIN
100
AcDbLine
 10
473.204480524811
 20
135.0700251143928
 30
0.0
 11
473.204480524811
 21
132.7621155233603
 31
0.0
  0
CIRCLE
  5
E35
330
2
100
AcDbEntity
  8
L-ZISSEN
100
AcDbCircle
 10
479.204480524811
 20
133.9378754782148
 30
0.0
 40
2.0
  0
LINE
  5
E36
330
2
100
AcDbEntity
  8
L-ZISSEN
100
AcDbLine
 10
484.1044805248107
 20
137.9378754782148
 30
0.0
 11
484.1044805248107
 21
127.7378754782159
 31
0.0
  0
LINE
  5
E37
330
2
100
AcDbEntity
  8
L-ZISSEN
100
AcDbLine
 10
470.204480524811
 20
137.9378754782148
 30
0.0
 11
470.204480524811
 21
129.9378754782148
 31
0.0
  0
LINE
  5
E38
330
2
100
AcDbEntity
  8
L-ZISSEN
100
AcDbLine
 10
470.4544805248108
 20
146.4151256115471
 30
0.0
 11
470.4544805248111
 21
129.9378754782148
 31
0.0
  0
CIRCLE
  5
E39
330
2
100
AcDbEntity
  8
L-ZISSEN
100
AcDbCircle
 10
473.204480524811
 20
133.9378754782148
 30
0.0
 40
2.0
  0
LINE
  5
E3A
330
2
100
AcDbEntity
  8
L-ZISSEN
100
AcDbLine
 10
470.204480524811
 20
129.9378754782148
 30
0.0
 11
482.204480524811
 21
129.9378754782148
 31
0.0
  0
LINE
  5
E3B
330
2
100
AcDbEntity
  8
L-ZISSEN
100
AcDbLine
 10
484.1044805248107
 20
127.7378754782159
 30
0.0
 11
484.454480524811
 21
125.9378754782148
 31
0.0
  0
LINE
  5
E3C
330
2
100
AcDbEntity
  8
L-ZISSEN
100
AcDbLine
 10
476.204480524811
 20
144.8817922782138
 30
0.0
 11
484.3949485248117
 21
147.0659170782139
 31
0.0
  0
LINE
  5
E3D
330
2
100
AcDbEntity
  8
L-ZISSEN
100
AcDbLine
 10
476.204480524811
 20
149.9780834782134
 30
0.0
 11
483.8489173248112
 21
151.0701458782134
 31
0.0
  0
LINE
  5
E3E
330
2
100
AcDbEntity
  8
L-ZISSEN
100
AcDbLine
 10
483.1438428948727
 20
147.8277249499717
 30
0.0
 11
476.204480524811
 21
146.3749278534298
 31
0.0
  0
LINE
  5
E3F
330
2
100
AcDbEntity
  8
L-ZISSEN
100
AcDbLine
 10
476.204480524811
 20
149.4939810941916
 30
0.0
 11
483.1438428948727
 21
150.4853185756289
 31
0.0
  0
LINE
  5
E40
330
2
100
AcDbEntity
  8
L-TYUSIN
100
AcDbLine
 10
471.204480524811
 20
133.9378754782148
 30
0.0
 11
481.2044805248111
 21
133.9378754782148
 31
0.0
  0
ARC
  5
E41
330
2
100
AcDbEntity
  8
L-ZISSEN
100
AcDbCircle
 10
476.204480524811
 20
142.6878754782148
 30
0.0
 40
1.25
100
AcDbArc
 50
180.0
 51
0.0
  0
LINE
  5
E42
330
2
100
AcDbEntity
  8
L-ZISSEN
100
AcDbLine
 10
474.9544805248111
 20
142.6878754782148
 30
0.0
 11
474.9544805248112
 21
145.2151256115469
 31
0.0
  0
LINE
  5
E43
330
2
100
AcDbEntity
  8
L-ZISSEN
100
AcDbLine
 10
477.454480524811
 20
142.6878754782148
 30
0.0
 11
477.454480524811
 21
145.2151256115469
 31
0.0
  0
LINE
  5
E44
330
2
100
AcDbEntity
  8
L-ZISSEN
100
AcDbLine
 10
469.2651181547485
 20
147.8277249499717
 30
0.0
 11
476.204480524811
 21
146.3749278534298
 31
0.0
  0
LINE
  5
E45
330
2
100
AcDbEntity
  8
L-ZISSEN
100
AcDbLine
 10
476.204480524811
 20
149.4939810941916
 30
0.0
 11
469.2651181547485
 21
150.4853185756289
 31
0.0
  0
LINE
  5
E46
330
2
100
AcDbEntity
  8
L-ZISSEN
100
AcDbLine
 10
469.2651181547485
 20
150.4853185756289
 30
0.0
 11
469.2651181547485
 21
147.8277249499717
 31
0.0
  0
LINE
  5
E47
330
2
100
AcDbEntity
  8
L-ZISSEN
100
AcDbLine
 10
481.9544805248113
 20
137.9378754782148
 30
0.0
 11
484.454480524811
 21
137.9378754782148
 31
0.0
  0
LINE
  5
E48
330
2
100
AcDbEntity
  8
L-ZISSEN
100
AcDbLine
 10
489.454480524811
 20
149.837875478214
 30
0.0
 11
484.454480524811
 21
149.837875478214
 31
0.0
  0
LINE
  5
E49
330
2
100
AcDbEntity
  8
L-ZISSEN
100
AcDbLine
 10
484.3949485248117
 20
147.0659170782139
 30
0.0
 11
483.1438428948727
 21
147.8277249499717
 31
0.0
  0
LINE
  5
E4A
330
2
100
AcDbEntity
  8
L-ZISSEN
100
AcDbLine
 10
483.1438428948727
 20
150.4853185756289
 30
0.0
 11
483.8489173248112
 21
151.0701458782134
 31
0.0
  0
LINE
  5
E4B
330
2
100
AcDbEntity
  8
L-ZISSEN
100
AcDbLine
 10
483.1438428948727
 20
150.9694209596512
 30
0.0
 11
483.8489173248112
 21
151.0701458782134
 31
0.0
  0
LINE
  5
E4C
330
2
100
AcDbEntity
  8
L-ZISSEN
100
AcDbLine
 10
483.1438428948727
 20
150.4853185756289
 30
0.0
 11
483.1438428948727
 21
147.8277249499717
 31
0.0
  0
LINE
  5
E4D
330
2
100
AcDbEntity
  8
L-ZISSEN
100
AcDbLine
 10
474.6680379656163
 20
168.3245407438055
 30
0.0
 11
461.2044805248112
 21
179.5441719444763
 31
0.0
  0
TEXT
  5
E4E
330
2
100
AcDbEntity
  8
L-ZISSEN
100
AcDbText
 10
448.2044805248112
 20
177.2941719444763
 30
0.0
 40
4.5
  1
P.P
100
AcDbText
  0
LINE
  5
E4F
330
2
100
AcDbEntity
  8
L-ZISSEN
100
AcDbLine
 10
454.0488046908016
 20
161.3378754782145
 30
0.0
 11
451.7445571185012
 21
161.3378754782127
 31
0.0
  0
LINE
  5
E50
330
2
100
AcDbEntity
  8
L-ZISSEN
100
AcDbLine
 10
462.9544805248119
 20
158.8689932697313
 30
0.0
 11
457.954480524812
 21
158.8689932697313
 31
0.0
  0
LINE
  5
E51
330
2
100
AcDbEntity
  8
L-ZISSEN
100
AcDbLine
 10
465.7044805248092
 20
166.0378754782188
 30
0.0
 11
465.7044805248055
 21
157.4378754782203
 31
0.0
  0
LINE
  5
E52
330
2
100
AcDbEntity
  8
L-ZISSEN
100
AcDbLine
 10
465.7044805248055
 20
157.4378754782203
 30
0.0
 11
467.9544805248101
 21
157.4378754782185
 31
0.0
  0
LINE
  5
E53
330
2
100
AcDbEntity
  8
L-ZISSEN
100
AcDbLine
 10
467.9544805248092
 20
166.0378754782188
 30
0.0
 11
465.7044805248092
 21
166.0378754782188
 31
0.0
  0
LINE
  5
E54
330
2
100
AcDbEntity
  8
L-ZISSEN
100
AcDbLine
 10
461.2044805248112
 20
179.5441719444763
 30
0.0
 11
459.2044805248113
 21
179.5441719444763
 31
0.0
  0
LINE
  5
E55
330
2
100
AcDbEntity
  8
L-ZISSEN
100
AcDbLine
 10
478.0245845248128
 20
162.8267490782111
 30
0.0
 11
480.9367509248127
 21
162.8267490782111
 31
0.0
  0
LINE
  5
E56
330
2
100
AcDbEntity
  8
L-ZISSEN
100
AcDbLine
 10
478.0245845248128
 20
162.8267490782111
 30
0.0
 11
480.9367509248127
 21
162.8267490782111
 31
0.0
  0
LINE
  5
E57
330
2
100
AcDbEntity
  8
L-ZISSEN
100
AcDbLine
 10
478.0245845248128
 20
162.0987074782108
 30
0.0
 11
480.9367509248127
 21
162.0987074782108
 31
0.0
  0
LINE
  5
E58
330
2
100
AcDbEntity
  8
L-ZISSEN
100
AcDbLine
 10
478.0245845248128
 20
162.0987074782108
 30
0.0
 11
480.9367509248127
 21
162.0987074782108
 31
0.0
  0
LINE
  5
E59
330
2
100
AcDbEntity
  8
L-ZISSEN
100
AcDbLine
 10
475.4764389248102
 20
157.258499478213
 30
0.0
 11
474.0203557248101
 21
157.258499478213
 31
0.0
  0
LINE
  5
E5A
330
2
100
AcDbEntity
  8
L-ZISSEN
100
AcDbLine
 10
474.3843765248084
 20
162.8267490782111
 30
0.0
 11
471.4722101248084
 21
162.8267490782111
 31
0.0
  0
LINE
  5
E5B
330
2
100
AcDbEntity
  8
L-ZISSEN
100
AcDbLine
 10
474.3843765248084
 20
162.8267490782111
 30
0.0
 11
471.4722101248084
 21
162.8267490782111
 31
0.0
  0
LINE
  5
E5C
330
2
100
AcDbEntity
  8
L-ZISSEN
100
AcDbLine
 10
474.3843765248084
 20
162.0987074782108
 30
0.0
 11
471.4722101248084
 21
162.0987074782108
 31
0.0
  0
LINE
  5
E5D
330
2
100
AcDbEntity
  8
L-ZISSEN
100
AcDbLine
 10
474.3843765248084
 20
162.0987074782108
 30
0.0
 11
471.4722101248084
 21
162.0987074782108
 31
0.0
  0
LINE
  5
E5E
330
2
100
AcDbEntity
  8
L-ZISSEN
100
AcDbLine
 10
471.4722101248084
 20
162.8267490782111
 30
0.0
 11
471.4722101248084
 21
163.554790678211
 31
0.0
  0
LINE
  5
E5F
330
2
100
AcDbEntity
  8
L-ZISSEN
100
AcDbLine
 10
471.4722101248084
 20
163.554790678211
 30
0.0
 11
469.6521061248086
 21
162.4627282782109
 31
0.0
  0
LINE
  5
E60
330
2
100
AcDbEntity
  8
L-ZISSEN
100
AcDbLine
 10
471.4722101248084
 20
161.3706658782109
 30
0.0
 11
469.6521061248086
 21
162.4627282782109
 31
0.0
  0
LINE
  5
E61
330
2
100
AcDbEntity
  8
L-ZISSEN
100
AcDbLine
 10
471.4722101248084
 20
162.0987074782108
 30
0.0
 11
471.4722101248084
 21
161.3706658782109
 31
0.0
  0
LINE
  5
E62
330
2
100
AcDbEntity
  8
L-ZISSEN
100
AcDbLine
 10
475.4764389248098
 20
164.2828322782131
 30
0.0
 11
475.4764389248102
 21
157.258499478213
 31
0.0
  0
LINE
  5
E63
330
2
100
AcDbEntity
  8
L-ZISSEN
100
AcDbLine
 10
476.93252212481
 20
164.2828322782131
 30
0.0
 11
476.93252212481
 21
157.258499478213
 31
0.0
  0
LINE
  5
E64
330
2
100
AcDbEntity
  8
L-ZISSEN
100
AcDbLine
 10
475.4764389248102
 20
163.0828322782129
 30
0.0
 11
475.4764389248102
 21
157.258499478213
 31
0.0
  0
LINE
  5
E65
330
2
100
AcDbEntity
  8
L-ZISSEN
100
AcDbLine
 10
474.3843765248084
 20
162.8267490782111
 30
0.0
 11
474.3843765248084
 21
162.0987074782108
 31
0.0
  0
LINE
  5
E66
330
2
100
AcDbEntity
  8
L-ZISSEN
100
AcDbLine
 10
476.93252212481
 20
157.258499478213
 30
0.0
 11
478.3886053248102
 21
157.258499478213
 31
0.0
  0
LINE
  5
E67
330
2
100
AcDbEntity
  8
L-ZISSEN
100
AcDbLine
 10
476.93252212481
 20
163.0828322782129
 30
0.0
 11
476.93252212481
 21
157.258499478213
 31
0.0
  0
LINE
  5
E68
330
2
100
AcDbEntity
  8
L-ZISSEN
100
AcDbLine
 10
478.0245845248128
 20
162.8267490782111
 30
0.0
 11
478.0245845248128
 21
162.0987074782108
 31
0.0
  0
LINE
  5
E69
330
2
100
AcDbEntity
  8
L-ZISSEN
100
AcDbLine
 10
476.93252212481
 20
164.2828322782127
 30
0.0
 11
475.4764389248102
 21
164.2828322782127
 31
0.0
  0
SOLID
  5
E6A
330
2
100
AcDbEntity
  8
L-ZISSEN
100
AcDbTrace
 10
474.4546431657282
 20
168.0684669839395
 30
0.0
 11
474.8814327655045
 21
168.5806145036711
 31
0.0
 12
476.204480524811
 22
167.0441719444763
 32
0.0
 13
476.204480524811
 23
167.0441719444763
 33
0.0
  0
LINE
  5
E6B
330
2
100
AcDbEntity
  8
L-ZISSEN
100
AcDbLine
 10
484.4544805248101
 20
166.0378754782152
 30
0.0
 11
486.704480524811
 21
166.0378754782152
 31
0.0
  0
LINE
  5
E6C
330
2
100
AcDbEntity
  8
L-ZISSEN
100
AcDbLine
 10
486.704480524811
 20
157.4378754782167
 30
0.0
 11
484.4544805248101
 21
157.4378754782149
 31
0.0
  0
LINE
  5
E6D
330
2
100
AcDbEntity
  8
L-ZISSEN
100
AcDbLine
 10
480.9367509248127
 20
162.8267490782111
 30
0.0
 11
480.9367509248127
 21
163.554790678211
 31
0.0
  0
LINE
  5
E6E
330
2
100
AcDbEntity
  8
L-ZISSEN
100
AcDbLine
 10
480.9367509248127
 20
163.554790678211
 30
0.0
 11
482.7568549248126
 21
162.4627282782109
 31
0.0
  0
LINE
  5
E6F
330
2
100
AcDbEntity
  8
L-ZISSEN
100
AcDbLine
 10
480.9367509248127
 20
161.3706658782109
 30
0.0
 11
482.7568549248126
 21
162.4627282782109
 31
0.0
  0
LINE
  5
E70
330
2
100
AcDbEntity
  8
L-ZISSEN
100
AcDbLine
 10
480.9367509248127
 20
162.0987074782108
 30
0.0
 11
480.9367509248127
 21
161.3706658782109
 31
0.0
  0
LINE
  5
E71
330
2
100
AcDbEntity
  8
L-ZISSEN
100
AcDbLine
 10
486.704480524811
 20
166.0378754782152
 30
0.0
 11
486.704480524811
 21
157.4378754782149
 31
0.0
  0
TEXT
  5
E72
330
2
100
AcDbEntity
  8
L-ZISSEN
100
AcDbText
 10
336.6734901979004
 20
208.3287878406201
 30
0.0
 40
4.5
  1
MODEL NO. L63- 00-*2**
100
AcDbText
  0
TEXT
  5
E73
330
2
100
AcDbEntity
  8
L-ZISSEN
100
AcDbText
 10
396.7724229062034
 20
205.1743692074344
 30
0.0
 40
4.5
  1
3
100
AcDbText
  0
TEXT
  5
E74
330
2
100
AcDbEntity
  8
L-ZISSEN
100
AcDbText
 10
396.7724229062034
 20
211.6852328776342
 30
0.0
 40
4.5
  1
2
100
AcDbText
  0
LINE
  5
E75
330
2
100
AcDbEntity
  8
L-ZISSEN
100
AcDbLine
 10
498.5137372891199
 20
166.8817922782138
 30
0.0
 11
496.3062961713301
 21
87.19826728459588
 31
0.0
  0
ARC
  5
E76
330
2
100
AcDbEntity
  8
L-ZISSEN
100
AcDbCircle
 10
492.3532359330481
 20
87.20365388162395
 30
0.0
 40
3.95306390827567
100
AcDbArc
 50
295.9886989668974
 51
359.9219265414491
  0
LINE
  5
E77
330
2
100
AcDbEntity
  8
L-ZISSEN
100
AcDbLine
 10
494.4544805248104
 20
158.8689932697313
 30
0.0
 11
494.4544805248101
 21
149.837875478214
 31
0.0
  0
LINE
  5
E78
330
2
100
AcDbEntity
  8
L-ZISSEN
100
AcDbLine
 10
494.4544805248101
 20
149.837875478214
 30
0.0
 11
498.041576415771
 21
149.837875478214
 31
0.0
  0
LINE
  5
EB9
330
2
100
AcDbEntity
  8
L-ZISSEN
100
AcDbLine
 10
383.6716817465553
 20
75.54417194447637
 30
0.0
 11
368.6716817465554
 21
75.54417194447637
 31
0.0
  0
LINE
  5
EBA
330
2
100
AcDbEntity
  8
L-ZISSEN
100
AcDbLine
 10
368.6716817465554
 20
75.54417194447637
 30
0.0
 11
368.6716817465553
 21
77.54417194447637
 31
0.0
  0
LINE
  5
EBC
330
2
100
AcDbEntity
  8
L-ZISSEN
100
AcDbLine
 10
376.1716817465554
 20
75.54417194447637
 30
0.0
 11
376.1716817465554
 21
77.54417194447637
 31
0.0
  0
LINE
  5
EBD
330
2
100
AcDbEntity
  8
L-ZISSEN
100
AcDbLine
 10
383.6716817465553
 20
75.54417194447637
 30
0.0
 11
383.6716817465554
 21
77.54417194447637
 31
0.0
  0
LINE
  5
ECD
330
2
100
AcDbEntity
  8
L-ZISSEN
100
AcDbLine
 10
484.8647345626556
 20
75.38179227821341
 30
0.0
 11
467.5442264869667
 21
75.38179227821341
 31
0.0
  0
LINE
  5
ECE
330
2
100
AcDbEntity
  8
L-ZISSEN
100
AcDbLine
 10
467.5442264869667
 20
75.38179227821341
 30
0.0
 11
467.5442264869667
 21
77.38179227821341
 31
0.0
  0
LINE
  5
ECF
330
2
100
AcDbEntity
  8
L-ZISSEN
100
AcDbLine
 10
471.8743535058889
 20
75.38179227821341
 30
0.0
 11
471.8743535058889
 21
77.38179227821341
 31
0.0
  0
LINE
  5
ED0
330
2
100
AcDbEntity
  8
L-ZISSEN
100
AcDbLine
 10
480.5346075437333
 20
75.38179227821341
 30
0.0
 11
480.5346075437333
 21
77.38179227821341
 31
0.0
  0
LINE
  5
ED1
330
2
100
AcDbEntity
  8
L-ZISSEN
100
AcDbLine
 10
484.8647345626556
 20
75.38179227821341
 30
0.0
 11
484.8647345626556
 21
77.38179227821341
 31
0.0
  0
TEXT
  5
F66
330
2
100
AcDbEntity
  8
L-ZISSEN
100
AcDbText
 10
244.8091641083076
 20
262.8645681421721
 30
0.0
 40
4.5
  1
2
100
AcDbText
  0
TEXT
  5
F67
330
2
100
AcDbEntity
  8
L-ZISSEN
100
AcDbText
 10
244.8091641083076
 20
257.0465047943366
 30
0.0
 40
4.5
  1
3
100
AcDbText
  0
ENDSEC
  0
SECTION
  2
OBJECTS
  0
DICTIONARY
  5
9
330
0
100
AcDbDictionary
  3
ACAD_GROUP
350
26
  3
ACAD_LAYOUT
350
E
  3
ACAD_MLINESTYLE
350
27
  3
ACAD_PLOTSETTINGS
350
28
1001
ACAD
1000
TREAT_AS_HARD
1070
     0
  0
DICTIONARY
  5
16
330
15
100
AcDbDictionary
  3
ACAD_LAYERSTATES
350
17
1001
ACAD
1000
TREAT_AS_HARD
1070
     1
  0
DICTIONARY
  5
3
330
2
100
AcDbDictionary
  3
ACAD_LAYOUTSELFREF
350
1048
1001
ACAD
1000
TREAT_AS_HARD
1070
     1
  0
DICTIONARY
  5
10
330
F
100
AcDbDictionary
  3
ACAD_LAYOUTSELFREF
350
1049
1001
ACAD
1000
TREAT_AS_HARD
1070
     1
  0
DICTIONARY
  5
26
102
{ACAD_REACTORS
330
9
102
}
330
9
100
AcDbDictionary
1001
ACAD
1000
TREAT_AS_HARD
1070
     0
  0
DICTIONARY
  5
E
102
{ACAD_REACTORS
330
9
102
}
330
9
100
AcDbDictionary
1001
ACAD
1000
TREAT_AS_HARD
1070
     0
  0
DICTIONARY
  5
27
102
{ACAD_REACTORS
330
9
102
}
330
9
100
AcDbDictionary
  3
STANDARD
350
2A
1001
ACAD
1000
TREAT_AS_HARD
1070
     0
  0
DICTIONARY
  5
28
102
{ACAD_REACTORS
330
9
102
}
330
9
100
AcDbDictionary
1001
ACAD
1000
TREAT_AS_HARD
1070
     0
  0
DICTIONARY
  5
17
102
{ACAD_REACTORS
330
16
102
}
330
16
100
AcDbDictionary
1001
ACAD
1000
TREAT_AS_HARD
1070
     0
  0
XRECORD
  5
1048
102
{ACAD_REACTORS
330
3
102
}
330
3
100
AcDbXrecord
340
2
  0
XRECORD
  5
1049
102
{ACAD_REACTORS
330
10
102
}
330
10
100
AcDbXrecord
340
F
  0
MLINESTYLE
  5
2A
102
{ACAD_REACTORS
330
27
102
}
330
27
100
AcDbMlineStyle
  2
STANDARD
 70
     0
  3

 62
     0
 51
90.0
 52
90.0
 71
     2
 49
0.5
 62
   256
  6
BYLAYER
 49
-0.5
 62
   256
  6
BYLAYER
  0
ENDSEC
  0
EOF
