  0
SECTION
  2
HEADER
  9
$ACADVER
  1
AC1012
  9
$DWGCODEPAGE
  3
dos932
  9
$INSBASE
 10
0.0
 20
0.0
 30
0.0
  9
$EXTMIN
 10
66.99999999999807
 20
3.387893572195935
 30
0.0
  9
$EXTMAX
 10
240.3753292913818
 20
225.0000000000013
 30
0.0
  9
$LIMMIN
 10
0.0
 20
0.0
  9
$LIMMAX
 10
12.0
 20
9.0
  9
$ORTHOMODE
 70
     1
  9
$REGENMODE
 70
     1
  9
$FILLMODE
 70
     1
  9
$QTEXTMODE
 70
     0
  9
$MIRRTEXT
 70
     1
  9
$DRAGMODE
 70
     2
  9
$LTSCALE
 40
1.0
  9
$OSMODE
 70
    39
  9
$ATTMODE
 70
     1
  9
$TEXTSIZE
 40
4.5
  9
$TRACEWID
 40
0.05
  9
$TEXTSTYLE
  7
STANDARD
  9
$CLAYER
  8
L-ZISSEN
  9
$CELTYPE
  6
BYLAYER
  9
$CECOLOR
 62
   256
  9
$CELTSCALE
 40
1.0
  9
$DELOBJ
 70
     1
  9
$DISPSILH
 70
     0
  9
$DIMSCALE
 40
0.0
  9
$DIMASZ
 40
2.0
  9
$DIMEXO
 40
1.0
  9
$DIMDLI
 40
8.0
  9
$DIMRND
 40
0.0
  9
$DIMDLE
 40
0.0
  9
$DIMEXE
 40
1.0
  9
$DIMTP
 40
0.0
  9
$DIMTM
 40
0.0
  9
$DIMTXT
 40
4.5
  9
$DIMCEN
 40
1.5
  9
$DIMTSZ
 40
0.0
  9
$DIMTOL
 70
     0
  9
$DIMLIM
 70
     0
  9
$DIMTIH
 70
     0
  9
$DIMTOH
 70
     0
  9
$DIMSE1
 70
     0
  9
$DIMSE2
 70
     0
  9
$DIMTAD
 70
     1
  9
$DIMZIN
 70
     8
  9
$DIMBLK
  1

  9
$DIMASO
 70
     1
  9
$DIMSHO
 70
     0
  9
$DIMPOST
  1

  9
$DIMAPOST
  1

  9
$DIMALT
 70
     0
  9
$DIMALTD
 70
     2
  9
$DIMALTF
 40
25.4
  9
$DIMLFAC
 40
1.0
  9
$DIMTOFL
 70
     1
  9
$DIMTVP
 40
0.0
  9
$DIMTIX
 70
     1
  9
$DIMSOXD
 70
     0
  9
$DIMSAH
 70
     0
  9
$DIMBLK1
  1

  9
$DIMBLK2
  1

  9
$DIMSTYLE
  2
STANDARD
  9
$DIMCLRD
 70
     0
  9
$DIMCLRE
 70
     0
  9
$DIMCLRT
 70
     0
  9
$DIMTFAC
 40
1.0
  9
$DIMGAP
 40
1.399999999999999
  9
$DIMJUST
 70
     0
  9
$DIMSD1
 70
     0
  9
$DIMSD2
 70
     0
  9
$DIMTOLJ
 70
     1
  9
$DIMTZIN
 70
     8
  9
$DIMALTZ
 70
     0
  9
$DIMALTTZ
 70
     0
  9
$DIMFIT
 70
     3
  9
$DIMUPT
 70
     0
  9
$DIMUNIT
 70
     2
  9
$DIMDEC
 70
     4
  9
$DIMTDEC
 70
     4
  9
$DIMALTU
 70
     2
  9
$DIMALTTD
 70
     2
  9
$DIMTXSTY
  7
STANDARD
  9
$DIMAUNIT
 70
     0
  9
$LUNITS
 70
     2
  9
$LUPREC
 70
     4
  9
$SKETCHINC
 40
0.1
  9
$FILLETRAD
 40
5.0
  9
$AUNITS
 70
     0
  9
$AUPREC
 70
     0
  9
$MENU
  1
acad
  9
$ELEVATION
 40
0.0
  9
$PELEVATION
 40
0.0
  9
$THICKNESS
 40
0.0
  9
$LIMCHECK
 70
     0
  9
$BLIPMODE
 70
     0
  9
$CHAMFERA
 40
1.0
  9
$CHAMFERB
 40
1.0
  9
$CHAMFERC
 40
0.0
  9
$CHAMFERD
 40
0.0
  9
$SKPOLY
 70
     0
  9
$TDCREATE
 40
2450178.569598264
  9
$TDUPDATE
 40
2455072.662390405
  9
$TDINDWG
 40
0.6874297338
  9
$TDUSRTIMER
 40
0.6874297338
  9
$USRTIMER
 70
     1
  9
$ANGBASE
 50
0.0
  9
$ANGDIR
 70
     0
  9
$PDMODE
 70
     0
  9
$PDSIZE
 40
0.0
  9
$PLINEWID
 40
0.0
  9
$COORDS
 70
     0
  9
$SPLFRAME
 70
     0
  9
$SPLINETYPE
 70
     6
  9
$SPLINESEGS
 70
     8
  9
$ATTDIA
 70
     0
  9
$ATTREQ
 70
     1
  9
$HANDLING
 70
-16383
  9
$HANDSEED
  5
7BF
  9
$SURFTAB1
 70
     6
  9
$SURFTAB2
 70
     6
  9
$SURFTYPE
 70
     6
  9
$SURFU
 70
     6
  9
$SURFV
 70
     6
  9
$UCSNAME
  2

  9
$UCSORG
 10
0.0
 20
0.0
 30
0.0
  9
$UCSXDIR
 10
1.0
 20
0.0
 30
0.0
  9
$UCSYDIR
 10
0.0
 20
1.0
 30
0.0
  9
$PUCSNAME
  2

  9
$PUCSORG
 10
0.0
 20
0.0
 30
0.0
  9
$PUCSXDIR
 10
1.0
 20
0.0
 30
0.0
  9
$PUCSYDIR
 10
0.0
 20
1.0
 30
0.0
  9
$USERI1
 70
     0
  9
$USERI2
 70
     0
  9
$USERI3
 70
     0
  9
$USERI4
 70
     0
  9
$USERI5
 70
     0
  9
$USERR1
 40
0.0
  9
$USERR2
 40
0.0
  9
$USERR3
 40
0.0
  9
$USERR4
 40
0.0
  9
$USERR5
 40
0.0
  9
$WORLDVIEW
 70
     1
  9
$SHADEDGE
 70
     3
  9
$SHADEDIF
 70
    70
  9
$TILEMODE
 70
     1
  9
$MAXACTVP
 70
    16
  9
$PINSBASE
 10
0.0
 20
0.0
 30
0.0
  9
$PLIMCHECK
 70
     0
  9
$PEXTMIN
 10
1.000000000000000E+20
 20
1.000000000000000E+20
 30
1.000000000000000E+20
  9
$PEXTMAX
 10
-1.000000000000000E+20
 20
-1.000000000000000E+20
 30
-1.000000000000000E+20
  9
$PLIMMIN
 10
0.0
 20
0.0
  9
$PLIMMAX
 10
12.0
 20
9.0
  9
$UNITMODE
 70
     0
  9
$VISRETAIN
 70
     0
  9
$PLINEGEN
 70
     0
  9
$PSLTSCALE
 70
     0
  9
$TREEDEPTH
 70
  3020
  9
$PICKSTYLE
 70
     1
  9
$CMLSTYLE
  2
STANDARD
  9
$CMLJUST
 70
     0
  9
$CMLSCALE
 40
1.0
  9
$SAVEIMAGES
 70
     1
  0
ENDSEC
  0
SECTION
  2
CLASSES
  0
CLASS
  1
ACDBDICTIONARYWDFLT
  2
AcDbDictionaryWithDefault
  3
AutoCAD 2000
 90
    32768
280
     0
281
     0
  0
CLASS
  1
ACDBPLACEHOLDER
  2
AcDbPlaceHolder
  3
AutoCAD 2000
 90
    32768
280
     0
281
     0
  0
CLASS
  1
LAYOUT
  2
AcDbLayout
  3
AutoCAD 2000
 90
    32768
280
     0
281
     0
  0
CLASS
  1
LONG_TRANSACTION
  2
AcDbLongTransaction
  3
AutoCAD 2000
 90
    32768
280
     0
281
     0
  0
CLASS
  1
LWPOLYLINE
  2
AcDbPolyline
  3
AutoCAD 2000
 90
    32768
280
     0
281
     1
  0
CLASS
  1
HATCH
  2
AcDbHatch
  3
AutoCAD 2000
 90
    32768
280
     0
281
     1
  0
CLASS
  1
XRECORD
  2
AcDbXrecord
  3
AutoCAD 2000
 90
    32768
280
     0
281
     0
  0
CLASS
  1
LONG_TRANSACTION
  2
AcDbLongTransaction
  3
AutoCAD 2000
 90
    32768
280
     0
281
     0
  0
CLASS
  1
LWPOLYLINE
  2
AcDbPolyline
  3
AutoCAD 2000
 90
    32768
280
     0
281
     1
  0
CLASS
  1
HATCH
  2
AcDbHatch
  3
AutoCAD 2000
 90
    32768
280
     0
281
     1
  0
CLASS
  1
XRECORD
  2
AcDbXrecord
  3
AutoCAD 2000
 90
    32768
280
     0
281
     0
  0
CLASS
  1
LONG_TRANSACTION
  2
AcDbLongTransaction
  3
AutoCAD 2000
 90
    32768
280
     0
281
     0
  0
CLASS
  1
LWPOLYLINE
  2
AcDbPolyline
  3
AutoCAD 2000
 90
    32768
280
     0
281
     1
  0
CLASS
  1
HATCH
  2
AcDbHatch
  3
AutoCAD 2000
 90
    32768
280
     0
281
     1
  0
CLASS
  1
XRECORD
  2
AcDbXrecord
  3
AutoCAD 2000
 90
    32768
280
     0
281
     0
  0
CLASS
  1
LONG_TRANSACTION
  2
AcDbLongTransaction
  3
AutoCAD 2000
 90
    32768
280
     0
281
     0
  0
CLASS
  1
LWPOLYLINE
  2
AcDbPolyline
  3
AutoCAD 2000
 90
    32768
280
     0
281
     1
  0
CLASS
  1
HATCH
  2
AcDbHatch
  3
AutoCAD 2000
 90
    32768
280
     0
281
     1
  0
CLASS
  1
XRECORD
  2
AcDbXrecord
  3
AutoCAD 2000
 90
    32768
280
     0
281
     0
  0
CLASS
  1
LONG_TRANSACTION
  2
AcDbLongTransaction
  3
AutoCAD 2000
 90
    32768
280
     0
281
     0
  0
CLASS
  1
LWPOLYLINE
  2
AcDbPolyline
  3
AutoCAD 2000
 90
    32768
280
     0
281
     1
  0
CLASS
  1
HATCH
  2
AcDbHatch
  3
AutoCAD 2000
 90
    32768
280
     0
281
     1
  0
CLASS
  1
XRECORD
  2
AcDbXrecord
  3
AutoCAD 2000
 90
    32768
280
     0
281
     0
  0
CLASS
  1
LONG_TRANSACTION
  2
AcDbLongTransaction
  3
AutoCAD 2000
 90
    32768
280
     0
281
     0
  0
CLASS
  1
LWPOLYLINE
  2
AcDbPolyline
  3
AutoCAD 2000
 90
    32768
280
     0
281
     1
  0
CLASS
  1
HATCH
  2
AcDbHatch
  3
AutoCAD 2000
 90
    32768
280
     0
281
     1
  0
CLASS
  1
XRECORD
  2
AcDbXrecord
  3
AutoCAD 2000
 90
    32768
280
     0
281
     0
  0
CLASS
  1
LONG_TRANSACTION
  2
AcDbLongTransaction
  3
AutoCAD 2000
 90
    32768
280
     0
281
     0
  0
CLASS
  1
LWPOLYLINE
  2
AcDbPolyline
  3
AutoCAD 2000
 90
    32768
280
     0
281
     1
  0
CLASS
  1
HATCH
  2
AcDbHatch
  3
AutoCAD 2000
 90
    32768
280
     0
281
     1
  0
CLASS
  1
XRECORD
  2
AcDbXrecord
  3
AutoCAD 2000
 90
    32768
280
     0
281
     0
  0
CLASS
  1
LONG_TRANSACTION
  2
AcDbLongTransaction
  3
AutoCAD 2000
 90
    32768
280
     0
281
     0
  0
CLASS
  1
LWPOLYLINE
  2
AcDbPolyline
  3
AutoCAD 2000
 90
    32768
280
     0
281
     1
  0
CLASS
  1
HATCH
  2
AcDbHatch
  3
AutoCAD 2000
 90
    32768
280
     0
281
     1
  0
CLASS
  1
XRECORD
  2
AcDbXrecord
  3
AutoCAD 2000
 90
    32768
280
     0
281
     0
  0
CLASS
  1
LONG_TRANSACTION
  2
AcDbLongTransaction
  3
AutoCAD 2000
 90
    32768
280
     0
281
     0
  0
CLASS
  1
LWPOLYLINE
  2
AcDbPolyline
  3
AutoCAD 2000
 90
    32768
280
     0
281
     1
  0
CLASS
  1
HATCH
  2
AcDbHatch
  3
AutoCAD 2000
 90
    32768
280
     0
281
     1
  0
CLASS
  1
XRECORD
  2
AcDbXrecord
  3
AutoCAD 2000
 90
    32768
280
     0
281
     0
  0
CLASS
  1
LONG_TRANSACTION
  2
AcDbLongTransaction
  3
AutoCAD 2000
 90
    32768
280
     0
281
     0
  0
CLASS
  1
LWPOLYLINE
  2
AcDbPolyline
  3
AutoCAD 2000
 90
    32768
280
     0
281
     1
  0
CLASS
  1
HATCH
  2
AcDbHatch
  3
AutoCAD 2000
 90
    32768
280
     0
281
     1
  0
CLASS
  1
XRECORD
  2
AcDbXrecord
  3
AutoCAD 2000
 90
    32768
280
     0
281
     0
  0
CLASS
  1
LONG_TRANSACTION
  2
AcDbLongTransaction
  3
AutoCAD 2000
 90
    32768
280
     0
281
     0
  0
CLASS
  1
LWPOLYLINE
  2
AcDbPolyline
  3
AutoCAD 2000
 90
    32768
280
     0
281
     1
  0
CLASS
  1
HATCH
  2
AcDbHatch
  3
AutoCAD 2000
 90
    32768
280
     0
281
     1
  0
CLASS
  1
XRECORD
  2
AcDbXrecord
  3
AutoCAD 2000
 90
    32768
280
     0
281
     0
  0
CLASS
  1
LONG_TRANSACTION
  2
AcDbLongTransaction
  3
AutoCAD 2000
 90
    32768
280
     0
281
     0
  0
CLASS
  1
LWPOLYLINE
  2
AcDbPolyline
  3
AutoCAD 2000
 90
    32768
280
     0
281
     1
  0
CLASS
  1
HATCH
  2
AcDbHatch
  3
AutoCAD 2000
 90
    32768
280
     0
281
     1
  0
CLASS
  1
XRECORD
  2
AcDbXrecord
  3
AutoCAD 2000
 90
    32768
280
     0
281
     0
  0
CLASS
  1
LONG_TRANSACTION
  2
AcDbLongTransaction
  3
AutoCAD 2000
 90
    32768
280
     0
281
     0
  0
CLASS
  1
LWPOLYLINE
  2
AcDbPolyline
  3
AutoCAD 2000
 90
    32768
280
     0
281
     1
  0
CLASS
  1
HATCH
  2
AcDbHatch
  3
AutoCAD 2000
 90
    32768
280
     0
281
     1
  0
CLASS
  1
XRECORD
  2
AcDbXrecord
  3
AutoCAD 2000
 90
    32768
280
     0
281
     0
  0
CLASS
  1
LONG_TRANSACTION
  2
AcDbLongTransaction
  3
AutoCAD 2000
 90
    32768
280
     0
281
     0
  0
CLASS
  1
LWPOLYLINE
  2
AcDbPolyline
  3
AutoCAD 2000
 90
    32768
280
     0
281
     1
  0
CLASS
  1
HATCH
  2
AcDbHatch
  3
AutoCAD 2000
 90
    32768
280
     0
281
     1
  0
CLASS
  1
XRECORD
  2
AcDbXrecord
  3
AutoCAD 2000
 90
    32768
280
     0
281
     0
  0
CLASS
  1
LONG_TRANSACTION
  2
AcDbLongTransaction
  3
AutoCAD 2000
 90
    32768
280
     0
281
     0
  0
CLASS
  1
LWPOLYLINE
  2
AcDbPolyline
  3
AutoCAD 2000
 90
    32768
280
     0
281
     1
  0
CLASS
  1
HATCH
  2
AcDbHatch
  3
AutoCAD 2000
 90
    32768
280
     0
281
     1
  0
CLASS
  1
XRECORD
  2
AcDbXrecord
  3
AutoCAD 2000
 90
    32768
280
     0
281
     0
  0
CLASS
  1
LONG_TRANSACTION
  2
AcDbLongTransaction
  3
AutoCAD 2000
 90
    32768
280
     0
281
     0
  0
CLASS
  1
LWPOLYLINE
  2
AcDbPolyline
  3
AutoCAD 2000
 90
    32768
280
     0
281
     1
  0
CLASS
  1
HATCH
  2
AcDbHatch
  3
AutoCAD 2000
 90
    32768
280
     0
281
     1
  0
CLASS
  1
XRECORD
  2
AcDbXrecord
  3
AutoCAD 2000
 90
    32768
280
     0
281
     0
  0
CLASS
  1
LONG_TRANSACTION
  2
AcDbLongTransaction
  3
AutoCAD 2000
 90
    32768
280
     0
281
     0
  0
CLASS
  1
LWPOLYLINE
  2
AcDbPolyline
  3
AutoCAD 2000
 90
    32768
280
     0
281
     1
  0
CLASS
  1
HATCH
  2
AcDbHatch
  3
AutoCAD 2000
 90
    32768
280
     0
281
     1
  0
CLASS
  1
XRECORD
  2
AcDbXrecord
  3
AutoCAD 2000
 90
    32768
280
     0
281
     0
  0
CLASS
  1
LONG_TRANSACTION
  2
AcDbLongTransaction
  3
AutoCAD 2000
 90
    32768
280
     0
281
     0
  0
CLASS
  1
LWPOLYLINE
  2
AcDbPolyline
  3
AutoCAD 2000
 90
    32768
280
     0
281
     1
  0
CLASS
  1
HATCH
  2
AcDbHatch
  3
AutoCAD 2000
 90
    32768
280
     0
281
     1
  0
CLASS
  1
XRECORD
  2
AcDbXrecord
  3
AutoCAD 2000
 90
    32768
280
     0
281
     0
  0
CLASS
  1
LONG_TRANSACTION
  2
AcDbLongTransaction
  3
AutoCAD 2000
 90
    32768
280
     0
281
     0
  0
CLASS
  1
LWPOLYLINE
  2
AcDbPolyline
  3
AutoCAD 2000
 90
    32768
280
     0
281
     1
  0
CLASS
  1
HATCH
  2
AcDbHatch
  3
AutoCAD 2000
 90
    32768
280
     0
281
     1
  0
CLASS
  1
XRECORD
  2
AcDbXrecord
  3
AutoCAD 2000
 90
    32768
280
     0
281
     0
  0
CLASS
  1
LONG_TRANSACTION
  2
AcDbLongTransaction
  3
AutoCAD 2000
 90
    32768
280
     0
281
     0
  0
CLASS
  1
LWPOLYLINE
  2
AcDbPolyline
  3
AutoCAD 2000
 90
    32768
280
     0
281
     1
  0
CLASS
  1
HATCH
  2
AcDbHatch
  3
AutoCAD 2000
 90
    32768
280
     0
281
     1
  0
CLASS
  1
XRECORD
  2
AcDbXrecord
  3
AutoCAD 2000
 90
    32768
280
     0
281
     0
  0
CLASS
  1
LONG_TRANSACTION
  2
AcDbLongTransaction
  3
AutoCAD 2000
 90
    32768
280
     0
281
     0
  0
CLASS
  1
LWPOLYLINE
  2
AcDbPolyline
  3
AutoCAD 2000
 90
    32768
280
     0
281
     1
  0
CLASS
  1
HATCH
  2
AcDbHatch
  3
AutoCAD 2000
 90
    32768
280
     0
281
     1
  0
CLASS
  1
XRECORD
  2
AcDbXrecord
  3
AutoCAD 2000
 90
    32768
280
     0
281
     0
  0
ENDSEC
  0
SECTION
  2
TABLES
  0
TABLE
  2
VPORT
  5
1F
330
0
100
AcDbSymbolTable
 70
     4
  0
VPORT
  5
7B5
330
1F
100
AcDbSymbolTableRecord
100
AcDbViewportTableRecord
  2
*ACTIVE
 70
     0
 10
0.0
 20
0.0
 11
1.0
 21
1.0
 12
153.6939511491382
 22
114.1926080880709
 13
0.0
 23
0.0
 14
1.0
 24
1.0
 15
0.0
 25
0.0
 16
0.0
 26
0.0
 36
1.0
 17
0.0
 27
0.0
 37
0.0
 40
223.0366642230825
 41
1.60759493670886
 42
50.0
 43
0.0
 44
0.0
 50
0.0
 51
0.0
 71
     0
 72
   100
 73
     1
 74
     0
 75
     0
 76
     0
 77
     0
 78
     0
  0
ENDTAB
  0
TABLE
  2
LTYPE
  5
1A
330
0
100
AcDbSymbolTable
 70
     3
  0
LTYPE
  5
1B
330
1A
100
AcDbSymbolTableRecord
100
AcDbLinetypeTableRecord
  2
BYBLOCK
 70
     0
  3

 72
    65
 73
     0
 40
0.0
  0
LTYPE
  5
1C
330
1A
100
AcDbSymbolTableRecord
100
AcDbLinetypeTableRecord
  2
BYLAYER
 70
     0
  3

 72
    65
 73
     0
 40
0.0
  0
LTYPE
  5
A
330
1A
100
AcDbSymbolTableRecord
100
AcDbLinetypeTableRecord
  2
CONTINUOUS
 70
     0
  3
Solid line
 72
    65
 73
     0
 40
0.0
  0
LTYPE
  5
2E
330
1A
100
AcDbSymbolTableRecord
100
AcDbLinetypeTableRecord
  2
CENTER
 70
     0
  3
----- - ----- - ----- - ----- - -----
 72
    65
 73
     4
 40
35.0
 49
30.0
 74
     0
 49
-1.5
 74
     0
 49
2.0
 74
     0
 49
-1.5
 74
     0
  0
LTYPE
  5
131
330
1A
100
AcDbSymbolTableRecord
100
AcDbLinetypeTableRecord
  2
PHANTOM
 70
     0
  3
----- - - ----- - - ----- - - ----- - - -----
 72
    65
 73
     6
 40
22.5
 49
15.0
 74
     4
 75
     0
340
0
 46
1.0
 50
0.0
 44
0.0
 45
0.0
 49
-1.5
 74
     4
 75
     0
340
0
 46
1.0
 50
0.0
 44
0.0
 45
0.0
 49
1.5
 74
     4
 75
     0
340
0
 46
1.0
 50
0.0
 44
0.0
 45
0.0
 49
-1.5
 74
     4
 75
     0
340
0
 46
1.0
 50
0.0
 44
0.0
 45
0.0
 49
1.5
 74
     4
 75
     0
340
0
 46
1.0
 50
0.0
 44
0.0
 45
0.0
 49
-1.5
 74
     4
 75
     0
340
0
 46
1.0
 50
0.0
 44
0.0
 45
0.0
  0
ENDTAB
  0
TABLE
  2
LAYER
  5
14
102
{ACAD_XDICTIONARY
360
15
102
}
330
0
100
AcDbSymbolTable
 70
     4
  0
LAYER
  5
6
330
14
100
AcDbSymbolTableRecord
100
AcDbLayerTableRecord
  2
0
 70
     0
 62
     7
  6
CONTINUOUS
  0
LAYER
  5
28
330
14
100
AcDbSymbolTableRecord
100
AcDbLayerTableRecord
  2
L-ZISSEN
 70
     0
 62
     7
  6
CONTINUOUS
  0
LAYER
  5
2D
330
14
100
AcDbSymbolTableRecord
100
AcDbLayerTableRecord
  2
L-TYUSIN
 70
     0
 62
     1
  6
CENTER
  0
LAYER
  5
132
330
14
100
AcDbSymbolTableRecord
100
AcDbLayerTableRecord
  2
L-SOUZOU
 70
     0
 62
     2
  6
PHANTOM
  0
ENDTAB
  0
TABLE
  2
STYLE
  5
17
330
0
100
AcDbSymbolTable
 70
     1
  0
STYLE
  5
18
330
17
100
AcDbSymbolTableRecord
100
AcDbTextStyleTableRecord
  2
STANDARD
 70
     0
 40
0.0
 41
1.0
 50
0.0
 71
     0
 42
4.5
  3
txt.shx
  4

  0
ENDTAB
  0
TABLE
  2
VIEW
  5
1D
330
0
100
AcDbSymbolTable
 70
     0
  0
ENDTAB
  0
TABLE
  2
UCS
  5
1E
330
0
100
AcDbSymbolTable
 70
     0
  0
ENDTAB
  0
TABLE
  2
APPID
  5
21
330
0
100
AcDbSymbolTable
 70
     1
  0
APPID
  5
22
330
21
100
AcDbSymbolTableRecord
100
AcDbRegAppTableRecord
  2
ACAD
 70
     0
  0
ENDTAB
  0
TABLE
  2
DIMSTYLE
  5
23
330
0
100
AcDbSymbolTable
 70
     1
  0
DIMSTYLE
105
2B
330
23
100
AcDbSymbolTableRecord
100
AcDbDimStyleTableRecord
  2
STANDARD
 70
     0
  3

  4

  5

  6

  7

 40
1.0
 41
0.18
 42
0.0625
 43
0.38
 44
0.18
 45
0.0
 46
0.0
 47
0.0
 48
0.0
140
0.18
141
0.09
142
0.0
143
25.4
144
1.0
145
0.0
146
1.0
147
0.09
 71
     0
 72
     0
 73
     1
 74
     1
 75
     0
 76
     0
 77
     0
 78
     0
170
     0
171
     2
172
     0
173
     0
174
     0
175
     0
176
     0
177
     0
178
     0
270
     2
271
     4
272
     4
273
     2
274
     2
340
18
275
     0
280
     0
281
     0
282
     0
283
     1
284
     0
285
     0
286
     0
287
     3
288
     0
  0
ENDTAB
  0
TABLE
  2
BLOCK_RECORD
  5
1
330
0
100
AcDbSymbolTable
 70
     0
  0
BLOCK_RECORD
  5
2
102
{ACAD_XDICTIONARY
360
3
102
}
330
1
100
AcDbSymbolTableRecord
100
AcDbBlockTableRecord
  2
*MODEL_SPACE
  0
BLOCK_RECORD
  5
E
102
{ACAD_XDICTIONARY
360
F
102
}
330
1
100
AcDbSymbolTableRecord
100
AcDbBlockTableRecord
  2
*PAPER_SPACE
  0
ENDTAB
  0
ENDSEC
  0
SECTION
  2
BLOCKS
  0
BLOCK
  5
5
330
2
100
AcDbEntity
  8
0
100
AcDbBlockBegin
  2
*MODEL_SPACE
 70
     0
 10
0.0
 20
0.0
 30
0.0
  3
*MODEL_SPACE
  1

  0
ENDBLK
  5
B
330
2
100
AcDbEntity
  8
0
100
AcDbBlockEnd
  0
BLOCK
  5
11
330
E
100
AcDbEntity
 67
     1
  8
0
100
AcDbBlockBegin
  2
*PAPER_SPACE
 70
     0
 10
0.0
 20
0.0
 30
0.0
  3
*PAPER_SPACE
  1

  0
ENDBLK
  5
12
330
E
100
AcDbEntity
 67
     1
  8
0
100
AcDbBlockEnd
  0
ENDSEC
  0
SECTION
  2
ENTITIES
  0
CIRCLE
  5
89
330
2
100
AcDbEntity
  8
L-ZISSEN
100
AcDbCircle
 10
100.0
 20
100.0
 30
0.0
 40
5.500000000000113
  0
LINE
  5
564
330
2
100
AcDbEntity
  8
L-ZISSEN
100
AcDbLine
 10
182.5040000000001
 20
75.42630434053305
 30
0.0
 11
182.5040000000019
 21
27.29400000000029
 31
0.0
  0
LINE
  5
565
330
2
100
AcDbEntity
  8
L-ZISSEN
100
AcDbLine
 10
217.4960000000021
 20
75.42630434053305
 30
0.0
 11
217.4960000000021
 21
27.29400000000029
 31
0.0
  0
LINE
  5
566
330
2
100
AcDbEntity
  8
L-ZISSEN
100
AcDbLine
 10
82.50400000000013
 20
75.42630434053307
 30
0.0
 11
82.50400000000196
 21
27.29400000000032
 31
0.0
  0
LINE
  5
567
330
2
100
AcDbEntity
  8
L-ZISSEN
100
AcDbLine
 10
117.4960000000021
 20
75.42630434053307
 30
0.0
 11
117.4960000000021
 21
27.29400000000032
 31
0.0
  0
LINE
  5
569
330
2
100
AcDbEntity
  8
L-TYUSIN
100
AcDbLine
 10
200.0000000000011
 20
3.387893572195935
 30
0.0
 11
200.0000000000011
 21
138.0240175260091
 31
0.0
  0
LINE
  5
56A
330
2
100
AcDbEntity
  8
L-TYUSIN
100
AcDbLine
 10
100.0000000000011
 20
3.387893572195935
 30
0.0
 11
100.0000000000011
 21
144.1080592276925
 31
0.0
  0
ARC
  5
56B
330
2
100
AcDbEntity
  8
L-ZISSEN
100
AcDbCircle
 10
105.3460000000025
 20
27.29400000000032
 30
0.0
 40
12.15000000000031
100
AcDbArc
 50
278.6209052325389
 51
0.0
  0
ARC
  5
56C
330
2
100
AcDbEntity
  8
L-ZISSEN
100
AcDbCircle
 10
94.65400000000158
 20
27.29400000000032
 30
0.0
 40
12.15000000000001
100
AcDbArc
 50
180.0
 51
261.379094767461
  0
LINE
  5
56D
330
2
100
AcDbEntity
  8
L-ZISSEN
100
AcDbLine
 10
107.1672375690225
 20
6.999999999999545
 30
0.0
 11
92.83276243097793
 21
6.999999999999545
 31
0.0
  0
LINE
  5
56E
330
2
100
AcDbEntity
  8
L-ZISSEN
100
AcDbLine
 10
96.2920068567903
 20
15.14399999999932
 30
0.0
 11
103.3022997866421
 21
15.14399999999932
 31
0.0
  0
LINE
  5
56F
330
2
100
AcDbEntity
  8
L-ZISSEN
100
AcDbLine
 10
92.83276243097793
 20
15.28127367675506
 30
0.0
 11
92.83276243097793
 21
6.999999999999545
 31
0.0
  0
LINE
  5
570
330
2
100
AcDbEntity
  8
L-ZISSEN
100
AcDbLine
 10
107.1672375690225
 20
15.28127367675506
 30
0.0
 11
107.1672375690225
 21
6.999999999999545
 31
0.0
  0
LINE
  5
571
330
2
100
AcDbEntity
  8
L-ZISSEN
100
AcDbLine
 10
207.1672375690225
 20
6.999999999999516
 30
0.0
 11
192.8327624309779
 21
6.999999999999516
 31
0.0
  0
LINE
  5
572
330
2
100
AcDbEntity
  8
L-ZISSEN
100
AcDbLine
 10
196.2920068567902
 20
15.14399999999929
 30
0.0
 11
203.3022997866421
 21
15.14399999999929
 31
0.0
  0
ARC
  5
573
330
2
100
AcDbEntity
  8
L-ZISSEN
100
AcDbCircle
 10
194.6540000000015
 20
27.29400000000029
 30
0.0
 40
12.15000000000001
100
AcDbArc
 50
180.0
 51
261.379094767461
  0
LINE
  5
574
330
2
100
AcDbEntity
  8
L-ZISSEN
100
AcDbLine
 10
192.8327624309779
 20
15.28127367675503
 30
0.0
 11
192.8327624309779
 21
6.999999999999516
 31
0.0
  0
ARC
  5
575
330
2
100
AcDbEntity
  8
L-ZISSEN
100
AcDbCircle
 10
205.3460000000025
 20
27.29400000000029
 30
0.0
 40
12.15000000000031
100
AcDbArc
 50
278.6209052325389
 51
0.0
  0
LINE
  5
576
330
2
100
AcDbEntity
  8
L-ZISSEN
100
AcDbLine
 10
207.1672375690225
 20
15.28127367675503
 30
0.0
 11
207.1672375690225
 21
6.999999999999516
 31
0.0
  0
LINE
  5
577
330
2
100
AcDbEntity
  8
L-ZISSEN
100
AcDbLine
 10
120.0000000000001
 20
95.99999999999909
 30
0.0
 11
114.000000000001
 21
95.99999999999909
 31
0.0
  0
LINE
  5
578
330
2
100
AcDbEntity
  8
L-ZISSEN
100
AcDbLine
 10
80.00000000000227
 20
77.99999999999954
 30
0.0
 11
120.0
 21
77.99999999999954
 31
0.0
  0
LINE
  5
579
330
2
100
AcDbEntity
  8
L-ZISSEN
100
AcDbLine
 10
114.4543886414678
 20
65.0500614627108
 30
0.0
 11
110.7379075738965
 21
65.0500614627108
 31
0.0
  0
LINE
  5
57A
330
2
100
AcDbEntity
  8
L-ZISSEN
100
AcDbLine
 10
114.4543886414678
 20
65.86006146271029
 30
0.0
 11
112.1136430192975
 21
65.86006146271029
 31
0.0
  0
CIRCLE
  5
57B
330
2
100
AcDbEntity
  8
L-ZISSEN
100
AcDbCircle
 10
114.0000000000011
 20
201.0000000000013
 30
0.0
 40
5.0
  0
LINE
  5
57C
330
2
100
AcDbEntity
  8
L-ZISSEN
100
AcDbLine
 10
118.7298854673622
 20
122.4238935721964
 30
0.0
 11
109.2701145326418
 21
122.4238935721964
 31
0.0
  0
LINE
  5
57D
330
2
100
AcDbEntity
  8
L-ZISSEN
100
AcDbLine
 10
109.0000000000009
 20
116.423893572195
 30
0.0
 11
119.0000000000031
 21
116.423893572195
 31
0.0
  0
LINE
  5
57E
330
2
100
AcDbEntity
  8
L-TYUSIN
100
AcDbLine
 10
125.0000000000011
 20
200.0000000000013
 30
0.0
 11
75.00000000000113
 21
200.0000000000013
 31
0.0
  0
LINE
  5
57F
330
2
100
AcDbEntity
  8
L-ZISSEN
100
AcDbLine
 10
120.0
 20
116.423893572195
 30
0.0
 11
80.00000000000227
 21
116.423893572195
 31
0.0
  0
LINE
  5
580
330
2
100
AcDbEntity
  8
L-ZISSEN
100
AcDbLine
 10
120.0000000000012
 20
196.0000000000018
 30
0.0
 11
111.0000000000013
 21
194.0000000000018
 31
0.0
  0
LINE
  5
581
330
2
100
AcDbEntity
  8
L-ZISSEN
100
AcDbLine
 10
114.0000000000007
 20
182.5000000000022
 30
0.0
 11
120.0000000000013
 21
183.8301679758601
 31
0.0
  0
LINE
  5
582
330
2
100
AcDbEntity
  8
L-ZISSEN
100
AcDbLine
 10
120.0000000000013
 20
206.0000000000018
 30
0.0
 11
111.0000000000014
 21
208.0000000000018
 31
0.0
  0
LINE
  5
583
330
2
100
AcDbEntity
  8
L-ZISSEN
100
AcDbLine
 10
114.0000000000007
 20
217.5000000000004
 30
0.0
 11
120.0000000000013
 21
216.1698320241425
 31
0.0
  0
LINE
  5
584
330
2
100
AcDbEntity
  8
L-ZISSEN
100
AcDbLine
 10
114.000000000001
 20
77.99999999999954
 30
0.0
 11
114.0000000000009
 21
107.2000000000007
 31
0.0
  0
LINE
  5
585
330
2
100
AcDbEntity
  8
L-ZISSEN
100
AcDbLine
 10
86.00000000000136
 20
77.99999999999954
 30
0.0
 11
86.00000000000136
 21
107.2000000000007
 31
0.0
  0
LINE
  5
587
330
2
100
AcDbEntity
  8
L-SOUZOU
100
AcDbLine
 10
71.99999999999807
 20
139.9999999999981
 30
0.0
 11
71.99999999999807
 21
95.99999999999818
 31
0.0
  0
LINE
  5
588
330
2
100
AcDbEntity
  8
L-SOUZOU
100
AcDbLine
 10
73.79999999999802
 20
139.9999999999981
 30
0.0
 11
73.79999999999779
 21
97.79999999999791
 31
0.0
  0
LINE
  5
58A
330
2
100
AcDbEntity
  8
L-ZISSEN
100
AcDbLine
 10
80.00000000000227
 20
116.423893572195
 30
0.0
 11
80.00000000000227
 21
90.72389357219572
 31
0.0
  0
LINE
  5
596
330
2
100
AcDbEntity
  8
L-ZISSEN
100
AcDbLine
 10
81.69400000000065
 20
77.99999999999954
 30
0.0
 11
81.69400000000065
 21
65.54030849934861
 31
0.0
  0
LINE
  5
597
330
2
100
AcDbEntity
  8
L-ZISSEN
100
AcDbLine
 10
89.26209242610571
 20
65.0500614627108
 30
0.0
 11
89.26209242610571
 21
75.42630434053307
 31
0.0
  0
LINE
  5
598
330
2
100
AcDbEntity
  8
L-ZISSEN
100
AcDbLine
 10
85.54561135853077
 20
65.0500614627108
 30
0.0
 11
85.54561135853077
 21
76.23630434053348
 31
0.0
  0
LINE
  5
599
330
2
100
AcDbEntity
  8
L-ZISSEN
100
AcDbLine
 10
87.88635698070288
 20
65.86006146271029
 30
0.0
 11
87.88635698070288
 21
76.23630434053348
 31
0.0
  0
LINE
  5
59A
330
2
100
AcDbEntity
  8
L-ZISSEN
100
AcDbLine
 10
97.17302751894862
 20
65.0500614627108
 30
0.0
 11
97.17302751894862
 21
75.42630434053307
 31
0.0
  0
LINE
  5
59B
330
2
100
AcDbEntity
  8
L-ZISSEN
100
AcDbLine
 10
97.17302751894862
 20
65.0500614627108
 30
0.0
 11
97.17302751894862
 21
75.42630434053307
 31
0.0
  0
LINE
  5
59C
330
2
100
AcDbEntity
  8
L-ZISSEN
100
AcDbLine
 10
97.98302751894993
 20
65.86006146271029
 30
0.0
 11
97.98302751894993
 21
76.23630434053348
 31
0.0
  0
LINE
  5
59D
330
2
100
AcDbEntity
  8
L-ZISSEN
100
AcDbLine
 10
102.8269724810518
 20
65.0500614627108
 30
0.0
 11
102.8269724810518
 21
75.42630434053307
 31
0.0
  0
LINE
  5
59E
330
2
100
AcDbEntity
  8
L-ZISSEN
100
AcDbLine
 10
102.8269724810518
 20
65.0500614627108
 30
0.0
 11
102.8269724810518
 21
75.42630434053307
 31
0.0
  0
LINE
  5
59F
330
2
100
AcDbEntity
  8
L-ZISSEN
100
AcDbLine
 10
102.0169724810523
 20
65.86006146271029
 30
0.0
 11
102.0169724810523
 21
76.23630434053348
 31
0.0
  0
LINE
  5
5A0
330
2
100
AcDbEntity
  8
L-ZISSEN
100
AcDbLine
 10
110.7379075738965
 20
65.0500614627108
 30
0.0
 11
110.7379075738965
 21
75.42630434053307
 31
0.0
  0
LINE
  5
5A1
330
2
100
AcDbEntity
  8
L-ZISSEN
100
AcDbLine
 10
112.1136430192975
 20
65.86006146271029
 30
0.0
 11
112.1136430192975
 21
76.23630434053348
 31
0.0
  0
LINE
  5
5A2
330
2
100
AcDbEntity
  8
L-ZISSEN
100
AcDbLine
 10
82.50400000000013
 20
65.0500614627108
 30
0.0
 11
81.69400000000065
 21
65.54030849934861
 31
0.0
  0
LINE
  5
5A3
330
2
100
AcDbEntity
  8
L-ZISSEN
100
AcDbLine
 10
85.54561135853077
 20
65.86006146271029
 30
0.0
 11
87.88635698070288
 21
65.86006146271029
 31
0.0
  0
LINE
  5
5A4
330
2
100
AcDbEntity
  8
L-ZISSEN
100
AcDbLine
 10
85.54561135853077
 20
65.0500614627108
 30
0.0
 11
89.26209242610571
 21
65.0500614627108
 31
0.0
  0
LINE
  5
5A5
330
2
100
AcDbEntity
  8
L-ZISSEN
100
AcDbLine
 10
87.88635698070288
 20
65.86006146271029
 30
0.0
 11
89.26209242610571
 21
65.0500614627108
 31
0.0
  0
LINE
  5
5A6
330
2
100
AcDbEntity
  8
L-ZISSEN
100
AcDbLine
 10
97.17302751894862
 20
65.0500614627108
 30
0.0
 11
102.8269724810518
 21
65.0500614627108
 31
0.0
  0
LINE
  5
5A7
330
2
100
AcDbEntity
  8
L-ZISSEN
100
AcDbLine
 10
97.17302751894862
 20
65.0500614627108
 30
0.0
 11
97.98302751894993
 21
65.86006146271029
 31
0.0
  0
LINE
  5
5A8
330
2
100
AcDbEntity
  8
L-ZISSEN
100
AcDbLine
 10
97.98302751894993
 20
65.86006146271029
 30
0.0
 11
102.0169724810523
 21
65.86006146271029
 31
0.0
  0
LINE
  5
5A9
330
2
100
AcDbEntity
  8
L-ZISSEN
100
AcDbLine
 10
102.8269724810518
 20
65.0500614627108
 30
0.0
 11
102.0169724810523
 21
65.86006146271029
 31
0.0
  0
LINE
  5
5AA
330
2
100
AcDbEntity
  8
L-ZISSEN
100
AcDbLine
 10
112.1136430192975
 20
65.86006146271029
 30
0.0
 11
110.7379075738965
 21
65.0500614627108
 31
0.0
  0
LINE
  5
5AB
330
2
100
AcDbEntity
  8
L-TYUSIN
100
AcDbLine
 10
109.2345441040083
 20
100.5
 30
0.0
 11
90.7654558959939
 21
100.5
 31
0.0
  0
LINE
  5
5AC
330
2
100
AcDbEntity
  8
L-ZISSEN
100
AcDbLine
 10
89.26209242610571
 20
75.42630434053307
 30
0.0
 11
97.17302751894862
 21
75.42630434053307
 31
0.0
  0
LINE
  5
5AD
330
2
100
AcDbEntity
  8
L-ZISSEN
100
AcDbLine
 10
87.88635698070288
 20
76.23630434053348
 30
0.0
 11
97.98302751894993
 21
76.23630434053348
 31
0.0
  0
LINE
  5
5AE
330
2
100
AcDbEntity
  8
L-ZISSEN
100
AcDbLine
 10
88.15000000000123
 20
90.99999999999955
 30
0.0
 11
111.850000000001
 21
90.99999999999955
 31
0.0
  0
LINE
  5
5AF
330
2
100
AcDbEntity
  8
L-ZISSEN
100
AcDbLine
 10
111.850000000001
 20
89.49999999999954
 30
0.0
 11
88.15000000000123
 21
89.49999999999954
 31
0.0
  0
LINE
  5
5B0
330
2
100
AcDbEntity
  8
L-ZISSEN
100
AcDbLine
 10
80.00000000000227
 20
77.99999999999958
 30
0.0
 11
80.00000000000227
 21
89.02389357219499
 31
0.0
  0
LINE
  5
5B1
330
2
100
AcDbEntity
  8
L-ZISSEN
100
AcDbLine
 10
80.00000000000227
 20
95.50000000000091
 30
0.0
 11
80.00000000000227
 21
86.22389357219526
 31
0.0
  0
LINE
  5
5B2
330
2
100
AcDbEntity
  8
L-ZISSEN
100
AcDbLine
 10
82.50400000000013
 20
75.42630434053307
 30
0.0
 11
81.69400000000065
 21
76.23630434053348
 31
0.0
  0
LINE
  5
5B3
330
2
100
AcDbEntity
  8
L-ZISSEN
100
AcDbLine
 10
81.69400000000065
 20
76.23630434053348
 30
0.0
 11
85.54561135853077
 21
76.23630434053348
 31
0.0
  0
LINE
  5
5B4
330
2
100
AcDbEntity
  8
L-ZISSEN
100
AcDbLine
 10
82.50400000000013
 20
75.42630434053307
 30
0.0
 11
85.54561135853077
 21
75.42630434053307
 31
0.0
  0
LINE
  5
5B5
330
2
100
AcDbEntity
  8
L-ZISSEN
100
AcDbLine
 10
87.88635698070288
 20
76.23630434053348
 30
0.0
 11
89.26209242610571
 21
75.42630434053307
 31
0.0
  0
LINE
  5
5B6
330
2
100
AcDbEntity
  8
L-SOUZOU
100
AcDbLine
 10
86.00000000000193
 20
95.99999999999818
 30
0.0
 11
71.99999999999807
 21
95.99999999999818
 31
0.0
  0
LINE
  5
5B7
330
2
100
AcDbEntity
  8
L-SOUZOU
100
AcDbLine
 10
86.0000000000017
 20
97.79999999999837
 30
0.0
 11
73.79999999999779
 21
97.79999999999791
 31
0.0
  0
LINE
  5
5B8
330
2
100
AcDbEntity
  8
L-ZISSEN
100
AcDbLine
 10
86.00000000000148
 20
95.99999999999909
 30
0.0
 11
80.0000000000025
 21
95.99999999999955
 31
0.0
  0
LINE
  5
5B9
330
2
100
AcDbEntity
  8
L-ZISSEN
100
AcDbLine
 10
80.00000000000227
 20
95.50000000000091
 30
0.0
 11
80.00000000000227
 21
90.72389357219572
 31
0.0
  0
LINE
  5
5BA
330
2
100
AcDbEntity
  8
L-ZISSEN
100
AcDbLine
 10
80.00000000000227
 20
90.72389357219572
 30
0.0
 11
80.00000000000227
 21
95.22389357219617
 31
0.0
  0
LINE
  5
5BB
330
2
100
AcDbEntity
  8
L-ZISSEN
100
AcDbLine
 10
80.00000000000227
 20
94.423893572196
 30
0.0
 11
80.00000000000227
 21
95.50000000000091
 31
0.0
  0
LINE
  5
5BC
330
2
100
AcDbEntity
  8
L-ZISSEN
100
AcDbLine
 10
88.15000000000123
 20
89.49999999999954
 30
0.0
 11
88.15000000000123
 21
90.99999999999955
 31
0.0
  0
LINE
  5
5BD
330
2
100
AcDbEntity
  8
L-ZISSEN
100
AcDbLine
 10
112.1136430192975
 20
76.23630434053348
 30
0.0
 11
102.0169724810523
 21
76.23630434053348
 31
0.0
  0
LINE
  5
5BE
330
2
100
AcDbEntity
  8
L-ZISSEN
100
AcDbLine
 10
110.7379075738965
 20
75.42630434053307
 30
0.0
 11
102.8269724810518
 21
75.42630434053307
 31
0.0
  0
LINE
  5
5BF
330
2
100
AcDbEntity
  8
L-ZISSEN
100
AcDbLine
 10
97.17302751894862
 20
75.42630434053307
 30
0.0
 11
97.98302751894993
 21
76.23630434053348
 31
0.0
  0
LINE
  5
5C0
330
2
100
AcDbEntity
  8
L-ZISSEN
100
AcDbLine
 10
102.8269724810518
 20
75.42630434053307
 30
0.0
 11
102.0169724810523
 21
76.23630434053348
 31
0.0
  0
LINE
  5
5C1
330
2
100
AcDbEntity
  8
L-ZISSEN
100
AcDbLine
 10
112.1136430192975
 20
76.23630434053348
 30
0.0
 11
110.7379075738965
 21
75.42630434053307
 31
0.0
  0
LINE
  5
5C2
330
2
100
AcDbEntity
  8
L-ZISSEN
100
AcDbLine
 10
111.850000000001
 20
90.99999999999955
 30
0.0
 11
111.850000000001
 21
89.49999999999954
 31
0.0
  0
LINE
  5
5C3
330
2
100
AcDbEntity
  8
L-TYUSIN
100
AcDbLine
 10
78.79999999999802
 20
118.499999999999
 30
0.0
 11
66.99999999999807
 21
118.499999999999
 31
0.0
  0
LINE
  5
5C4
330
2
100
AcDbEntity
  8
L-ZISSEN
100
AcDbLine
 10
93.00000000000181
 20
119.423893572196
 30
0.0
 11
92.00000000000272
 21
119.423893572196
 31
0.0
  0
LINE
  5
5C5
330
2
100
AcDbEntity
  8
L-ZISSEN
100
AcDbLine
 10
111.0000000000036
 20
110.2000000000011
 30
0.0
 11
89.0000000000009
 21
110.2000000000011
 31
0.0
  0
LINE
  5
5C6
330
2
100
AcDbEntity
  8
L-ZISSEN
100
AcDbLine
 10
109.6689294505995
 20
111.4999999999999
 30
0.0
 11
90.33107054940501
 21
111.4999999999999
 31
0.0
  0
LINE
  5
5C7
330
2
100
AcDbEntity
  8
L-ZISSEN
100
AcDbLine
 10
90.33107054940501
 20
111.4999999999999
 30
0.0
 11
90.33107054940501
 21
116.423893572195
 31
0.0
  0
LINE
  5
5C8
330
2
100
AcDbEntity
  8
L-ZISSEN
100
AcDbLine
 10
89.0000000000009
 20
110.2000000000011
 30
0.0
 11
86.00000000000136
 21
107.2000000000007
 31
0.0
  0
LINE
  5
5C9
330
2
100
AcDbEntity
  8
L-ZISSEN
100
AcDbLine
 10
90.33107054940501
 20
111.4999999999999
 30
0.0
 11
89.0000000000009
 21
110.2000000000011
 31
0.0
  0
LINE
  5
5CA
330
2
100
AcDbEntity
  8
L-ZISSEN
100
AcDbLine
 10
92.00000000000272
 20
119.423893572196
 30
0.0
 11
92.00000000000272
 21
116.423893572195
 31
0.0
  0
LINE
  5
5CB
330
2
100
AcDbEntity
  8
L-ZISSEN
100
AcDbLine
 10
109.0000000000009
 20
116.423893572195
 30
0.0
 11
109.0000000000009
 21
121.9515698032332
 31
0.0
  0
LINE
  5
5CC
330
2
100
AcDbEntity
  8
L-ZISSEN
100
AcDbLine
 10
107.0000000000027
 20
130.4238935721959
 30
0.0
 11
107.0000000000027
 21
116.423893572195
 31
0.0
  0
LINE
  5
5CD
330
2
100
AcDbEntity
  8
L-ZISSEN
100
AcDbLine
 10
93.00000000000181
 20
130.4238935721959
 30
0.0
 11
93.00000000000181
 21
116.423893572195
 31
0.0
  0
LINE
  5
5CE
330
2
100
AcDbEntity
  8
L-ZISSEN
100
AcDbLine
 10
104.0000000000009
 20
119.423893572196
 30
0.0
 11
96.00000000000363
 21
119.423893572196
 31
0.0
  0
LINE
  5
5CF
330
2
100
AcDbEntity
  8
L-ZISSEN
100
AcDbLine
 10
96.00000000000363
 20
119.423893572196
 30
0.0
 11
96.00000000000363
 21
116.423893572195
 31
0.0
  0
LINE
  5
5D0
330
2
100
AcDbEntity
  8
L-ZISSEN
100
AcDbLine
 10
109.6689294505995
 20
111.4999999999999
 30
0.0
 11
109.6689294505995
 21
116.423893572195
 31
0.0
  0
LINE
  5
5D1
330
2
100
AcDbEntity
  8
L-ZISSEN
100
AcDbLine
 10
111.0000000000036
 20
110.2000000000011
 30
0.0
 11
114.0000000000009
 21
107.2000000000007
 31
0.0
  0
LINE
  5
5D2
330
2
100
AcDbEntity
  8
L-ZISSEN
100
AcDbLine
 10
109.6689294505995
 20
111.4999999999999
 30
0.0
 11
111.0000000000036
 21
110.2000000000011
 31
0.0
  0
LINE
  5
5D3
330
2
100
AcDbEntity
  8
L-ZISSEN
100
AcDbLine
 10
107.0000000000027
 20
119.423893572196
 30
0.0
 11
108.0000000000018
 21
119.423893572196
 31
0.0
  0
LINE
  5
5D4
330
2
100
AcDbEntity
  8
L-ZISSEN
100
AcDbLine
 10
108.0000000000018
 20
119.423893572196
 30
0.0
 11
108.0000000000018
 21
116.423893572195
 31
0.0
  0
LINE
  5
5D5
330
2
100
AcDbEntity
  8
L-ZISSEN
100
AcDbLine
 10
104.0000000000009
 20
119.423893572196
 30
0.0
 11
104.0000000000009
 21
116.423893572195
 31
0.0
  0
ARC
  5
5D6
330
2
100
AcDbEntity
  8
L-ZISSEN
100
AcDbCircle
 10
100.0
 20
130.4238935721959
 30
0.0
 40
7.000000000001023
100
AcDbArc
 50
0.0
 51
180.0
  0
LINE
  5
5D7
330
2
100
AcDbEntity
  8
L-ZISSEN
100
AcDbLine
 10
109.0000000000009
 20
121.9515698032332
 30
0.0
 11
109.2701145326418
 21
122.4238935721964
 31
0.0
  0
LINE
  5
5D8
330
2
100
AcDbEntity
  8
L-SOUZOU
100
AcDbLine
 10
71.99999999999807
 20
139.9999999999981
 30
0.0
 11
73.79999999999802
 21
139.9999999999981
 31
0.0
  0
LINE
  5
5D9
330
2
100
AcDbEntity
  8
L-ZISSEN
100
AcDbLine
 10
80.0000000000009
 20
183.8301679758601
 30
0.0
 11
80.0000000000009
 21
216.169832024143
 31
0.0
  0
LINE
  5
5DA
330
2
100
AcDbEntity
  8
L-SOUZOU
100
AcDbLine
 10
79.50000000000113
 20
208.5000000000013
 30
0.0
 11
79.50000000000113
 21
191.5000000000013
 31
0.0
  0
CIRCLE
  5
5DB
330
2
100
AcDbEntity
  8
L-ZISSEN
100
AcDbCircle
 10
86.00000000000113
 20
201.0000000000013
 30
0.0
 40
4.0
  0
LINE
  5
5DC
330
2
100
AcDbEntity
  8
L-TYUSIN
100
AcDbLine
 10
100.0000000000011
 20
175.0000000000013
 30
0.0
 11
100.0000000000011
 21
225.0000000000013
 31
0.0
  0
LINE
  5
5DD
330
2
100
AcDbEntity
  8
L-SOUZOU
100
AcDbLine
 10
72.00000000000113
 20
180.0000000000013
 30
0.0
 11
72.00000000000113
 21
220.0000000000013
 31
0.0
  0
LINE
  5
5DE
330
2
100
AcDbEntity
  8
L-SOUZOU
100
AcDbLine
 10
73.80000000000109
 20
180.0000000000013
 30
0.0
 11
73.80000000000109
 21
220.0000000000013
 31
0.0
  0
ARC
  5
5DF
330
2
100
AcDbEntity
  8
L-ZISSEN
100
AcDbCircle
 10
100.0000000000011
 20
194.0000000000018
 30
0.0
 40
10.99999999999988
100
AcDbArc
 50
180.0
 51
0.0
  0
POLYLINE
  5
5E0
330
2
100
AcDbEntity
  8
L-ZISSEN
100
AcDb2dPolyline
 66
     1
 10
0.0
 20
0.0
 30
0.0
 70
     1
  0
VERTEX
  5
7B8
330
5E0
100
AcDbEntity
  8
L-ZISSEN
100
AcDbVertex
100
AcDb2dVertex
 10
95.95854811567381
 20
201.0000000000018
 30
0.0
  0
VERTEX
  5
7B9
330
5E0
100
AcDbEntity
  8
L-ZISSEN
100
AcDbVertex
100
AcDb2dVertex
 10
91.91709623134636
 20
194.0000000000018
 30
0.0
  0
VERTEX
  5
7BA
330
5E0
100
AcDbEntity
  8
L-ZISSEN
100
AcDbVertex
100
AcDb2dVertex
 10
95.95854811567381
 20
187.0000000000018
 30
0.0
  0
VERTEX
  5
7BB
330
5E0
100
AcDbEntity
  8
L-ZISSEN
100
AcDbVertex
100
AcDb2dVertex
 10
104.0414518843284
 20
187.0000000000018
 30
0.0
  0
VERTEX
  5
7BC
330
5E0
100
AcDbEntity
  8
L-ZISSEN
100
AcDbVertex
100
AcDb2dVertex
 10
108.0829037686559
 20
194.0000000000018
 30
0.0
  0
VERTEX
  5
7BD
330
5E0
100
AcDbEntity
  8
L-ZISSEN
100
AcDbVertex
100
AcDb2dVertex
 10
104.0414518843285
 20
201.0000000000018
 30
0.0
  0
SEQEND
  5
7BE
330
5E0
100
AcDbEntity
  8
L-ZISSEN
  0
LINE
  5
5E1
330
2
100
AcDbEntity
  8
L-ZISSEN
100
AcDbLine
 10
114.0000000000007
 20
181.800000000001
 30
0.0
 11
86.00000000000125
 21
181.8000000000015
 31
0.0
  0
LINE
  5
5E2
330
2
100
AcDbEntity
  8
L-ZISSEN
100
AcDbLine
 10
114.0000000000006
 20
180.0000000000018
 30
0.0
 11
86.00000000000125
 21
180.0000000000018
 31
0.0
  0
LINE
  5
5E3
330
2
100
AcDbEntity
  8
L-SOUZOU
100
AcDbLine
 10
89.00000000000114
 20
184.0000000000013
 30
0.0
 11
89.00000000000114
 21
191.5000000000013
 31
0.0
  0
LINE
  5
5E4
330
2
100
AcDbEntity
  8
L-ZISSEN
100
AcDbLine
 10
89.00000000000114
 20
183.5000000000018
 30
0.0
 11
89.00000000000103
 21
194.0000000000013
 31
0.0
  0
CIRCLE
  5
5E5
330
2
100
AcDbEntity
  8
L-ZISSEN
100
AcDbCircle
 10
84.00000000000114
 20
187.0000000000013
 30
0.0
 40
1.649999999999999
  0
LINE
  5
5E6
330
2
100
AcDbEntity
  8
L-ZISSEN
100
AcDbLine
 10
86.00000000000148
 20
182.5000000000022
 30
0.0
 11
80.0000000000009
 21
183.8301679758601
 31
0.0
  0
LINE
  5
5E7
330
2
100
AcDbEntity
  8
L-SOUZOU
100
AcDbLine
 10
80.00000000000113
 20
180.0000000000013
 30
0.0
 11
89.00000000000114
 21
184.0000000000013
 31
0.0
  0
LINE
  5
5E8
330
2
100
AcDbEntity
  8
L-SOUZOU
100
AcDbLine
 10
72.00000000000113
 20
180.0000000000013
 30
0.0
 11
80.00000000000113
 21
180.0000000000013
 31
0.0
  0
LINE
  5
5E9
330
2
100
AcDbEntity
  8
L-ZISSEN
100
AcDbLine
 10
86.00000000000136
 20
181.8000000000015
 30
0.0
 11
89.00000000000103
 21
183.5000000000013
 31
0.0
  0
LINE
  5
5EA
330
2
100
AcDbEntity
  8
L-ZISSEN
100
AcDbLine
 10
86.00000000000148
 20
180.0000000000022
 30
0.0
 11
86.00000000000136
 21
182.5000000000027
 31
0.0
  0
LINE
  5
5EB
330
2
100
AcDbEntity
  8
L-ZISSEN
100
AcDbLine
 10
80.00000000000126
 20
196.0000000000018
 30
0.0
 11
89.00000000000114
 21
194.0000000000018
 31
0.0
  0
LINE
  5
5EC
330
2
100
AcDbEntity
  8
L-SOUZOU
100
AcDbLine
 10
79.50000000000113
 20
191.5000000000013
 30
0.0
 11
89.0000000000009
 21
191.5000000000013
 31
0.0
  0
LINE
  5
5ED
330
2
100
AcDbEntity
  8
L-ZISSEN
100
AcDbLine
 10
83.91439580183918
 20
199.621502583026
 30
0.0
 11
87.37849741697642
 21
203.0856041981633
 31
0.0
  0
CIRCLE
  5
5EE
330
2
100
AcDbEntity
  8
L-ZISSEN
100
AcDbCircle
 10
86.00000000000113
 20
201.0000000000013
 30
0.0
 40
2.5
  0
LINE
  5
5EF
330
2
100
AcDbEntity
  8
L-ZISSEN
100
AcDbLine
 10
84.62150258302585
 20
198.9143958018398
 30
0.0
 11
88.08560419816307
 21
202.3784974169771
 31
0.0
  0
LINE
  5
5F0
330
2
100
AcDbEntity
  8
L-ZISSEN
100
AcDbLine
 10
111.000000000001
 20
194.0000000000018
 30
0.0
 11
111.000000000001
 21
183.5000000000018
 31
0.0
  0
CIRCLE
  5
5F1
330
2
100
AcDbEntity
  8
L-ZISSEN
100
AcDbCircle
 10
100.0000000000011
 20
194.0000000000018
 30
0.0
 40
7.0
  0
LINE
  5
5F2
330
2
100
AcDbEntity
  8
L-ZISSEN
100
AcDbLine
 10
114.0000000000007
 20
180.0000000000022
 30
0.0
 11
114.0000000000009
 21
182.5000000000018
 31
0.0
  0
LINE
  5
5F3
330
2
100
AcDbEntity
  8
L-ZISSEN
100
AcDbLine
 10
114.0000000000009
 20
181.8000000000015
 30
0.0
 11
111.0000000000012
 21
183.5000000000013
 31
0.0
  0
LINE
  5
5F4
330
2
100
AcDbEntity
  8
L-ZISSEN
100
AcDbLine
 10
114.0000000000007
 20
220.0000000000009
 30
0.0
 11
86.00000000000125
 21
220.0000000000009
 31
0.0
  0
LINE
  5
5F5
330
2
100
AcDbEntity
  8
L-ZISSEN
100
AcDbLine
 10
114.0000000000007
 20
218.2000000000016
 30
0.0
 11
86.00000000000125
 21
218.2000000000011
 31
0.0
  0
LINE
  5
5F6
330
2
100
AcDbEntity
  8
L-ZISSEN
100
AcDbLine
 10
111.0000000000024
 20
208.0000000000018
 30
0.0
 11
89.00000000000103
 21
208.0000000000013
 31
0.0
  0
LINE
  5
5F7
330
2
100
AcDbEntity
  8
L-ZISSEN
100
AcDbLine
 10
86.00000000000148
 20
217.5000000000004
 30
0.0
 11
80.0000000000009
 21
216.1698320241425
 31
0.0
  0
LINE
  5
5F8
330
2
100
AcDbEntity
  8
L-ZISSEN
100
AcDbLine
 10
80.00000000000113
 20
206.0000000000018
 30
0.0
 11
89.00000000000103
 21
208.0000000000018
 31
0.0
  0
LINE
  5
5F9
330
2
100
AcDbEntity
  8
L-SOUZOU
100
AcDbLine
 10
80.00000000000113
 20
220.0000000000013
 30
0.0
 11
89.00000000000114
 21
216.0000000000013
 31
0.0
  0
LINE
  5
5FA
330
2
100
AcDbEntity
  8
L-SOUZOU
100
AcDbLine
 10
79.50000000000113
 20
208.5000000000013
 30
0.0
 11
89.0000000000009
 21
208.5000000000013
 31
0.0
  0
LINE
  5
5FB
330
2
100
AcDbEntity
  8
L-SOUZOU
100
AcDbLine
 10
72.00000000000113
 20
220.0000000000013
 30
0.0
 11
80.00000000000113
 21
220.0000000000013
 31
0.0
  0
LINE
  5
5FC
330
2
100
AcDbEntity
  8
L-ZISSEN
100
AcDbLine
 10
89.00000000000103
 20
208.0000000000018
 30
0.0
 11
89.00000000000103
 21
216.5000000000013
 31
0.0
  0
LINE
  5
5FD
330
2
100
AcDbEntity
  8
L-SOUZOU
100
AcDbLine
 10
89.00000000000114
 20
208.5000000000013
 30
0.0
 11
89.00000000000114
 21
216.0000000000013
 31
0.0
  0
CIRCLE
  5
5FE
330
2
100
AcDbEntity
  8
L-ZISSEN
100
AcDbCircle
 10
84.00000000000114
 20
213.0000000000013
 30
0.0
 40
1.649999999999999
  0
LINE
  5
5FF
330
2
100
AcDbEntity
  8
L-ZISSEN
100
AcDbLine
 10
86.00000000000136
 20
218.2000000000011
 30
0.0
 11
89.00000000000103
 21
216.5000000000013
 31
0.0
  0
LINE
  5
600
330
2
100
AcDbEntity
  8
L-ZISSEN
100
AcDbLine
 10
86.00000000000148
 20
220.0000000000004
 30
0.0
 11
86.00000000000113
 21
217.5000000000009
 31
0.0
  0
LINE
  5
601
330
2
100
AcDbEntity
  8
L-ZISSEN
100
AcDbLine
 10
111.0000000000012
 20
216.5000000000013
 30
0.0
 11
111.0000000000011
 21
208.0000000000018
 31
0.0
  0
LINE
  5
602
330
2
100
AcDbEntity
  8
L-ZISSEN
100
AcDbLine
 10
114.0000000000007
 20
220.0000000000004
 30
0.0
 11
114.0000000000009
 21
218.2000000000007
 31
0.0
  0
LINE
  5
603
330
2
100
AcDbEntity
  8
L-ZISSEN
100
AcDbLine
 10
114.0000000000009
 20
218.2000000000011
 30
0.0
 11
111.0000000000012
 21
216.5000000000013
 31
0.0
  0
LINE
  5
604
330
2
100
AcDbEntity
  8
L-ZISSEN
100
AcDbLine
 10
114.0000000000007
 20
220.0000000000004
 30
0.0
 11
114.0000000000007
 21
217.5000000000004
 31
0.0
  0
ARC
  5
605
330
2
100
AcDbEntity
  8
L-ZISSEN
100
AcDbCircle
 10
193.9899999999977
 20
130.4238935721959
 30
0.0
 40
7.000000000001023
100
AcDbArc
 50
0.0
 51
180.0
  0
LINE
  5
606
330
2
100
AcDbEntity
  8
L-ZISSEN
100
AcDbLine
 10
195.9848975003467
 20
117.4285153535029
 30
0.0
 11
204.015102499651
 21
117.4285153535029
 31
0.0
  0
LINE
  5
607
330
2
100
AcDbEntity
  8
L-ZISSEN
100
AcDbLine
 10
203.4912568915331
 20
122.6960249321691
 30
0.0
 11
196.5087431084646
 21
122.6960249321691
 31
0.0
  0
LINE
  5
608
330
2
100
AcDbEntity
  8
L-ZISSEN
100
AcDbLine
 10
196.2386285758282
 20
117.4285153535029
 30
0.0
 11
203.7613714241717
 21
117.4285153535029
 31
0.0
  0
LINE
  5
609
330
2
100
AcDbEntity
  8
L-ZISSEN
100
AcDbLine
 10
183.99
 20
116.423893572195
 30
0.0
 11
205.7431024996492
 21
116.423893572195
 31
0.0
  0
LINE
  5
60A
330
2
100
AcDbEntity
  8
L-ZISSEN
100
AcDbLine
 10
197.9830275189499
 20
65.86006146271026
 30
0.0
 11
202.0169724810523
 21
65.86006146271026
 31
0.0
  0
LINE
  5
60B
330
2
100
AcDbEntity
  8
L-ZISSEN
100
AcDbLine
 10
197.1730275189486
 20
65.05006146271077
 30
0.0
 11
202.8269724810518
 21
65.05006146271077
 31
0.0
  0
LINE
  5
60C
330
2
100
AcDbEntity
  8
L-ZISSEN
100
AcDbLine
 10
218.2000000000012
 20
95.99999999999907
 30
0.0
 11
181.800000000001
 21
95.99999999999907
 31
0.0
  0
LINE
  5
60D
330
2
100
AcDbEntity
  8
L-ZISSEN
100
AcDbLine
 10
220.0100000000009
 20
77.99999999999951
 30
0.0
 11
179.9957855410325
 21
77.99999999999951
 31
0.0
  0
LINE
  5
60E
330
2
100
AcDbEntity
  8
L-SOUZOU
100
AcDbLine
 10
190.0000000000009
 20
139.9999999999995
 30
0.0
 11
210.0000000000008
 21
139.9999999999995
 31
0.0
  0
LINE
  5
60F
330
2
100
AcDbEntity
  8
L-SOUZOU
100
AcDbLine
 10
180.0000000000011
 20
97.7999999999997
 30
0.0
 11
220.0000000000011
 21
97.7999999999997
 31
0.0
  0
LINE
  5
610
330
2
100
AcDbEntity
  8
L-SOUZOU
100
AcDbLine
 10
180.0000000000011
 20
95.99999999999951
 30
0.0
 11
220.0000000000011
 21
95.99999999999951
 31
0.0
  0
LINE
  5
611
330
2
100
AcDbEntity
  8
L-TYUSIN
100
AcDbLine
 10
222.2966061700044
 20
99.99956541528218
 30
0.0
 11
177.6844313334363
 21
99.99956541528218
 31
0.0
  0
LINE
  5
612
330
2
100
AcDbEntity
  8
L-ZISSEN
100
AcDbLine
 10
195.9848975003467
 20
117.3285153535039
 30
0.0
 11
195.9848975003487
 21
95.99999999999951
 31
0.0
  0
LINE
  5
613
330
2
100
AcDbEntity
  8
L-ZISSEN
100
AcDbLine
 10
194.2568975003484
 20
116.323893572196
 30
0.0
 11
194.2568975003484
 21
95.99999999999951
 31
0.0
  0
LINE
  5
614
330
2
100
AcDbEntity
  8
L-ZISSEN
100
AcDbLine
 10
180.0000000000012
 20
110.2000000000011
 30
0.0
 11
180.0000000000012
 21
77.99999999999949
 31
0.0
  0
LINE
  5
615
330
2
100
AcDbEntity
  8
L-ZISSEN
100
AcDbLine
 10
183.300000000001
 20
110.0
 30
0.0
 11
183.300000000001
 21
95.99999999999909
 31
0.0
  0
LINE
  5
616
330
2
100
AcDbEntity
  8
L-ZISSEN
100
AcDbLine
 10
181.800000000001
 20
108.4999999999999
 30
0.0
 11
181.800000000001
 21
77.99999999999951
 31
0.0
  0
LINE
  5
617
330
2
100
AcDbEntity
  8
L-SOUZOU
100
AcDbLine
 10
180.0000000000009
 20
129.9999999999995
 30
0.0
 11
180.0000000000011
 21
95.99999999999951
 31
0.0
  0
LINE
  5
618
330
2
100
AcDbEntity
  8
L-ZISSEN
100
AcDbLine
 10
120.0
 20
77.99999999999954
 30
0.0
 11
120.0
 21
116.423893572195
 31
0.0
  0
LINE
  5
619
330
2
100
AcDbEntity
  8
L-ZISSEN
100
AcDbLine
 10
120.0
 20
90.72389357219572
 30
0.0
 11
120.0
 21
116.423893572195
 31
0.0
  0
LINE
  5
61A
330
2
100
AcDbEntity
  8
L-ZISSEN
100
AcDbLine
 10
178.6982101497949
 20
101.5179010784013
 30
0.0
 11
169.1672878383573
 21
112.6342415887999
 31
0.0
  0
TEXT
  5
61B
330
2
100
AcDbEntity
  8
L-ZISSEN
100
AcDbText
 10
150.364838576608
 20
98.17120688880818
 30
0.0
 40
4.5
  1
Rc1/4
100
AcDbText
  0
LINE
  5
61C
330
2
100
AcDbEntity
  8
L-ZISSEN
100
AcDbLine
 10
118.305999999998
 20
77.99999999999954
 30
0.0
 11
118.305999999998
 21
65.54030849934861
 31
0.0
  0
LINE
  5
61D
330
2
100
AcDbEntity
  8
L-ZISSEN
100
AcDbLine
 10
114.4543886414678
 20
65.0500614627108
 30
0.0
 11
114.4543886414678
 21
76.23630434053348
 31
0.0
  0
LINE
  5
61E
330
2
100
AcDbEntity
  8
L-ZISSEN
100
AcDbLine
 10
117.4960000000021
 20
65.0500614627108
 30
0.0
 11
118.305999999998
 21
65.54030849934861
 31
0.0
  0
LINE
  5
61F
330
2
100
AcDbEntity
  8
L-ZISSEN
100
AcDbLine
 10
120.0000000000001
 20
77.99999999999951
 30
0.0
 11
120.0
 21
95.50000000000091
 31
0.0
  0
LINE
  5
620
330
2
100
AcDbEntity
  8
L-ZISSEN
100
AcDbLine
 10
117.4960000000021
 20
76.23630434053348
 30
0.0
 11
114.4543886414678
 21
76.23630434053348
 31
0.0
  0
LINE
  5
621
330
2
100
AcDbEntity
  8
L-ZISSEN
100
AcDbLine
 10
117.4960000000021
 20
75.42630434053307
 30
0.0
 11
114.4543886414678
 21
75.42630434053307
 31
0.0
  0
LINE
  5
622
330
2
100
AcDbEntity
  8
L-ZISSEN
100
AcDbLine
 10
117.4960000000021
 20
76.23630434053348
 30
0.0
 11
118.305999999998
 21
76.23630434053348
 31
0.0
  0
LINE
  5
623
330
2
100
AcDbEntity
  8
L-ZISSEN
100
AcDbLine
 10
117.4960000000021
 20
75.42630434053307
 30
0.0
 11
118.305999999998
 21
76.23630434053348
 31
0.0
  0
LINE
  5
624
330
2
100
AcDbEntity
  8
L-ZISSEN
100
AcDbLine
 10
181.6940000000006
 20
77.99999999999951
 30
0.0
 11
181.6940000000006
 21
65.54030849934858
 31
0.0
  0
LINE
  5
625
330
2
100
AcDbEntity
  8
L-ZISSEN
100
AcDbLine
 10
187.8863569807028
 20
65.86006146271026
 30
0.0
 11
187.8863569807028
 21
76.23630434053345
 31
0.0
  0
LINE
  5
626
330
2
100
AcDbEntity
  8
L-ZISSEN
100
AcDbLine
 10
189.2620924261057
 20
65.05006146271077
 30
0.0
 11
189.2620924261057
 21
75.42630434053305
 31
0.0
  0
LINE
  5
627
330
2
100
AcDbEntity
  8
L-ZISSEN
100
AcDbLine
 10
185.5456113585307
 20
65.05006146271077
 30
0.0
 11
185.5456113585307
 21
76.23630434053345
 31
0.0
  0
LINE
  5
628
330
2
100
AcDbEntity
  8
L-ZISSEN
100
AcDbLine
 10
197.9830275189499
 20
65.86006146271026
 30
0.0
 11
197.9830275189499
 21
76.23630434053345
 31
0.0
  0
LINE
  5
629
330
2
100
AcDbEntity
  8
L-ZISSEN
100
AcDbLine
 10
197.1730275189486
 20
65.05006146271077
 30
0.0
 11
197.1730275189486
 21
75.42630434053305
 31
0.0
  0
LINE
  5
62A
330
2
100
AcDbEntity
  8
L-ZISSEN
100
AcDbLine
 10
197.1730275189486
 20
65.05006146271077
 30
0.0
 11
197.1730275189486
 21
75.42630434053305
 31
0.0
  0
LINE
  5
62B
330
2
100
AcDbEntity
  8
L-ZISSEN
100
AcDbLine
 10
185.5456113585307
 20
65.05006146271077
 30
0.0
 11
189.2620924261057
 21
65.05006146271077
 31
0.0
  0
LINE
  5
62C
330
2
100
AcDbEntity
  8
L-ZISSEN
100
AcDbLine
 10
187.8863569807028
 20
65.86006146271026
 30
0.0
 11
189.2620924261057
 21
65.05006146271077
 31
0.0
  0
LINE
  5
62D
330
2
100
AcDbEntity
  8
L-ZISSEN
100
AcDbLine
 10
182.5040000000001
 20
65.05006146271077
 30
0.0
 11
181.6940000000006
 21
65.54030849934858
 31
0.0
  0
LINE
  5
62E
330
2
100
AcDbEntity
  8
L-ZISSEN
100
AcDbLine
 10
185.5456113585307
 20
65.86006146271026
 30
0.0
 11
187.8863569807028
 21
65.86006146271026
 31
0.0
  0
LINE
  5
62F
330
2
100
AcDbEntity
  8
L-ZISSEN
100
AcDbLine
 10
197.1730275189486
 20
65.05006146271077
 30
0.0
 11
197.9830275189499
 21
65.86006146271026
 31
0.0
  0
SOLID
  5
630
330
2
100
AcDbEntity
  8
L-ZISSEN
100
AcDbTrace
 10
178.951266093648
 20
101.7348660534358
 30
0.0
 11
178.4451542059416
 21
101.300936103367
 31
0.0
 12
180.0000000000012
 22
99.99956541528218
 32
0.0
 13
180.0000000000012
 23
99.99956541528218
 33
0.0
  0
LINE
  5
631
330
2
100
AcDbEntity
  8
L-ZISSEN
100
AcDbLine
 10
184.1650065056778
 20
77.99999999999951
 30
0.0
 11
184.1650065056778
 21
95.99999999999907
 31
0.0
  0
LINE
  5
632
330
2
100
AcDbEntity
  8
L-ZISSEN
100
AcDbLine
 10
187.8863569807028
 20
76.23630434053345
 30
0.0
 11
197.9830275189499
 21
76.23630434053345
 31
0.0
  0
LINE
  5
633
330
2
100
AcDbEntity
  8
L-ZISSEN
100
AcDbLine
 10
187.8863569807028
 20
76.23630434053345
 30
0.0
 11
189.2620924261057
 21
75.42630434053305
 31
0.0
  0
LINE
  5
634
330
2
100
AcDbEntity
  8
L-ZISSEN
100
AcDbLine
 10
182.5040000000001
 20
75.42630434053305
 30
0.0
 11
185.5456113585307
 21
75.42630434053305
 31
0.0
  0
LINE
  5
635
330
2
100
AcDbEntity
  8
L-ZISSEN
100
AcDbLine
 10
181.6940000000006
 20
76.23630434053345
 30
0.0
 11
185.5456113585307
 21
76.23630434053345
 31
0.0
  0
LINE
  5
636
330
2
100
AcDbEntity
  8
L-ZISSEN
100
AcDbLine
 10
182.5040000000001
 20
75.42630434053305
 30
0.0
 11
181.6940000000006
 21
76.23630434053345
 31
0.0
  0
LINE
  5
637
330
2
100
AcDbEntity
  8
L-ZISSEN
100
AcDbLine
 10
189.2620924261057
 20
75.42630434053305
 30
0.0
 11
197.1730275189486
 21
75.42630434053305
 31
0.0
  0
LINE
  5
638
330
2
100
AcDbEntity
  8
L-ZISSEN
100
AcDbLine
 10
197.1730275189486
 20
75.42630434053305
 30
0.0
 11
197.9830275189499
 21
76.23630434053345
 31
0.0
  0
LINE
  5
639
330
2
100
AcDbEntity
  8
L-ZISSEN
100
AcDbLine
 10
169.1672878383573
 20
112.6342415887999
 30
0.0
 11
153.3195097292982
 21
112.6342415887999
 31
0.0
  0
TEXT
  5
63A
330
2
100
AcDbEntity
  8
L-ZISSEN
100
AcDbText
 10
150.364838576608
 20
105.6712068888081
 30
0.0
 40
4.5
  1
Rc1/8
100
AcDbText
  0
LINE
  5
63B
330
2
100
AcDbEntity
  8
L-ZISSEN
100
AcDbLine
 10
119.0000000000031
 20
116.423893572195
 30
0.0
 11
119.0000000000031
 21
121.9515698032332
 31
0.0
  0
LINE
  5
63C
330
2
100
AcDbEntity
  8
L-ZISSEN
100
AcDbLine
 10
119.0000000000031
 20
121.9515698032332
 30
0.0
 11
118.7298854673622
 21
122.4238935721964
 31
0.0
  0
ARC
  5
63D
330
2
100
AcDbEntity
  8
L-SOUZOU
100
AcDbCircle
 10
190.0000000000009
 20
129.9999999999995
 30
0.0
 40
10.0
100
AcDbArc
 50
90.0
 51
180.0
  0
LINE
  5
63E
330
2
100
AcDbEntity
  8
L-TYUSIN
100
AcDbLine
 10
193.8255970596708
 20
140.5632552422839
 30
0.0
 11
193.8255970596708
 21
111.7198903094531
 31
0.0
  0
TEXT
  5
63F
330
2
100
AcDbEntity
  8
L-ZISSEN
100
AcDbText
 10
157.6172120480879
 20
113.1712068888081
 30
0.0
 40
4.5
  1
IN
100
AcDbText
  0
LINE
  5
640
330
2
100
AcDbEntity
  8
L-ZISSEN
100
AcDbLine
 10
186.9899999999995
 20
130.4238935721959
 30
0.0
 11
186.9899999999995
 21
116.423893572195
 31
0.0
  0
LINE
  5
641
330
2
100
AcDbEntity
  8
L-ZISSEN
100
AcDbLine
 10
186.9899999999995
 20
119.5648913139657
 30
0.0
 11
186.9899999999995
 21
130.4238935721959
 31
0.0
  0
LINE
  5
642
330
2
100
AcDbEntity
  8
L-ZISSEN
100
AcDbLine
 10
196.2386285758283
 20
122.2237011632069
 30
0.0
 11
196.2386285758282
 21
117.4285153535029
 31
0.0
  0
LINE
  5
643
330
2
100
AcDbEntity
  8
L-SOUZOU
100
AcDbLine
 10
194.0000000000011
 20
123.5999999999994
 30
0.0
 11
194.0000000000011
 21
113.3999999999996
 31
0.0
  0
LINE
  5
644
330
2
100
AcDbEntity
  8
L-SOUZOU
100
AcDbLine
 10
187.2000000000009
 20
123.5999999999994
 30
0.0
 11
187.2000000000009
 21
113.3999999999996
 31
0.0
  0
LINE
  5
645
330
2
100
AcDbEntity
  8
L-TYUSIN
100
AcDbLine
 10
190.600000000001
 20
107.4999999999995
 30
0.0
 11
190.600000000001
 21
129.4999999999995
 31
0.0
  0
LINE
  5
646
330
2
100
AcDbEntity
  8
L-ZISSEN
100
AcDbLine
 10
186.9899999999995
 20
119.5648913139657
 30
0.0
 11
191.3375354674838
 21
119.5648913139657
 31
0.0
  0
LINE
  5
647
330
2
100
AcDbEntity
  8
L-ZISSEN
100
AcDbLine
 10
194.2568975003484
 20
111.5000000000009
 30
0.0
 11
181.5000000000012
 21
111.4999999999999
 31
0.0
  0
LINE
  5
648
330
2
100
AcDbEntity
  8
L-TYUSIN
100
AcDbLine
 10
196.5000000000009
 20
118.4999999999995
 30
0.0
 11
184.7000000000009
 21
118.4999999999995
 31
0.0
  0
ARC
  5
649
330
2
100
AcDbEntity
  8
L-SOUZOU
100
AcDbCircle
 10
190.600000000001
 20
113.3999999999996
 30
0.0
 40
3.399999999999999
100
AcDbArc
 50
180.0
 51
0.0
  0
LINE
  5
64A
330
2
100
AcDbEntity
  8
L-ZISSEN
100
AcDbLine
 10
183.300000000001
 20
110.0
 30
0.0
 11
194.256897500353
 21
110.0000000000009
 31
0.0
  0
LINE
  5
64B
330
2
100
AcDbEntity
  8
L-ZISSEN
100
AcDbLine
 10
183.99
 20
116.423893572195
 30
0.0
 11
183.99
 21
111.4999999999999
 31
0.0
  0
LINE
  5
64C
330
2
100
AcDbEntity
  8
L-ZISSEN
100
AcDbLine
 10
181.5000000000013
 20
111.4999999999999
 30
0.0
 11
181.5000000000013
 21
110.2000000000011
 31
0.0
  0
LINE
  5
64D
330
2
100
AcDbEntity
  8
L-ZISSEN
100
AcDbLine
 10
181.5000000000013
 20
110.2000000000011
 30
0.0
 11
180.000000000001
 21
110.2000000000011
 31
0.0
  0
LINE
  5
64E
330
2
100
AcDbEntity
  8
L-ZISSEN
100
AcDbLine
 10
181.800000000001
 20
108.4999999999999
 30
0.0
 11
181.800000000001
 21
108.4385545528352
 31
0.0
  0
LINE
  5
64F
330
2
100
AcDbEntity
  8
L-ZISSEN
100
AcDbLine
 10
181.800000000001
 20
108.4999999999999
 30
0.0
 11
183.3000000000009
 21
110.0000000000004
 31
0.0
  0
LINE
  5
650
330
2
100
AcDbEntity
  8
L-ZISSEN
100
AcDbLine
 10
180.0000000000011
 20
108.4999999999999
 30
0.0
 11
181.800000000001
 21
108.4999999999999
 31
0.0
  0
LINE
  5
651
330
2
100
AcDbEntity
  8
L-ZISSEN
100
AcDbLine
 10
191.3375354674838
 20
119.5648913139657
 30
0.0
 11
191.3375354674838
 21
116.423893572195
 31
0.0
  0
LINE
  5
652
330
2
100
AcDbEntity
  8
L-ZISSEN
100
AcDbLine
 10
194.2568975003484
 20
113.2558935721945
 30
0.0
 11
194.2568975003484
 21
116.423893572195
 31
0.0
  0
LINE
  5
653
330
2
100
AcDbEntity
  8
L-ZISSEN
100
AcDbLine
 10
198.408649845445
 20
117.4285153535029
 30
0.0
 11
199.421326725818
 21
117.4285153535029
 31
0.0
  0
ARC
  5
654
330
2
100
AcDbEntity
  8
L-SOUZOU
100
AcDbCircle
 10
190.600000000001
 20
123.5999999999994
 30
0.0
 40
3.399999999999999
100
AcDbArc
 50
0.0
 51
180.0
  0
LINE
  5
655
330
2
100
AcDbEntity
  8
L-ZISSEN
100
AcDbLine
 10
196.2386285758282
 20
122.2237011632069
 30
0.0
 11
196.5087431084646
 21
122.6960249321691
 31
0.0
  0
LINE
  5
656
330
2
100
AcDbEntity
  8
L-ZISSEN
100
AcDbLine
 10
205.7431024996493
 20
95.99999999999951
 30
0.0
 11
205.7431024996491
 21
116.423893572195
 31
0.0
  0
LINE
  5
657
330
2
100
AcDbEntity
  8
L-ZISSEN
100
AcDbLine
 10
220.0000000000012
 20
110.2000000000011
 30
0.0
 11
220.0000000000012
 21
77.99999999999949
 31
0.0
  0
LINE
  5
658
330
2
100
AcDbEntity
  8
L-ZISSEN
100
AcDbLine
 10
204.015102499651
 20
117.4285153535029
 30
0.0
 11
204.015102499651
 21
95.99999999999909
 31
0.0
  0
LINE
  5
659
330
2
100
AcDbEntity
  8
L-ZISSEN
100
AcDbLine
 10
216.7000000000011
 20
110.0
 30
0.0
 11
216.7000000000011
 21
95.99999999999909
 31
0.0
  0
LINE
  5
65A
330
2
100
AcDbEntity
  8
L-ZISSEN
100
AcDbLine
 10
218.2000000000011
 20
108.4999999999999
 30
0.0
 11
218.200000000001
 21
77.99999999999951
 31
0.0
  0
LINE
  5
65B
330
2
100
AcDbEntity
  8
L-SOUZOU
100
AcDbLine
 10
220.0000000000009
 20
129.9999999999995
 30
0.0
 11
220.0000000000011
 21
95.99999999999951
 31
0.0
  0
LINE
  5
65C
330
2
100
AcDbEntity
  8
L-ZISSEN
100
AcDbLine
 10
218.3059999999979
 20
77.99999999999951
 30
0.0
 11
218.3059999999979
 21
65.54030849934858
 31
0.0
  0
LINE
  5
65D
330
2
100
AcDbEntity
  8
L-ZISSEN
100
AcDbLine
 10
202.0169724810523
 20
65.86006146271026
 30
0.0
 11
202.0169724810523
 21
76.23630434053345
 31
0.0
  0
LINE
  5
65E
330
2
100
AcDbEntity
  8
L-ZISSEN
100
AcDbLine
 10
202.8269724810518
 20
65.05006146271077
 30
0.0
 11
202.8269724810518
 21
75.42630434053305
 31
0.0
  0
LINE
  5
65F
330
2
100
AcDbEntity
  8
L-ZISSEN
100
AcDbLine
 10
202.8269724810518
 20
65.05006146271077
 30
0.0
 11
202.8269724810518
 21
75.42630434053305
 31
0.0
  0
LINE
  5
660
330
2
100
AcDbEntity
  8
L-ZISSEN
100
AcDbLine
 10
212.1136430192975
 20
65.86006146271026
 30
0.0
 11
212.1136430192975
 21
76.23630434053345
 31
0.0
  0
LINE
  5
661
330
2
100
AcDbEntity
  8
L-ZISSEN
100
AcDbLine
 10
210.7379075738965
 20
65.05006146271077
 30
0.0
 11
210.7379075738965
 21
75.42630434053305
 31
0.0
  0
LINE
  5
662
330
2
100
AcDbEntity
  8
L-ZISSEN
100
AcDbLine
 10
214.4543886414678
 20
65.05006146271077
 30
0.0
 11
214.4543886414678
 21
76.23630434053345
 31
0.0
  0
LINE
  5
663
330
2
100
AcDbEntity
  8
L-ZISSEN
100
AcDbLine
 10
202.8269724810518
 20
65.05006146271077
 30
0.0
 11
202.0169724810523
 21
65.86006146271026
 31
0.0
  0
LINE
  5
664
330
2
100
AcDbEntity
  8
L-ZISSEN
100
AcDbLine
 10
214.4543886414678
 20
65.86006146271026
 30
0.0
 11
212.1136430192975
 21
65.86006146271026
 31
0.0
  0
LINE
  5
665
330
2
100
AcDbEntity
  8
L-ZISSEN
100
AcDbLine
 10
214.4543886414678
 20
65.05006146271077
 30
0.0
 11
210.7379075738965
 21
65.05006146271077
 31
0.0
  0
LINE
  5
666
330
2
100
AcDbEntity
  8
L-ZISSEN
100
AcDbLine
 10
212.1136430192975
 20
65.86006146271026
 30
0.0
 11
210.7379075738965
 21
65.05006146271077
 31
0.0
  0
LINE
  5
667
330
2
100
AcDbEntity
  8
L-ZISSEN
100
AcDbLine
 10
217.4960000000021
 20
65.05006146271077
 30
0.0
 11
218.3059999999979
 21
65.54030849934858
 31
0.0
  0
LINE
  5
668
330
2
100
AcDbEntity
  8
L-ZISSEN
100
AcDbLine
 10
215.8299999999974
 20
77.99999999999951
 30
0.0
 11
215.8299999999974
 21
95.99999999999907
 31
0.0
  0
LINE
  5
669
330
2
100
AcDbEntity
  8
L-ZISSEN
100
AcDbLine
 10
210.7379075738965
 20
75.42630434053305
 30
0.0
 11
202.8269724810518
 21
75.42630434053305
 31
0.0
  0
LINE
  5
66A
330
2
100
AcDbEntity
  8
L-ZISSEN
100
AcDbLine
 10
212.1136430192975
 20
76.23630434053345
 30
0.0
 11
202.0169724810523
 21
76.23630434053345
 31
0.0
  0
LINE
  5
66B
330
2
100
AcDbEntity
  8
L-ZISSEN
100
AcDbLine
 10
202.8269724810518
 20
75.42630434053305
 30
0.0
 11
202.0169724810523
 21
76.23630434053345
 31
0.0
  0
LINE
  5
66C
330
2
100
AcDbEntity
  8
L-ZISSEN
100
AcDbLine
 10
217.4960000000021
 20
75.42630434053305
 30
0.0
 11
214.4543886414678
 21
75.42630434053305
 31
0.0
  0
LINE
  5
66D
330
2
100
AcDbEntity
  8
L-ZISSEN
100
AcDbLine
 10
217.4960000000021
 20
76.23630434053345
 30
0.0
 11
214.4543886414678
 21
76.23630434053345
 31
0.0
  0
LINE
  5
66E
330
2
100
AcDbEntity
  8
L-ZISSEN
100
AcDbLine
 10
212.1136430192975
 20
76.23630434053345
 30
0.0
 11
210.7379075738965
 21
75.42630434053305
 31
0.0
  0
LINE
  5
66F
330
2
100
AcDbEntity
  8
L-ZISSEN
100
AcDbLine
 10
217.4960000000021
 20
75.42630434053305
 30
0.0
 11
218.3059999999979
 21
76.23630434053345
 31
0.0
  0
LINE
  5
670
330
2
100
AcDbEntity
  8
L-ZISSEN
100
AcDbLine
 10
217.4960000000021
 20
76.23630434053345
 30
0.0
 11
218.3059999999979
 21
76.23630434053345
 31
0.0
  0
ARC
  5
671
330
2
100
AcDbEntity
  8
L-SOUZOU
100
AcDbCircle
 10
210.0000000000008
 20
129.9999999999995
 30
0.0
 40
10.0
100
AcDbArc
 50
0.0
 51
90.0
  0
LINE
  5
672
330
2
100
AcDbEntity
  8
L-ZISSEN
100
AcDbLine
 10
203.7613714241717
 20
119.7538766394259
 30
0.0
 11
203.7613714241717
 21
122.2237011632069
 31
0.0
  0
LINE
  5
673
330
2
100
AcDbEntity
  8
L-SOUZOU
100
AcDbLine
 10
206.0000000000011
 20
123.5999999999994
 30
0.0
 11
206.0000000000011
 21
113.3999999999996
 31
0.0
  0
LINE
  5
674
330
2
100
AcDbEntity
  8
L-TYUSIN
100
AcDbLine
 10
209.4000000000012
 20
107.4999999999995
 30
0.0
 11
209.4000000000012
 21
129.4999999999995
 31
0.0
  0
LINE
  5
675
330
2
100
AcDbEntity
  8
L-SOUZOU
100
AcDbLine
 10
212.8000000000013
 20
123.5999999999994
 30
0.0
 11
212.8000000000013
 21
113.3999999999996
 31
0.0
  0
LINE
  5
676
330
2
100
AcDbEntity
  8
L-ZISSEN
100
AcDbLine
 10
218.5000000000008
 20
111.5000000000004
 30
0.0
 11
205.7431024996492
 21
111.5000000000009
 31
0.0
  0
ARC
  5
677
330
2
100
AcDbEntity
  8
L-SOUZOU
100
AcDbCircle
 10
209.4000000000012
 20
113.3999999999996
 30
0.0
 40
3.399999999999999
100
AcDbArc
 50
180.0
 51
0.0
  0
LINE
  5
678
330
2
100
AcDbEntity
  8
L-TYUSIN
100
AcDbLine
 10
215.3000000000011
 20
118.4999999999995
 30
0.0
 11
203.5000000000011
 21
118.4999999999995
 31
0.0
  0
LINE
  5
679
330
2
100
AcDbEntity
  8
L-ZISSEN
100
AcDbLine
 10
216.7000000000011
 20
110.0
 30
0.0
 11
205.7431024996492
 21
110.0000000000009
 31
0.0
  0
LINE
  5
67A
330
2
100
AcDbEntity
  8
L-ZISSEN
100
AcDbLine
 10
203.7613714241717
 20
117.4285153535029
 30
0.0
 11
203.7613714241717
 21
119.7538766394259
 31
0.0
  0
LINE
  5
67B
330
2
100
AcDbEntity
  8
L-ZISSEN
100
AcDbLine
 10
205.7431024996492
 20
116.323893572196
 30
0.0
 11
205.7431024996492
 21
113.2558935721945
 31
0.0
  0
LINE
  5
67C
330
2
100
AcDbEntity
  8
L-ZISSEN
100
AcDbLine
 10
218.5000000000008
 20
111.5000000000004
 30
0.0
 11
218.5000000000008
 21
110.2000000000011
 31
0.0
  0
LINE
  5
67D
330
2
100
AcDbEntity
  8
L-ZISSEN
100
AcDbLine
 10
218.5000000000008
 20
110.2000000000011
 30
0.0
 11
220.0000000000012
 21
110.2000000000011
 31
0.0
  0
LINE
  5
67E
330
2
100
AcDbEntity
  8
L-ZISSEN
100
AcDbLine
 10
220.0000000000011
 20
108.4999999999999
 30
0.0
 11
218.2000000000011
 21
108.4999999999999
 31
0.0
  0
LINE
  5
67F
330
2
100
AcDbEntity
  8
L-ZISSEN
100
AcDbLine
 10
218.2000000000011
 20
108.4999999999999
 30
0.0
 11
218.2000000000011
 21
108.4385545528352
 31
0.0
  0
LINE
  5
680
330
2
100
AcDbEntity
  8
L-ZISSEN
100
AcDbLine
 10
218.2000000000011
 20
108.4999999999999
 30
0.0
 11
216.7000000000013
 21
110.0000000000004
 31
0.0
  0
ARC
  5
681
330
2
100
AcDbEntity
  8
L-SOUZOU
100
AcDbCircle
 10
209.4000000000012
 20
123.5999999999994
 30
0.0
 40
3.399999999999999
100
AcDbArc
 50
0.0
 51
180.0
  0
LINE
  5
682
330
2
100
AcDbEntity
  8
L-ZISSEN
100
AcDbLine
 10
200.9900000000004
 20
130.4238935721959
 30
0.0
 11
200.9900000000004
 21
122.6960249321691
 31
0.0
  0
LINE
  5
683
330
2
100
AcDbEntity
  8
L-ZISSEN
100
AcDbLine
 10
203.7613714241717
 20
122.2237011632069
 30
0.0
 11
203.4912568915331
 21
122.6960249321691
 31
0.0
  0
TEXT
  5
684
330
2
100
AcDbEntity
  8
L-ZISSEN
100
AcDbText
 10
154.1253292913818
 20
207.9456535653186
 30
0.0
 40
4.5
  1
MODEL NO.L62- 00-19 0
100
AcDbText
  0
LINE
  5
685
330
2
100
AcDbEntity
  8
L-ZISSEN
100
AcDbLine
 10
120.0000000000013
 20
183.8301679758601
 30
0.0
 11
120.0000000000013
 21
216.169832024143
 31
0.0
  0
CIRCLE
  5
686
330
2
100
AcDbEntity
  8
L-ZISSEN
100
AcDbCircle
 10
116.0000000000011
 20
187.0000000000013
 30
0.0
 40
1.649999999999999
  0
CIRCLE
  5
687
330
2
100
AcDbEntity
  8
L-ZISSEN
100
AcDbCircle
 10
116.0000000000011
 20
213.0000000000013
 30
0.0
 40
1.649999999999999
  0
TEXT
  5
688
330
2
100
AcDbEntity
  8
L-ZISSEN
100
AcDbText
 10
210.4721723905337
 20
210.8896265566913
 30
0.0
 40
4.5
  1
1
100
AcDbText
  0
TEXT
  5
689
330
2
100
AcDbEntity
  8
L-ZISSEN
100
AcDbText
 10
209.7693807038101
 20
204.8335884246091
 30
0.0
 40
4.5
  1
2
100
AcDbText
  0
TEXT
  5
726
330
2
100
AcDbEntity
  8
L-ZISSEN
100
AcDbText
 10
234.1144867588419
 20
210.8896265566913
 30
0.0
 40
4.5
  1
0
100
AcDbText
  0
TEXT
  5
727
330
2
100
AcDbEntity
  8
L-ZISSEN
100
AcDbText
 10
233.8005726656373
 20
204.8335884246091
 30
0.0
 40
4.5
  1
5
100
AcDbText
  0
ENDSEC
  0
SECTION
  2
OBJECTS
  0
DICTIONARY
  5
9
330
0
100
AcDbDictionary
  3
ACAD_GROUP
350
25
  3
ACAD_LAYOUT
350
D
  3
ACAD_MLINESTYLE
350
26
  3
ACAD_PLOTSETTINGS
350
27
1001
ACAD
1000
TREAT_AS_HARD
1070
     0
  0
DICTIONARY
  5
15
330
14
100
AcDbDictionary
  3
ACAD_LAYERSTATES
350
16
1001
ACAD
1000
TREAT_AS_HARD
1070
     1
  0
DICTIONARY
  5
3
330
2
100
AcDbDictionary
  3
ACAD_LAYOUTSELFREF
350
7B6
1001
ACAD
1000
TREAT_AS_HARD
1070
     1
  0
DICTIONARY
  5
F
330
E
100
AcDbDictionary
  3
ACAD_LAYOUTSELFREF
350
7B7
1001
ACAD
1000
TREAT_AS_HARD
1070
     1
  0
DICTIONARY
  5
25
102
{ACAD_REACTORS
330
9
102
}
330
9
100
AcDbDictionary
1001
ACAD
1000
TREAT_AS_HARD
1070
     0
  0
DICTIONARY
  5
D
102
{ACAD_REACTORS
330
9
102
}
330
9
100
AcDbDictionary
1001
ACAD
1000
TREAT_AS_HARD
1070
     0
  0
DICTIONARY
  5
26
102
{ACAD_REACTORS
330
9
102
}
330
9
100
AcDbDictionary
  3
STANDARD
350
2A
1001
ACAD
1000
TREAT_AS_HARD
1070
     0
  0
DICTIONARY
  5
27
102
{ACAD_REACTORS
330
9
102
}
330
9
100
AcDbDictionary
1001
ACAD
1000
TREAT_AS_HARD
1070
     0
  0
DICTIONARY
  5
16
102
{ACAD_REACTORS
330
15
102
}
330
15
100
AcDbDictionary
1001
ACAD
1000
TREAT_AS_HARD
1070
     0
  0
XRECORD
  5
7B6
102
{ACAD_REACTORS
330
3
102
}
330
3
100
AcDbXrecord
340
2
  0
XRECORD
  5
7B7
102
{ACAD_REACTORS
330
F
102
}
330
F
100
AcDbXrecord
340
E
  0
MLINESTYLE
  5
2A
102
{ACAD_REACTORS
330
26
102
}
330
26
100
AcDbMlineStyle
  2
STANDARD
 70
     0
  3

 62
     0
 51
90.0
 52
90.0
 71
     2
 49
0.5
 62
   256
  6
BYLAYER
 49
-0.5
 62
   256
  6
BYLAYER
  0
ENDSEC
  0
EOF
