  0
SECTION
  2
HEADER
  9
$ACADVER
  1
AC1006
  9
$INSBASE
 10
0.0
 20
0.0
 30
0.0
  9
$EXTMIN
 10
0.000000
 20
0.000000
  9
$EXTMAX
 10
10.000000
 20
10.000000
  9
$LIMMIN
 10
0.0
 20
0.0
  9
$LIMMAX
 10
12.0
 20
9.0
  9
$ORTHOMODE
 70
     0
  9
$REGENMODE
 70
     1
  9
$FILLMODE
 70
     1
  9
$QTEXTMODE
 70
     0
  9
$MIRRTEXT
 70
     1
  9
$DRAGMODE
 70
     2
  9
$LTSCALE
 40
10.000000
  9
$OSMODE
 70
     0
  9
$ATTMODE
 70
     1
  9
$TEXTSIZE
 40
0.2
  9
$TRACEWID
 40
0.05
  9
$TEXTSTYLE
  7
STANDARD
  9
$CLAYER
  8
0
  9
$CELTYPE
  6
BYLAYER
  9
$CECOLOR
 62
   256
  9
$DIMSCALE
 40
1.0
  9
$DIMASZ
 40
0.18
  9
$DIMEXO
 40
0.0625
  9
$DIMDLI
 40
0.38
  9
$DIMRND
 40
0.0
  9
$DIMDLE
 40
0.0
  9
$DIMEXE
 40
0.18
  9
$DIMTP
 40
0.0
  9
$DIMTM
 40
0.0
  9
$DIMTXT
 40
0.18
  9
$DIMCEN
 40
0.09
  9
$DIMTSZ
 40
0.0
  9
$DIMTOL
 70
     0
  9
$DIMLIM
 70
     0
  9
$DIMTIH
 70
     1
  9
$DIMTOH
 70
     1
  9
$DIMSE1
 70
     0
  9
$DIMSE2
 70
     0
  9
$DIMTAD
 70
     0
  9
$DIMZIN
 70
     0
  9
$DIMBLK
  1

  9
$DIMASO
 70
     1
  9
$DIMSHO
 70
     0
  9
$DIMPOST
  1

  9
$DIMAPOST
  1

  9
$DIMALT
 70
     0
  9
$DIMALTD
 70
     2
  9
$DIMALTF
 40
25.4
  9
$DIMLFAC
 40
1.0
  9
$DIMTOFL
 70
     0
  9
$DIMTVP
 40
0.0
  9
$DIMTIX
 70
     0
  9
$DIMSOXD
 70
     0
  9
$DIMSAH
 70
     0
  9
$DIMBLK1
  1

  9
$DIMBLK2
  1

  9
$LUNITS
 70
     2
  9
$LUPREC
 70
     4
  9
$AXISMODE
 70
     0
  9
$AXISUNIT
 10
0.0
 20
0.0
  9
$SKETCHINC
 40
0.1
  9
$FILLETRAD
 40
0.0
  9
$AUNITS
 70
     0
  9
$AUPREC
 70
     0
  9
$MENU
  1
acad
  9
$ELEVATION
 40
0.0
  9
$THICKNESS
 40
0.0
  9
$LIMCHECK
 70
     0
  9
$BLIPMODE
 70
     1
  9
$CHAMFERA
 40
0.0
  9
$CHAMFERB
 40
0.0
  9
$SKPOLY
 70
     0
  9
$TDCREATE
 40
2448751.5905787037
  9
$TDUPDATE
 40
2448751.5905787037
  9
$TDINDWG
 40
0.0000000000
  9
$TDUSRTIMER
 40
0.0000000000
  9
$USRTIMER
 70
     1
  9
$ANGBASE
 50
0.0
  9
$ANGDIR
 70
     0
  9
$PDMODE
 70
     0
  9
$PDSIZE
 40
0.0
  9
$PLINEWID
 40
0.0
  9
$COORDS
 70
     0
  9
$SPLFRAME
 70
     0
  9
$SPLINETYPE
 70
     6
  9
$SPLINESEGS
 70
     8
  9
$ATTDIA
 70
     0
  9
$ATTREQ
 70
     1
  9
$HANDLING
 70
     0
  9
$HANDSEED
  5
0
  9
$SURFTAB1
 70
     6
  9
$SURFTAB2
 70
     6
  9
$SURFTYPE
 70
     6
  9
$SURFU
 70
     6
  9
$SURFV
 70
     6
  9
$FLATLAND
 70
     0
  9
$UCSNAME
  2

  9
$UCSORG
 10
0.0
 20
0.0
 30
0.0
  9
$UCSXDIR
 10
1.0
 20
0.0
 30
0.0
  9
$UCSYDIR
 10
0.0
 20
1.0
 30
0.0
  9
$USERI1
 70
     0
  9
$USERI2
 70
     0
  9
$USERI3
 70
     0
  9
$USERI4
 70
     0
  9
$USERI5
 70
     0
  9
$USERR1
 40
0.0
  9
$USERR2
 40
0.0
  9
$USERR3
 40
0.0
  9
$USERR4
 40
0.0
  9
$USERR5
 40
0.0
  9
$WORLDVIEW
 70
     1
  0
ENDSEC
  0
SECTION
  2
TABLES
  0
TABLE
  2
VPORT
 70
     2
  0
VPORT
  2
*ACTIVE
 70
     0
 10
0.0
 20
0.0
 11
1.0
 21
1.0
 12
7.914286
 22
4.5
 13
0.0
 23
0.0
 14
1.0
 24
1.0
 15
0.0
 25
0.0
 16
0.0
 26
0.0
 36
1.0
 17
0.0
 27
0.0
 37
0.0
 40
9.0
 41
1.75873
 42
50.0
 43
0.0
 44
0.0
 50
0.0
 51
0.0
 71
     0
 72
   100
 73
     1
 74
     1
 75
     0
 76
     0
 77
     0
 78
     0
  0
ENDTAB
  0
TABLE
  2
LTYPE
 70
     9
  0
LTYPE
  2
CONTINUOUS
 70
    64
  3
実線
 72
    65
 73
     0
 40
0.0
  0
LTYPE
  2
DASHED
 70
    64
  3
__ __ __ __ __ __ __ __ __ __ __ __ __ __ __
 72
    65
 73
     2
 40
0.75
 49
0.5
 49
-0.25
  0
LTYPE
  2
HIDDEN
 70
    64
  3
_ _ _ _ _ _ _ _ _ _ _ _ _ _ _ _ _ _ _ _ _ _ _
 72
    65
 73
     2
 40
0.375
 49
0.25
 49
-0.125
  0
LTYPE
  2
CENTER
 70
    64
  3
____ _ ____ _ ____ _ ____ _ ____ _ ____ _ ____
 72
    65
 73
     4
 40
2.0
 49
1.25
 49
-0.25
 49
0.25
 49
-0.25
  0
LTYPE
  2
PHANTOM
 70
    64
  3
_____ _ _ _____ _ _ _____ _ _ _____ _ _ ____
 72
    65
 73
     6
 40
2.5
 49
1.25
 49
-0.25
 49
0.25
 49
-0.25
 49
0.25
 49
-0.25
  0
LTYPE
  2
DOT
 70
    64
  3
...............................................
 72
    65
 73
     2
 40
0.25
 49
0.0
 49
-0.25
  0
LTYPE
  2
DASHDOT
 70
    64
  3
__ . __ . __ . __ . __ . __ . __ . __ . __ . __
 72
    65
 73
     4
 40
1.0
 49
0.5
 49
-0.25
 49
0.0
 49
-0.25
  0
LTYPE
  2
DIVIDE
 70
    64
  3
__ . . __ . . __ . . __ . . __ . . __ . . __
 72
    65
 73
     6
 40
1.25
 49
0.5
 49
-0.25
 49
0.0
 49
-0.25
 49
0.0
 49
-0.25
  0
LTYPE
  2
BORDER
 70
    64
  3
__ __ . __ __ . __ __ . __ __ . __ __ . __ __
 72
    65
 73
     6
 40
1.75
 49
0.5
 49
-0.25
 49
0.5
 49
-0.25
 49
0.0
 49
-0.25
  0
ENDTAB
  0
TABLE
  2
LAYER
 70
     2
  0
LAYER
  2
0
 70
     0
 62
     7
  6
CONTINUOUS
  0
LAYER
  2
PV
 70
     0
 62
     7
  6
CONTINUOUS
  0
ENDTAB
  0
TABLE
  2
STYLE
 70
     3
  0
STYLE
  2
STANDARD
 70
     0
 40
0.0
 41
1.0
 50
0.0
 71
     0
 42
0.2
  3
txt
  4

  0
STYLE
  2
FONT1
 70
     0
 40
0.0
 41
1.0
 50
0.0
 71
     0
 42
0.2
  3
MONOTXT
  4

  0
STYLE
  2
FONT2
 70
     0
 40
0.0
 41
1.0
 50
0.0
 71
     0
 42
0.2
  3
MONOTXT
  4
BIGFONT
  0
ENDTAB
  0
TABLE
  2
VIEW
 70
     0
  0
ENDTAB
  0
TABLE
  2
UCS
 70
     0
  0
ENDTAB
  0
TABLE
  2
DWGMGR
 70
     0
  0
ENDTAB
  0
ENDSEC
  0
SECTION
  2
BLOCKS
  0
BLOCK
  8
0
  2
01
 70
    64
 10
0.0
 20
0.0
 30
0.0
  0
ENDBLK
  8
0
  0
BLOCK
  8
0
  2
02
 70
    64
 10
0.0
 20
0.0
 30
0.0
  0
ENDBLK
  8
0
  0
ENDSEC
  0
SECTION
  2
ENTITIES
  0
LINE
  8
PV
 62
     7
 10
2.168410E+002
 20
2.275340E+002
 30
0.000000E+000
 11
2.176140E+002
 21
2.703340E+002
 31
0.000000E+000
  0
LINE
  8
PV
 62
     7
 10
1.495630E+002
 20
2.275340E+002
 30
0.000000E+000
 11
1.487880E+002
 21
2.703340E+002
 31
0.000000E+000
  0
LINE
  8
PV
 62
     7
 10
3.459220E+002
 20
2.275340E+002
 30
0.000000E+000
 11
3.466580E+002
 21
2.703340E+002
 31
0.000000E+000
  0
LINE
  8
PV
 62
     7
 10
3.328980E+002
 20
2.931090E+002
 30
0.000000E+000
 11
3.328980E+002
 21
2.275340E+002
 31
0.000000E+000
  0
LINE
  8
PV
 62
     7
 10
2.785930E+002
 20
2.275340E+002
 30
0.000000E+000
 11
2.778560E+002
 21
2.703340E+002
 31
0.000000E+000
  0
LINE
  8
PV
 62
     7
 10
2.728740E+002
 20
2.957190E+002
 30
0.000000E+000
 11
2.728740E+002
 21
2.275340E+002
 31
0.000000E+000
  0
LINE
  8
PV
 62
     7
 10
2.862070E+002
 20
2.931090E+002
 30
0.000000E+000
 11
2.862070E+002
 21
2.275340E+002
 31
0.000000E+000
  0
LINE
  8
PV
 62
     7
 10
2.026790E+002
 20
2.275340E+002
 30
0.000000E+000
 11
2.030590E+002
 21
2.723740E+002
 31
0.000000E+000
  0
LINE
  8
PV
 62
     7
 10
2.124070E+002
 20
2.275340E+002
 30
0.000000E+000
 11
2.126440E+002
 21
2.724210E+002
 31
0.000000E+000
  0
LINE
  8
PV
 62
     7
 10
1.539010E+002
 20
2.275340E+002
 30
0.000000E+000
 11
1.536170E+002
 21
2.724210E+002
 31
0.000000E+000
  0
LINE
  8
PV
 62
     7
 10
1.495630E+002
 20
2.275340E+002
 30
0.000000E+000
 11
2.168410E+002
 21
2.275340E+002
 31
0.000000E+000
  0
LINE
  8
PV
  6
CENTER
 62
     1
 10
1.830350E+002
 20
8.817450E+001
 30
0.000000E+000
 11
1.830350E+002
 21
3.205790E+002
 31
0.000000E+000
  0
LINE
  8
PV
 62
     7
 10
3.459220E+002
 20
2.275340E+002
 30
0.000000E+000
 11
2.728740E+002
 21
2.275340E+002
 31
0.000000E+000
  0
LINE
  8
PV
 62
     7
 10
2.094170E+002
 20
2.248290E+002
 30
0.000000E+000
 11
2.094170E+002
 21
1.292400E+002
 31
0.000000E+000
  0
LINE
  8
PV
 62
     7
 10
1.830350E+002
 20
2.253990E+002
 30
0.000000E+000
 11
1.830350E+002
 21
1.294080E+002
 31
0.000000E+000
  0
LINE
  8
PV
 62
     7
 10
2.025370E+002
 20
2.253990E+002
 30
0.000000E+000
 11
2.025370E+002
 21
1.294080E+002
 31
0.000000E+000
  0
LINE
  8
PV
 62
     7
 10
1.905320E+002
 20
2.068930E+002
 30
0.000000E+000
 11
1.905320E+002
 21
1.478660E+002
 31
0.000000E+000
  0
LINE
  8
PV
 62
     7
 10
1.950400E+002
 20
2.068930E+002
 30
0.000000E+000
 11
1.950400E+002
 21
1.478660E+002
 31
0.000000E+000
  0
LINE
  8
PV
 62
     7
 10
1.874480E+002
 20
1.409860E+002
 30
0.000000E+000
 11
1.874480E+002
 21
2.137740E+002
 31
0.000000E+000
  0
LINE
  8
PV
 62
     7
 10
1.981240E+002
 20
2.137740E+002
 30
0.000000E+000
 11
1.981240E+002
 21
1.409860E+002
 31
0.000000E+000
  0
LINE
  8
PV
 62
     7
 10
1.566530E+002
 20
2.248290E+002
 30
0.000000E+000
 11
1.566530E+002
 21
1.302620E+002
 31
0.000000E+000
  0
LINE
  8
PV
 62
     7
 10
2.065230E+002
 20
1.257070E+002
 30
0.000000E+000
 11
2.094170E+002
 21
1.292400E+002
 31
0.000000E+000
  0
LINE
  8
PV
 62
     7
 10
1.566530E+002
 20
1.302620E+002
 30
0.000000E+000
 11
1.595480E+002
 21
1.257070E+002
 31
0.000000E+000
  0
LINE
  8
PV
 62
     7
 10
1.776560E+002
 20
9.382100E+001
 30
0.000000E+000
 11
1.884140E+002
 21
9.382100E+001
 31
0.000000E+000
  0
LINE
  8
PV
 62
     7
 10
1.727390E+002
 20
1.186850E+002
 30
0.000000E+000
 11
1.933320E+002
 21
1.186850E+002
 31
0.000000E+000
  0
LINE
  8
PV
 62
     7
 10
1.754900E+002
 20
1.040230E+002
 30
0.000000E+000
 11
1.754900E+002
 21
1.141290E+002
 31
0.000000E+000
  0
LINE
  8
PV
 62
     7
 10
1.776560E+002
 20
1.005730E+002
 30
0.000000E+000
 11
1.776560E+002
 21
9.382100E+001
 31
0.000000E+000
  0
LINE
  8
PV
 62
     7
 10
1.754900E+002
 20
1.040230E+002
 30
0.000000E+000
 11
1.776560E+002
 21
1.005730E+002
 31
0.000000E+000
  0
LINE
  8
PV
 62
     7
 10
1.775300E+002
 20
1.141290E+002
 30
0.000000E+000
 11
1.775300E+002
 21
1.179250E+002
 31
0.000000E+000
  0
CIRCLE
  8
PV
 62
     7
 10
1.756330E+002
 20
1.160270E+002
 30
0.000000E+000
 40
1.897980E+000
  0
LINE
  8
PV
 62
     7
 10
1.775300E+002
 20
1.141290E+002
 30
0.000000E+000
 11
1.754900E+002
 21
1.141290E+002
 31
0.000000E+000
  0
LINE
  8
PV
 62
     7
 10
1.750640E+002
 20
1.186850E+002
 30
0.000000E+000
 11
1.727390E+002
 21
1.186850E+002
 31
0.000000E+000
  0
LINE
  8
PV
 62
     7
 10
1.750630E+002
 20
1.179250E+002
 30
0.000000E+000
 11
1.750630E+002
 21
1.186850E+002
 31
0.000000E+000
  0
LINE
  8
PV
 62
     7
 10
1.775300E+002
 20
1.179250E+002
 30
0.000000E+000
 11
1.751110E+002
 21
1.179250E+002
 31
0.000000E+000
  0
LINE
  8
PV
 62
     7
 10
1.775300E+002
 20
1.179250E+002
 30
0.000000E+000
 11
1.750630E+002
 21
1.179250E+002
 31
0.000000E+000
  0
LINE
  8
PV
 62
     7
 10
2.114580E+002
 20
1.058730E+002
 30
0.000000E+000
 11
2.114580E+002
 21
1.107610E+002
 31
0.000000E+000
  0
LINE
  8
PV
 62
     7
 10
1.960370E+002
 20
1.040230E+002
 30
0.000000E+000
 11
1.980290E+002
 21
1.058730E+002
 31
0.000000E+000
  0
LINE
  8
PV
 62
     7
 10
1.884140E+002
 20
1.007520E+002
 30
0.000000E+000
 11
1.884140E+002
 21
9.382100E+001
 31
0.000000E+000
  0
LINE
  8
PV
 62
     7
 10
1.884140E+002
 20
1.007520E+002
 30
0.000000E+000
 11
1.905800E+002
 21
1.040230E+002
 31
0.000000E+000
  0
LINE
  8
PV
 62
     7
 10
1.960370E+002
 20
1.040230E+002
 30
0.000000E+000
 11
1.905800E+002
 21
1.040230E+002
 31
0.000000E+000
  0
LINE
  8
PV
 62
     7
 10
1.980290E+002
 20
1.058730E+002
 30
0.000000E+000
 11
2.114580E+002
 21
1.058730E+002
 31
0.000000E+000
  0
LINE
  8
PV
 62
     7
 10
1.952770E+002
 20
1.107610E+002
 30
0.000000E+000
 11
2.114580E+002
 21
1.107610E+002
 31
0.000000E+000
  0
LINE
  8
PV
 62
     7
 10
1.960370E+002
 20
1.120420E+002
 30
0.000000E+000
 11
1.978990E+002
 21
1.107610E+002
 31
0.000000E+000
  0
LINE
  8
PV
 62
     7
 10
1.885400E+002
 20
1.141290E+002
 30
0.000000E+000
 11
1.885400E+002
 21
1.179250E+002
 31
0.000000E+000
  0
CIRCLE
  8
PV
 62
     7
 10
1.904370E+002
 20
1.160270E+002
 30
0.000000E+000
 40
1.897980E+000
  0
LINE
  8
PV
 62
     7
 10
1.885400E+002
 20
1.141290E+002
 30
0.000000E+000
 11
1.905800E+002
 21
1.141290E+002
 31
0.000000E+000
  0
LINE
  8
PV
 62
     7
 10
1.960370E+002
 20
1.120420E+002
 30
0.000000E+000
 11
1.905800E+002
 21
1.120420E+002
 31
0.000000E+000
  0
LINE
  8
PV
 62
     7
 10
1.937590E+002
 20
1.093370E+002
 30
0.000000E+000
 11
1.952770E+002
 21
1.107610E+002
 31
0.000000E+000
  0
LINE
  8
PV
 62
     7
 10
1.905800E+002
 20
1.093370E+002
 30
0.000000E+000
 11
1.937590E+002
 21
1.093370E+002
 31
0.000000E+000
  0
LINE
  8
PV
 62
     7
 10
1.905800E+002
 20
1.040230E+002
 30
0.000000E+000
 11
1.905800E+002
 21
1.141290E+002
 31
0.000000E+000
  0
LINE
  8
PV
 62
     7
 10
1.885400E+002
 20
1.179250E+002
 30
0.000000E+000
 11
1.910070E+002
 21
1.179250E+002
 31
0.000000E+000
  0
LINE
  8
PV
 62
     7
 10
1.885400E+002
 20
1.179250E+002
 30
0.000000E+000
 11
1.909590E+002
 21
1.179250E+002
 31
0.000000E+000
  0
LINE
  8
PV
 62
     7
 10
1.910070E+002
 20
1.179250E+002
 30
0.000000E+000
 11
1.910070E+002
 21
1.186850E+002
 31
0.000000E+000
  0
LINE
  8
PV
 62
     7
 10
1.588050E+002
 20
1.268770E+002
 30
0.000000E+000
 11
2.074820E+002
 21
1.268770E+002
 31
0.000000E+000
  0
LINE
  8
PV
 62
     7
 10
1.981240E+002
 20
1.409860E+002
 30
0.000000E+000
 11
1.874480E+002
 21
1.409860E+002
 31
0.000000E+000
  0
LINE
  8
PV
 62
     7
 10
1.830350E+002
 20
1.294080E+002
 30
0.000000E+000
 11
2.025370E+002
 21
1.294080E+002
 31
0.000000E+000
  0
CIRCLE
  8
PV
 62
     7
 10
1.928100E+002
 20
1.366680E+002
 30
0.000000E+000
 40
3.890870E+000
  0
LINE
  8
PV
 62
     7
 10
1.950400E+002
 20
1.478660E+002
 30
0.000000E+000
 11
1.905320E+002
 21
1.478660E+002
 31
0.000000E+000
  0
LINE
  8
PV
 62
     7
 10
1.652420E+002
 20
2.244970E+002
 30
0.000000E+000
 11
1.831780E+002
 21
2.244970E+002
 31
0.000000E+000
  0
LINE
  8
PV
 62
     7
 10
1.539010E+002
 20
2.275340E+002
 30
0.000000E+000
 11
1.652420E+002
 21
2.244970E+002
 31
0.000000E+000
  0
LINE
  8
PV
 62
     7
 10
1.539010E+002
 20
2.275340E+002
 30
0.000000E+000
 11
1.566530E+002
 21
2.248290E+002
 31
0.000000E+000
  0
CIRCLE
  8
PV
 62
     7
 10
1.928100E+002
 20
2.182340E+002
 30
0.000000E+000
 40
3.890870E+000
  0
LINE
  8
PV
 62
     7
 10
1.874480E+002
 20
2.137740E+002
 30
0.000000E+000
 11
1.981240E+002
 21
2.137740E+002
 31
0.000000E+000
  0
LINE
  8
PV
 62
     7
 10
1.950400E+002
 20
2.068930E+002
 30
0.000000E+000
 11
1.905320E+002
 21
2.068930E+002
 31
0.000000E+000
  0
LINE
  8
PV
 62
     7
 10
1.830350E+002
 20
2.253990E+002
 30
0.000000E+000
 11
2.025370E+002
 21
2.253990E+002
 31
0.000000E+000
  0
LINE
  8
PV
 62
     7
 10
2.025370E+002
 20
2.245750E+002
 30
0.000000E+000
 11
2.124070E+002
 21
2.275340E+002
 31
0.000000E+000
  0
LINE
  8
PV
 62
     7
 10
2.124070E+002
 20
2.275340E+002
 30
0.000000E+000
 11
2.094170E+002
 21
2.248290E+002
 31
0.000000E+000
  0
LINE
  8
PV
 62
     7
 10
3.384970E+002
 20
2.275340E+002
 30
0.000000E+000
 11
3.384970E+002
 21
1.270600E+002
 31
0.000000E+000
  0
LINE
  8
PV
 62
     7
 10
2.785680E+002
 20
2.254460E+002
 30
0.000000E+000
 11
2.785680E+002
 21
1.294560E+002
 31
0.000000E+000
  0
LINE
  8
PV
 62
     7
 10
2.857330E+002
 20
2.275340E+002
 30
0.000000E+000
 11
2.857330E+002
 21
1.270330E+002
 31
0.000000E+000
  0
LINE
  8
PV
 62
     7
 10
3.121150E+002
 20
1.268770E+002
 30
0.000000E+000
 11
3.121150E+002
 21
2.275340E+002
 31
0.000000E+000
  0
LINE
  8
PV
 62
     7
 10
3.011150E+002
 20
2.275340E+002
 30
0.000000E+000
 11
3.041150E+002
 21
1.268770E+002
 31
0.000000E+000
  0
LINE
  8
PV
 62
     7
 10
3.231150E+002
 20
2.275340E+002
 30
0.000000E+000
 11
3.201150E+002
 21
1.268770E+002
 31
0.000000E+000
  0
LINE
  8
PV
 62
     7
 10
3.021150E+002
 20
1.058730E+002
 30
0.000000E+000
 11
3.221150E+002
 21
1.058730E+002
 31
0.000000E+000
  0
LINE
  8
PV
 62
     7
 10
3.021150E+002
 20
1.107610E+002
 30
0.000000E+000
 11
3.221150E+002
 21
1.107610E+002
 31
0.000000E+000
  0
LINE
  8
PV
 62
     7
 10
3.018180E+002
 20
1.186850E+002
 30
0.000000E+000
 11
3.223640E+002
 21
1.186850E+002
 31
0.000000E+000
  0
LINE
  8
PV
 62
     7
 10
3.224120E+002
 20
1.186850E+002
 30
0.000000E+000
 11
3.018180E+002
 21
1.186850E+002
 31
0.000000E+000
  0
LINE
  8
PV
 62
     7
 10
3.196590E+002
 20
1.141290E+002
 30
0.000000E+000
 11
3.045710E+002
 21
1.141290E+002
 31
0.000000E+000
  0
LINE
  8
PV
 62
     7
 10
3.178650E+002
 20
9.382100E+001
 30
0.000000E+000
 11
3.063650E+002
 21
9.382100E+001
 31
0.000000E+000
  0
LINE
  8
PV
 62
     7
 10
3.021150E+002
 20
1.058730E+002
 30
0.000000E+000
 11
3.021150E+002
 21
1.107610E+002
 31
0.000000E+000
  0
LINE
  8
PV
 62
     7
 10
3.063650E+002
 20
1.058730E+002
 30
0.000000E+000
 11
3.063650E+002
 21
9.382100E+001
 31
0.000000E+000
  0
ARC
  8
PV
 62
     7
 10
3.047130E+002
 20
1.160270E+002
 30
0.000000E+000
 40
1.897980E+000
 50
9.184180E+001
 51
2.700000E+002
  0
LINE
  8
PV
 62
     7
 10
3.063650E+002
 20
1.141290E+002
 30
0.000000E+000
 11
3.063650E+002
 21
1.107610E+002
 31
0.000000E+000
  0
LINE
  8
PV
 62
     7
 10
3.046520E+002
 20
1.186850E+002
 30
0.000000E+000
 11
3.046520E+002
 21
1.179240E+002
 31
0.000000E+000
  0
LINE
  8
PV
 62
     7
 10
3.221150E+002
 20
1.107610E+002
 30
0.000000E+000
 11
3.221150E+002
 21
1.058730E+002
 31
0.000000E+000
  0
LINE
  8
PV
 62
     7
 10
3.178650E+002
 20
1.058730E+002
 30
0.000000E+000
 11
3.178650E+002
 21
9.382100E+001
 31
0.000000E+000
  0
ARC
  8
PV
 62
     7
 10
3.195170E+002
 20
1.160270E+002
 30
0.000000E+000
 40
1.897980E+000
 50
2.700000E+002
 51
8.815820E+001
  0
LINE
  8
PV
 62
     7
 10
3.178650E+002
 20
1.141290E+002
 30
0.000000E+000
 11
3.178650E+002
 21
1.107610E+002
 31
0.000000E+000
  0
LINE
  8
PV
 62
     7
 10
3.195780E+002
 20
1.186850E+002
 30
0.000000E+000
 11
3.195780E+002
 21
1.179240E+002
 31
0.000000E+000
  0
LINE
  8
PV
 62
     7
 10
2.860340E+002
 20
1.268770E+002
 30
0.000000E+000
 11
3.381440E+002
 21
1.268770E+002
 31
0.000000E+000
  0
LINE
  8
PV
 62
     7
 10
2.858280E+002
 20
1.294560E+002
 30
0.000000E+000
 11
2.785680E+002
 21
1.294560E+002
 31
0.000000E+000
  0
LINE
  8
PV
 62
     7
 10
2.857330E+002
 20
2.254460E+002
 30
0.000000E+000
 11
2.785680E+002
 21
2.254460E+002
 31
0.000000E+000
  0
LINE
  8
PV
 62
     7
 10
1.538540E+002
 20
4.169950E+002
 30
0.000000E+000
 11
1.486340E+002
 21
4.169950E+002
 31
0.000000E+000
  0
LINE
  8
PV
 62
     7
 10
1.486340E+002
 20
4.636860E+002
 30
0.000000E+000
 11
1.539490E+002
 21
4.636860E+002
 31
0.000000E+000
  0
LINE
  8
PV
 62
     7
 10
1.492230E+002
 20
2.957190E+002
 30
0.000000E+000
 11
2.171790E+002
 21
2.957190E+002
 31
0.000000E+000
  0
LINE
  8
PV
  6
CENTER
 62
     1
 10
1.379580E+002
 20
4.403880E+002
 30
0.000000E+000
 11
2.324300E+002
 21
4.403880E+002
 31
0.000000E+000
  0
LINE
  8
PV
  6
CENTER
 62
     1
 10
2.303900E+002
 20
2.703340E+002
 30
0.000000E+000
 11
1.363450E+002
 21
2.703340E+002
 31
0.000000E+000
  0
LINE
  8
PV
 62
     7
 10
1.492040E+002
 20
2.931090E+002
 30
0.000000E+000
 11
2.171990E+002
 21
2.931090E+002
 31
0.000000E+000
  0
LINE
  8
PV
 62
     7
 10
1.488240E+002
 20
2.703340E+002
 30
0.000000E+000
 11
1.492230E+002
 21
2.957190E+002
 31
0.000000E+000
  0
LINE
  8
PV
 62
     7
 10
1.431780E+002
 20
2.525870E+002
 30
0.000000E+000
 11
1.431780E+002
 21
2.880800E+002
 31
0.000000E+000
  0
LINE
  8
PV
 62
     7
 10
1.490610E+002
 20
2.552450E+002
 30
0.000000E+000
 11
1.467360E+002
 21
2.552450E+002
 31
0.000000E+000
  0
LINE
  8
PV
 62
     7
 10
1.431780E+002
 20
2.525870E+002
 30
0.000000E+000
 11
1.452180E+002
 21
2.525870E+002
 31
0.000000E+000
  0
LINE
  8
PV
 62
     7
 10
1.467360E+002
 20
2.552450E+002
 30
0.000000E+000
 11
1.452180E+002
 21
2.525870E+002
 31
0.000000E+000
  0
LINE
  8
PV
 62
     7
 10
1.431780E+002
 20
2.880800E+002
 30
0.000000E+000
 11
1.452180E+002
 21
2.880800E+002
 31
0.000000E+000
  0
LINE
  8
PV
 62
     7
 10
1.467360E+002
 20
2.854220E+002
 30
0.000000E+000
 11
1.490610E+002
 21
2.854220E+002
 31
0.000000E+000
  0
LINE
  8
PV
 62
     7
 10
1.452180E+002
 20
2.880800E+002
 30
0.000000E+000
 11
1.467360E+002
 21
2.854220E+002
 31
0.000000E+000
  0
LINE
  8
PV
 62
     7
 10
1.486340E+002
 20
4.636860E+002
 30
0.000000E+000
 11
1.486340E+002
 21
4.169950E+002
 31
0.000000E+000
  0
LINE
  8
PV
 62
     7
 10
1.465940E+002
 20
4.252520E+002
 30
0.000000E+000
 11
1.450280E+002
 21
4.225940E+002
 31
0.000000E+000
  0
LINE
  8
PV
 62
     7
 10
1.430350E+002
 20
4.225940E+002
 30
0.000000E+000
 11
1.430350E+002
 21
4.580870E+002
 31
0.000000E+000
  0
LINE
  8
PV
 62
     7
 10
1.430350E+002
 20
4.225940E+002
 30
0.000000E+000
 11
1.450280E+002
 21
4.225940E+002
 31
0.000000E+000
  0
LINE
  8
PV
 62
     7
 10
1.465940E+002
 20
4.252520E+002
 30
0.000000E+000
 11
1.486340E+002
 21
4.252520E+002
 31
0.000000E+000
  0
LINE
  8
PV
 62
     7
 10
1.465940E+002
 20
4.554300E+002
 30
0.000000E+000
 11
1.450280E+002
 21
4.580870E+002
 31
0.000000E+000
  0
LINE
  8
PV
 62
     7
 10
1.450280E+002
 20
4.580870E+002
 30
0.000000E+000
 11
1.430350E+002
 21
4.580870E+002
 31
0.000000E+000
  0
LINE
  8
PV
 62
     7
 10
1.465940E+002
 20
4.554300E+002
 30
0.000000E+000
 11
1.486340E+002
 21
4.554300E+002
 31
0.000000E+000
  0
LINE
  8
PV
 62
     7
 10
2.728740E+002
 20
2.957190E+002
 30
0.000000E+000
 11
3.462050E+002
 21
2.957190E+002
 31
0.000000E+000
  0
LINE
  8
PV
 62
     7
 10
2.728740E+002
 20
2.931090E+002
 30
0.000000E+000
 11
3.462310E+002
 21
2.931090E+002
 31
0.000000E+000
  0
ARC
  8
PV
 62
     7
 10
1.839530E+002
 20
3.126850E+002
 30
0.000000E+000
 40
1.000000E+000
 50
1.244080E+000
 51
6.083840E+001
  0
ARC
  8
PV
 62
     7
 10
1.665220E+002
 20
3.126850E+002
 30
0.000000E+000
 40
1.000000E+000
 50
1.191620E+002
 51
1.787560E+002
  0
LINE
  8
PV
 62
     7
 10
2.126440E+002
 20
2.724210E+002
 30
0.000000E+000
 11
2.125490E+002
 21
2.931090E+002
 31
0.000000E+000
  0
LINE
  8
PV
 62
     7
 10
2.030590E+002
 20
2.723740E+002
 30
0.000000E+000
 11
2.028690E+002
 21
2.931090E+002
 31
0.000000E+000
  0
LINE
  8
PV
 62
     7
 10
1.536170E+002
 20
2.724210E+002
 30
0.000000E+000
 11
1.537590E+002
 21
2.931090E+002
 31
0.000000E+000
  0
LINE
  8
PV
 62
     7
 10
1.605150E+002
 20
2.992190E+002
 30
0.000000E+000
 11
1.900150E+002
 21
2.992190E+002
 31
0.000000E+000
  0
LINE
  8
PV
 62
     7
 10
1.894610E+002
 20
2.992190E+002
 30
0.000000E+000
 11
1.701380E+002
 21
2.992190E+002
 31
0.000000E+000
  0
LINE
  8
PV
 62
     7
 10
1.556090E+002
 20
2.957190E+002
 30
0.000000E+000
 11
1.949930E+002
 21
2.957190E+002
 31
0.000000E+000
  0
LINE
  8
PV
 62
     7
 10
1.655230E+002
 20
3.127060E+002
 30
0.000000E+000
 11
1.652300E+002
 21
2.992190E+002
 31
0.000000E+000
  0
LINE
  8
PV
 62
     7
 10
1.605150E+002
 20
2.957190E+002
 30
0.000000E+000
 11
1.605150E+002
 21
2.992190E+002
 31
0.000000E+000
  0
LINE
  8
PV
 62
     7
 10
1.726380E+002
 20
2.992190E+002
 30
0.000000E+000
 11
1.746380E+002
 21
2.992190E+002
 31
0.000000E+000
  0
LINE
  8
PV
 62
     7
 10
1.849530E+002
 20
3.127060E+002
 30
0.000000E+000
 11
1.852460E+002
 21
2.992190E+002
 31
0.000000E+000
  0
LINE
  8
PV
 62
     7
 10
1.910660E+002
 20
3.080230E+002
 30
0.000000E+000
 11
1.910660E+002
 21
2.957190E+002
 31
0.000000E+000
  0
LINE
  8
PV
 62
     7
 10
1.900150E+002
 20
2.957190E+002
 30
0.000000E+000
 11
1.900150E+002
 21
2.992190E+002
 31
0.000000E+000
  0
LINE
  8
PV
 62
     7
 10
1.949930E+002
 20
2.957190E+002
 30
0.000000E+000
 11
1.957520E+002
 21
2.957190E+002
 31
0.000000E+000
  0
LINE
  8
PV
 62
     7
 10
1.949600E+002
 20
2.957190E+002
 30
0.000000E+000
 11
1.957590E+002
 21
2.957190E+002
 31
0.000000E+000
  0
LINE
  8
PV
 62
     7
 10
1.980980E+002
 20
3.080230E+002
 30
0.000000E+000
 11
1.850550E+002
 21
3.080230E+002
 31
0.000000E+000
  0
LINE
  8
PV
 62
     7
 10
1.980980E+002
 20
3.080230E+002
 30
0.000000E+000
 11
1.980980E+002
 21
2.957190E+002
 31
0.000000E+000
  0
LINE
  8
PV
 62
     7
 10
2.175790E+002
 20
2.703340E+002
 30
0.000000E+000
 11
2.171790E+002
 21
2.957190E+002
 31
0.000000E+000
  0
LINE
  8
PV
 62
     7
 10
2.231780E+002
 20
2.525870E+002
 30
0.000000E+000
 11
2.231780E+002
 21
2.880800E+002
 31
0.000000E+000
  0
LINE
  8
PV
 62
     7
 10
2.196660E+002
 20
2.552450E+002
 30
0.000000E+000
 11
2.211850E+002
 21
2.525870E+002
 31
0.000000E+000
  0
LINE
  8
PV
 62
     7
 10
2.196660E+002
 20
2.552450E+002
 30
0.000000E+000
 11
2.173410E+002
 21
2.552450E+002
 31
0.000000E+000
  0
LINE
  8
PV
 62
     7
 10
2.231780E+002
 20
2.525870E+002
 30
0.000000E+000
 11
2.211850E+002
 21
2.525870E+002
 31
0.000000E+000
  0
LINE
  8
PV
 62
     7
 10
2.196660E+002
 20
2.854220E+002
 30
0.000000E+000
 11
2.211850E+002
 21
2.880800E+002
 31
0.000000E+000
  0
LINE
  8
PV
 62
     7
 10
2.173410E+002
 20
2.854220E+002
 30
0.000000E+000
 11
2.196660E+002
 21
2.854220E+002
 31
0.000000E+000
  0
LINE
  8
PV
 62
     7
 10
2.231780E+002
 20
2.880800E+002
 30
0.000000E+000
 11
2.211850E+002
 21
2.880800E+002
 31
0.000000E+000
  0
ARC
  8
PV
 62
     7
 10
1.826880E+002
 20
3.156810E+002
 30
0.000000E+000
 40
1.000000E+000
 50
1.800000E+002
 51
2.408380E+002
  0
LINE
  8
PV
 62
     7
 10
1.847580E+002
 20
3.132790E+002
 30
0.000000E+000
 11
1.657180E+002
 21
3.132790E+002
 31
0.000000E+000
  0
LINE
  8
PV
 62
     7
 10
1.818780E+002
 20
3.150940E+002
 30
0.000000E+000
 11
1.685970E+002
 21
3.150940E+002
 31
0.000000E+000
  0
LINE
  8
PV
 62
     7
 10
1.682380E+002
 20
3.147870E+002
 30
0.000000E+000
 11
1.660350E+002
 21
3.135580E+002
 31
0.000000E+000
  0
LINE
  8
PV
 62
     7
 10
1.682380E+002
 20
3.147870E+002
 30
0.000000E+000
 11
1.660350E+002
 21
3.135580E+002
 31
0.000000E+000
  0
LINE
  8
PV
 62
     7
 10
1.815880E+002
 20
3.175790E+002
 30
0.000000E+000
 11
1.688880E+002
 21
3.175790E+002
 31
0.000000E+000
  0
LINE
  8
PV
 62
     7
 10
1.687880E+002
 20
3.174790E+002
 30
0.000000E+000
 11
1.687880E+002
 21
3.156810E+002
 31
0.000000E+000
  0
ARC
  8
PV
 62
     7
 10
1.688880E+002
 20
3.174790E+002
 30
0.000000E+000
 40
1.000000E-001
 50
9.000000E+001
 51
1.800000E+002
  0
ARC
  8
PV
 62
     7
 10
1.677880E+002
 20
3.156810E+002
 30
0.000000E+000
 40
1.000000E+000
 50
2.991620E+002
 51
0.000000E+000
  0
LINE
  8
PV
 62
     7
 10
1.816880E+002
 20
3.174790E+002
 30
0.000000E+000
 11
1.816880E+002
 21
3.156810E+002
 31
0.000000E+000
  0
ARC
  8
PV
 62
     7
 10
1.815880E+002
 20
3.174790E+002
 30
0.000000E+000
 40
1.000000E-001
 50
0.000000E+000
 51
9.000000E+001
  0
LINE
  8
PV
 62
     7
 10
1.822010E+002
 20
3.148080E+002
 30
0.000000E+000
 11
1.844390E+002
 21
3.135590E+002
 31
0.000000E+000
  0
LINE
  8
PV
 62
     7
 10
1.822010E+002
 20
3.148080E+002
 30
0.000000E+000
 11
1.844410E+002
 21
3.135580E+002
 31
0.000000E+000
  0
LINE
  8
PV
 62
     7
 10
3.193060E+002
 20
3.132790E+002
 30
0.000000E+000
 11
3.196110E+002
 21
2.992190E+002
 31
0.000000E+000
  0
LINE
  8
PV
 62
     7
 10
2.998470E+002
 20
3.132790E+002
 30
0.000000E+000
 11
2.995420E+002
 21
2.992190E+002
 31
0.000000E+000
  0
LINE
  8
PV
 62
     7
 10
3.272990E+002
 20
2.593340E+002
 30
0.000000E+000
 11
3.272990E+002
 21
2.813340E+002
 31
0.000000E+000
  0
LINE
  8
PV
 62
     7
 10
2.778560E+002
 20
2.703340E+002
 30
0.000000E+000
 11
2.782640E+002
 21
2.931090E+002
 31
0.000000E+000
  0
LINE
  8
PV
 62
     7
 10
2.918070E+002
 20
2.813340E+002
 30
0.000000E+000
 11
2.918070E+002
 21
2.593340E+002
 31
0.000000E+000
  0
CIRCLE
  8
PV
 62
     7
 10
3.095530E+002
 20
2.703340E+002
 30
0.000000E+000
 40
1.124560E+001
  0
LINE
  8
PV
  6
CENTER
 62
     1
 10
3.364470E+002
 20
2.703340E+002
 30
0.000000E+000
 11
2.826580E+002
 21
2.703340E+002
 31
0.000000E+000
  0
LINE
  8
PV
 62
     7
 10
2.985530E+002
 20
2.525870E+002
 30
0.000000E+000
 11
3.205530E+002
 21
2.525870E+002
 31
0.000000E+000
  0
LINE
  8
PV
 62
     7
 10
2.918070E+002
 20
2.593340E+002
 30
0.000000E+000
 11
2.985530E+002
 21
2.525870E+002
 31
0.000000E+000
  0
LINE
  8
PV
 62
     7
 10
3.205530E+002
 20
2.525870E+002
 30
0.000000E+000
 11
3.272990E+002
 21
2.593340E+002
 31
0.000000E+000
  0
LINE
  8
PV
 62
     7
 10
3.243260E+002
 20
2.992190E+002
 30
0.000000E+000
 11
2.948260E+002
 21
2.992190E+002
 31
0.000000E+000
  0
LINE
  8
PV
 62
     7
 10
3.205530E+002
 20
2.880800E+002
 30
0.000000E+000
 11
2.985530E+002
 21
2.880800E+002
 31
0.000000E+000
  0
LINE
  8
PV
 62
     7
 10
2.985530E+002
 20
2.880800E+002
 30
0.000000E+000
 11
2.918070E+002
 21
2.813340E+002
 31
0.000000E+000
  0
LINE
  8
PV
 62
     7
 10
2.948260E+002
 20
2.957190E+002
 30
0.000000E+000
 11
2.948260E+002
 21
2.992190E+002
 31
0.000000E+000
  0
LINE
  8
PV
 62
     7
 10
3.272990E+002
 20
2.813340E+002
 30
0.000000E+000
 11
3.205530E+002
 21
2.880800E+002
 31
0.000000E+000
  0
LINE
  8
PV
 62
     7
 10
3.255230E+002
 20
3.080230E+002
 30
0.000000E+000
 11
3.255230E+002
 21
2.957190E+002
 31
0.000000E+000
  0
LINE
  8
PV
 62
     7
 10
3.325540E+002
 20
3.080230E+002
 30
0.000000E+000
 11
3.325540E+002
 21
2.957190E+002
 31
0.000000E+000
  0
LINE
  8
PV
 62
     7
 10
3.243260E+002
 20
2.957190E+002
 30
0.000000E+000
 11
3.243260E+002
 21
2.992190E+002
 31
0.000000E+000
  0
LINE
  8
PV
 62
     7
 10
3.255230E+002
 20
3.080230E+002
 30
0.000000E+000
 11
3.395850E+002
 21
3.080230E+002
 31
0.000000E+000
  0
LINE
  8
PV
 62
     7
 10
3.466580E+002
 20
2.703340E+002
 30
0.000000E+000
 11
3.462050E+002
 21
2.957190E+002
 31
0.000000E+000
  0
LINE
  8
PV
 62
     7
 10
3.395850E+002
 20
3.080230E+002
 30
0.000000E+000
 11
3.395850E+002
 21
2.957190E+002
 31
0.000000E+000
  0
LINE
  8
PV
 62
     7
 10
3.160530E+002
 20
3.150940E+002
 30
0.000000E+000
 11
3.031000E+002
 21
3.150940E+002
 31
0.000000E+000
  0
LINE
  8
PV
 62
     7
 10
3.160530E+002
 20
3.175790E+002
 30
0.000000E+000
 11
3.031000E+002
 21
3.175790E+002
 31
0.000000E+000
  0
LINE
  8
PV
 62
     7
 10
3.193060E+002
 20
3.132790E+002
 30
0.000000E+000
 11
2.998470E+002
 21
3.132790E+002
 31
0.000000E+000
  0
LINE
  8
PV
 62
     7
 10
3.031000E+002
 20
3.175790E+002
 30
0.000000E+000
 11
3.031000E+002
 21
3.150940E+002
 31
0.000000E+000
  0
LINE
  8
PV
 62
     7
 10
3.031000E+002
 20
3.150940E+002
 30
0.000000E+000
 11
2.998470E+002
 21
3.132790E+002
 31
0.000000E+000
  0
LINE
  8
PV
 62
     7
 10
3.160530E+002
 20
3.175790E+002
 30
0.000000E+000
 11
3.160530E+002
 21
3.150940E+002
 31
0.000000E+000
  0
LINE
  8
PV
 62
     7
 10
3.160530E+002
 20
3.150940E+002
 30
0.000000E+000
 11
3.193060E+002
 21
3.132790E+002
 31
0.000000E+000
  0
LINE
  8
PV
 62
     7
 10
2.157800E+002
 20
4.183780E+002
 30
0.000000E+000
 11
2.157800E+002
 21
4.623090E+002
 31
0.000000E+000
  0
LINE
  8
PV
 62
     7
 10
1.510440E+002
 20
4.623090E+002
 30
0.000000E+000
 11
1.510440E+002
 21
4.183780E+002
 31
0.000000E+000
  0
LINE
  8
PV
 62
     7
 10
1.840350E+002
 20
4.674680E+002
 30
0.000000E+000
 11
1.840350E+002
 21
4.593300E+002
 31
0.000000E+000
  0
LINE
  8
PV
 62
     7
 10
1.980980E+002
 20
4.593300E+002
 30
0.000000E+000
 11
1.980980E+002
 21
4.674680E+002
 31
0.000000E+000
  0
LINE
  8
PV
 62
     7
 10
2.157800E+002
 20
4.183780E+002
 30
0.000000E+000
 11
2.108240E+002
 21
4.183780E+002
 31
0.000000E+000
  0
LINE
  8
PV
 62
     7
 10
2.174360E+002
 20
4.169950E+002
 30
0.000000E+000
 11
2.121690E+002
 21
4.169950E+002
 31
0.000000E+000
  0
CIRCLE
  8
PV
 62
     7
 10
1.848340E+002
 20
4.163380E+002
 30
0.000000E+000
 40
5.632950E+000
  0
ARC
  8
PV
 62
     7
 10
1.830350E+002
 20
4.438520E+002
 30
0.000000E+000
 40
3.962040E+001
 50
2.226250E+002
 51
2.687500E+002
  0
ARC
  8
PV
 62
     7
 10
1.834120E+002
 20
4.436470E+002
 30
0.000000E+000
 40
3.727890E+001
 50
2.226250E+002
 51
2.687500E+002
  0
LINE
  8
PV
 62
     7
 10
1.559550E+002
 20
4.183780E+002
 30
0.000000E+000
 11
1.510440E+002
 21
4.183780E+002
 31
0.000000E+000
  0
LINE
  8
PV
 62
     7
 10
2.034390E+002
 20
4.094510E+002
 30
0.000000E+000
 11
2.034390E+002
 21
4.036150E+002
 31
0.000000E+000
  0
LINE
  8
PV
 62
     7
 10
2.026090E+002
 20
4.112790E+002
 30
0.000000E+000
 11
2.026090E+002
 21
4.057880E+002
 31
0.000000E+000
  0
LINE
  8
PV
 62
     7
 10
1.826080E+002
 20
4.057880E+002
 30
0.000000E+000
 11
1.826080E+002
 21
4.063680E+002
 31
0.000000E+000
  0
LINE
  8
PV
 62
     7
 10
2.034390E+002
 20
4.036150E+002
 30
0.000000E+000
 11
1.821810E+002
 21
4.036150E+002
 31
0.000000E+000
  0
LINE
  8
PV
 62
     7
 10
2.026090E+002
 20
4.057880E+002
 30
0.000000E+000
 11
1.826080E+002
 21
4.057880E+002
 31
0.000000E+000
  0
LINE
  8
PV
 62
     7
 10
1.821810E+002
 20
4.036150E+002
 30
0.000000E+000
 11
1.821810E+002
 21
4.042310E+002
 31
0.000000E+000
  0
CIRCLE
  8
PV
 62
     7
 10
1.976910E+002
 20
4.098250E+002
 30
0.000000E+000
 40
3.250000E+000
  0
LINE
  8
PV
 62
     7
 10
2.009410E+002
 20
4.098250E+002
 30
0.000000E+000
 11
1.946170E+002
 21
4.108790E+002
 31
0.000000E+000
  0
LINE
  8
PV
 62
     7
 10
2.009410E+002
 20
4.098250E+002
 30
0.000000E+000
 11
1.946170E+002
 21
4.087710E+002
 31
0.000000E+000
  0
LINE
  8
PV
 62
     7
 10
2.121690E+002
 20
4.169950E+002
 30
0.000000E+000
 11
2.034390E+002
 21
4.094510E+002
 31
0.000000E+000
  0
LINE
  8
PV
 62
     7
 10
2.108240E+002
 20
4.183780E+002
 30
0.000000E+000
 11
2.026090E+002
 21
4.112790E+002
 31
0.000000E+000
  0
CIRCLE
  8
PV
 62
     7
 10
1.767240E+002
 20
4.403880E+002
 30
0.000000E+000
 40
9.705000E+000
  0
LINE
  8
PV
 62
     7
 10
1.910660E+002
 20
4.552830E+002
 30
0.000000E+000
 11
1.980980E+002
 21
4.593300E+002
 31
0.000000E+000
  0
LINE
  8
PV
 62
     7
 10
1.840350E+002
 20
4.593300E+002
 30
0.000000E+000
 11
1.910660E+002
 21
4.552830E+002
 31
0.000000E+000
  0
LINE
  8
PV
 62
     7
 10
2.174360E+002
 20
4.169950E+002
 30
0.000000E+000
 11
2.174360E+002
 21
4.636600E+002
 31
0.000000E+000
  0
LINE
  8
PV
 62
     7
 10
2.195240E+002
 20
4.252520E+002
 30
0.000000E+000
 11
2.210420E+002
 21
4.225940E+002
 31
0.000000E+000
  0
LINE
  8
PV
 62
     7
 10
2.230350E+002
 20
4.225940E+002
 30
0.000000E+000
 11
2.230350E+002
 21
4.580870E+002
 31
0.000000E+000
  0
LINE
  8
PV
 62
     7
 10
2.210420E+002
 20
4.225940E+002
 30
0.000000E+000
 11
2.230350E+002
 21
4.225940E+002
 31
0.000000E+000
  0
LINE
  8
PV
 62
     7
 10
2.195240E+002
 20
4.252520E+002
 30
0.000000E+000
 11
2.174360E+002
 21
4.252520E+002
 31
0.000000E+000
  0
LINE
  8
PV
 62
     7
 10
2.230350E+002
 20
4.580870E+002
 30
0.000000E+000
 11
2.210420E+002
 21
4.580870E+002
 31
0.000000E+000
  0
LINE
  8
PV
 62
     7
 10
2.195240E+002
 20
4.554300E+002
 30
0.000000E+000
 11
2.174360E+002
 21
4.554300E+002
 31
0.000000E+000
  0
LINE
  8
PV
 62
     7
 10
2.195240E+002
 20
4.554300E+002
 30
0.000000E+000
 11
2.210420E+002
 21
4.580870E+002
 31
0.000000E+000
  0
LINE
  8
PV
 62
     7
 10
2.121880E+002
 20
4.636600E+002
 30
0.000000E+000
 11
2.174360E+002
 21
4.636600E+002
 31
0.000000E+000
  0
LINE
  8
PV
 62
     7
 10
2.108690E+002
 20
4.623090E+002
 30
0.000000E+000
 11
2.157800E+002
 21
4.623090E+002
 31
0.000000E+000
  0
ARC
  8
PV
 62
     7
 10
1.830350E+002
 20
4.368290E+002
 30
0.000000E+000
 40
3.962040E+001
 50
4.262500E+001
 51
8.875000E+001
  0
LINE
  8
PV
 62
     7
 10
1.642590E+002
 20
4.749440E+002
 30
0.000000E+000
 11
1.842600E+002
 21
4.749440E+002
 31
0.000000E+000
  0
LINE
  8
PV
 62
     7
 10
1.626790E+002
 20
4.771140E+002
 30
0.000000E+000
 11
1.839370E+002
 21
4.771140E+002
 31
0.000000E+000
  0
LINE
  8
PV
 62
     7
 10
1.642590E+002
 20
4.694080E+002
 30
0.000000E+000
 11
1.642590E+002
 21
4.749440E+002
 31
0.000000E+000
  0
LINE
  8
PV
 62
     7
 10
1.626790E+002
 20
4.712300E+002
 30
0.000000E+000
 11
1.626790E+002
 21
4.771140E+002
 31
0.000000E+000
  0
LINE
  8
PV
 62
     7
 10
1.539490E+002
 20
4.636860E+002
 30
0.000000E+000
 11
1.626790E+002
 21
4.712300E+002
 31
0.000000E+000
  0
LINE
  8
PV
 62
     7
 10
1.560440E+002
 20
4.623090E+002
 30
0.000000E+000
 11
1.642590E+002
 21
4.694080E+002
 31
0.000000E+000
  0
LINE
  8
PV
 62
     7
 10
1.510440E+002
 20
4.623090E+002
 30
0.000000E+000
 11
1.560440E+002
 21
4.623090E+002
 31
0.000000E+000
  0
LINE
  8
PV
 62
     7
 10
1.980980E+002
 20
4.674680E+002
 30
0.000000E+000
 11
1.910660E+002
 21
4.715150E+002
 31
0.000000E+000
  0
ARC
  8
PV
 62
     7
 10
1.834120E+002
 20
4.370400E+002
 30
0.000000E+000
 40
3.727890E+001
 50
4.262500E+001
 51
8.875000E+001
  0
LINE
  8
PV
 62
     7
 10
1.910660E+002
 20
4.715150E+002
 30
0.000000E+000
 11
1.840350E+002
 21
4.674680E+002
 31
0.000000E+000
  0
LINE
  8
PV
 62
     7
 10
1.839370E+002
 20
4.771140E+002
 30
0.000000E+000
 11
1.839370E+002
 21
4.764970E+002
 31
0.000000E+000
  0
LINE
  8
PV
 62
     7
 10
1.842600E+002
 20
4.749440E+002
 30
0.000000E+000
 11
1.842600E+002
 21
4.743630E+002
 31
0.000000E+000
  0
LINE
  8
PV
 62
     7
 10
1.727390E+002
 20
1.186850E+002
 30
0.000000E+000
 11
1.595480E+002
 21
1.257070E+002
 31
0.000000E+000
  0
LINE
  8
PV
 62
     7
 10
1.933320E+002
 20
1.186850E+002
 30
0.000000E+000
 11
2.065230E+002
 21
1.257070E+002
 31
0.000000E+000
  0
LINE
  8
PV
 62
     7
 10
3.018180E+002
 20
1.186850E+002
 30
0.000000E+000
 11
2.857330E+002
 21
1.270330E+002
 31
0.000000E+000
  0
LINE
  8
PV
 62
     7
 10
3.223640E+002
 20
1.186850E+002
 30
0.000000E+000
 11
3.384970E+002
 21
1.270600E+002
 31
0.000000E+000
  0
CIRCLE
  8
PV
 62
     7
 10
1.767240E+002
 20
4.403880E+002
 30
0.000000E+000
 40
1.422330E+001
  0
CIRCLE
  8
PV
 62
     7
 10
1.767240E+002
 20
4.403880E+002
 30
0.000000E+000
 40
3.962400E+000
  0
LINE
  8
PV
  6
CENTER
 62
     1
 10
1.830350E+002
 20
4.006150E+002
 30
0.000000E+000
 11
1.830350E+002
 21
4.801140E+002
 31
0.000000E+000
  0
TEXT
  8
PV
 62
     7
 10
3.695796E+001
 20
4.980510E+002
 30
0.000000E+000
 40
5.600000E+000
  1
MODEL No.
 41
9.260000E-001
  7
FONT1
  0
TEXT
  8
PV
 62
     7
 10
9.043304E+001
 20
4.980510E+002
 30
0.000000E+000
 40
5.600000E+000
  1
L74*-*BP-QDN
  7
FONT1
  0
LINE
  8
PV
  6
CENTER
 62
     1
 10
3.947450E+002
 20
3.553470E+002
 30
0.000000E+000
 11
3.947450E+002
 21
6.799130E+001
 31
0.000000E+000
  0
LINE
  8
PV
  6
CENTER
 62
     1
 10
5.302190E+002
 20
2.223210E+002
 30
0.000000E+000
 11
4.510500E+002
 21
2.223210E+002
 31
0.000000E+000
  0
ARC
  8
PV
 62
     7
 10
4.586310E+002
 20
2.553320E+002
 30
0.000000E+000
 40
2.486970E+000
 50
9.000000E+001
 51
1.800000E+002
  0
LINE
  8
PV
 62
     7
 10
4.540500E+002
 20
2.322950E+002
 30
0.000000E+000
 11
4.615110E+002
 21
2.322950E+002
 31
0.000000E+000
  0
LINE
  8
PV
 62
     7
 10
4.540500E+002
 20
1.968230E+002
 30
0.000000E+000
 11
5.272190E+002
 21
1.968230E+002
 31
0.000000E+000
  0
LINE
  8
PV
 62
     7
 10
4.540500E+002
 20
2.322950E+002
 30
0.000000E+000
 11
4.540500E+002
 21
1.968230E+002
 31
0.000000E+000
  0
ARC
  8
PV
 62
     7
 10
4.564720E+002
 20
2.023210E+002
 30
0.000000E+000
 40
3.665010E+000
 50
1.316090E+002
 51
2.284060E+002
  0
LINE
  8
PV
 62
     7
 10
4.561440E+002
 20
2.553320E+002
 30
0.000000E+000
 11
4.561440E+002
 21
2.322950E+002
 31
0.000000E+000
  0
LINE
  8
PV
 62
     7
 10
4.914080E+002
 20
2.241660E+002
 30
0.000000E+000
 11
5.167800E+002
 21
2.846830E+002
 31
0.000000E+000
  0
ARC
  8
PV
 62
     7
 10
5.225730E+002
 20
2.553320E+002
 30
0.000000E+000
 40
2.486970E+000
 50
0.000000E+000
 51
9.000000E+001
  0
LINE
  8
PV
 62
     7
 10
4.991430E+002
 20
2.548090E+002
 30
0.000000E+000
 11
5.191040E+002
 21
2.548090E+002
 31
0.000000E+000
  0
LINE
  8
PV
 62
     7
 10
4.991430E+002
 20
2.498350E+002
 30
0.000000E+000
 11
5.191040E+002
 21
2.498350E+002
 31
0.000000E+000
  0
LINE
  8
PV
 62
     7
 10
4.585000E+002
 20
2.578190E+002
 30
0.000000E+000
 11
5.227030E+002
 21
2.578190E+002
 31
0.000000E+000
  0
LINE
  8
PV
 62
     7
 10
4.991430E+002
 20
2.048070E+002
 30
0.000000E+000
 11
5.172060E+002
 21
2.048070E+002
 31
0.000000E+000
  0
LINE
  8
PV
 62
     7
 10
4.991430E+002
 20
1.998340E+002
 30
0.000000E+000
 11
5.172060E+002
 21
1.998340E+002
 31
0.000000E+000
  0
LINE
  8
PV
 62
     7
 10
4.639980E+002
 20
2.298080E+002
 30
0.000000E+000
 11
4.639980E+002
 21
1.993100E+002
 31
0.000000E+000
  0
ARC
  8
PV
 62
     7
 10
4.821270E+002
 20
2.023210E+002
 30
0.000000E+000
 40
2.486970E+000
 50
2.700000E+002
 51
9.000000E+001
  0
LINE
  8
PV
 62
     7
 10
4.639980E+002
 20
1.998340E+002
 30
0.000000E+000
 11
4.821270E+002
 21
1.998340E+002
 31
0.000000E+000
  0
ARC
  8
PV
 62
     7
 10
4.615110E+002
 20
1.993100E+002
 30
0.000000E+000
 40
2.486970E+000
 50
2.700000E+002
 51
0.000000E+000
  0
LINE
  8
PV
 62
     7
 10
4.639980E+002
 20
2.048070E+002
 30
0.000000E+000
 11
4.821270E+002
 21
2.048070E+002
 31
0.000000E+000
  0
ARC
  8
PV
 62
     7
 10
4.991430E+002
 20
2.023210E+002
 30
0.000000E+000
 40
2.486970E+000
 50
9.000000E+001
 51
2.700000E+002
  0
ARC
  8
PV
 62
     7
 10
4.615110E+002
 20
2.298080E+002
 30
0.000000E+000
 40
2.486970E+000
 50
0.000000E+000
 51
9.000000E+001
  0
CIRCLE
  8
PV
 62
     7
 10
4.595480E+002
 20
2.263390E+002
 30
0.000000E+000
 40
2.225180E+000
  0
LINE
  8
PV
 62
     7
 10
4.621000E+002
 20
2.548090E+002
 30
0.000000E+000
 11
4.821270E+002
 21
2.548090E+002
 31
0.000000E+000
  0
LINE
  8
PV
 62
     7
 10
4.621000E+002
 20
2.498350E+002
 30
0.000000E+000
 11
4.821270E+002
 21
2.498350E+002
 31
0.000000E+000
  0
ARC
  8
PV
 62
     7
 10
4.621000E+002
 20
2.523220E+002
 30
0.000000E+000
 40
2.486970E+000
 50
9.000000E+001
 51
2.700000E+002
  0
ARC
  8
PV
 62
     7
 10
4.821270E+002
 20
2.523220E+002
 30
0.000000E+000
 40
2.486970E+000
 50
2.700000E+002
 51
9.000000E+001
  0
POLYLINE
  8
PV
 62
     7
 66
     1
 10
0.0
 20
0.0
 30
0.0
  0
VERTEX
  8
PV
 62
     7
 10
4.917160E+002
 20
2.240370E+002
 30
0.000000E+000
  0
VERTEX
  8
PV
 62
     7
 10
4.911010E+002
 20
2.242940E+002
 30
0.000000E+000
  0
VERTEX
  8
PV
 62
     7
 10
4.906350E+002
 20
2.223210E+002
 30
0.000000E+000
  0
VERTEX
  8
PV
 62
     7
 10
4.917160E+002
 20
2.240370E+002
 30
0.000000E+000
  0
SEQEND
  8
PV
 62
     7
  0
ARC
  8
PV
 62
     7
 10
4.991430E+002
 20
2.523220E+002
 30
0.000000E+000
 40
2.486970E+000
 50
9.000000E+001
 51
2.700000E+002
  0
LINE
  8
PV
 62
     7
 10
5.172060E+002
 20
2.298080E+002
 30
0.000000E+000
 11
5.172060E+002
 21
1.993100E+002
 31
0.000000E+000
  0
LINE
  8
PV
 62
     7
 10
5.272190E+002
 20
2.322950E+002
 30
0.000000E+000
 11
5.272190E+002
 21
1.968230E+002
 31
0.000000E+000
  0
ARC
  8
PV
 62
     7
 10
5.247320E+002
 20
2.023210E+002
 30
0.000000E+000
 40
3.665010E+000
 50
3.116090E+002
 51
4.840630E+001
  0
ARC
  8
PV
 62
     7
 10
5.196930E+002
 20
1.993100E+002
 30
0.000000E+000
 40
2.486970E+000
 50
1.800000E+002
 51
2.700000E+002
  0
LINE
  8
PV
 62
     7
 10
5.251250E+002
 20
2.553320E+002
 30
0.000000E+000
 11
5.251250E+002
 21
2.322950E+002
 31
0.000000E+000
  0
ARC
  8
PV
 62
     7
 10
5.196930E+002
 20
2.298080E+002
 30
0.000000E+000
 40
2.486970E+000
 50
9.000000E+001
 51
1.800000E+002
  0
CIRCLE
  8
PV
 62
     7
 10
5.217220E+002
 20
2.263390E+002
 30
0.000000E+000
 40
2.225180E+000
  0
LINE
  8
PV
 62
     7
 10
5.196930E+002
 20
2.322950E+002
 30
0.000000E+000
 11
5.272190E+002
 21
2.322950E+002
 31
0.000000E+000
  0
ARC
  8
PV
 62
     7
 10
5.191040E+002
 20
2.523220E+002
 30
0.000000E+000
 40
2.486970E+000
 50
2.700000E+002
 51
9.000000E+001
  0
TEXT
  8
PV
 62
     7
 10
5.366367E+002
 20
2.819610E+002
 30
0.000000E+000
 40
5.600000E+000
  1
P,P
 41
7.780000E-001
  7
FONT1
  0
LINE
  8
PV
 62
     7
 10
5.167800E+002
 20
2.846830E+002
 30
0.000000E+000
 11
5.335160E+002
 21
2.846830E+002
 31
0.000000E+000
  0
LINE
  8
PV
 62
     7
 10
6.757830E+002
 20
2.846830E+002
 30
0.000000E+000
 11
6.925200E+002
 21
2.846830E+002
 31
0.000000E+000
  0
LINE
  8
PV
 62
     7
 10
6.682420E+002
 20
2.322950E+002
 30
0.000000E+000
 11
7.006380E+002
 21
2.322950E+002
 31
0.000000E+000
  0
LINE
  8
PV
 62
     7
 10
6.276660E+002
 20
2.051350E+002
 30
0.000000E+000
 11
6.885960E+002
 21
2.051350E+002
 31
0.000000E+000
  0
LINE
  8
PV
 62
     7
 10
6.276660E+002
 20
1.995720E+002
 30
0.000000E+000
 11
6.885960E+002
 21
1.995720E+002
 31
0.000000E+000
  0
LINE
  8
PV
 62
     7
 10
6.216440E+002
 20
1.968230E+002
 30
0.000000E+000
 11
7.006380E+002
 21
1.968230E+002
 31
0.000000E+000
  0
LINE
  8
PV
 62
     7
 10
6.504120E+002
 20
2.241660E+002
 30
0.000000E+000
 11
6.757830E+002
 21
2.846830E+002
 31
0.000000E+000
  0
LINE
  8
PV
 62
     7
 10
6.216440E+002
 20
2.322950E+002
 30
0.000000E+000
 11
6.319850E+002
 21
2.322950E+002
 31
0.000000E+000
  0
LINE
  8
PV
 62
     7
 10
6.216440E+002
 20
2.322950E+002
 30
0.000000E+000
 11
6.216440E+002
 21
1.968230E+002
 31
0.000000E+000
  0
ARC
  8
PV
 62
     7
 10
6.276660E+002
 20
2.023210E+002
 30
0.000000E+000
 40
2.748760E+000
 50
9.000000E+001
 51
2.700000E+002
  0
LINE
  8
PV
  6
CENTER
 62
     1
 10
6.496380E+002
 20
2.086850E+002
 30
0.000000E+000
 11
6.496380E+002
 21
2.359560E+002
 31
0.000000E+000
  0
LINE
  8
PV
 62
     7
 10
6.344720E+002
 20
2.298080E+002
 30
0.000000E+000
 11
6.344720E+002
 21
2.093230E+002
 31
0.000000E+000
  0
LINE
  8
PV
 62
     7
 10
6.657550E+002
 20
2.298080E+002
 30
0.000000E+000
 11
6.657550E+002
 21
2.093230E+002
 31
0.000000E+000
  0
LINE
  8
PV
 62
     7
 10
6.370240E+002
 20
2.068360E+002
 30
0.000000E+000
 11
6.632030E+002
 21
2.068360E+002
 31
0.000000E+000
  0
ARC
  8
PV
 62
     7
 10
6.370240E+002
 20
2.093230E+002
 30
0.000000E+000
 40
2.486970E+000
 50
1.800000E+002
 51
2.700000E+002
  0
ARC
  8
PV
 62
     7
 10
6.632030E+002
 20
2.093230E+002
 30
0.000000E+000
 40
2.486970E+000
 50
2.700000E+002
 51
0.000000E+000
  0
LINE
  8
PV
  6
CENTER
 62
     1
 10
6.632740E+002
 20
2.223210E+002
 30
0.000000E+000
 11
6.360030E+002
 21
2.223210E+002
 31
0.000000E+000
  0
ARC
  8
PV
 62
     7
 10
6.319850E+002
 20
2.298080E+002
 30
0.000000E+000
 40
2.486970E+000
 50
0.000000E+000
 51
9.000000E+001
  0
POLYLINE
  8
PV
 62
     7
 66
     1
 10
0.0
 20
0.0
 30
0.0
  0
VERTEX
  8
PV
 62
     7
 10
6.507190E+002
 20
2.240370E+002
 30
0.000000E+000
  0
VERTEX
  8
PV
 62
     7
 10
6.501040E+002
 20
2.242940E+002
 30
0.000000E+000
  0
VERTEX
  8
PV
 62
     7
 10
6.496380E+002
 20
2.223210E+002
 30
0.000000E+000
  0
VERTEX
  8
PV
 62
     7
 10
6.507190E+002
 20
2.240370E+002
 30
0.000000E+000
  0
SEQEND
  8
PV
 62
     7
  0
ARC
  8
PV
 62
     7
 10
6.682420E+002
 20
2.298080E+002
 30
0.000000E+000
 40
2.486970E+000
 50
9.000000E+001
 51
1.800000E+002
  0
LINE
  8
PV
 62
     7
 10
7.006380E+002
 20
2.578190E+002
 30
0.000000E+000
 11
7.006380E+002
 21
1.968230E+002
 31
0.000000E+000
  0
ARC
  8
PV
 62
     7
 10
6.885960E+002
 20
2.023210E+002
 30
0.000000E+000
 40
2.748760E+000
 50
2.700000E+002
 51
9.000000E+001
  0
LINE
  8
PV
 62
     7
 10
6.990020E+002
 20
2.578190E+002
 30
0.000000E+000
 11
6.990020E+002
 21
2.322950E+002
 31
0.000000E+000
  0
LINE
  8
PV
 62
     7
 10
6.990020E+002
 20
2.578190E+002
 30
0.000000E+000
 11
7.006380E+002
 21
2.578190E+002
 31
0.000000E+000
  0
TEXT
  8
PV
 62
     7
 10
6.956407E+002
 20
2.819610E+002
 30
0.000000E+000
 40
5.600000E+000
  1
P,P
 41
7.780000E-001
  7
FONT1
  0
TEXT
  8
PV
 62
     7
 10
1.137474E+002
 20
2.744490E+002
 30
0.000000E+000
 40
5.600000E+000
  1
IN
 41
8.333339E-001
  7
FONT1
  0
TEXT
  8
PV
 62
     7
 10
7.636838E+001
 20
2.655770E+002
 30
0.000000E+000
 40
5.600000E+000
  1
Rc3/8, 1/2
 41
9.000661E-001
  7
FONT1
  0
LINE
  8
PV
 62
     7
 10
1.416160E+002
 20
2.715840E+002
 30
0.000000E+000
 11
1.349830E+002
 21
2.768900E+002
 31
0.000000E+000
  0
POLYLINE
  8
PV
 62
     7
 66
     1
 10
0.0
 20
0.0
 30
0.0
  0
VERTEX
  8
PV
 62
     7
 10
1.418250E+002
 20
2.718440E+002
 30
0.000000E+000
  0
VERTEX
  8
PV
 62
     7
 10
1.414080E+002
 20
2.713230E+002
 30
0.000000E+000
  0
VERTEX
  8
PV
 62
     7
 10
1.431780E+002
 20
2.703340E+002
 30
0.000000E+000
  0
VERTEX
  8
PV
 62
     7
 10
1.418250E+002
 20
2.718440E+002
 30
0.000000E+000
  0
SEQEND
  8
PV
 62
     7
  0
LINE
  8
PV
 62
     7
 10
1.349830E+002
 20
2.768900E+002
 30
0.000000E+000
 11
1.329470E+002
 21
2.768900E+002
 31
0.000000E+000
  0
TEXT
  8
PV
 62
     7
 10
2.156837E+002
 20
3.299740E+002
 30
0.000000E+000
 40
5.600000E+000
  1
P,P
 41
7.780000E-001
  7
FONT1
  0
LINE
  8
PV
 62
     7
 10
1.835850E+002
 20
2.722570E+002
 30
0.000000E+000
 11
2.003280E+002
 21
3.308440E+002
 31
0.000000E+000
  0
LINE
  8
PV
 62
     7
 10
2.003280E+002
 20
3.308440E+002
 30
0.000000E+000
 11
2.145400E+002
 21
3.308440E+002
 31
0.000000E+000
  0
POLYLINE
  8
PV
 62
     7
 66
     1
 10
0.0
 20
0.0
 30
0.0
  0
VERTEX
  8
PV
 62
     7
 10
1.839050E+002
 20
2.721650E+002
 30
0.000000E+000
  0
VERTEX
  8
PV
 62
     7
 10
1.832640E+002
 20
2.723480E+002
 30
0.000000E+000
  0
VERTEX
  8
PV
 62
     7
 10
1.830350E+002
 20
2.703340E+002
 30
0.000000E+000
  0
VERTEX
  8
PV
 62
     7
 10
1.839050E+002
 20
2.721650E+002
 30
0.000000E+000
  0
SEQEND
  8
PV
 62
     7
  0
LINE
  8
PV
  6
CENTER
 62
     1
 10
3.095530E+002
 20
2.906130E+002
 30
0.000000E+000
 11
3.095530E+002
 21
2.495240E+002
 31
0.000000E+000
  0
POLYLINE
  8
PV
 62
     7
 66
     1
 10
0.0
 20
0.0
 30
0.0
  0
VERTEX
  8
PV
 62
     7
 10
3.104230E+002
 20
2.721650E+002
 30
0.000000E+000
  0
VERTEX
  8
PV
 62
     7
 10
3.097820E+002
 20
2.723480E+002
 30
0.000000E+000
  0
VERTEX
  8
PV
 62
     7
 10
3.095530E+002
 20
2.703340E+002
 30
0.000000E+000
  0
VERTEX
  8
PV
 62
     7
 10
3.104230E+002
 20
2.721650E+002
 30
0.000000E+000
  0
SEQEND
  8
PV
 62
     7
  0
LINE
  8
PV
 62
     7
 10
3.101020E+002
 20
2.722570E+002
 30
0.000000E+000
 11
3.268460E+002
 21
3.308440E+002
 31
0.000000E+000
  0
LINE
  8
PV
 62
     7
 10
3.268460E+002
 20
3.308440E+002
 30
0.000000E+000
 11
3.410580E+002
 21
3.308440E+002
 31
0.000000E+000
  0
TEXT
  8
PV
 62
     7
 10
3.422007E+002
 20
3.299740E+002
 30
0.000000E+000
 40
5.600000E+000
  1
P,P
 41
7.780000E-001
  7
FONT1
  0
ENDSEC
  0
EOF
