  0
SECTION
  2
HEADER
  9
$ACADVER
  1
AC1012
  9
$DWGCODEPAGE
  3
dos932
  9
$INSBASE
 10
0.0
 20
0.0
 30
0.0
  9
$EXTMIN
 10
29.989886
 20
19.993258
 30
-0.001526
  9
$EXTMAX
 10
1175.066409
 20
610.038118
 30
0.0
  9
$LIMMIN
 10
0.0
 20
0.0
  9
$LIMMAX
 10
1189.0
 20
841.0
  9
$ORTHOMODE
 70
     0
  9
$REGENMODE
 70
     1
  9
$FILLMODE
 70
     1
  9
$QTEXTMODE
 70
     0
  9
$MIRRTEXT
 70
     1
  9
$DRAGMODE
 70
     2
  9
$LTSCALE
 40
1.0
  9
$OSMODE
 70
     0
  9
$ATTMODE
 70
     1
  9
$TEXTSIZE
 40
4.5
  9
$TRACEWID
 40
0.05
  9
$TEXTSTYLE
  7
STANDARD
  9
$CLAYER
  8
L-ZISSEN
  9
$CELTYPE
  6
BYLAYER
  9
$CECOLOR
 62
   256
  9
$CELTSCALE
 40
1.0
  9
$DELOBJ
 70
     1
  9
$DISPSILH
 70
     0
  9
$DIMSCALE
 40
1.0
  9
$DIMASZ
 40
2.0
  9
$DIMEXO
 40
1.0
  9
$DIMDLI
 40
0.38
  9
$DIMRND
 40
0.0
  9
$DIMDLE
 40
1.0
  9
$DIMEXE
 40
1.0
  9
$DIMTP
 40
0.0
  9
$DIMTM
 40
0.0
  9
$DIMTXT
 40
4.5
  9
$DIMCEN
 40
0.09
  9
$DIMTSZ
 40
0.0
  9
$DIMTOL
 70
     0
  9
$DIMLIM
 70
     0
  9
$DIMTIH
 70
     0
  9
$DIMTOH
 70
     0
  9
$DIMSE1
 70
     0
  9
$DIMSE2
 70
     0
  9
$DIMTAD
 70
     1
  9
$DIMZIN
 70
     0
  9
$DIMBLK
  1

  9
$DIMASO
 70
     0
  9
$DIMSHO
 70
     0
  9
$DIMPOST
  1

  9
$DIMAPOST
  1

  9
$DIMALT
 70
     0
  9
$DIMALTD
 70
     2
  9
$DIMALTF
 40
25.4
  9
$DIMLFAC
 40
1.0
  9
$DIMTOFL
 70
     1
  9
$DIMTVP
 40
0.0
  9
$DIMTIX
 70
     1
  9
$DIMSOXD
 70
     0
  9
$DIMSAH
 70
     0
  9
$DIMBLK1
  1

  9
$DIMBLK2
  1

  9
$DIMSTYLE
  2
STANDARD
  9
$DIMCLRD
 70
     0
  9
$DIMCLRE
 70
     0
  9
$DIMCLRT
 70
     0
  9
$DIMTFAC
 40
1.0
  9
$DIMGAP
 40
0.09
  9
$DIMJUST
 70
     0
  9
$DIMSD1
 70
     0
  9
$DIMSD2
 70
     0
  9
$DIMTOLJ
 70
     1
  9
$DIMTZIN
 70
     0
  9
$DIMALTZ
 70
     0
  9
$DIMALTTZ
 70
     0
  9
$DIMFIT
 70
     3
  9
$DIMUPT
 70
     0
  9
$DIMUNIT
 70
     2
  9
$DIMDEC
 70
     4
  9
$DIMTDEC
 70
     4
  9
$DIMALTU
 70
     2
  9
$DIMALTTD
 70
     2
  9
$DIMTXSTY
  7
STANDARD
  9
$DIMAUNIT
 70
     0
  9
$LUNITS
 70
     2
  9
$LUPREC
 70
     4
  9
$SKETCHINC
 40
0.1
  9
$FILLETRAD
 40
33.0
  9
$AUNITS
 70
     0
  9
$AUPREC
 70
     0
  9
$MENU
  1
acad
  9
$ELEVATION
 40
0.0
  9
$PELEVATION
 40
0.0
  9
$THICKNESS
 40
0.0
  9
$LIMCHECK
 70
     0
  9
$BLIPMODE
 70
     1
  9
$CHAMFERA
 40
2.0
  9
$CHAMFERB
 40
2.0
  9
$CHAMFERC
 40
0.0
  9
$CHAMFERD
 40
0.0
  9
$SKPOLY
 70
     0
  9
$TDCREATE
 40
2449653.774739930
  9
$TDUPDATE
 40
2450925.638633449
  9
$TDINDWG
 40
0.0022599537
  9
$TDUSRTIMER
 40
0.0022599537
  9
$USRTIMER
 70
     1
  9
$ANGBASE
 50
0.0
  9
$ANGDIR
 70
     0
  9
$PDMODE
 70
     0
  9
$PDSIZE
 40
0.0
  9
$PLINEWID
 40
0.0
  9
$COORDS
 70
     1
  9
$SPLFRAME
 70
     0
  9
$SPLINETYPE
 70
     6
  9
$SPLINESEGS
 70
     8
  9
$ATTDIA
 70
     0
  9
$ATTREQ
 70
     1
  9
$HANDLING
 70
     1
  9
$HANDSEED
  5
49E
  9
$SURFTAB1
 70
     6
  9
$SURFTAB2
 70
     6
  9
$SURFTYPE
 70
     6
  9
$SURFU
 70
     6
  9
$SURFV
 70
     6
  9
$UCSNAME
  2

  9
$UCSORG
 10
0.0
 20
0.0
 30
0.0
  9
$UCSXDIR
 10
1.0
 20
0.0
 30
0.0
  9
$UCSYDIR
 10
0.0
 20
1.0
 30
0.0
  9
$PUCSNAME
  2

  9
$PUCSORG
 10
0.0
 20
0.0
 30
0.0
  9
$PUCSXDIR
 10
1.0
 20
0.0
 30
0.0
  9
$PUCSYDIR
 10
0.0
 20
1.0
 30
0.0
  9
$USERI1
 70
     0
  9
$USERI2
 70
     0
  9
$USERI3
 70
     0
  9
$USERI4
 70
     0
  9
$USERI5
 70
     0
  9
$USERR1
 40
0.0
  9
$USERR2
 40
0.0
  9
$USERR3
 40
0.0
  9
$USERR4
 40
0.0
  9
$USERR5
 40
0.0
  9
$WORLDVIEW
 70
     1
  9
$SHADEDGE
 70
     3
  9
$SHADEDIF
 70
    70
  9
$TILEMODE
 70
     1
  9
$MAXACTVP
 70
    16
  9
$PINSBASE
 10
0.0
 20
0.0
 30
0.0
  9
$PLIMCHECK
 70
     0
  9
$PEXTMIN
 10
1.000000E+20
 20
1.000000E+20
 30
1.000000E+20
  9
$PEXTMAX
 10
-1.000000E+20
 20
-1.000000E+20
 30
-1.000000E+20
  9
$PLIMMIN
 10
0.0
 20
0.0
  9
$PLIMMAX
 10
12.0
 20
9.0
  9
$UNITMODE
 70
     0
  9
$VISRETAIN
 70
     0
  9
$PLINEGEN
 70
     0
  9
$PSLTSCALE
 70
     0
  9
$TREEDEPTH
 70
  3020
  9
$PICKSTYLE
 70
     1
  9
$CMLSTYLE
  2
STANDARD
  9
$CMLJUST
 70
     0
  9
$CMLSCALE
 40
1.0
  9
$SAVEIMAGES
 70
     1
  0
ENDSEC
  0
SECTION
  2
CLASSES
  0
CLASS
  1
LWPOLYLINE
  2
AcDbPolyline
  3
"AutoCAD"
 90
    32768
280
     0
281
     1
  0
ENDSEC
  0
SECTION
  2
TABLES
  0
TABLE
  2
VPORT
  5
8
100
AcDbSymbolTable
 70
     2
  0
VPORT
  5
49D
100
AcDbSymbolTableRecord
100
AcDbViewportTableRecord
  2
*ACTIVE
 70
     0
 10
0.0
 20
0.0
 11
1.0
 21
1.0
 12
602.528148
 22
315.015688
 13
0.0
 23
0.0
 14
5.0
 24
5.0
 15
0.0
 25
0.0
 16
0.0
 26
0.0
 36
1.0
 17
0.0
 27
0.0
 37
0.0
 40
600.937996
 41
2.16358
 42
50.0
 43
0.0
 44
0.0
 50
0.0
 51
0.0
 71
     0
 72
   100
 73
     1
 74
     0
 75
     0
 76
     0
 77
     0
 78
     0
  0
ENDTAB
  0
TABLE
  2
LTYPE
  5
5
100
AcDbSymbolTable
 70
     2
  0
LTYPE
  5
12
100
AcDbSymbolTableRecord
100
AcDbLinetypeTableRecord
  2
BYBLOCK
 70
     0
  3

 72
    65
 73
     0
 40
0.0
  0
LTYPE
  5
13
100
AcDbSymbolTableRecord
100
AcDbLinetypeTableRecord
  2
BYLAYER
 70
     0
  3

 72
    65
 73
     0
 40
0.0
  0
LTYPE
  5
14
100
AcDbSymbolTableRecord
100
AcDbLinetypeTableRecord
  2
CONTINUOUS
 70
     0
  3
Solid line
 72
    65
 73
     0
 40
0.0
  0
LTYPE
  5
1C
100
AcDbSymbolTableRecord
100
AcDbLinetypeTableRecord
  2
CENTER
 70
     0
  3
____ _ ____ _ ____ _ ____ _ 
 72
    65
 73
     4
 40
60.0
 49
45.0
 74
     0
 49
-5.0
 74
     0
 49
5.0
 74
     0
 49
-5.0
 74
     0
  0
ENDTAB
  0
TABLE
  2
LAYER
  5
2
100
AcDbSymbolTable
 70
     3
  0
LAYER
  5
F
100
AcDbSymbolTableRecord
100
AcDbLayerTableRecord
  2
0
 70
     0
 62
     7
  6
CONTINUOUS
  0
LAYER
  5
1F
100
AcDbSymbolTableRecord
100
AcDbLayerTableRecord
  2
L-ZISSEN
 70
     0
 62
     7
  6
CONTINUOUS
  0
LAYER
  5
20
100
AcDbSymbolTableRecord
100
AcDbLayerTableRecord
  2
L-TYUSIN
 70
     0
 62
     1
  6
CENTER
  0
ENDTAB
  0
TABLE
  2
STYLE
  5
3
100
AcDbSymbolTable
 70
     1
  0
STYLE
  5
10
100
AcDbSymbolTableRecord
100
AcDbTextStyleTableRecord
  2
STANDARD
 70
     0
 40
0.0
 41
1.0
 50
0.0
 71
     0
 42
4.5
  3
TXT
  4

  0
ENDTAB
  0
TABLE
  2
VIEW
  5
6
100
AcDbSymbolTable
 70
     0
  0
ENDTAB
  0
TABLE
  2
UCS
  5
7
100
AcDbSymbolTable
 70
     0
  0
ENDTAB
  0
TABLE
  2
APPID
  5
9
100
AcDbSymbolTable
 70
     1
  0
APPID
  5
11
100
AcDbSymbolTableRecord
100
AcDbRegAppTableRecord
  2
ACAD
 70
     0
  0
ENDTAB
  0
TABLE
  2
DIMSTYLE
  5
A
100
AcDbSymbolTable
 70
     1
  0
DIMSTYLE
105
40B
100
AcDbSymbolTableRecord
100
AcDbDimStyleTableRecord
  2
STANDARD
 70
     0
  3

  4

  5

  6

  7

 40
1.0
 41
0.18
 42
0.0625
 43
0.38
 44
0.18
 45
0.0
 46
0.0
 47
0.0
 48
0.0
140
0.18
141
0.09
142
0.0
143
25.4
144
1.0
145
0.0
146
1.0
147
0.09
 71
     0
 72
     0
 73
     1
 74
     1
 75
     0
 76
     0
 77
     0
 78
     0
170
     0
171
     2
172
     0
173
     0
174
     0
175
     0
176
     0
177
     0
178
     0
270
     2
271
     4
272
     4
273
     2
274
     2
340
10
275
     0
280
     0
281
     0
282
     0
283
     1
284
     0
285
     0
286
     0
287
     3
288
     0
  0
ENDTAB
  0
TABLE
  2
BLOCK_RECORD
  5
1
100
AcDbSymbolTable
 70
     0
  0
BLOCK_RECORD
  5
18
100
AcDbSymbolTableRecord
100
AcDbBlockTableRecord
  2
*MODEL_SPACE
  0
BLOCK_RECORD
  5
15
100
AcDbSymbolTableRecord
100
AcDbBlockTableRecord
  2
*PAPER_SPACE
  0
ENDTAB
  0
ENDSEC
  0
SECTION
  2
BLOCKS
  0
BLOCK
  5
23
100
AcDbEntity
  8
0
100
AcDbBlockBegin
  2
*MODEL_SPACE
 70
     0
 10
0.0
 20
0.0
 30
0.0
  3
*MODEL_SPACE
  1

  0
ENDBLK
  5
24
100
AcDbEntity
  8
0
100
AcDbBlockEnd
  0
BLOCK
  5
21
100
AcDbEntity
 67
     1
  8
0
100
AcDbBlockBegin
  2
*PAPER_SPACE
 70
     0
 10
0.0
 20
0.0
 30
0.0
  3
*PAPER_SPACE
  1

  0
ENDBLK
  5
22
100
AcDbEntity
 67
     1
  8
0
100
AcDbBlockEnd
  0
ENDSEC
  0
SECTION
  2
ENTITIES
  0
LINE
  5
25
100
AcDbEntity
  8
L-ZISSEN
  6
CONTINUOUS
 62
     7
100
AcDbLine
 10
159.0
 20
423.0
 30
0.0
 11
152.202941
 21
423.0
 31
0.0
  0
ARC
  5
26
100
AcDbEntity
  8
L-ZISSEN
  6
CONTINUOUS
 62
     7
100
AcDbCircle
 10
159.0
 20
429.0
 30
0.0
 40
6.0
100
AcDbArc
 50
270.0
 51
0.0
  0
CIRCLE
  5
27
100
AcDbEntity
  8
L-ZISSEN
  6
CONTINUOUS
 62
     7
100
AcDbCircle
 10
159.0
 20
429.0
 30
0.0
 40
5.25
  0
ARC
  5
28
100
AcDbEntity
  8
L-ZISSEN
  6
CONTINUOUS
 62
     7
100
AcDbCircle
 10
91.0
 20
429.0
 30
0.0
 40
6.0
100
AcDbArc
 50
180.0
 51
270.0
  0
LINE
  5
29
100
AcDbEntity
  8
L-ZISSEN
  6
CONTINUOUS
 62
     7
100
AcDbLine
 10
91.0
 20
423.0
 30
0.0
 11
97.797059
 21
423.0
 31
0.0
  0
CIRCLE
  5
2A
100
AcDbEntity
  8
L-ZISSEN
  6
CONTINUOUS
 62
     7
100
AcDbCircle
 10
91.0
 20
429.0
 30
0.0
 40
5.25
  0
LINE
  5
2B
100
AcDbEntity
  8
L-ZISSEN
  6
CONTINUOUS
 62
     7
100
AcDbLine
 10
82.0
 20
440.0
 30
0.0
 11
82.0
 21
470.0
 31
0.0
  0
ARC
  5
2C
100
AcDbEntity
  8
L-ZISSEN
  6
CONTINUOUS
 62
     7
100
AcDbCircle
 10
125.0
 20
411.0
 30
0.0
 40
6.0
100
AcDbArc
 50
180.0
 51
0.0
  0
LINE
  5
2D
100
AcDbEntity
  8
L-ZISSEN
  6
CONTINUOUS
 62
     7
100
AcDbLine
 10
119.0
 20
411.0
 30
0.0
 11
117.450326
 21
413.684114
 31
0.0
  0
LINE
  5
2E
100
AcDbEntity
  8
L-ZISSEN
  6
CONTINUOUS
 62
     7
100
AcDbLine
 10
131.0
 20
411.0
 30
0.0
 11
132.549674
 21
413.684114
 31
0.0
  0
ARC
  5
2F
100
AcDbEntity
  8
L-ZISSEN
  6
CONTINUOUS
 62
     7
100
AcDbCircle
 10
125.0
 20
411.0
 30
0.0
 40
5.25
100
AcDbArc
 50
126.802981
 51
53.197019
  0
ARC
  5
30
100
AcDbEntity
  8
L-ZISSEN
  6
CONTINUOUS
 62
     7
100
AcDbCircle
 10
125.0
 20
455.0
 30
0.0
 40
42.0
100
AcDbArc
 50
229.632406
 51
259.64456
  0
ARC
  5
31
100
AcDbEntity
  8
L-ZISSEN
  6
CONTINUOUS
 62
     7
100
AcDbCircle
 10
125.0
 20
455.0
 30
0.0
 40
42.0
100
AcDbArc
 50
280.35544
 51
310.367594
  0
ARC
  5
32
100
AcDbEntity
  8
L-ZISSEN
  6
CONTINUOUS
 62
     7
100
AcDbCircle
 10
125.0
 20
455.0
 30
0.0
 40
42.0
100
AcDbArc
 50
49.632406
 51
79.64456
  0
ARC
  5
33
100
AcDbEntity
  8
L-ZISSEN
  6
CONTINUOUS
 62
     7
100
AcDbCircle
 10
125.0
 20
455.0
 30
0.0
 40
42.0
100
AcDbArc
 50
100.35544
 51
130.367594
  0
ARC
  5
34
100
AcDbEntity
  8
L-ZISSEN
  6
CONTINUOUS
 62
     7
100
AcDbCircle
 10
125.0
 20
499.0
 30
0.0
 40
5.25
100
AcDbArc
 50
306.802981
 51
233.197019
  0
LINE
  5
35
100
AcDbEntity
  8
L-ZISSEN
  6
CONTINUOUS
 62
     7
100
AcDbLine
 10
131.0
 20
499.0
 30
0.0
 11
132.549674
 21
496.315886
 31
0.0
  0
LINE
  5
36
100
AcDbEntity
  8
L-ZISSEN
  6
CONTINUOUS
 62
     7
100
AcDbLine
 10
119.0
 20
499.0
 30
0.0
 11
117.450326
 21
496.315886
 31
0.0
  0
ARC
  5
37
100
AcDbEntity
  8
L-ZISSEN
  6
CONTINUOUS
 62
     7
100
AcDbCircle
 10
125.0
 20
499.0
 30
0.0
 40
6.0
100
AcDbArc
 50
0.0
 51
180.0
  0
CIRCLE
  5
38
100
AcDbEntity
  8
L-ZISSEN
  6
CONTINUOUS
 62
     7
100
AcDbCircle
 10
91.0
 20
481.0
 30
0.0
 40
5.25
  0
LINE
  5
39
100
AcDbEntity
  8
L-ZISSEN
  6
CONTINUOUS
 62
     7
100
AcDbLine
 10
91.0
 20
487.0
 30
0.0
 11
97.797059
 21
487.0
 31
0.0
  0
ARC
  5
3A
100
AcDbEntity
  8
L-ZISSEN
  6
CONTINUOUS
 62
     7
100
AcDbCircle
 10
91.0
 20
481.0
 30
0.0
 40
6.0
100
AcDbArc
 50
90.0
 51
180.0
  0
CIRCLE
  5
3B
100
AcDbEntity
  8
L-ZISSEN
  6
CONTINUOUS
 62
     7
100
AcDbCircle
 10
159.0
 20
481.0
 30
0.0
 40
5.25
  0
ARC
  5
3C
100
AcDbEntity
  8
L-ZISSEN
  6
CONTINUOUS
 62
     7
100
AcDbCircle
 10
159.0
 20
481.0
 30
0.0
 40
6.0
100
AcDbArc
 50
0.0
 51
90.0
  0
LINE
  5
3D
100
AcDbEntity
  8
L-ZISSEN
  6
CONTINUOUS
 62
     7
100
AcDbLine
 10
159.0
 20
487.0
 30
0.0
 11
152.202941
 21
487.0
 31
0.0
  0
LINE
  5
3E
100
AcDbEntity
  8
L-ZISSEN
  6
CONTINUOUS
 62
     7
100
AcDbLine
 10
168.0
 20
470.0
 30
0.0
 11
148.84798
 21
470.0
 31
0.0
  0
LINE
  5
3F
100
AcDbEntity
  8
L-ZISSEN
  6
CONTINUOUS
 62
     7
100
AcDbLine
 10
82.0
 20
440.0
 30
0.0
 11
115.986122
 21
440.0
 31
0.0
  0
LINE
  5
40
100
AcDbEntity
  8
L-ZISSEN
  6
CONTINUOUS
 62
     7
100
AcDbLine
 10
135.0
 20
483.0
 30
0.0
 11
135.0
 21
477.431119
 31
0.0
  0
LINE
  5
41
100
AcDbEntity
  8
L-ZISSEN
  6
CONTINUOUS
 62
     7
100
AcDbLine
 10
115.0
 20
471.918201
 30
0.0
 11
115.0
 21
483.0
 31
0.0
  0
ARC
  5
42
100
AcDbEntity
  8
L-ZISSEN
  6
CONTINUOUS
 62
     7
100
AcDbCircle
 10
125.0
 20
483.0
 30
0.0
 40
10.0
100
AcDbArc
 50
0.0
 51
51.156878
  0
ARC
  5
43
100
AcDbEntity
  8
L-ZISSEN
  6
CONTINUOUS
 62
     7
100
AcDbCircle
 10
112.272078
 20
467.727922
 30
0.0
 40
5.0
100
AcDbArc
 50
27.027338
 51
152.972662
  0
ARC
  5
44
100
AcDbEntity
  8
L-ZISSEN
  6
CONTINUOUS
 62
     7
100
AcDbCircle
 10
139.849242
 20
440.150758
 30
0.0
 40
9.0
100
AcDbArc
 50
225.0
 51
45.0
  0
LINE
  5
45
100
AcDbEntity
  8
L-ZISSEN
  6
CONTINUOUS
 62
     7
100
AcDbLine
 10
146.213203
 20
446.514719
 30
0.0
 11
141.976454
 21
450.751468
 31
0.0
  0
LINE
  5
46
100
AcDbEntity
  8
L-ZISSEN
  6
CONTINUOUS
 62
     7
100
AcDbLine
 10
133.485281
 20
433.786797
 30
0.0
 11
129.248532
 21
438.023546
 31
0.0
  0
LINE
  5
47
100
AcDbEntity
  8
L-ZISSEN
  6
CONTINUOUS
 62
     7
100
AcDbLine
 10
115.986122
 20
470.0
 30
0.0
 11
82.0
 21
470.0
 31
0.0
  0
LINE
  5
48
100
AcDbEntity
  8
L-ZISSEN
  6
CONTINUOUS
 62
     7
100
AcDbLine
 10
148.84798
 20
440.0
 30
0.0
 11
168.0
 21
440.0
 31
0.0
  0
LINE
  5
49
100
AcDbEntity
  8
L-ZISSEN
  6
CONTINUOUS
 62
     7
100
AcDbLine
 10
133.485281
 20
476.213203
 30
0.0
 11
129.248532
 21
471.976454
 31
0.0
  0
LINE
  5
4A
100
AcDbEntity
  8
L-ZISSEN
  6
CONTINUOUS
 62
     7
100
AcDbLine
 10
146.213203
 20
463.485281
 30
0.0
 11
141.976454
 21
459.248532
 31
0.0
  0
ARC
  5
4B
100
AcDbEntity
  8
L-ZISSEN
  6
CONTINUOUS
 62
     7
100
AcDbCircle
 10
139.849242
 20
469.849242
 30
0.0
 40
9.0
100
AcDbArc
 50
315.0
 51
135.0
  0
ARC
  5
4C
100
AcDbEntity
  8
L-ZISSEN
  6
CONTINUOUS
 62
     7
100
AcDbCircle
 10
125.0
 20
427.0
 30
0.0
 40
10.0
100
AcDbArc
 50
180.0
 51
231.744156
  0
LINE
  5
4D
100
AcDbEntity
  8
L-ZISSEN
  6
CONTINUOUS
 62
     7
100
AcDbLine
 10
115.0
 20
440.0
 30
0.0
 11
115.0
 21
427.0
 31
0.0
  0
LINE
  5
4E
100
AcDbEntity
  8
L-ZISSEN
  6
CONTINUOUS
 62
     7
100
AcDbLine
 10
135.0
 20
427.0
 30
0.0
 11
135.0
 21
432.568881
 31
0.0
  0
CIRCLE
  5
4F
100
AcDbEntity
  8
L-ZISSEN
  6
CONTINUOUS
 62
     7
100
AcDbCircle
 10
139.849242
 20
440.150758
 30
0.0
 40
3.5
  0
LINE
  5
50
100
AcDbEntity
  8
L-ZISSEN
  6
CONTINUOUS
 62
     7
100
AcDbLine
 10
82.0
 20
297.5
 30
0.0
 11
82.0
 21
308.5
 31
0.0
  0
LINE
  5
51
100
AcDbEntity
  8
L-ZISSEN
  6
CONTINUOUS
 62
     7
100
AcDbLine
 10
168.0
 20
308.5
 30
0.0
 11
168.0
 21
297.5
 31
0.0
  0
LINE
  5
52
100
AcDbEntity
  8
L-TYUSIN
  6
CENTER
 62
     1
100
AcDbLine
 10
77.0
 20
293.5
 30
0.0
 11
173.0
 21
293.5
 31
0.0
  0
LINE
  5
53
100
AcDbEntity
  8
L-ZISSEN
  6
CONTINUOUS
 62
     7
100
AcDbLine
 10
160.8
 20
275.5
 30
0.0
 11
89.2
 21
275.5
 31
0.0
  0
LINE
  5
54
100
AcDbEntity
  8
L-ZISSEN
  6
CONTINUOUS
 62
     7
100
AcDbLine
 10
160.185045
 20
283.5
 30
0.0
 11
89.814955
 21
283.5
 31
0.0
  0
LINE
  5
55
100
AcDbEntity
  8
L-ZISSEN
  6
CONTINUOUS
 62
     7
100
AcDbLine
 10
168.0
 20
308.5
 30
0.0
 11
148.849242
 21
308.5
 31
0.0
  0
ARC
  5
56
100
AcDbEntity
  8
L-ZISSEN
  6
CONTINUOUS
 62
     7
100
AcDbCircle
 10
125.0
 20
339.75
 30
0.0
 40
12.75
100
AcDbArc
 50
360.0
 51
180.0
  0
LINE
  5
57
100
AcDbEntity
  8
L-ZISSEN
  6
CONTINUOUS
 62
     7
100
AcDbLine
 10
137.75
 20
339.75
 30
0.0
 11
137.75
 21
328.3
 31
0.0
  0
LINE
  5
58
100
AcDbEntity
  8
L-ZISSEN
  6
CONTINUOUS
 62
     7
100
AcDbLine
 10
112.25
 20
339.75
 30
0.0
 11
112.25
 21
328.3
 31
0.0
  0
LINE
  5
59
100
AcDbEntity
  8
L-ZISSEN
  6
CONTINUOUS
 62
     7
100
AcDbLine
 10
142.5
 20
314.8
 30
0.0
 11
131.257343
 21
314.8
 31
0.0
  0
LINE
  5
5A
100
AcDbEntity
  8
L-ZISSEN
  6
CONTINUOUS
 62
     7
100
AcDbLine
 10
142.5
 20
328.3
 30
0.0
 11
107.5
 21
328.3
 31
0.0
  0
LINE
  5
5B
100
AcDbEntity
  8
L-ZISSEN
  6
CONTINUOUS
 62
     7
100
AcDbLine
 10
107.5
 20
314.8
 30
0.0
 11
107.5
 21
328.3
 31
0.0
  0
LINE
  5
5C
100
AcDbEntity
  8
L-ZISSEN
  6
CONTINUOUS
 62
     7
100
AcDbLine
 10
142.5
 20
314.8
 30
0.0
 11
142.5
 21
328.3
 31
0.0
  0
LINE
  5
5D
100
AcDbEntity
  8
L-ZISSEN
  6
CONTINUOUS
 62
     7
100
AcDbLine
 10
108.5
 20
314.8
 30
0.0
 11
108.5
 21
308.5
 31
0.0
  0
LINE
  5
5E
100
AcDbEntity
  8
L-ZISSEN
  6
CONTINUOUS
 62
     7
100
AcDbLine
 10
141.5
 20
314.8
 30
0.0
 11
141.5
 21
310.5
 31
0.0
  0
CIRCLE
  5
5F
100
AcDbEntity
  8
L-ZISSEN
  6
CONTINUOUS
 62
     7
100
AcDbCircle
 10
125.0
 20
455.0
 30
0.0
 40
12.75
  0
CIRCLE
  5
60
100
AcDbEntity
  8
L-ZISSEN
  6
CONTINUOUS
 62
     7
100
AcDbCircle
 10
125.0
 20
455.0
 30
0.0
 40
17.5
  0
LINE
  5
61
100
AcDbEntity
  8
L-ZISSEN
  6
CONTINUOUS
 62
     7
100
AcDbLine
 10
341.5
 20
283.5
 30
0.0
 11
320.0
 21
283.5
 31
0.0
  0
LINE
  5
62
100
AcDbEntity
  8
L-ZISSEN
  6
CONTINUOUS
 62
     7
100
AcDbLine
 10
340.8
 20
275.5
 30
0.0
 11
269.2
 21
275.5
 31
0.0
  0
LINE
  5
63
100
AcDbEntity
  8
L-TYUSIN
  6
CENTER
 62
     1
100
AcDbLine
 10
285.0
 20
293.5
 30
0.0
 11
325.0
 21
293.5
 31
0.0
  0
LINE
  5
64
100
AcDbEntity
  8
L-ZISSEN
  6
CONTINUOUS
 62
     7
100
AcDbLine
 10
321.5
 20
314.8
 30
0.0
 11
321.5
 21
310.5
 31
0.0
  0
LINE
  5
65
100
AcDbEntity
  8
L-ZISSEN
  6
CONTINUOUS
 62
     7
100
AcDbLine
 10
288.5
 20
314.8
 30
0.0
 11
288.5
 21
310.5
 31
0.0
  0
LINE
  5
66
100
AcDbEntity
  8
L-ZISSEN
  6
CONTINUOUS
 62
     7
100
AcDbLine
 10
322.5
 20
314.8
 30
0.0
 11
322.5
 21
328.3
 31
0.0
  0
LINE
  5
67
100
AcDbEntity
  8
L-ZISSEN
  6
CONTINUOUS
 62
     7
100
AcDbLine
 10
287.5
 20
314.8
 30
0.0
 11
287.5
 21
328.3
 31
0.0
  0
LINE
  5
68
100
AcDbEntity
  8
L-ZISSEN
  6
CONTINUOUS
 62
     7
100
AcDbLine
 10
322.5
 20
328.3
 30
0.0
 11
287.5
 21
328.3
 31
0.0
  0
LINE
  5
69
100
AcDbEntity
  8
L-ZISSEN
  6
CONTINUOUS
 62
     7
100
AcDbLine
 10
322.5
 20
314.8
 30
0.0
 11
287.5
 21
314.8
 31
0.0
  0
LINE
  5
6A
100
AcDbEntity
  8
L-ZISSEN
  6
CONTINUOUS
 62
     7
100
AcDbLine
 10
292.25
 20
339.75
 30
0.0
 11
292.25
 21
328.3
 31
0.0
  0
LINE
  5
6B
100
AcDbEntity
  8
L-ZISSEN
  6
CONTINUOUS
 62
     7
100
AcDbLine
 10
317.75
 20
339.75
 30
0.0
 11
317.75
 21
328.3
 31
0.0
  0
ARC
  5
6C
100
AcDbEntity
  8
L-ZISSEN
  6
CONTINUOUS
 62
     7
100
AcDbCircle
 10
305.0
 20
339.75
 30
0.0
 40
12.75
100
AcDbArc
 50
360.0
 51
180.0
  0
ARC
  5
6D
100
AcDbEntity
  8
L-ZISSEN
  6
CONTINUOUS
 62
     7
100
AcDbCircle
 10
305.0
 20
293.5
 30
0.0
 40
15.0
100
AcDbArc
 50
60.0
 51
120.0
  0
LINE
  5
6E
100
AcDbEntity
  8
L-ZISSEN
  6
CONTINUOUS
 62
     7
100
AcDbLine
 10
320.0
 20
301.582904
 30
0.0
 11
320.0
 21
275.5
 31
0.0
  0
LINE
  5
6F
100
AcDbEntity
  8
L-ZISSEN
  6
CONTINUOUS
 62
     7
100
AcDbLine
 10
290.0
 20
301.582904
 30
0.0
 11
290.0
 21
275.5
 31
0.0
  0
LINE
  5
70
100
AcDbEntity
  8
L-ZISSEN
  6
CONTINUOUS
 62
     7
100
AcDbLine
 10
328.849242
 20
310.5
 30
0.0
 11
281.150758
 21
310.5
 31
0.0
  0
LINE
  5
71
100
AcDbEntity
  8
L-ZISSEN
  6
CONTINUOUS
 62
     7
100
AcDbLine
 10
281.150758
 20
310.5
 30
0.0
 11
281.150758
 21
288.9
 31
0.0
  0
LINE
  5
72
100
AcDbEntity
  8
L-ZISSEN
  6
CONTINUOUS
 62
     7
100
AcDbLine
 10
328.849242
 20
310.5
 30
0.0
 11
328.849242
 21
288.9
 31
0.0
  0
LINE
  5
73
100
AcDbEntity
  8
L-ZISSEN
  6
CONTINUOUS
 62
     7
100
AcDbLine
 10
290.0
 20
283.5
 30
0.0
 11
268.5
 21
283.5
 31
0.0
  0
LINE
  5
74
100
AcDbEntity
  8
L-ZISSEN
  6
CONTINUOUS
 62
     7
100
AcDbLine
 10
297.5
 20
306.490381
 30
0.0
 11
290.5
 21
302.448929
 31
0.0
  0
LINE
  5
75
100
AcDbEntity
  8
L-ZISSEN
  6
CONTINUOUS
 62
     7
100
AcDbLine
 10
312.5
 20
306.490381
 30
0.0
 11
319.5
 21
302.448929
 31
0.0
  0
ARC
  5
76
100
AcDbEntity
  8
L-ZISSEN
  6
CONTINUOUS
 62
     7
100
AcDbCircle
 10
291.0
 20
301.582904
 30
0.0
 40
1.0
100
AcDbArc
 50
120.0
 51
180.0
  0
ARC
  5
77
100
AcDbEntity
  8
L-ZISSEN
  6
CONTINUOUS
 62
     7
100
AcDbCircle
 10
319.0
 20
301.582904
 30
0.0
 40
1.0
100
AcDbArc
 50
0.0
 51
60.0
  0
LINE
  5
78
100
AcDbEntity
  8
L-ZISSEN
  6
CONTINUOUS
 62
     7
100
AcDbLine
 10
301.585157
 20
310.5
 30
0.0
 11
301.585157
 21
308.106124
 31
0.0
  0
LINE
  5
79
100
AcDbEntity
  8
L-ZISSEN
  6
CONTINUOUS
 62
     7
100
AcDbLine
 10
308.414843
 20
310.5
 30
0.0
 11
308.414843
 21
308.106124
 31
0.0
  0
LINE
  5
7A
100
AcDbEntity
  8
L-ZISSEN
  6
CONTINUOUS
 62
     7
100
AcDbLine
 10
267.0
 20
292.508955
 30
0.0
 11
267.0
 21
284.5
 31
0.0
  0
LINE
  5
7B
100
AcDbEntity
  8
L-ZISSEN
  6
CONTINUOUS
 62
     7
100
AcDbLine
 10
281.150758
 20
297.65941
 30
0.0
 11
267.0
 21
292.508955
 31
0.0
  0
LINE
  5
7C
100
AcDbEntity
  8
L-ZISSEN
  6
CONTINUOUS
 62
     7
100
AcDbLine
 10
265.419676
 20
309.811951
 30
0.0
 11
277.63568
 21
314.258213
 31
0.0
  0
LINE
  5
7D
100
AcDbEntity
  8
L-ZISSEN
  6
CONTINUOUS
 62
     7
100
AcDbLine
 10
268.816383
 20
293.170065
 30
0.0
 11
267.516706
 21
296.740897
 31
0.0
  0
LINE
  5
7E
100
AcDbEntity
  8
L-ZISSEN
  6
CONTINUOUS
 62
     7
100
AcDbLine
 10
267.516706
 20
296.740897
 30
0.0
 11
265.419676
 21
309.811951
 31
0.0
  0
LINE
  5
7F
100
AcDbEntity
  8
L-ZISSEN
  6
CONTINUOUS
 62
     7
100
AcDbLine
 10
281.150758
 20
308.381578
 30
0.0
 11
277.63568
 21
314.258213
 31
0.0
  0
LINE
  5
80
100
AcDbEntity
  8
L-ZISSEN
  6
CONTINUOUS
 62
     7
100
AcDbLine
 10
342.483294
 20
296.740897
 30
0.0
 11
344.580324
 21
309.811951
 31
0.0
  0
LINE
  5
81
100
AcDbEntity
  8
L-ZISSEN
  6
CONTINUOUS
 62
     7
100
AcDbLine
 10
341.183617
 20
293.170065
 30
0.0
 11
341.5
 21
294.039318
 31
0.0
  0
LINE
  5
82
100
AcDbEntity
  8
L-ZISSEN
  6
CONTINUOUS
 62
     7
100
AcDbLine
 10
344.580324
 20
309.811951
 30
0.0
 11
332.36432
 21
314.258213
 31
0.0
  0
LINE
  5
83
100
AcDbEntity
  8
L-ZISSEN
  6
CONTINUOUS
 62
     7
100
AcDbLine
 10
328.849242
 20
308.381578
 30
0.0
 11
332.36432
 21
314.258213
 31
0.0
  0
LINE
  5
84
100
AcDbEntity
  8
L-ZISSEN
  6
CONTINUOUS
 62
     7
100
AcDbLine
 10
328.849242
 20
297.65941
 30
0.0
 11
341.5
 21
293.054911
 31
0.0
  0
POLYLINE
  5
85
100
AcDbEntity
  8
L-ZISSEN
  6
CONTINUOUS
 62
     7
100
AcDb2dPolyline
 66
     1
 10
0.0
 20
0.0
 30
0.0
 70
     1
  0
VERTEX
  5
412
100
AcDbEntity
  8
L-ZISSEN
  6
CONTINUOUS
 62
     7
100
AcDbVertex
100
AcDb2dVertex
 10
118.082844
 20
312.035082
 30
0.0
 42
0.104168
  0
VERTEX
  5
413
100
AcDbEntity
  8
L-ZISSEN
  6
CONTINUOUS
 62
     7
100
AcDbVertex
100
AcDb2dVertex
 10
118.602571
 20
309.567496
 30
0.0
 42
0.100664
  0
VERTEX
  5
414
100
AcDbEntity
  8
L-ZISSEN
  6
CONTINUOUS
 62
     7
100
AcDbVertex
100
AcDb2dVertex
 10
120.108832
 20
307.438888
 30
0.0
 42
0.096076
  0
VERTEX
  5
415
100
AcDbEntity
  8
L-ZISSEN
  6
CONTINUOUS
 62
     7
100
AcDbVertex
100
AcDb2dVertex
 10
122.534171
 20
305.909003
 30
0.0
 42
0.110798
  0
VERTEX
  5
416
100
AcDbEntity
  8
L-ZISSEN
  6
CONTINUOUS
 62
     7
100
AcDbVertex
100
AcDb2dVertex
 10
125.0
 20
305.535082
 30
0.0
 42
0.093065
  0
VERTEX
  5
417
100
AcDbEntity
  8
L-ZISSEN
  6
CONTINUOUS
 62
     7
100
AcDbVertex
100
AcDb2dVertex
 10
127.666836
 20
306.035796
 30
0.0
 42
0.096076
  0
VERTEX
  5
418
100
AcDbEntity
  8
L-ZISSEN
  6
CONTINUOUS
 62
     7
100
AcDbVertex
100
AcDb2dVertex
 10
129.891168
 20
307.438888
 30
0.0
 42
0.100664
  0
VERTEX
  5
419
100
AcDbEntity
  8
L-ZISSEN
  6
CONTINUOUS
 62
     7
100
AcDbVertex
100
AcDb2dVertex
 10
131.397429
 20
309.567496
 30
0.0
 42
0.104168
  0
VERTEX
  5
41A
100
AcDbEntity
  8
L-ZISSEN
  6
CONTINUOUS
 62
     7
100
AcDbVertex
100
AcDb2dVertex
 10
131.917156
 20
312.035082
 30
0.0
 42
0.104168
  0
VERTEX
  5
41B
100
AcDbEntity
  8
L-ZISSEN
  6
CONTINUOUS
 62
     7
100
AcDbVertex
100
AcDb2dVertex
 10
131.397429
 20
314.502668
 30
0.0
 42
0.100664
  0
VERTEX
  5
41C
100
AcDbEntity
  8
L-ZISSEN
  6
CONTINUOUS
 62
     7
100
AcDbVertex
100
AcDb2dVertex
 10
129.891168
 20
316.631276
 30
0.0
 42
0.096076
  0
VERTEX
  5
41D
100
AcDbEntity
  8
L-ZISSEN
  6
CONTINUOUS
 62
     7
100
AcDbVertex
100
AcDb2dVertex
 10
127.666836
 20
318.034367
 30
0.0
 42
0.093065
  0
VERTEX
  5
41E
100
AcDbEntity
  8
L-ZISSEN
  6
CONTINUOUS
 62
     7
100
AcDbVertex
100
AcDb2dVertex
 10
125.0
 20
318.535082
 30
0.0
 42
0.093065
  0
VERTEX
  5
41F
100
AcDbEntity
  8
L-ZISSEN
  6
CONTINUOUS
 62
     7
100
AcDbVertex
100
AcDb2dVertex
 10
122.333164
 20
318.034367
 30
0.0
 42
0.096076
  0
VERTEX
  5
420
100
AcDbEntity
  8
L-ZISSEN
  6
CONTINUOUS
 62
     7
100
AcDbVertex
100
AcDb2dVertex
 10
120.108832
 20
316.631276
 30
0.0
 42
0.100664
  0
VERTEX
  5
421
100
AcDbEntity
  8
L-ZISSEN
  6
CONTINUOUS
 62
     7
100
AcDbVertex
100
AcDb2dVertex
 10
118.602571
 20
314.502668
 30
0.0
 42
0.104168
  0
SEQEND
  5
422
100
AcDbEntity
  8
L-ZISSEN
  6
CONTINUOUS
 62
     7
  0
POLYLINE
  5
97
100
AcDbEntity
  8
L-ZISSEN
  6
CONTINUOUS
 62
     7
100
AcDb2dPolyline
 66
     1
 10
0.0
 20
0.0
 30
0.0
 70
     1
  0
VERTEX
  5
423
100
AcDbEntity
  8
L-ZISSEN
  6
CONTINUOUS
 62
     7
100
AcDbVertex
100
AcDb2dVertex
 10
125.0
 20
414.336906
 30
0.0
 42
0.104168
  0
VERTEX
  5
424
100
AcDbEntity
  8
L-ZISSEN
  6
CONTINUOUS
 62
     7
100
AcDbVertex
100
AcDb2dVertex
 10
127.467586
 20
414.856632
 30
0.0
 42
0.100664
  0
VERTEX
  5
425
100
AcDbEntity
  8
L-ZISSEN
  6
CONTINUOUS
 62
     7
100
AcDbVertex
100
AcDb2dVertex
 10
129.596194
 20
416.362894
 30
0.0
 42
0.096076
  0
VERTEX
  5
426
100
AcDbEntity
  8
L-ZISSEN
  6
CONTINUOUS
 62
     7
100
AcDbVertex
100
AcDb2dVertex
 10
131.126079
 20
418.788233
 30
0.0
 42
0.110798
  0
VERTEX
  5
427
100
AcDbEntity
  8
L-ZISSEN
  6
CONTINUOUS
 62
     7
100
AcDbVertex
100
AcDb2dVertex
 10
131.5
 20
421.254062
 30
0.0
 42
0.093065
  0
VERTEX
  5
428
100
AcDbEntity
  8
L-ZISSEN
  6
CONTINUOUS
 62
     7
100
AcDbVertex
100
AcDb2dVertex
 10
130.999286
 20
423.920897
 30
0.0
 42
0.096076
  0
VERTEX
  5
429
100
AcDbEntity
  8
L-ZISSEN
  6
CONTINUOUS
 62
     7
100
AcDbVertex
100
AcDb2dVertex
 10
129.596194
 20
426.145229
 30
0.0
 42
0.100664
  0
VERTEX
  5
42A
100
AcDbEntity
  8
L-ZISSEN
  6
CONTINUOUS
 62
     7
100
AcDbVertex
100
AcDb2dVertex
 10
127.467586
 20
427.651491
 30
0.0
 42
0.104168
  0
VERTEX
  5
42B
100
AcDbEntity
  8
L-ZISSEN
  6
CONTINUOUS
 62
     7
100
AcDbVertex
100
AcDb2dVertex
 10
125.0
 20
428.171217
 30
0.0
 42
0.104168
  0
VERTEX
  5
42C
100
AcDbEntity
  8
L-ZISSEN
  6
CONTINUOUS
 62
     7
100
AcDbVertex
100
AcDb2dVertex
 10
122.532414
 20
427.651491
 30
0.0
 42
0.100664
  0
VERTEX
  5
42D
100
AcDbEntity
  8
L-ZISSEN
  6
CONTINUOUS
 62
     7
100
AcDbVertex
100
AcDb2dVertex
 10
120.403806
 20
426.145229
 30
0.0
 42
0.096076
  0
VERTEX
  5
42E
100
AcDbEntity
  8
L-ZISSEN
  6
CONTINUOUS
 62
     7
100
AcDbVertex
100
AcDb2dVertex
 10
119.000714
 20
423.920897
 30
0.0
 42
0.093065
  0
VERTEX
  5
42F
100
AcDbEntity
  8
L-ZISSEN
  6
CONTINUOUS
 62
     7
100
AcDbVertex
100
AcDb2dVertex
 10
118.5
 20
421.254062
 30
0.0
 42
0.093065
  0
VERTEX
  5
430
100
AcDbEntity
  8
L-ZISSEN
  6
CONTINUOUS
 62
     7
100
AcDbVertex
100
AcDb2dVertex
 10
119.000714
 20
418.587226
 30
0.0
 42
0.096076
  0
VERTEX
  5
431
100
AcDbEntity
  8
L-ZISSEN
  6
CONTINUOUS
 62
     7
100
AcDbVertex
100
AcDb2dVertex
 10
120.403806
 20
416.362894
 30
0.0
 42
0.100664
  0
VERTEX
  5
432
100
AcDbEntity
  8
L-ZISSEN
  6
CONTINUOUS
 62
     7
100
AcDbVertex
100
AcDb2dVertex
 10
122.532414
 20
414.856632
 30
0.0
 42
0.104168
  0
SEQEND
  5
433
100
AcDbEntity
  8
L-ZISSEN
  6
CONTINUOUS
 62
     7
  0
LINE
  5
A9
100
AcDbEntity
  8
L-ZISSEN
  6
CONTINUOUS
 62
     7
100
AcDbLine
 10
113.365393
 20
296.248246
 30
0.0
 11
113.365393
 21
283.5
 31
0.0
  0
LINE
  5
AA
100
AcDbEntity
  8
L-ZISSEN
  6
CONTINUOUS
 62
     7
100
AcDbLine
 10
136.634607
 20
296.248246
 30
0.0
 11
136.634607
 21
283.5
 31
0.0
  0
LINE
  5
AB
100
AcDbEntity
  8
L-ZISSEN
  6
CONTINUOUS
 62
     7
100
AcDbLine
 10
115.4224
 20
299.721553
 30
0.0
 11
115.4224
 21
296.248246
 31
0.0
  0
LINE
  5
AC
100
AcDbEntity
  8
L-ZISSEN
  6
CONTINUOUS
 62
     7
100
AcDbLine
 10
134.5776
 20
299.721553
 30
0.0
 11
134.5776
 21
296.248246
 31
0.0
  0
LINE
  5
AD
100
AcDbEntity
  8
L-ZISSEN
  6
CONTINUOUS
 62
     7
100
AcDbLine
 10
118.082844
 20
312.035082
 30
0.0
 11
115.4224
 21
299.721531
 31
0.0
  0
LINE
  5
AE
100
AcDbEntity
  8
L-ZISSEN
  6
CONTINUOUS
 62
     7
100
AcDbLine
 10
131.917156
 20
312.035082
 30
0.0
 11
134.5776
 21
299.721553
 31
0.0
  0
POLYLINE
  5
AF
100
AcDbEntity
  8
L-ZISSEN
  6
CONTINUOUS
 62
     7
100
AcDb2dPolyline
 66
     1
 10
0.0
 20
0.0
 30
0.0
  0
VERTEX
  5
434
100
AcDbEntity
  8
L-ZISSEN
  6
CONTINUOUS
 62
     7
100
AcDbVertex
100
AcDb2dVertex
 10
115.4224
 20
299.721553
 30
0.0
 42
0.104168
  0
VERTEX
  5
435
100
AcDbEntity
  8
L-ZISSEN
  6
CONTINUOUS
 62
     7
100
AcDbVertex
100
AcDb2dVertex
 10
116.142021
 20
296.304895
 30
0.0
 42
0.100664
  0
VERTEX
  5
436
100
AcDbEntity
  8
L-ZISSEN
  6
CONTINUOUS
 62
     7
100
AcDbVertex
100
AcDb2dVertex
 10
118.227614
 20
293.357592
 30
0.0
 42
0.096076
  0
VERTEX
  5
437
100
AcDbEntity
  8
L-ZISSEN
  6
CONTINUOUS
 62
     7
100
AcDbVertex
100
AcDb2dVertex
 10
121.585776
 20
291.239289
 30
0.0
 42
0.110798
  0
VERTEX
  5
438
100
AcDbEntity
  8
L-ZISSEN
  6
CONTINUOUS
 62
     7
100
AcDbVertex
100
AcDb2dVertex
 10
125.0
 20
290.721553
 30
0.0
 42
0.093065
  0
VERTEX
  5
439
100
AcDbEntity
  8
L-ZISSEN
  6
CONTINUOUS
 62
     7
100
AcDbVertex
100
AcDb2dVertex
 10
128.692542
 20
291.41485
 30
0.0
 42
0.096076
  0
VERTEX
  5
43A
100
AcDbEntity
  8
L-ZISSEN
  6
CONTINUOUS
 62
     7
100
AcDbVertex
100
AcDb2dVertex
 10
131.772386
 20
293.357592
 30
0.0
 42
0.100664
  0
VERTEX
  5
43B
100
AcDbEntity
  8
L-ZISSEN
  6
CONTINUOUS
 62
     7
100
AcDbVertex
100
AcDb2dVertex
 10
133.857979
 20
296.304895
 30
0.0
 42
0.104168
  0
VERTEX
  5
43C
100
AcDbEntity
  8
L-ZISSEN
  6
CONTINUOUS
 62
     7
100
AcDbVertex
100
AcDb2dVertex
 10
134.5776
 20
299.721553
 30
0.0
 42
0.104168
  0
SEQEND
  5
43D
100
AcDbEntity
  8
L-ZISSEN
  6
CONTINUOUS
 62
     7
  0
POLYLINE
  5
BA
100
AcDbEntity
  8
L-ZISSEN
  6
CONTINUOUS
 62
     7
100
AcDb2dPolyline
 66
     1
 10
0.0
 20
0.0
 30
0.0
  0
VERTEX
  5
43E
100
AcDbEntity
  8
L-ZISSEN
  6
CONTINUOUS
 62
     7
100
AcDbVertex
100
AcDb2dVertex
 10
116.052131
 20
302.636167
 30
0.0
 42
0.078851
  0
VERTEX
  5
43F
100
AcDbEntity
  8
L-ZISSEN
  6
CONTINUOUS
 62
     7
100
AcDbVertex
100
AcDb2dVertex
 10
114.221638
 20
299.99727
 30
0.0
 42
0.112744
  0
VERTEX
  5
440
100
AcDbEntity
  8
L-ZISSEN
  6
CONTINUOUS
 62
     7
100
AcDbVertex
100
AcDb2dVertex
 10
113.365393
 20
296.248246
 30
0.0
 42
0.112744
  0
SEQEND
  5
441
100
AcDbEntity
  8
L-ZISSEN
  6
CONTINUOUS
 62
     7
  0
LINE
  5
BF
100
AcDbEntity
  8
L-ZISSEN
  6
CONTINUOUS
 62
     7
100
AcDbLine
 10
117.319061
 20
308.5
 30
0.0
 11
82.0
 21
308.5
 31
0.0
  0
LINE
  5
C0
100
AcDbEntity
  8
L-ZISSEN
  6
CONTINUOUS
 62
     7
100
AcDbLine
 10
118.742657
 20
314.8
 30
0.0
 11
107.5
 21
314.8
 31
0.0
  0
POLYLINE
  5
C1
100
AcDbEntity
  8
L-ZISSEN
  6
CONTINUOUS
 62
     7
100
AcDb2dPolyline
 66
     1
 10
0.0
 20
0.0
 30
0.0
  0
VERTEX
  5
442
100
AcDbEntity
  8
L-ZISSEN
  6
CONTINUOUS
 62
     7
100
AcDbVertex
100
AcDb2dVertex
 10
134.0
 20
427.0
 30
0.0
 42
0.093065
  0
VERTEX
  5
443
100
AcDbEntity
  8
L-ZISSEN
  6
CONTINUOUS
 62
     7
100
AcDbVertex
100
AcDb2dVertex
 10
133.306703
 20
430.692542
 30
0.0
 42
0.096076
  0
VERTEX
  5
444
100
AcDbEntity
  8
L-ZISSEN
  6
CONTINUOUS
 62
     7
100
AcDbVertex
100
AcDb2dVertex
 10
131.363961
 20
433.772386
 30
0.0
 42
0.100664
  0
VERTEX
  5
445
100
AcDbEntity
  8
L-ZISSEN
  6
CONTINUOUS
 62
     7
100
AcDbVertex
100
AcDb2dVertex
 10
128.416657
 20
435.857979
 30
0.0
 42
0.104168
  0
VERTEX
  5
446
100
AcDbEntity
  8
L-ZISSEN
  6
CONTINUOUS
 62
     7
100
AcDbVertex
100
AcDb2dVertex
 10
125.0
 20
436.5776
 30
0.0
 42
0.104168
  0
VERTEX
  5
447
100
AcDbEntity
  8
L-ZISSEN
  6
CONTINUOUS
 62
     7
100
AcDbVertex
100
AcDb2dVertex
 10
121.583343
 20
435.857979
 30
0.0
 42
0.100664
  0
VERTEX
  5
448
100
AcDbEntity
  8
L-ZISSEN
  6
CONTINUOUS
 62
     7
100
AcDbVertex
100
AcDb2dVertex
 10
118.636039
 20
433.772386
 30
0.0
 42
0.096076
  0
VERTEX
  5
449
100
AcDbEntity
  8
L-ZISSEN
  6
CONTINUOUS
 62
     7
100
AcDbVertex
100
AcDb2dVertex
 10
116.693297
 20
430.692542
 30
0.0
 42
0.093065
  0
VERTEX
  5
44A
100
AcDbEntity
  8
L-ZISSEN
  6
CONTINUOUS
 62
     7
100
AcDbVertex
100
AcDb2dVertex
 10
116.0
 20
427.0
 30
0.0
 42
0.093065
  0
SEQEND
  5
44B
100
AcDbEntity
  8
L-ZISSEN
  6
CONTINUOUS
 62
     7
  0
ARC
  5
CC
100
AcDbEntity
  8
L-ZISSEN
  6
CONTINUOUS
 62
     7
100
AcDbCircle
 10
125.0
 20
427.0
 30
0.0
 40
10.0
100
AcDbArc
 50
308.843122
 51
0.0
  0
POLYLINE
  5
CD
100
AcDbEntity
  8
L-ZISSEN
  6
CONTINUOUS
 62
     7
100
AcDb2dPolyline
 66
     1
 10
0.0
 20
0.0
 30
0.0
  0
VERTEX
  5
44C
100
AcDbEntity
  8
L-ZISSEN
  6
CONTINUOUS
 62
     7
100
AcDbVertex
100
AcDb2dVertex
 10
131.056778
 20
418.616467
 30
0.0
 42
0.012076
  0
VERTEX
  5
44D
100
AcDbEntity
  8
L-ZISSEN
  6
CONTINUOUS
 62
     7
100
AcDbVertex
100
AcDb2dVertex
 10
131.363961
 20
418.927938
 30
0.0
 42
0.096076
  0
VERTEX
  5
44E
100
AcDbEntity
  8
L-ZISSEN
  6
CONTINUOUS
 62
     7
100
AcDbVertex
100
AcDb2dVertex
 10
133.482264
 20
422.286099
 30
0.0
 42
0.110798
  0
VERTEX
  5
44F
100
AcDbEntity
  8
L-ZISSEN
  6
CONTINUOUS
 62
     7
100
AcDbVertex
100
AcDb2dVertex
 10
134.0
 20
425.700323
 30
0.0
 42
0.093065
  0
VERTEX
  5
450
100
AcDbEntity
  8
L-ZISSEN
  6
CONTINUOUS
 62
     7
100
AcDbVertex
100
AcDb2dVertex
 10
133.306703
 20
429.392865
 30
0.0
 42
0.096076
  0
VERTEX
  5
451
100
AcDbEntity
  8
L-ZISSEN
  6
CONTINUOUS
 62
     7
100
AcDbVertex
100
AcDb2dVertex
 10
131.363961
 20
432.472709
 30
0.0
 42
0.100664
  0
VERTEX
  5
452
100
AcDbEntity
  8
L-ZISSEN
  6
CONTINUOUS
 62
     7
100
AcDbVertex
100
AcDb2dVertex
 10
128.416657
 20
434.558303
 30
0.0
 42
0.104168
  0
VERTEX
  5
453
100
AcDbEntity
  8
L-ZISSEN
  6
CONTINUOUS
 62
     7
100
AcDbVertex
100
AcDb2dVertex
 10
125.0
 20
435.277923
 30
0.0
 42
0.104168
  0
VERTEX
  5
454
100
AcDbEntity
  8
L-ZISSEN
  6
CONTINUOUS
 62
     7
100
AcDbVertex
100
AcDb2dVertex
 10
121.583343
 20
434.558303
 30
0.0
 42
0.100664
  0
VERTEX
  5
455
100
AcDbEntity
  8
L-ZISSEN
  6
CONTINUOUS
 62
     7
100
AcDbVertex
100
AcDb2dVertex
 10
118.636039
 20
432.472709
 30
0.0
 42
0.096076
  0
VERTEX
  5
456
100
AcDbEntity
  8
L-ZISSEN
  6
CONTINUOUS
 62
     7
100
AcDbVertex
100
AcDb2dVertex
 10
116.693297
 20
429.392865
 30
0.0
 42
0.093065
  0
VERTEX
  5
457
100
AcDbEntity
  8
L-ZISSEN
  6
CONTINUOUS
 62
     7
100
AcDbVertex
100
AcDb2dVertex
 10
116.0
 20
425.700323
 30
0.0
 42
0.093065
  0
VERTEX
  5
458
100
AcDbEntity
  8
L-ZISSEN
  6
CONTINUOUS
 62
     7
100
AcDbVertex
100
AcDb2dVertex
 10
116.693297
 20
422.007782
 30
0.0
 42
0.096076
  0
VERTEX
  5
459
100
AcDbEntity
  8
L-ZISSEN
  6
CONTINUOUS
 62
     7
100
AcDbVertex
100
AcDb2dVertex
 10
118.636039
 20
418.927938
 30
0.0
 42
0.014888
  0
VERTEX
  5
45A
100
AcDbEntity
  8
L-ZISSEN
  6
CONTINUOUS
 62
     7
100
AcDbVertex
100
AcDb2dVertex
 10
119.01687
 20
418.546109
 30
0.0
 42
0.104168
  0
SEQEND
  5
45B
100
AcDbEntity
  8
L-ZISSEN
  6
CONTINUOUS
 62
     7
  0
POLYLINE
  5
DE
100
AcDbEntity
  8
L-ZISSEN
  6
CONTINUOUS
 62
     7
100
AcDb2dPolyline
 66
     1
 10
0.0
 20
0.0
 30
0.0
 70
     1
  0
VERTEX
  5
45C
100
AcDbEntity
  8
L-ZISSEN
  6
CONTINUOUS
 62
     7
100
AcDbVertex
100
AcDb2dVertex
 10
125.0
 20
495.663094
 30
0.0
 42
-0.104168
  0
VERTEX
  5
45D
100
AcDbEntity
  8
L-ZISSEN
  6
CONTINUOUS
 62
     7
100
AcDbVertex
100
AcDb2dVertex
 10
127.467586
 20
495.143368
 30
0.0
 42
-0.100664
  0
VERTEX
  5
45E
100
AcDbEntity
  8
L-ZISSEN
  6
CONTINUOUS
 62
     7
100
AcDbVertex
100
AcDb2dVertex
 10
129.596194
 20
493.637106
 30
0.0
 42
-0.096076
  0
VERTEX
  5
45F
100
AcDbEntity
  8
L-ZISSEN
  6
CONTINUOUS
 62
     7
100
AcDbVertex
100
AcDb2dVertex
 10
131.126079
 20
491.211767
 30
0.0
 42
-0.110798
  0
VERTEX
  5
460
100
AcDbEntity
  8
L-ZISSEN
  6
CONTINUOUS
 62
     7
100
AcDbVertex
100
AcDb2dVertex
 10
131.5
 20
488.745938
 30
0.0
 42
-0.093065
  0
VERTEX
  5
461
100
AcDbEntity
  8
L-ZISSEN
  6
CONTINUOUS
 62
     7
100
AcDbVertex
100
AcDb2dVertex
 10
130.999286
 20
486.079103
 30
0.0
 42
-0.096076
  0
VERTEX
  5
462
100
AcDbEntity
  8
L-ZISSEN
  6
CONTINUOUS
 62
     7
100
AcDbVertex
100
AcDb2dVertex
 10
129.596194
 20
483.854771
 30
0.0
 42
-0.100664
  0
VERTEX
  5
463
100
AcDbEntity
  8
L-ZISSEN
  6
CONTINUOUS
 62
     7
100
AcDbVertex
100
AcDb2dVertex
 10
127.467586
 20
482.348509
 30
0.0
 42
-0.104168
  0
VERTEX
  5
464
100
AcDbEntity
  8
L-ZISSEN
  6
CONTINUOUS
 62
     7
100
AcDbVertex
100
AcDb2dVertex
 10
125.0
 20
481.828783
 30
0.0
 42
-0.104168
  0
VERTEX
  5
465
100
AcDbEntity
  8
L-ZISSEN
  6
CONTINUOUS
 62
     7
100
AcDbVertex
100
AcDb2dVertex
 10
122.532414
 20
482.348509
 30
0.0
 42
-0.100664
  0
VERTEX
  5
466
100
AcDbEntity
  8
L-ZISSEN
  6
CONTINUOUS
 62
     7
100
AcDbVertex
100
AcDb2dVertex
 10
120.403806
 20
483.854771
 30
0.0
 42
-0.096076
  0
VERTEX
  5
467
100
AcDbEntity
  8
L-ZISSEN
  6
CONTINUOUS
 62
     7
100
AcDbVertex
100
AcDb2dVertex
 10
119.000714
 20
486.079103
 30
0.0
 42
-0.093065
  0
VERTEX
  5
468
100
AcDbEntity
  8
L-ZISSEN
  6
CONTINUOUS
 62
     7
100
AcDbVertex
100
AcDb2dVertex
 10
118.5
 20
488.745938
 30
0.0
 42
-0.093065
  0
VERTEX
  5
469
100
AcDbEntity
  8
L-ZISSEN
  6
CONTINUOUS
 62
     7
100
AcDbVertex
100
AcDb2dVertex
 10
119.000714
 20
491.412774
 30
0.0
 42
-0.096076
  0
VERTEX
  5
46A
100
AcDbEntity
  8
L-ZISSEN
  6
CONTINUOUS
 62
     7
100
AcDbVertex
100
AcDb2dVertex
 10
120.403806
 20
493.637106
 30
0.0
 42
-0.100664
  0
VERTEX
  5
46B
100
AcDbEntity
  8
L-ZISSEN
  6
CONTINUOUS
 62
     7
100
AcDbVertex
100
AcDb2dVertex
 10
122.532414
 20
495.143368
 30
0.0
 42
-0.104168
  0
SEQEND
  5
46C
100
AcDbEntity
  8
L-ZISSEN
  6
CONTINUOUS
 62
     7
  0
POLYLINE
  5
F0
100
AcDbEntity
  8
L-ZISSEN
  6
CONTINUOUS
 62
     7
100
AcDb2dPolyline
 66
     1
 10
0.0
 20
0.0
 30
0.0
  0
VERTEX
  5
46D
100
AcDbEntity
  8
L-ZISSEN
  6
CONTINUOUS
 62
     7
100
AcDbVertex
100
AcDb2dVertex
 10
131.056778
 20
491.383533
 30
0.0
 42
-0.012076
  0
VERTEX
  5
46E
100
AcDbEntity
  8
L-ZISSEN
  6
CONTINUOUS
 62
     7
100
AcDbVertex
100
AcDb2dVertex
 10
131.363961
 20
491.072062
 30
0.0
 42
-0.096076
  0
VERTEX
  5
46F
100
AcDbEntity
  8
L-ZISSEN
  6
CONTINUOUS
 62
     7
100
AcDbVertex
100
AcDb2dVertex
 10
133.482264
 20
487.713901
 30
0.0
 42
-0.110798
  0
VERTEX
  5
470
100
AcDbEntity
  8
L-ZISSEN
  6
CONTINUOUS
 62
     7
100
AcDbVertex
100
AcDb2dVertex
 10
134.0
 20
484.299677
 30
0.0
 42
-0.093065
  0
VERTEX
  5
471
100
AcDbEntity
  8
L-ZISSEN
  6
CONTINUOUS
 62
     7
100
AcDbVertex
100
AcDb2dVertex
 10
133.306703
 20
480.607135
 30
0.0
 42
-0.096076
  0
VERTEX
  5
472
100
AcDbEntity
  8
L-ZISSEN
  6
CONTINUOUS
 62
     7
100
AcDbVertex
100
AcDb2dVertex
 10
131.363961
 20
477.527291
 30
0.0
 42
-0.100664
  0
VERTEX
  5
473
100
AcDbEntity
  8
L-ZISSEN
  6
CONTINUOUS
 62
     7
100
AcDbVertex
100
AcDb2dVertex
 10
128.416657
 20
475.441697
 30
0.0
 42
-0.104168
  0
VERTEX
  5
474
100
AcDbEntity
  8
L-ZISSEN
  6
CONTINUOUS
 62
     7
100
AcDbVertex
100
AcDb2dVertex
 10
125.0
 20
474.722077
 30
0.0
 42
-0.104168
  0
VERTEX
  5
475
100
AcDbEntity
  8
L-ZISSEN
  6
CONTINUOUS
 62
     7
100
AcDbVertex
100
AcDb2dVertex
 10
121.583343
 20
475.441697
 30
0.0
 42
-0.100664
  0
VERTEX
  5
476
100
AcDbEntity
  8
L-ZISSEN
  6
CONTINUOUS
 62
     7
100
AcDbVertex
100
AcDb2dVertex
 10
118.636039
 20
477.527291
 30
0.0
 42
-0.096076
  0
VERTEX
  5
477
100
AcDbEntity
  8
L-ZISSEN
  6
CONTINUOUS
 62
     7
100
AcDbVertex
100
AcDb2dVertex
 10
116.693297
 20
480.607135
 30
0.0
 42
-0.093065
  0
VERTEX
  5
478
100
AcDbEntity
  8
L-ZISSEN
  6
CONTINUOUS
 62
     7
100
AcDbVertex
100
AcDb2dVertex
 10
116.0
 20
484.299677
 30
0.0
 42
-0.093065
  0
VERTEX
  5
479
100
AcDbEntity
  8
L-ZISSEN
  6
CONTINUOUS
 62
     7
100
AcDbVertex
100
AcDb2dVertex
 10
116.693297
 20
487.992218
 30
0.0
 42
-0.096076
  0
VERTEX
  5
47A
100
AcDbEntity
  8
L-ZISSEN
  6
CONTINUOUS
 62
     7
100
AcDbVertex
100
AcDb2dVertex
 10
118.636039
 20
491.072062
 30
0.0
 42
-0.014888
  0
VERTEX
  5
47B
100
AcDbEntity
  8
L-ZISSEN
  6
CONTINUOUS
 62
     7
100
AcDbVertex
100
AcDb2dVertex
 10
119.01687
 20
491.453891
 30
0.0
 42
-0.104168
  0
SEQEND
  5
47C
100
AcDbEntity
  8
L-ZISSEN
  6
CONTINUOUS
 62
     7
  0
POLYLINE
  5
101
100
AcDbEntity
  8
L-ZISSEN
  6
CONTINUOUS
 62
     7
100
AcDb2dPolyline
 66
     1
 10
0.0
 20
0.0
 30
0.0
  0
VERTEX
  5
47D
100
AcDbEntity
  8
L-ZISSEN
  6
CONTINUOUS
 62
     7
100
AcDbVertex
100
AcDb2dVertex
 10
134.0
 20
483.0
 30
0.0
 42
-0.093065
  0
VERTEX
  5
47E
100
AcDbEntity
  8
L-ZISSEN
  6
CONTINUOUS
 62
     7
100
AcDbVertex
100
AcDb2dVertex
 10
133.306703
 20
479.307458
 30
0.0
 42
-0.096076
  0
VERTEX
  5
47F
100
AcDbEntity
  8
L-ZISSEN
  6
CONTINUOUS
 62
     7
100
AcDbVertex
100
AcDb2dVertex
 10
131.363961
 20
476.227614
 30
0.0
 42
-0.100664
  0
VERTEX
  5
480
100
AcDbEntity
  8
L-ZISSEN
  6
CONTINUOUS
 62
     7
100
AcDbVertex
100
AcDb2dVertex
 10
128.416657
 20
474.142021
 30
0.0
 42
-0.104168
  0
VERTEX
  5
481
100
AcDbEntity
  8
L-ZISSEN
  6
CONTINUOUS
 62
     7
100
AcDbVertex
100
AcDb2dVertex
 10
125.0
 20
473.4224
 30
0.0
 42
-0.104168
  0
VERTEX
  5
482
100
AcDbEntity
  8
L-ZISSEN
  6
CONTINUOUS
 62
     7
100
AcDbVertex
100
AcDb2dVertex
 10
121.583343
 20
474.142021
 30
0.0
 42
-0.100664
  0
VERTEX
  5
483
100
AcDbEntity
  8
L-ZISSEN
  6
CONTINUOUS
 62
     7
100
AcDbVertex
100
AcDb2dVertex
 10
118.636039
 20
476.227614
 30
0.0
 42
-0.096076
  0
VERTEX
  5
484
100
AcDbEntity
  8
L-ZISSEN
  6
CONTINUOUS
 62
     7
100
AcDbVertex
100
AcDb2dVertex
 10
116.693297
 20
479.307458
 30
0.0
 42
-0.093065
  0
VERTEX
  5
485
100
AcDbEntity
  8
L-ZISSEN
  6
CONTINUOUS
 62
     7
100
AcDbVertex
100
AcDb2dVertex
 10
116.0
 20
483.0
 30
0.0
 42
-0.093065
  0
SEQEND
  5
486
100
AcDbEntity
  8
L-ZISSEN
  6
CONTINUOUS
 62
     7
  0
ARC
  5
10C
100
AcDbEntity
  8
L-ZISSEN
  6
CONTINUOUS
 62
     7
100
AcDbCircle
 10
125.0
 20
483.0
 30
0.0
 40
10.0
100
AcDbArc
 50
128.255844
 51
180.0
  0
LINE
  5
10D
100
AcDbEntity
  8
L-ZISSEN
  6
CONTINUOUS
 62
     7
100
AcDbLine
 10
85.75
 20
288.9
 30
0.0
 11
85.75
 21
284.5
 31
0.0
  0
LINE
  5
10E
100
AcDbEntity
  8
L-ZISSEN
  6
CONTINUOUS
 62
     7
100
AcDbLine
 10
96.25
 20
288.9
 30
0.0
 11
96.25
 21
283.5
 31
0.0
  0
LINE
  5
10F
100
AcDbEntity
  8
L-ZISSEN
  6
CONTINUOUS
 62
     7
100
AcDbLine
 10
85.75
 20
288.9
 30
0.0
 11
96.25
 21
288.9
 31
0.0
  0
LINE
  5
110
100
AcDbEntity
  8
L-ZISSEN
  6
CONTINUOUS
 62
     7
100
AcDbLine
 10
119.75
 20
288.9
 30
0.0
 11
119.75
 21
283.5
 31
0.0
  0
LINE
  5
111
100
AcDbEntity
  8
L-ZISSEN
  6
CONTINUOUS
 62
     7
100
AcDbLine
 10
119.75
 20
288.9
 30
0.0
 11
130.25
 21
288.9
 31
0.0
  0
LINE
  5
112
100
AcDbEntity
  8
L-ZISSEN
  6
CONTINUOUS
 62
     7
100
AcDbLine
 10
130.25
 20
288.9
 30
0.0
 11
130.25
 21
283.5
 31
0.0
  0
POLYLINE
  5
113
100
AcDbEntity
  8
L-ZISSEN
  6
CONTINUOUS
 62
     7
100
AcDb2dPolyline
 66
     1
 10
0.0
 20
0.0
 30
0.0
  0
VERTEX
  5
487
100
AcDbEntity
  8
L-ZISSEN
  6
CONTINUOUS
 62
     7
100
AcDbVertex
100
AcDb2dVertex
 10
115.4224
 20
296.248246
 30
0.0
 42
0.104168
  0
VERTEX
  5
488
100
AcDbEntity
  8
L-ZISSEN
  6
CONTINUOUS
 62
     7
100
AcDbVertex
100
AcDb2dVertex
 10
116.142021
 20
292.831589
 30
0.0
 42
0.100664
  0
VERTEX
  5
489
100
AcDbEntity
  8
L-ZISSEN
  6
CONTINUOUS
 62
     7
100
AcDbVertex
100
AcDb2dVertex
 10
118.227614
 20
289.884285
 30
0.0
 42
0.046364
  0
VERTEX
  5
48A
100
AcDbEntity
  8
L-ZISSEN
  6
CONTINUOUS
 62
     7
100
AcDbVertex
100
AcDb2dVertex
 10
119.75
 20
288.698708
 30
0.0
 42
0.110798
  0
SEQEND
  5
48B
100
AcDbEntity
  8
L-ZISSEN
  6
CONTINUOUS
 62
     7
  0
POLYLINE
  5
119
100
AcDbEntity
  8
L-ZISSEN
  6
CONTINUOUS
 62
     7
100
AcDb2dPolyline
 66
     1
 10
0.0
 20
0.0
 30
0.0
  0
VERTEX
  5
48C
100
AcDbEntity
  8
L-ZISSEN
  6
CONTINUOUS
 62
     7
100
AcDbVertex
100
AcDb2dVertex
 10
113.365393
 20
296.248246
 30
0.0
 42
0.112744
  0
VERTEX
  5
48D
100
AcDbEntity
  8
L-ZISSEN
  6
CONTINUOUS
 62
     7
100
AcDbVertex
100
AcDb2dVertex
 10
114.221638
 20
292.499222
 30
0.0
 42
0.103298
  0
VERTEX
  5
48E
100
AcDbEntity
  8
L-ZISSEN
  6
CONTINUOUS
 62
     7
100
AcDbVertex
100
AcDb2dVertex
 10
116.773091
 20
289.177178
 30
0.0
 42
0.06945
  0
VERTEX
  5
48F
100
AcDbEntity
  8
L-ZISSEN
  6
CONTINUOUS
 62
     7
100
AcDbVertex
100
AcDb2dVertex
 10
119.75
 20
287.263568
 30
0.0
 42
0.102683
  0
SEQEND
  5
490
100
AcDbEntity
  8
L-ZISSEN
  6
CONTINUOUS
 62
     7
  0
POLYLINE
  5
11F
100
AcDbEntity
  8
L-ZISSEN
  6
CONTINUOUS
 62
     7
100
AcDb2dPolyline
 66
     1
 10
0.0
 20
0.0
 30
0.0
  0
VERTEX
  5
491
100
AcDbEntity
  8
L-ZISSEN
  6
CONTINUOUS
 62
     7
100
AcDbVertex
100
AcDb2dVertex
 10
130.25
 20
288.717651
 30
0.0
 42
0.050269
  0
VERTEX
  5
492
100
AcDbEntity
  8
L-ZISSEN
  6
CONTINUOUS
 62
     7
100
AcDbVertex
100
AcDb2dVertex
 10
131.772386
 20
289.884285
 30
0.0
 42
0.100664
  0
VERTEX
  5
493
100
AcDbEntity
  8
L-ZISSEN
  6
CONTINUOUS
 62
     7
100
AcDbVertex
100
AcDb2dVertex
 10
133.857979
 20
292.831589
 30
0.0
 42
0.104168
  0
VERTEX
  5
494
100
AcDbEntity
  8
L-ZISSEN
  6
CONTINUOUS
 62
     7
100
AcDbVertex
100
AcDb2dVertex
 10
134.5776
 20
296.248246
 30
0.0
 42
0.104168
  0
SEQEND
  5
495
100
AcDbEntity
  8
L-ZISSEN
  6
CONTINUOUS
 62
     7
  0
POLYLINE
  5
125
100
AcDbEntity
  8
L-ZISSEN
  6
CONTINUOUS
 62
     7
100
AcDb2dPolyline
 66
     1
 10
0.0
 20
0.0
 30
0.0
  0
VERTEX
  5
496
100
AcDbEntity
  8
L-ZISSEN
  6
CONTINUOUS
 62
     7
100
AcDbVertex
100
AcDb2dVertex
 10
130.25
 20
287.314301
 30
0.0
 42
0.075558
  0
VERTEX
  5
497
100
AcDbEntity
  8
L-ZISSEN
  6
CONTINUOUS
 62
     7
100
AcDbVertex
100
AcDb2dVertex
 10
133.226909
 20
289.177178
 30
0.0
 42
0.103298
  0
VERTEX
  5
498
100
AcDbEntity
  8
L-ZISSEN
  6
CONTINUOUS
 62
     7
100
AcDbVertex
100
AcDb2dVertex
 10
135.778362
 20
292.499222
 30
0.0
 42
0.112744
  0
VERTEX
  5
499
100
AcDbEntity
  8
L-ZISSEN
  6
CONTINUOUS
 62
     7
100
AcDbVertex
100
AcDb2dVertex
 10
136.634607
 20
296.248246
 30
0.0
 42
0.112744
  0
VERTEX
  5
49A
100
AcDbEntity
  8
L-ZISSEN
  6
CONTINUOUS
 62
     7
100
AcDbVertex
100
AcDb2dVertex
 10
135.778362
 20
299.99727
 30
0.0
 42
0.078851
  0
VERTEX
  5
49B
100
AcDbEntity
  8
L-ZISSEN
  6
CONTINUOUS
 62
     7
100
AcDbVertex
100
AcDb2dVertex
 10
133.947873
 20
302.636162
 30
0.0
 42
0.09225
  0
SEQEND
  5
49C
100
AcDbEntity
  8
L-ZISSEN
  6
CONTINUOUS
 62
     7
  0
LINE
  5
12D
100
AcDbEntity
  8
L-ZISSEN
  6
CONTINUOUS
 62
     7
100
AcDbLine
 10
153.75
 20
288.9
 30
0.0
 11
164.25
 21
288.9
 31
0.0
  0
LINE
  5
12E
100
AcDbEntity
  8
L-ZISSEN
  6
CONTINUOUS
 62
     7
100
AcDbLine
 10
153.75
 20
288.9
 30
0.0
 11
153.75
 21
283.5
 31
0.0
  0
LINE
  5
12F
100
AcDbEntity
  8
L-ZISSEN
  6
CONTINUOUS
 62
     7
100
AcDbLine
 10
164.25
 20
288.9
 30
0.0
 11
164.25
 21
284.5
 31
0.0
  0
LINE
  5
130
100
AcDbEntity
  8
L-ZISSEN
  6
CONTINUOUS
 62
     7
100
AcDbLine
 10
168.0
 20
440.0
 30
0.0
 11
168.0
 21
470.0
 31
0.0
  0
LINE
  5
131
100
AcDbEntity
  8
L-ZISSEN
  6
CONTINUOUS
 62
     7
100
AcDbLine
 10
148.849242
 20
310.5
 30
0.0
 11
148.849242
 21
283.5
 31
0.0
  0
LINE
  5
132
100
AcDbEntity
  8
L-ZISSEN
  6
CONTINUOUS
 62
     7
100
AcDbLine
 10
264.907477
 20
288.9
 30
0.0
 11
266.25
 21
288.9
 31
0.0
  0
LINE
  5
133
100
AcDbEntity
  8
L-ZISSEN
  6
CONTINUOUS
 62
     7
100
AcDbLine
 10
266.25
 20
288.9
 30
0.0
 11
266.25
 21
284.5
 31
0.0
  0
LINE
  5
134
100
AcDbEntity
  8
L-ZISSEN
  6
CONTINUOUS
 62
     7
100
AcDbLine
 10
325.75
 20
288.9
 30
0.0
 11
336.25
 21
288.9
 31
0.0
  0
LINE
  5
135
100
AcDbEntity
  8
L-ZISSEN
  6
CONTINUOUS
 62
     7
100
AcDbLine
 10
325.75
 20
288.9
 30
0.0
 11
325.75
 21
283.5
 31
0.0
  0
LINE
  5
136
100
AcDbEntity
  8
L-ZISSEN
  6
CONTINUOUS
 62
     7
100
AcDbLine
 10
336.25
 20
288.9
 30
0.0
 11
336.25
 21
286.8
 31
0.0
  0
LINE
  5
137
100
AcDbEntity
  8
L-ZISSEN
  6
CONTINUOUS
 62
     7
100
AcDbLine
 10
273.75
 20
288.9
 30
0.0
 11
284.25
 21
288.9
 31
0.0
  0
LINE
  5
138
100
AcDbEntity
  8
L-ZISSEN
  6
CONTINUOUS
 62
     7
100
AcDbLine
 10
273.75
 20
288.9
 30
0.0
 11
273.75
 21
283.5
 31
0.0
  0
LINE
  5
139
100
AcDbEntity
  8
L-ZISSEN
  6
CONTINUOUS
 62
     7
100
AcDbLine
 10
284.25
 20
288.9
 30
0.0
 11
284.25
 21
283.5
 31
0.0
  0
LINE
  5
13A
100
AcDbEntity
  8
L-ZISSEN
  6
CONTINUOUS
 62
     7
100
AcDbLine
 10
148.849242
 20
310.5
 30
0.0
 11
132.248823
 21
310.5
 31
0.0
  0
LINE
  5
13B
100
AcDbEntity
  8
L-ZISSEN
  6
CONTINUOUS
 62
     7
100
AcDbLine
 10
84.153846
 20
440.0
 30
0.0
 11
85.0
 21
429.0
 31
0.0
  0
LINE
  5
13C
100
AcDbEntity
  8
L-ZISSEN
  6
CONTINUOUS
 62
     7
100
AcDbLine
 10
84.153846
 20
470.0
 30
0.0
 11
85.0
 21
481.0
 31
0.0
  0
LINE
  5
13D
100
AcDbEntity
  8
L-ZISSEN
  6
CONTINUOUS
 62
     7
100
AcDbLine
 10
165.846154
 20
470.0
 30
0.0
 11
165.0
 21
481.0
 31
0.0
  0
LINE
  5
13E
100
AcDbEntity
  8
L-ZISSEN
  6
CONTINUOUS
 62
     7
100
AcDbLine
 10
165.846154
 20
440.0
 30
0.0
 11
165.0
 21
429.0
 31
0.0
  0
CIRCLE
  5
13F
100
AcDbEntity
  8
L-ZISSEN
  6
CONTINUOUS
 62
     7
100
AcDbCircle
 10
305.0
 20
293.5
 30
0.0
 40
5.7225
  0
LINE
  5
140
100
AcDbEntity
  8
L-TYUSIN
  6
CENTER
 62
     1
100
AcDbLine
 10
125.0
 20
357.5
 30
0.0
 11
125.0
 21
42.5
 31
0.0
  0
LINE
  5
141
100
AcDbEntity
  8
L-ZISSEN
  6
CONTINUOUS
 62
     7
100
AcDbLine
 10
187.0
 20
256.0
 30
0.0
 11
63.0
 21
256.0
 31
0.0
  0
LINE
  5
142
100
AcDbEntity
  8
L-ZISSEN
  6
CONTINUOUS
 62
     7
100
AcDbLine
 10
182.0
 20
274.0
 30
0.0
 11
182.0
 21
256.0
 31
0.0
  0
LINE
  5
143
100
AcDbEntity
  8
L-ZISSEN
  6
CONTINUOUS
 62
     7
100
AcDbLine
 10
68.0
 20
256.0
 30
0.0
 11
68.0
 21
274.0
 31
0.0
  0
LINE
  5
144
100
AcDbEntity
  8
L-ZISSEN
  6
CONTINUOUS
 62
     7
100
AcDbLine
 10
63.0
 20
274.0
 30
0.0
 11
187.0
 21
274.0
 31
0.0
  0
LINE
  5
145
100
AcDbEntity
  8
L-ZISSEN
  6
CONTINUOUS
 62
     7
100
AcDbLine
 10
68.0
 20
410.0
 30
0.0
 11
68.0
 21
430.607378
 31
0.0
  0
LINE
  5
146
100
AcDbEntity
  8
L-ZISSEN
  6
CONTINUOUS
 62
     7
100
AcDbLine
 10
182.0
 20
523.0
 30
0.0
 11
182.0
 21
479.392622
 31
0.0
  0
LINE
  5
147
100
AcDbEntity
  8
L-ZISSEN
  6
CONTINUOUS
 62
     7
100
AcDbLine
 10
170.0
 20
398.0
 30
0.0
 11
149.392622
 21
398.0
 31
0.0
  0
LINE
  5
148
100
AcDbEntity
  8
L-TYUSIN
  6
CENTER
 62
     1
100
AcDbLine
 10
125.0
 20
522.0
 30
0.0
 11
125.0
 21
388.0
 31
0.0
  0
LINE
  5
149
100
AcDbEntity
  8
L-TYUSIN
  6
CENTER
 62
     1
100
AcDbLine
 10
192.0
 20
455.0
 30
0.0
 11
58.0
 21
455.0
 31
0.0
  0
ARC
  5
14A
100
AcDbEntity
  8
L-ZISSEN
  6
CONTINUOUS
 62
     7
100
AcDbCircle
 10
125.0
 20
455.0
 30
0.0
 40
62.0
100
AcDbArc
 50
336.831945
 51
23.168055
  0
ARC
  5
14B
100
AcDbEntity
  8
L-ZISSEN
  6
CONTINUOUS
 62
     7
100
AcDbCircle
 10
125.0
 20
455.0
 30
0.0
 40
62.0
100
AcDbArc
 50
246.831945
 51
293.168055
  0
ARC
  5
14C
100
AcDbEntity
  8
L-ZISSEN
  6
CONTINUOUS
 62
     7
100
AcDbCircle
 10
125.0
 20
455.0
 30
0.0
 40
62.0
100
AcDbArc
 50
156.831945
 51
203.168055
  0
LINE
  5
14D
100
AcDbEntity
  8
L-ZISSEN
  6
CONTINUOUS
 62
     7
100
AcDbLine
 10
68.0
 20
479.392622
 30
0.0
 11
68.0
 21
523.0
 31
0.0
  0
LINE
  5
14E
100
AcDbEntity
  8
L-ZISSEN
  6
CONTINUOUS
 62
     7
100
AcDbLine
 10
182.0
 20
430.607378
 30
0.0
 11
182.0
 21
410.0
 31
0.0
  0
LINE
  5
14F
100
AcDbEntity
  8
L-ZISSEN
  6
CONTINUOUS
 62
     7
100
AcDbLine
 10
100.607378
 20
398.0
 30
0.0
 11
80.0
 21
398.0
 31
0.0
  0
ARC
  5
150
100
AcDbEntity
  8
L-ZISSEN
  6
CONTINUOUS
 62
     7
100
AcDbCircle
 10
170.0
 20
410.0
 30
0.0
 40
12.0
100
AcDbArc
 50
270.0
 51
0.0
  0
ARC
  5
151
100
AcDbEntity
  8
L-ZISSEN
  6
CONTINUOUS
 62
     7
100
AcDbCircle
 10
80.0
 20
410.0
 30
0.0
 40
12.0
100
AcDbArc
 50
180.0
 51
270.0
  0
LINE
  5
152
100
AcDbEntity
  8
L-ZISSEN
  6
CONTINUOUS
 62
     7
100
AcDbLine
 10
63.0
 20
274.0
 30
0.0
 11
63.0
 21
256.0
 31
0.0
  0
LINE
  5
153
100
AcDbEntity
  8
L-ZISSEN
  6
CONTINUOUS
 62
     7
100
AcDbLine
 10
187.0
 20
274.0
 30
0.0
 11
187.0
 21
272.0
 31
0.0
  0
LINE
  5
154
100
AcDbEntity
  8
L-ZISSEN
  6
CONTINUOUS
 62
     7
100
AcDbLine
 10
187.0
 20
128.0
 30
0.0
 11
63.0
 21
128.0
 31
0.0
  0
LINE
  5
155
100
AcDbEntity
  8
L-ZISSEN
  6
CONTINUOUS
 62
     7
100
AcDbLine
 10
182.15
 20
256.0
 30
0.0
 11
182.15
 21
128.0
 31
0.0
  0
LINE
  5
156
100
AcDbEntity
  8
L-ZISSEN
  6
CONTINUOUS
 62
     7
100
AcDbLine
 10
63.0
 20
128.0
 30
0.0
 11
63.0
 21
108.0
 31
0.0
  0
LINE
  5
157
100
AcDbEntity
  8
L-ZISSEN
  6
CONTINUOUS
 62
     7
100
AcDbLine
 10
187.0
 20
128.0
 30
0.0
 11
187.0
 21
122.0
 31
0.0
  0
LINE
  5
158
100
AcDbEntity
  8
L-ZISSEN
  6
CONTINUOUS
 62
     7
100
AcDbLine
 10
182.0
 20
128.0
 30
0.0
 11
182.0
 21
108.0
 31
0.0
  0
LINE
  5
159
100
AcDbEntity
  8
L-ZISSEN
  6
CONTINUOUS
 62
     7
100
AcDbLine
 10
68.0
 20
108.0
 30
0.0
 11
68.0
 21
128.0
 31
0.0
  0
LINE
  5
15A
100
AcDbEntity
  8
L-ZISSEN
  6
CONTINUOUS
 62
     7
100
AcDbLine
 10
187.0
 20
108.0
 30
0.0
 11
63.0
 21
108.0
 31
0.0
  0
ARC
  5
15B
100
AcDbEntity
  8
L-ZISSEN
  6
CONTINUOUS
 62
     7
100
AcDbCircle
 10
125.0
 20
231.0
 30
0.0
 40
130.0
100
AcDbArc
 50
254.015064
 51
285.984936
  0
CIRCLE
  5
15C
100
AcDbEntity
  8
L-ZISSEN
  6
CONTINUOUS
 62
     7
100
AcDbCircle
 10
170.0
 20
410.0
 30
0.0
 40
5.0
  0
LINE
  5
15D
100
AcDbEntity
  8
L-ZISSEN
  6
CONTINUOUS
 62
     7
100
AcDbLine
 10
160.185045
 20
284.5
 30
0.0
 11
160.185045
 21
276.5
 31
0.0
  0
LINE
  5
15E
100
AcDbEntity
  8
L-ZISSEN
  6
CONTINUOUS
 62
     7
100
AcDbLine
 10
179.814955
 20
284.5
 30
0.0
 11
179.814955
 21
276.5
 31
0.0
  0
LINE
  5
15F
100
AcDbEntity
  8
L-ZISSEN
  6
CONTINUOUS
 62
     7
100
AcDbLine
 10
160.8
 20
276.5
 30
0.0
 11
160.8
 21
274.0
 31
0.0
  0
LINE
  5
160
100
AcDbEntity
  8
L-ZISSEN
  6
CONTINUOUS
 62
     7
100
AcDbLine
 10
160.185045
 20
276.5
 30
0.0
 11
179.814955
 21
276.5
 31
0.0
  0
LINE
  5
161
100
AcDbEntity
  8
L-ZISSEN
  6
CONTINUOUS
 62
     7
100
AcDbLine
 10
179.2
 20
276.5
 30
0.0
 11
179.2
 21
274.0
 31
0.0
  0
LINE
  5
162
100
AcDbEntity
  8
L-ZISSEN
  6
CONTINUOUS
 62
     7
100
AcDbLine
 10
182.0
 20
284.5
 30
0.0
 11
160.185045
 21
284.5
 31
0.0
  0
LINE
  5
163
100
AcDbEntity
  8
L-ZISSEN
  6
CONTINUOUS
 62
     7
100
AcDbLine
 10
70.8
 20
276.5
 30
0.0
 11
70.8
 21
274.0
 31
0.0
  0
LINE
  5
164
100
AcDbEntity
  8
L-ZISSEN
  6
CONTINUOUS
 62
     7
100
AcDbLine
 10
89.814955
 20
276.5
 30
0.0
 11
70.185045
 21
276.5
 31
0.0
  0
LINE
  5
165
100
AcDbEntity
  8
L-ZISSEN
  6
CONTINUOUS
 62
     7
100
AcDbLine
 10
89.2
 20
276.5
 30
0.0
 11
89.2
 21
274.0
 31
0.0
  0
LINE
  5
166
100
AcDbEntity
  8
L-ZISSEN
  6
CONTINUOUS
 62
     7
100
AcDbLine
 10
70.185045
 20
284.5
 30
0.0
 11
70.185045
 21
276.5
 31
0.0
  0
LINE
  5
167
100
AcDbEntity
  8
L-ZISSEN
  6
CONTINUOUS
 62
     7
100
AcDbLine
 10
89.814955
 20
284.5
 30
0.0
 11
89.814955
 21
276.5
 31
0.0
  0
LINE
  5
168
100
AcDbEntity
  8
L-ZISSEN
  6
CONTINUOUS
 62
     7
100
AcDbLine
 10
182.0
 20
286.8
 30
0.0
 11
175.0
 21
286.8
 31
0.0
  0
LINE
  5
169
100
AcDbEntity
  8
L-ZISSEN
  6
CONTINUOUS
 62
     7
100
AcDbLine
 10
182.0
 20
334.5
 30
0.0
 11
137.75
 21
334.5
 31
0.0
  0
LINE
  5
16A
100
AcDbEntity
  8
L-ZISSEN
  6
CONTINUOUS
 62
     7
100
AcDbLine
 10
68.0
 20
334.5
 30
0.0
 11
68.0
 21
284.5
 31
0.0
  0
LINE
  5
16B
100
AcDbEntity
  8
L-ZISSEN
  6
CONTINUOUS
 62
     7
100
AcDbLine
 10
182.0
 20
334.5
 30
0.0
 11
182.0
 21
284.5
 31
0.0
  0
LINE
  5
16C
100
AcDbEntity
  8
L-TYUSIN
  6
CENTER
 62
     1
100
AcDbLine
 10
152.5
 20
325.5
 30
0.0
 11
152.5
 21
313.5
 31
0.0
  0
LINE
  5
16D
100
AcDbEntity
  8
L-TYUSIN
  6
CENTER
 62
     1
100
AcDbLine
 10
139.0
 20
319.5
 30
0.0
 11
166.0
 21
319.5
 31
0.0
  0
ARC
  5
16E
100
AcDbEntity
  8
L-ZISSEN
  6
CONTINUOUS
 62
     7
100
AcDbCircle
 10
145.0
 20
319.5
 30
0.0
 40
3.4
100
AcDbArc
 50
90.0
 51
137.332075
  0
ARC
  5
16F
100
AcDbEntity
  8
L-ZISSEN
  6
CONTINUOUS
 62
     7
100
AcDbCircle
 10
160.0
 20
319.5
 30
0.0
 40
3.4
100
AcDbArc
 50
270.0
 51
90.0
  0
LINE
  5
170
100
AcDbEntity
  8
L-ZISSEN
  6
CONTINUOUS
 62
     7
100
AcDbLine
 10
145.0
 20
322.9
 30
0.0
 11
160.0
 21
322.9
 31
0.0
  0
LINE
  5
171
100
AcDbEntity
  8
L-ZISSEN
  6
CONTINUOUS
 62
     7
100
AcDbLine
 10
145.0
 20
316.1
 30
0.0
 11
160.0
 21
316.1
 31
0.0
  0
LINE
  5
172
100
AcDbEntity
  8
L-ZISSEN
  6
CONTINUOUS
 62
     7
100
AcDbLine
 10
105.0
 20
316.1
 30
0.0
 11
90.0
 21
316.1
 31
0.0
  0
LINE
  5
173
100
AcDbEntity
  8
L-ZISSEN
  6
CONTINUOUS
 62
     7
100
AcDbLine
 10
105.0
 20
322.9
 30
0.0
 11
90.0
 21
322.9
 31
0.0
  0
ARC
  5
174
100
AcDbEntity
  8
L-ZISSEN
  6
CONTINUOUS
 62
     7
100
AcDbCircle
 10
90.0
 20
319.5
 30
0.0
 40
3.4
100
AcDbArc
 50
90.0
 51
270.0
  0
ARC
  5
175
100
AcDbEntity
  8
L-ZISSEN
  6
CONTINUOUS
 62
     7
100
AcDbCircle
 10
105.0
 20
319.5
 30
0.0
 40
3.4
100
AcDbArc
 50
270.0
 51
317.332075
  0
LINE
  5
176
100
AcDbEntity
  8
L-TYUSIN
  6
CENTER
 62
     1
100
AcDbLine
 10
111.0
 20
319.5
 30
0.0
 11
84.0
 21
319.5
 31
0.0
  0
LINE
  5
177
100
AcDbEntity
  8
L-TYUSIN
  6
CENTER
 62
     1
100
AcDbLine
 10
97.5
 20
325.5
 30
0.0
 11
97.5
 21
313.5
 31
0.0
  0
CIRCLE
  5
178
100
AcDbEntity
  8
L-ZISSEN
  6
CONTINUOUS
 62
     7
100
AcDbCircle
 10
80.0
 20
410.0
 30
0.0
 40
5.0
  0
CIRCLE
  5
179
100
AcDbEntity
  8
L-ZISSEN
  6
CONTINUOUS
 62
     7
100
AcDbCircle
 10
80.0
 20
500.0
 30
0.0
 40
5.0
  0
CIRCLE
  5
17A
100
AcDbEntity
  8
L-ZISSEN
  6
CONTINUOUS
 62
     7
100
AcDbCircle
 10
170.0
 20
500.0
 30
0.0
 40
5.0
  0
LINE
  5
17B
100
AcDbEntity
  8
L-ZISSEN
  6
CONTINUOUS
 62
     7
100
AcDbLine
 10
182.0
 20
523.0
 30
0.0
 11
68.0
 21
523.0
 31
0.0
  0
LINE
  5
17C
100
AcDbEntity
  8
L-ZISSEN
  6
CONTINUOUS
 62
     7
100
AcDbLine
 10
68.0
 20
485.0
 30
0.0
 11
82.916749
 21
485.0
 31
0.0
  0
ARC
  5
17D
100
AcDbEntity
  8
L-ZISSEN
  6
CONTINUOUS
 62
     7
100
AcDbCircle
 10
125.0
 20
458.0
 30
0.0
 40
50.0
100
AcDbArc
 50
32.683639
 51
147.316361
  0
LINE
  5
17E
100
AcDbEntity
  8
L-ZISSEN
  6
CONTINUOUS
 62
     7
100
AcDbLine
 10
167.083251
 20
485.0
 30
0.0
 11
182.0
 21
485.0
 31
0.0
  0
LINE
  5
17F
100
AcDbEntity
  8
L-ZISSEN
  6
CONTINUOUS
 62
     7
100
AcDbLine
 10
182.0
 20
520.7
 30
0.0
 11
68.0
 21
520.7
 31
0.0
  0
LINE
  5
180
100
AcDbEntity
  8
L-ZISSEN
  6
CONTINUOUS
 62
     7
100
AcDbLine
 10
179.814955
 20
294.8
 30
0.0
 11
179.814955
 21
286.8
 31
0.0
  0
LINE
  5
181
100
AcDbEntity
  8
L-ZISSEN
  6
CONTINUOUS
 62
     7
100
AcDbLine
 10
85.0
 20
297.5
 30
0.0
 11
85.0
 21
284.5
 31
0.0
  0
LINE
  5
182
100
AcDbEntity
  8
L-ZISSEN
  6
CONTINUOUS
 62
     7
100
AcDbLine
 10
75.0
 20
297.5
 30
0.0
 11
75.0
 21
284.5
 31
0.0
  0
LINE
  5
183
100
AcDbEntity
  8
L-ZISSEN
  6
CONTINUOUS
 62
     7
100
AcDbLine
 10
75.0
 20
297.5
 30
0.0
 11
85.0
 21
297.5
 31
0.0
  0
LINE
  5
184
100
AcDbEntity
  8
L-ZISSEN
  6
CONTINUOUS
 62
     7
100
AcDbLine
 10
70.185045
 20
294.8
 30
0.0
 11
70.185045
 21
286.8
 31
0.0
  0
LINE
  5
185
100
AcDbEntity
  8
L-ZISSEN
  6
CONTINUOUS
 62
     7
100
AcDbLine
 10
70.185045
 20
87.2
 30
0.0
 11
70.185045
 21
95.2
 31
0.0
  0
LINE
  5
186
100
AcDbEntity
  8
L-ZISSEN
  6
CONTINUOUS
 62
     7
100
AcDbLine
 10
89.814955
 20
87.2
 30
0.0
 11
89.814955
 21
95.2
 31
0.0
  0
LINE
  5
187
100
AcDbEntity
  8
L-ZISSEN
  6
CONTINUOUS
 62
     7
100
AcDbLine
 10
89.814955
 20
87.2
 30
0.0
 11
85.0
 21
87.2
 31
0.0
  0
LINE
  5
188
100
AcDbEntity
  8
L-ZISSEN
  6
CONTINUOUS
 62
     7
100
AcDbLine
 10
75.0
 20
84.5
 30
0.0
 11
85.0
 21
84.5
 31
0.0
  0
LINE
  5
189
100
AcDbEntity
  8
L-ZISSEN
  6
CONTINUOUS
 62
     7
100
AcDbLine
 10
75.0
 20
84.5
 30
0.0
 11
75.0
 21
97.5
 31
0.0
  0
LINE
  5
18A
100
AcDbEntity
  8
L-ZISSEN
  6
CONTINUOUS
 62
     7
100
AcDbLine
 10
85.0
 20
84.5
 30
0.0
 11
85.0
 21
97.5
 31
0.0
  0
LINE
  5
18B
100
AcDbEntity
  8
L-ZISSEN
  6
CONTINUOUS
 62
     7
100
AcDbLine
 10
160.185045
 20
87.2
 30
0.0
 11
165.0
 21
87.2
 31
0.0
  0
LINE
  5
18C
100
AcDbEntity
  8
L-ZISSEN
  6
CONTINUOUS
 62
     7
100
AcDbLine
 10
160.185045
 20
87.2
 30
0.0
 11
160.185045
 21
95.2
 31
0.0
  0
LINE
  5
18D
100
AcDbEntity
  8
L-ZISSEN
  6
CONTINUOUS
 62
     7
100
AcDbLine
 10
179.814955
 20
87.2
 30
0.0
 11
179.814955
 21
95.2
 31
0.0
  0
LINE
  5
18E
100
AcDbEntity
  8
L-TYUSIN
  6
CENTER
 62
     1
100
AcDbLine
 10
97.5
 20
56.5
 30
0.0
 11
97.5
 21
68.5
 31
0.0
  0
LINE
  5
18F
100
AcDbEntity
  8
L-TYUSIN
  6
CENTER
 62
     1
100
AcDbLine
 10
111.0
 20
62.5
 30
0.0
 11
84.0
 21
62.5
 31
0.0
  0
ARC
  5
190
100
AcDbEntity
  8
L-ZISSEN
  6
CONTINUOUS
 62
     7
100
AcDbCircle
 10
105.0
 20
62.5
 30
0.0
 40
3.4
100
AcDbArc
 50
270.0
 51
90.0
  0
ARC
  5
191
100
AcDbEntity
  8
L-ZISSEN
  6
CONTINUOUS
 62
     7
100
AcDbCircle
 10
90.0
 20
62.5
 30
0.0
 40
3.4
100
AcDbArc
 50
90.0
 51
270.0
  0
LINE
  5
192
100
AcDbEntity
  8
L-ZISSEN
  6
CONTINUOUS
 62
     7
100
AcDbLine
 10
105.0
 20
59.1
 30
0.0
 11
90.0
 21
59.1
 31
0.0
  0
LINE
  5
193
100
AcDbEntity
  8
L-ZISSEN
  6
CONTINUOUS
 62
     7
100
AcDbLine
 10
105.0
 20
65.9
 30
0.0
 11
90.0
 21
65.9
 31
0.0
  0
LINE
  5
194
100
AcDbEntity
  8
L-ZISSEN
  6
CONTINUOUS
 62
     7
100
AcDbLine
 10
145.0
 20
65.9
 30
0.0
 11
160.0
 21
65.9
 31
0.0
  0
LINE
  5
195
100
AcDbEntity
  8
L-ZISSEN
  6
CONTINUOUS
 62
     7
100
AcDbLine
 10
145.0
 20
59.1
 30
0.0
 11
160.0
 21
59.1
 31
0.0
  0
ARC
  5
196
100
AcDbEntity
  8
L-ZISSEN
  6
CONTINUOUS
 62
     7
100
AcDbCircle
 10
160.0
 20
62.5
 30
0.0
 40
3.4
100
AcDbArc
 50
270.0
 51
90.0
  0
ARC
  5
197
100
AcDbEntity
  8
L-ZISSEN
  6
CONTINUOUS
 62
     7
100
AcDbCircle
 10
145.0
 20
62.5
 30
0.0
 40
3.4
100
AcDbArc
 50
90.0
 51
270.0
  0
LINE
  5
198
100
AcDbEntity
  8
L-TYUSIN
  6
CENTER
 62
     1
100
AcDbLine
 10
139.0
 20
62.5
 30
0.0
 11
166.0
 21
62.5
 31
0.0
  0
LINE
  5
199
100
AcDbEntity
  8
L-TYUSIN
  6
CENTER
 62
     1
100
AcDbLine
 10
152.5
 20
56.5
 30
0.0
 11
152.5
 21
68.5
 31
0.0
  0
LINE
  5
19A
100
AcDbEntity
  8
L-ZISSEN
  6
CONTINUOUS
 62
     7
100
AcDbLine
 10
182.0
 20
47.5
 30
0.0
 11
182.0
 21
97.5
 31
0.0
  0
LINE
  5
19B
100
AcDbEntity
  8
L-ZISSEN
  6
CONTINUOUS
 62
     7
100
AcDbLine
 10
68.0
 20
47.5
 30
0.0
 11
68.0
 21
97.5
 31
0.0
  0
LINE
  5
19C
100
AcDbEntity
  8
L-ZISSEN
  6
CONTINUOUS
 62
     7
100
AcDbLine
 10
182.0
 20
47.5
 30
0.0
 11
68.0
 21
47.5
 31
0.0
  0
LINE
  5
19D
100
AcDbEntity
  8
L-ZISSEN
  6
CONTINUOUS
 62
     7
100
AcDbLine
 10
182.0
 20
95.2
 30
0.0
 11
175.0
 21
95.2
 31
0.0
  0
LINE
  5
19E
100
AcDbEntity
  8
L-ZISSEN
  6
CONTINUOUS
 62
     7
100
AcDbLine
 10
89.814955
 20
97.5
 30
0.0
 11
89.814955
 21
105.5
 31
0.0
  0
LINE
  5
19F
100
AcDbEntity
  8
L-ZISSEN
  6
CONTINUOUS
 62
     7
100
AcDbLine
 10
70.185045
 20
97.5
 30
0.0
 11
70.185045
 21
105.5
 31
0.0
  0
LINE
  5
1A0
100
AcDbEntity
  8
L-ZISSEN
  6
CONTINUOUS
 62
     7
100
AcDbLine
 10
89.2
 20
105.5
 30
0.0
 11
89.2
 21
108.0
 31
0.0
  0
LINE
  5
1A1
100
AcDbEntity
  8
L-ZISSEN
  6
CONTINUOUS
 62
     7
100
AcDbLine
 10
89.814955
 20
105.5
 30
0.0
 11
70.185045
 21
105.5
 31
0.0
  0
LINE
  5
1A2
100
AcDbEntity
  8
L-ZISSEN
  6
CONTINUOUS
 62
     7
100
AcDbLine
 10
70.8
 20
105.5
 30
0.0
 11
70.8
 21
108.0
 31
0.0
  0
LINE
  5
1A3
100
AcDbEntity
  8
L-ZISSEN
  6
CONTINUOUS
 62
     7
100
AcDbLine
 10
182.0
 20
97.5
 30
0.0
 11
129.864
 21
97.5
 31
0.0
  0
LINE
  5
1A4
100
AcDbEntity
  8
L-ZISSEN
  6
CONTINUOUS
 62
     7
100
AcDbLine
 10
179.2
 20
105.5
 30
0.0
 11
179.2
 21
108.0
 31
0.0
  0
LINE
  5
1A5
100
AcDbEntity
  8
L-ZISSEN
  6
CONTINUOUS
 62
     7
100
AcDbLine
 10
160.185045
 20
105.5
 30
0.0
 11
179.814955
 21
105.5
 31
0.0
  0
LINE
  5
1A6
100
AcDbEntity
  8
L-ZISSEN
  6
CONTINUOUS
 62
     7
100
AcDbLine
 10
160.8
 20
105.5
 30
0.0
 11
160.8
 21
108.0
 31
0.0
  0
LINE
  5
1A7
100
AcDbEntity
  8
L-ZISSEN
  6
CONTINUOUS
 62
     7
100
AcDbLine
 10
179.814955
 20
97.5
 30
0.0
 11
179.814955
 21
105.5
 31
0.0
  0
LINE
  5
1A8
100
AcDbEntity
  8
L-ZISSEN
  6
CONTINUOUS
 62
     7
100
AcDbLine
 10
160.185045
 20
97.5
 30
0.0
 11
160.185045
 21
105.5
 31
0.0
  0
LINE
  5
1A9
100
AcDbEntity
  8
L-ZISSEN
  6
CONTINUOUS
 62
     7
100
AcDbLine
 10
119.0
 20
95.2
 30
0.0
 11
85.0
 21
95.2
 31
0.0
  0
LINE
  5
1AA
100
AcDbEntity
  8
L-ZISSEN
  6
CONTINUOUS
 62
     7
100
AcDbLine
 10
120.136
 20
97.5
 30
0.0
 11
68.0
 21
97.5
 31
0.0
  0
LINE
  5
1AB
100
AcDbEntity
  8
L-ZISSEN
  6
CONTINUOUS
 62
     7
100
AcDbLine
 10
255.092523
 20
297.5
 30
0.0
 11
255.092523
 21
284.5
 31
0.0
  0
LINE
  5
1AC
100
AcDbEntity
  8
L-ZISSEN
  6
CONTINUOUS
 62
     7
100
AcDbLine
 10
264.907477
 20
297.5
 30
0.0
 11
264.907477
 21
284.5
 31
0.0
  0
LINE
  5
1AD
100
AcDbEntity
  8
L-ZISSEN
  6
CONTINUOUS
 62
     7
100
AcDbLine
 10
255.092523
 20
297.5
 30
0.0
 11
264.907477
 21
297.5
 31
0.0
  0
LINE
  5
1AE
100
AcDbEntity
  8
L-TYUSIN
  6
CENTER
 62
     1
100
AcDbLine
 10
367.7
 20
319.5
 30
0.0
 11
376.0
 21
319.5
 31
0.0
  0
LINE
  5
1AF
100
AcDbEntity
  8
L-ZISSEN
  6
CONTINUOUS
 62
     7
100
AcDbLine
 10
373.0
 20
334.5
 30
0.0
 11
370.7
 21
334.5
 31
0.0
  0
LINE
  5
1B0
100
AcDbEntity
  8
L-ZISSEN
  6
CONTINUOUS
 62
     7
100
AcDbLine
 10
370.7
 20
286.8
 30
0.0
 11
335.0
 21
286.8
 31
0.0
  0
LINE
  5
1B1
100
AcDbEntity
  8
L-ZISSEN
  6
CONTINUOUS
 62
     7
100
AcDbLine
 10
269.2
 20
276.5
 30
0.0
 11
269.2
 21
274.0
 31
0.0
  0
LINE
  5
1B2
100
AcDbEntity
  8
L-ZISSEN
  6
CONTINUOUS
 62
     7
100
AcDbLine
 10
269.2
 20
276.5
 30
0.0
 11
250.8
 21
276.5
 31
0.0
  0
LINE
  5
1B3
100
AcDbEntity
  8
L-ZISSEN
  6
CONTINUOUS
 62
     7
100
AcDbLine
 10
250.8
 20
276.5
 30
0.0
 11
250.8
 21
274.0
 31
0.0
  0
LINE
  5
1B4
100
AcDbEntity
  8
L-ZISSEN
  6
CONTINUOUS
 62
     7
100
AcDbLine
 10
373.0
 20
284.5
 30
0.0
 11
335.0
 21
284.5
 31
0.0
  0
LINE
  5
1B5
100
AcDbEntity
  8
L-ZISSEN
  6
CONTINUOUS
 62
     7
100
AcDbLine
 10
359.2
 20
276.5
 30
0.0
 11
359.2
 21
274.0
 31
0.0
  0
LINE
  5
1B6
100
AcDbEntity
  8
L-ZISSEN
  6
CONTINUOUS
 62
     7
100
AcDbLine
 10
340.8
 20
276.5
 30
0.0
 11
340.8
 21
274.0
 31
0.0
  0
ARC
  5
1B7
100
AcDbEntity
  8
L-ZISSEN
  6
CONTINUOUS
 62
     7
100
AcDbCircle
 10
305.0
 20
231.0
 30
0.0
 40
130.0
100
AcDbArc
 50
254.015064
 51
285.984936
  0
LINE
  5
1B8
100
AcDbEntity
  8
L-ZISSEN
  6
CONTINUOUS
 62
     7
100
AcDbLine
 10
367.0
 20
108.0
 30
0.0
 11
243.0
 21
108.0
 31
0.0
  0
LINE
  5
1B9
100
AcDbEntity
  8
L-ZISSEN
  6
CONTINUOUS
 62
     7
100
AcDbLine
 10
248.0
 20
108.0
 30
0.0
 11
248.0
 21
128.0
 31
0.0
  0
LINE
  5
1BA
100
AcDbEntity
  8
L-ZISSEN
  6
CONTINUOUS
 62
     7
100
AcDbLine
 10
362.0
 20
128.0
 30
0.0
 11
362.0
 21
108.0
 31
0.0
  0
LINE
  5
1BB
100
AcDbEntity
  8
L-ZISSEN
  6
CONTINUOUS
 62
     7
100
AcDbLine
 10
367.0
 20
128.0
 30
0.0
 11
367.0
 21
108.0
 31
0.0
  0
LINE
  5
1BC
100
AcDbEntity
  8
L-ZISSEN
  6
CONTINUOUS
 62
     7
100
AcDbLine
 10
243.0
 20
128.0
 30
0.0
 11
243.0
 21
108.0
 31
0.0
  0
LINE
  5
1BD
100
AcDbEntity
  8
L-ZISSEN
  6
CONTINUOUS
 62
     7
100
AcDbLine
 10
362.15
 20
256.0
 30
0.0
 11
362.15
 21
128.0
 31
0.0
  0
LINE
  5
1BE
100
AcDbEntity
  8
L-ZISSEN
  6
CONTINUOUS
 62
     7
100
AcDbLine
 10
367.0
 20
128.0
 30
0.0
 11
296.0
 21
128.0
 31
0.0
  0
LINE
  5
1BF
100
AcDbEntity
  8
L-ZISSEN
  6
CONTINUOUS
 62
     7
100
AcDbLine
 10
367.0
 20
274.0
 30
0.0
 11
367.0
 21
256.0
 31
0.0
  0
LINE
  5
1C0
100
AcDbEntity
  8
L-ZISSEN
  6
CONTINUOUS
 62
     7
100
AcDbLine
 10
243.0
 20
274.0
 30
0.0
 11
243.0
 21
256.0
 31
0.0
  0
LINE
  5
1C1
100
AcDbEntity
  8
L-ZISSEN
  6
CONTINUOUS
 62
     7
100
AcDbLine
 10
243.0
 20
274.0
 30
0.0
 11
367.0
 21
274.0
 31
0.0
  0
LINE
  5
1C2
100
AcDbEntity
  8
L-ZISSEN
  6
CONTINUOUS
 62
     7
100
AcDbLine
 10
248.0
 20
256.0
 30
0.0
 11
248.0
 21
274.0
 31
0.0
  0
LINE
  5
1C3
100
AcDbEntity
  8
L-ZISSEN
  6
CONTINUOUS
 62
     7
100
AcDbLine
 10
362.0
 20
274.0
 30
0.0
 11
362.0
 21
256.0
 31
0.0
  0
LINE
  5
1C4
100
AcDbEntity
  8
L-ZISSEN
  6
CONTINUOUS
 62
     7
100
AcDbLine
 10
367.0
 20
256.0
 30
0.0
 11
296.0
 21
256.0
 31
0.0
  0
LINE
  5
1C5
100
AcDbEntity
  8
L-TYUSIN
  6
CENTER
 62
     1
100
AcDbLine
 10
305.0
 20
357.5
 30
0.0
 11
305.0
 21
54.0
 31
0.0
  0
LINE
  5
1C6
100
AcDbEntity
  8
L-ZISSEN
  6
CONTINUOUS
 62
     7
100
AcDbLine
 10
373.0
 20
284.5
 30
0.0
 11
373.0
 21
334.5
 31
0.0
  0
LINE
  5
1C7
100
AcDbEntity
  8
L-ZISSEN
  6
CONTINUOUS
 62
     7
100
AcDbLine
 10
370.7
 20
286.8
 30
0.0
 11
370.7
 21
334.5
 31
0.0
  0
LINE
  5
1C8
100
AcDbEntity
  8
L-ZISSEN
  6
CONTINUOUS
 62
     7
100
AcDbLine
 10
335.0
 20
286.8
 30
0.0
 11
335.0
 21
284.5
 31
0.0
  0
LINE
  5
1C9
100
AcDbEntity
  8
L-ZISSEN
  6
CONTINUOUS
 62
     7
100
AcDbLine
 10
268.5
 20
284.5
 30
0.0
 11
251.5
 21
284.5
 31
0.0
  0
LINE
  5
1CA
100
AcDbEntity
  8
L-ZISSEN
  6
CONTINUOUS
 62
     7
100
AcDbLine
 10
370.7
 20
95.2
 30
0.0
 11
370.7
 21
47.5
 31
0.0
  0
LINE
  5
1CB
100
AcDbEntity
  8
L-ZISSEN
  6
CONTINUOUS
 62
     7
100
AcDbLine
 10
373.0
 20
97.5
 30
0.0
 11
373.0
 21
47.5
 31
0.0
  0
LINE
  5
1CC
100
AcDbEntity
  8
L-ZISSEN
  6
CONTINUOUS
 62
     7
100
AcDbLine
 10
373.0
 20
97.5
 30
0.0
 11
335.0
 21
97.5
 31
0.0
  0
LINE
  5
1CD
100
AcDbEntity
  8
L-ZISSEN
  6
CONTINUOUS
 62
     7
100
AcDbLine
 10
370.7
 20
95.2
 30
0.0
 11
335.0
 21
95.2
 31
0.0
  0
LINE
  5
1CE
100
AcDbEntity
  8
L-ZISSEN
  6
CONTINUOUS
 62
     7
100
AcDbLine
 10
373.0
 20
47.5
 30
0.0
 11
370.7
 21
47.5
 31
0.0
  0
LINE
  5
1CF
100
AcDbEntity
  8
L-TYUSIN
  6
CENTER
 62
     1
100
AcDbLine
 10
367.7
 20
62.5
 30
0.0
 11
376.0
 21
62.5
 31
0.0
  0
LINE
  5
1D0
100
AcDbEntity
  8
L-ZISSEN
  6
CONTINUOUS
 62
     7
100
AcDbLine
 10
175.0
 20
128.0
 30
0.0
 11
175.0
 21
256.0
 31
0.0
  0
LINE
  5
1D1
100
AcDbEntity
  8
L-ZISSEN
  6
CONTINUOUS
 62
     7
100
AcDbLine
 10
165.0
 20
128.0
 30
0.0
 11
165.0
 21
256.0
 31
0.0
  0
LINE
  5
1D2
100
AcDbEntity
  8
L-ZISSEN
  6
CONTINUOUS
 62
     7
100
AcDbLine
 10
85.0
 20
128.0
 30
0.0
 11
85.0
 21
256.0
 31
0.0
  0
LINE
  5
1D3
100
AcDbEntity
  8
L-ZISSEN
  6
CONTINUOUS
 62
     7
100
AcDbLine
 10
75.0
 20
128.0
 30
0.0
 11
75.0
 21
256.0
 31
0.0
  0
LINE
  5
1D4
100
AcDbEntity
  8
L-ZISSEN
  6
CONTINUOUS
 62
     7
100
AcDbLine
 10
255.0
 20
128.0
 30
0.0
 11
255.0
 21
256.0
 31
0.0
  0
LINE
  5
1D5
100
AcDbEntity
  8
L-ZISSEN
  6
CONTINUOUS
 62
     7
100
AcDbLine
 10
265.0
 20
128.0
 30
0.0
 11
265.0
 21
256.0
 31
0.0
  0
LINE
  5
1D6
100
AcDbEntity
  8
L-ZISSEN
  6
CONTINUOUS
 62
     7
100
AcDbLine
 10
345.0
 20
128.0
 30
0.0
 11
345.0
 21
256.0
 31
0.0
  0
LINE
  5
1D7
100
AcDbEntity
  8
L-ZISSEN
  6
CONTINUOUS
 62
     7
100
AcDbLine
 10
355.0
 20
128.0
 30
0.0
 11
355.0
 21
256.0
 31
0.0
  0
LINE
  5
1D8
100
AcDbEntity
  8
L-ZISSEN
  6
CONTINUOUS
 62
     7
100
AcDbLine
 10
286.0
 20
139.0
 30
0.0
 11
286.0
 21
245.0
 31
0.0
  0
LINE
  5
1D9
100
AcDbEntity
  8
L-ZISSEN
  6
CONTINUOUS
 62
     7
100
AcDbLine
 10
294.0
 20
139.0
 30
0.0
 11
294.0
 21
245.0
 31
0.0
  0
LINE
  5
1DA
100
AcDbEntity
  8
L-ZISSEN
  6
CONTINUOUS
 62
     7
100
AcDbLine
 10
175.0
 20
294.8
 30
0.0
 11
179.814955
 21
294.8
 31
0.0
  0
LINE
  5
1DB
100
AcDbEntity
  8
L-ZISSEN
  6
CONTINUOUS
 62
     7
100
AcDbLine
 10
165.0
 20
286.3
 30
0.0
 11
164.25
 21
286.3
 31
0.0
  0
LINE
  5
1DC
100
AcDbEntity
  8
L-ZISSEN
  6
CONTINUOUS
 62
     7
100
AcDbLine
 10
75.0
 20
294.8
 30
0.0
 11
70.185045
 21
294.8
 31
0.0
  0
LINE
  5
1DD
100
AcDbEntity
  8
L-ZISSEN
  6
CONTINUOUS
 62
     7
100
AcDbLine
 10
75.0
 20
286.8
 30
0.0
 11
68.0
 21
286.8
 31
0.0
  0
LINE
  5
1DE
100
AcDbEntity
  8
L-ZISSEN
  6
CONTINUOUS
 62
     7
100
AcDbLine
 10
75.0
 20
95.2
 30
0.0
 11
68.0
 21
95.2
 31
0.0
  0
LINE
  5
1DF
100
AcDbEntity
  8
L-ZISSEN
  6
CONTINUOUS
 62
     7
100
AcDbLine
 10
165.0
 20
95.2
 30
0.0
 11
131.0
 21
95.2
 31
0.0
  0
LINE
  5
1E0
100
AcDbEntity
  8
L-ZISSEN
  6
CONTINUOUS
 62
     7
100
AcDbLine
 10
175.0
 20
87.2
 30
0.0
 11
179.814955
 21
87.2
 31
0.0
  0
LINE
  5
1E1
100
AcDbEntity
  8
L-ZISSEN
  6
CONTINUOUS
 62
     7
100
AcDbLine
 10
75.0
 20
87.2
 30
0.0
 11
70.185045
 21
87.2
 31
0.0
  0
LINE
  5
1E2
100
AcDbEntity
  8
L-ZISSEN
  6
CONTINUOUS
 62
     7
100
AcDbLine
 10
84.907477
 20
491.5
 30
0.0
 11
89.814955
 21
500.0
 31
0.0
  0
LINE
  5
1E3
100
AcDbEntity
  8
L-ZISSEN
  6
CONTINUOUS
 62
     7
100
AcDbLine
 10
89.814955
 20
500.0
 30
0.0
 11
84.907477
 21
508.5
 31
0.0
  0
LINE
  5
1E4
100
AcDbEntity
  8
L-ZISSEN
  6
CONTINUOUS
 62
     7
100
AcDbLine
 10
84.907477
 20
508.5
 30
0.0
 11
75.092523
 21
508.5
 31
0.0
  0
LINE
  5
1E5
100
AcDbEntity
  8
L-ZISSEN
  6
CONTINUOUS
 62
     7
100
AcDbLine
 10
75.092523
 20
508.5
 30
0.0
 11
70.185045
 21
500.0
 31
0.0
  0
LINE
  5
1E6
100
AcDbEntity
  8
L-ZISSEN
  6
CONTINUOUS
 62
     7
100
AcDbLine
 10
70.185045
 20
500.0
 30
0.0
 11
75.092523
 21
491.5
 31
0.0
  0
LINE
  5
1E7
100
AcDbEntity
  8
L-ZISSEN
  6
CONTINUOUS
 62
     7
100
AcDbLine
 10
75.092523
 20
491.5
 30
0.0
 11
84.907477
 21
491.5
 31
0.0
  0
LINE
  5
1E8
100
AcDbEntity
  8
L-ZISSEN
  6
CONTINUOUS
 62
     7
100
AcDbLine
 10
165.092523
 20
491.5
 30
0.0
 11
160.185045
 21
500.0
 31
0.0
  0
LINE
  5
1E9
100
AcDbEntity
  8
L-ZISSEN
  6
CONTINUOUS
 62
     7
100
AcDbLine
 10
160.185045
 20
500.0
 30
0.0
 11
165.092523
 21
508.5
 31
0.0
  0
LINE
  5
1EA
100
AcDbEntity
  8
L-ZISSEN
  6
CONTINUOUS
 62
     7
100
AcDbLine
 10
165.092523
 20
508.5
 30
0.0
 11
174.907477
 21
508.5
 31
0.0
  0
LINE
  5
1EB
100
AcDbEntity
  8
L-ZISSEN
  6
CONTINUOUS
 62
     7
100
AcDbLine
 10
174.907477
 20
508.5
 30
0.0
 11
179.814955
 21
500.0
 31
0.0
  0
LINE
  5
1EC
100
AcDbEntity
  8
L-ZISSEN
  6
CONTINUOUS
 62
     7
100
AcDbLine
 10
179.814955
 20
500.0
 30
0.0
 11
174.907477
 21
491.5
 31
0.0
  0
LINE
  5
1ED
100
AcDbEntity
  8
L-ZISSEN
  6
CONTINUOUS
 62
     7
100
AcDbLine
 10
174.907477
 20
491.5
 30
0.0
 11
165.092523
 21
491.5
 31
0.0
  0
LINE
  5
1EE
100
AcDbEntity
  8
L-ZISSEN
  6
CONTINUOUS
 62
     7
100
AcDbLine
 10
165.092523
 20
418.5
 30
0.0
 11
160.185045
 21
410.0
 31
0.0
  0
LINE
  5
1EF
100
AcDbEntity
  8
L-ZISSEN
  6
CONTINUOUS
 62
     7
100
AcDbLine
 10
160.185045
 20
410.0
 30
0.0
 11
165.092523
 21
401.5
 31
0.0
  0
LINE
  5
1F0
100
AcDbEntity
  8
L-ZISSEN
  6
CONTINUOUS
 62
     7
100
AcDbLine
 10
165.092523
 20
401.5
 30
0.0
 11
174.907477
 21
401.5
 31
0.0
  0
LINE
  5
1F1
100
AcDbEntity
  8
L-ZISSEN
  6
CONTINUOUS
 62
     7
100
AcDbLine
 10
174.907477
 20
401.5
 30
0.0
 11
179.814955
 21
410.0
 31
0.0
  0
LINE
  5
1F2
100
AcDbEntity
  8
L-ZISSEN
  6
CONTINUOUS
 62
     7
100
AcDbLine
 10
179.814955
 20
410.0
 30
0.0
 11
174.907477
 21
418.5
 31
0.0
  0
LINE
  5
1F3
100
AcDbEntity
  8
L-ZISSEN
  6
CONTINUOUS
 62
     7
100
AcDbLine
 10
174.907477
 20
418.5
 30
0.0
 11
165.092523
 21
418.5
 31
0.0
  0
LINE
  5
1F4
100
AcDbEntity
  8
L-ZISSEN
  6
CONTINUOUS
 62
     7
100
AcDbLine
 10
84.907477
 20
418.5
 30
0.0
 11
89.814955
 21
410.0
 31
0.0
  0
LINE
  5
1F5
100
AcDbEntity
  8
L-ZISSEN
  6
CONTINUOUS
 62
     7
100
AcDbLine
 10
89.814955
 20
410.0
 30
0.0
 11
84.907477
 21
401.5
 31
0.0
  0
LINE
  5
1F6
100
AcDbEntity
  8
L-ZISSEN
  6
CONTINUOUS
 62
     7
100
AcDbLine
 10
84.907477
 20
401.5
 30
0.0
 11
75.092523
 21
401.5
 31
0.0
  0
LINE
  5
1F7
100
AcDbEntity
  8
L-ZISSEN
  6
CONTINUOUS
 62
     7
100
AcDbLine
 10
75.092523
 20
401.5
 30
0.0
 11
70.185045
 21
410.0
 31
0.0
  0
LINE
  5
1F8
100
AcDbEntity
  8
L-ZISSEN
  6
CONTINUOUS
 62
     7
100
AcDbLine
 10
70.185045
 20
410.0
 30
0.0
 11
75.092523
 21
418.5
 31
0.0
  0
LINE
  5
1F9
100
AcDbEntity
  8
L-ZISSEN
  6
CONTINUOUS
 62
     7
100
AcDbLine
 10
75.092523
 20
418.5
 30
0.0
 11
84.907477
 21
418.5
 31
0.0
  0
LINE
  5
1FA
100
AcDbEntity
  8
L-ZISSEN
  6
CONTINUOUS
 62
     7
100
AcDbLine
 10
175.0
 20
297.5
 30
0.0
 11
165.0
 21
297.5
 31
0.0
  0
LINE
  5
1FB
100
AcDbEntity
  8
L-ZISSEN
  6
CONTINUOUS
 62
     7
100
AcDbLine
 10
165.0
 20
297.5
 30
0.0
 11
165.0
 21
284.5
 31
0.0
  0
LINE
  5
1FC
100
AcDbEntity
  8
L-ZISSEN
  6
CONTINUOUS
 62
     7
100
AcDbLine
 10
175.0
 20
297.5
 30
0.0
 11
175.0
 21
284.5
 31
0.0
  0
LINE
  5
1FD
100
AcDbEntity
  8
L-ZISSEN
  6
CONTINUOUS
 62
     7
100
AcDbLine
 10
165.0
 20
84.5
 30
0.0
 11
165.0
 21
97.5
 31
0.0
  0
LINE
  5
1FE
100
AcDbEntity
  8
L-ZISSEN
  6
CONTINUOUS
 62
     7
100
AcDbLine
 10
175.0
 20
84.5
 30
0.0
 11
175.0
 21
97.5
 31
0.0
  0
LINE
  5
1FF
100
AcDbEntity
  8
L-ZISSEN
  6
CONTINUOUS
 62
     7
100
AcDbLine
 10
175.0
 20
84.5
 30
0.0
 11
165.0
 21
84.5
 31
0.0
  0
LINE
  5
200
100
AcDbEntity
  8
L-TYUSIN
  6
CENTER
 62
     1
100
AcDbLine
 10
97.5
 20
528.0
 30
0.0
 11
97.5
 21
515.7
 31
0.0
  0
LINE
  5
201
100
AcDbEntity
  8
L-TYUSIN
  6
CENTER
 62
     1
100
AcDbLine
 10
152.5
 20
528.0
 30
0.0
 11
152.5
 21
515.7
 31
0.0
  0
LINE
  5
202
100
AcDbEntity
  8
L-ZISSEN
  6
CONTINUOUS
 62
     7
100
AcDbLine
 10
251.5
 20
284.5
 30
0.0
 11
251.5
 21
276.5
 31
0.0
  0
LINE
  5
203
100
AcDbEntity
  8
L-ZISSEN
  6
CONTINUOUS
 62
     7
100
AcDbLine
 10
268.5
 20
284.5
 30
0.0
 11
268.5
 21
276.5
 31
0.0
  0
LINE
  5
204
100
AcDbEntity
  8
L-ZISSEN
  6
CONTINUOUS
 62
     7
100
AcDbLine
 10
358.5
 20
284.5
 30
0.0
 11
358.5
 21
276.5
 31
0.0
  0
LINE
  5
205
100
AcDbEntity
  8
L-ZISSEN
  6
CONTINUOUS
 62
     7
100
AcDbLine
 10
341.5
 20
284.5
 30
0.0
 11
341.5
 21
276.5
 31
0.0
  0
LINE
  5
206
100
AcDbEntity
  8
L-ZISSEN
  6
CONTINUOUS
 62
     7
100
AcDbLine
 10
359.2
 20
276.5
 30
0.0
 11
340.8
 21
276.5
 31
0.0
  0
LINE
  5
207
100
AcDbEntity
  8
L-ZISSEN
  6
CONTINUOUS
 62
     7
100
AcDbLine
 10
345.092523
 20
297.5
 30
0.0
 11
354.907477
 21
297.5
 31
0.0
  0
LINE
  5
208
100
AcDbEntity
  8
L-ZISSEN
  6
CONTINUOUS
 62
     7
100
AcDbLine
 10
354.907477
 20
297.5
 30
0.0
 11
354.907477
 21
294.8
 31
0.0
  0
LINE
  5
209
100
AcDbEntity
  8
L-ZISSEN
  6
CONTINUOUS
 62
     7
100
AcDbLine
 10
345.092523
 20
297.5
 30
0.0
 11
345.092523
 21
294.8
 31
0.0
  0
LINE
  5
20A
100
AcDbEntity
  8
L-ZISSEN
  6
CONTINUOUS
 62
     7
100
AcDbLine
 10
341.5
 20
294.8
 30
0.0
 11
341.5
 21
286.8
 31
0.0
  0
LINE
  5
20B
100
AcDbEntity
  8
L-ZISSEN
  6
CONTINUOUS
 62
     7
100
AcDbLine
 10
358.5
 20
294.8
 30
0.0
 11
341.5
 21
294.8
 31
0.0
  0
LINE
  5
20C
100
AcDbEntity
  8
L-ZISSEN
  6
CONTINUOUS
 62
     7
100
AcDbLine
 10
358.5
 20
294.8
 30
0.0
 11
358.5
 21
286.8
 31
0.0
  0
LINE
  5
20D
100
AcDbEntity
  8
L-ZISSEN
  6
CONTINUOUS
 62
     7
100
AcDbLine
 10
268.5
 20
97.5
 30
0.0
 11
268.5
 21
105.5
 31
0.0
  0
LINE
  5
20E
100
AcDbEntity
  8
L-ZISSEN
  6
CONTINUOUS
 62
     7
100
AcDbLine
 10
251.5
 20
97.5
 30
0.0
 11
251.5
 21
105.5
 31
0.0
  0
LINE
  5
20F
100
AcDbEntity
  8
L-ZISSEN
  6
CONTINUOUS
 62
     7
100
AcDbLine
 10
268.5
 20
97.5
 30
0.0
 11
251.5
 21
97.5
 31
0.0
  0
LINE
  5
210
100
AcDbEntity
  8
L-ZISSEN
  6
CONTINUOUS
 62
     7
100
AcDbLine
 10
250.8
 20
105.5
 30
0.0
 11
250.8
 21
108.0
 31
0.0
  0
LINE
  5
211
100
AcDbEntity
  8
L-ZISSEN
  6
CONTINUOUS
 62
     7
100
AcDbLine
 10
269.2
 20
105.5
 30
0.0
 11
250.8
 21
105.5
 31
0.0
  0
LINE
  5
212
100
AcDbEntity
  8
L-ZISSEN
  6
CONTINUOUS
 62
     7
100
AcDbLine
 10
269.2
 20
105.5
 30
0.0
 11
269.2
 21
108.0
 31
0.0
  0
LINE
  5
213
100
AcDbEntity
  8
L-ZISSEN
  6
CONTINUOUS
 62
     7
100
AcDbLine
 10
255.092523
 20
84.5
 30
0.0
 11
264.907477
 21
84.5
 31
0.0
  0
LINE
  5
214
100
AcDbEntity
  8
L-ZISSEN
  6
CONTINUOUS
 62
     7
100
AcDbLine
 10
264.907477
 20
84.5
 30
0.0
 11
264.907477
 21
97.5
 31
0.0
  0
LINE
  5
215
100
AcDbEntity
  8
L-ZISSEN
  6
CONTINUOUS
 62
     7
100
AcDbLine
 10
255.092523
 20
84.5
 30
0.0
 11
255.092523
 21
97.5
 31
0.0
  0
LINE
  5
216
100
AcDbEntity
  8
L-ZISSEN
  6
CONTINUOUS
 62
     7
100
AcDbLine
 10
358.5
 20
87.2
 30
0.0
 11
358.5
 21
95.2
 31
0.0
  0
LINE
  5
217
100
AcDbEntity
  8
L-ZISSEN
  6
CONTINUOUS
 62
     7
100
AcDbLine
 10
358.5
 20
87.2
 30
0.0
 11
341.5
 21
87.2
 31
0.0
  0
LINE
  5
218
100
AcDbEntity
  8
L-ZISSEN
  6
CONTINUOUS
 62
     7
100
AcDbLine
 10
341.5
 20
87.2
 30
0.0
 11
341.5
 21
95.2
 31
0.0
  0
LINE
  5
219
100
AcDbEntity
  8
L-ZISSEN
  6
CONTINUOUS
 62
     7
100
AcDbLine
 10
345.092523
 20
84.5
 30
0.0
 11
345.092523
 21
87.2
 31
0.0
  0
LINE
  5
21A
100
AcDbEntity
  8
L-ZISSEN
  6
CONTINUOUS
 62
     7
100
AcDbLine
 10
354.907477
 20
84.5
 30
0.0
 11
354.907477
 21
87.2
 31
0.0
  0
LINE
  5
21B
100
AcDbEntity
  8
L-ZISSEN
  6
CONTINUOUS
 62
     7
100
AcDbLine
 10
345.092523
 20
84.5
 30
0.0
 11
354.907477
 21
84.5
 31
0.0
  0
LINE
  5
21C
100
AcDbEntity
  8
L-ZISSEN
  6
CONTINUOUS
 62
     7
100
AcDbLine
 10
359.2
 20
105.5
 30
0.0
 11
340.8
 21
105.5
 31
0.0
  0
LINE
  5
21D
100
AcDbEntity
  8
L-ZISSEN
  6
CONTINUOUS
 62
     7
100
AcDbLine
 10
341.5
 20
97.5
 30
0.0
 11
341.5
 21
105.5
 31
0.0
  0
LINE
  5
21E
100
AcDbEntity
  8
L-ZISSEN
  6
CONTINUOUS
 62
     7
100
AcDbLine
 10
358.5
 20
97.5
 30
0.0
 11
358.5
 21
105.5
 31
0.0
  0
LINE
  5
21F
100
AcDbEntity
  8
L-ZISSEN
  6
CONTINUOUS
 62
     7
100
AcDbLine
 10
340.8
 20
105.5
 30
0.0
 11
340.8
 21
108.0
 31
0.0
  0
LINE
  5
220
100
AcDbEntity
  8
L-ZISSEN
  6
CONTINUOUS
 62
     7
100
AcDbLine
 10
359.2
 20
105.5
 30
0.0
 11
359.2
 21
108.0
 31
0.0
  0
LINE
  5
221
100
AcDbEntity
  8
L-ZISSEN
  6
CONTINUOUS
 62
     7
100
AcDbLine
 10
335.0
 20
97.5
 30
0.0
 11
335.0
 21
95.2
 31
0.0
  0
LINE
  5
222
100
AcDbEntity
  8
L-ZISSEN
  6
CONTINUOUS
 62
     7
100
AcDbLine
 10
112.25
 20
334.5
 30
0.0
 11
68.0
 21
334.5
 31
0.0
  0
ARC
  5
223
100
AcDbEntity
  8
L-ZISSEN
  6
CONTINUOUS
 62
     7
100
AcDbCircle
 10
145.0
 20
319.5
 30
0.0
 40
3.4
100
AcDbArc
 50
222.667925
 51
270.0
  0
ARC
  5
224
100
AcDbEntity
  8
L-ZISSEN
  6
CONTINUOUS
 62
     7
100
AcDbCircle
 10
105.0
 20
319.5
 30
0.0
 40
3.4
100
AcDbArc
 50
42.667925
 51
90.0
  0
LINE
  5
225
100
AcDbEntity
  8
L-ZISSEN
  6
CONTINUOUS
 62
     7
100
AcDbLine
 10
85.75
 20
286.3
 30
0.0
 11
85.0
 21
286.3
 31
0.0
  0
LINE
  5
226
100
AcDbEntity
  8
L-ZISSEN
  6
CONTINUOUS
 62
     7
100
AcDbLine
 10
89.814955
 20
284.5
 30
0.0
 11
68.0
 21
284.5
 31
0.0
  0
LINE
  5
227
100
AcDbEntity
  8
L-TYUSIN
  6
CENTER
 62
     1
100
AcDbLine
 10
415.0
 20
610.0
 30
0.0
 11
415.0
 21
20.0
 31
0.0
  0
LINE
  5
228
100
AcDbEntity
  8
L-ZISSEN
  6
CONTINUOUS
 62
     7
100
AcDbLine
 10
536.0
 20
434.5
 30
0.0
 11
523.8
 21
434.5
 31
0.0
  0
LINE
  5
229
100
AcDbEntity
  8
L-ZISSEN
  6
CONTINUOUS
 62
     7
100
AcDbLine
 10
536.0
 20
455.5
 30
0.0
 11
523.8
 21
455.5
 31
0.0
  0
LINE
  5
22A
100
AcDbEntity
  8
L-ZISSEN
  6
CONTINUOUS
 62
     7
100
AcDbLine
 10
541.0
 20
431.0
 30
0.0
 11
536.0
 21
431.0
 31
0.0
  0
LINE
  5
22B
100
AcDbEntity
  8
L-ZISSEN
  6
CONTINUOUS
 62
     7
100
AcDbLine
 10
541.0
 20
459.0
 30
0.0
 11
536.0
 21
459.0
 31
0.0
  0
LINE
  5
22C
100
AcDbEntity
  8
L-ZISSEN
  6
CONTINUOUS
 62
     7
100
AcDbLine
 10
536.0
 20
431.0
 30
0.0
 11
536.0
 21
459.0
 31
0.0
  0
LINE
  5
22D
100
AcDbEntity
  8
L-ZISSEN
  6
CONTINUOUS
 62
     7
100
AcDbLine
 10
541.0
 20
431.0
 30
0.0
 11
541.0
 21
459.0
 31
0.0
  0
LINE
  5
22E
100
AcDbEntity
  8
L-ZISSEN
  6
CONTINUOUS
 62
     7
100
AcDbLine
 10
523.8
 20
457.5
 30
0.0
 11
523.8
 21
432.5
 31
0.0
  0
LINE
  5
22F
100
AcDbEntity
  8
L-ZISSEN
  6
CONTINUOUS
 62
     7
100
AcDbLine
 10
507.55
 20
457.5
 30
0.0
 11
523.8
 21
457.5
 31
0.0
  0
LINE
  5
230
100
AcDbEntity
  8
L-ZISSEN
  6
CONTINUOUS
 62
     7
100
AcDbLine
 10
523.8
 20
432.5
 30
0.0
 11
507.55
 21
432.5
 31
0.0
  0
LINE
  5
231
100
AcDbEntity
  8
L-ZISSEN
  6
CONTINUOUS
 62
     7
100
AcDbLine
 10
442.45
 20
471.05
 30
0.0
 11
442.45
 21
423.188921
 31
0.0
  0
LINE
  5
232
100
AcDbEntity
  8
L-ZISSEN
  6
CONTINUOUS
 62
     7
100
AcDbLine
 10
633.2
 20
469.0
 30
0.0
 11
630.0
 21
469.0
 31
0.0
  0
LINE
  5
233
100
AcDbEntity
  8
L-ZISSEN
  6
CONTINUOUS
 62
     7
100
AcDbLine
 10
630.0
 20
407.0
 30
0.0
 11
630.0
 21
469.3
 31
0.0
  0
LINE
  5
234
100
AcDbEntity
  8
L-ZISSEN
  6
CONTINUOUS
 62
     7
100
AcDbLine
 10
592.4
 20
418.95
 30
0.0
 11
592.4
 21
471.05
 31
0.0
  0
LINE
  5
235
100
AcDbEntity
  8
L-ZISSEN
  6
CONTINUOUS
 62
     7
100
AcDbLine
 10
597.2
 20
471.05
 30
0.0
 11
597.2
 21
450.670979
 31
0.0
  0
LINE
  5
236
100
AcDbEntity
  8
L-ZISSEN
  6
CONTINUOUS
 62
     7
100
AcDbLine
 10
597.2
 20
420.7
 30
0.0
 11
630.0
 21
420.7
 31
0.0
  0
LINE
  5
237
100
AcDbEntity
  8
L-ZISSEN
  6
CONTINUOUS
 62
     7
100
AcDbLine
 10
630.0
 20
469.3
 30
0.0
 11
597.2
 21
469.3
 31
0.0
  0
CIRCLE
  5
238
100
AcDbEntity
  8
L-ZISSEN
  6
CONTINUOUS
 62
     7
100
AcDbCircle
 10
610.0
 20
445.0
 30
0.0
 40
7.5
  0
CIRCLE
  5
239
100
AcDbEntity
  8
L-ZISSEN
  6
CONTINUOUS
 62
     7
100
AcDbCircle
 10
610.0
 20
445.0
 30
0.0
 40
14.0
  0
LINE
  5
23A
100
AcDbEntity
  8
L-ZISSEN
  6
CONTINUOUS
 62
     7
100
AcDbLine
 10
536.0
 20
526.3
 30
0.0
 11
523.8
 21
526.3
 31
0.0
  0
LINE
  5
23B
100
AcDbEntity
  8
L-ZISSEN
  6
CONTINUOUS
 62
     7
100
AcDbLine
 10
536.0
 20
547.3
 30
0.0
 11
523.8
 21
547.3
 31
0.0
  0
LINE
  5
23C
100
AcDbEntity
  8
L-ZISSEN
  6
CONTINUOUS
 62
     7
100
AcDbLine
 10
541.0
 20
522.8
 30
0.0
 11
541.0
 21
550.8
 31
0.0
  0
LINE
  5
23D
100
AcDbEntity
  8
L-ZISSEN
  6
CONTINUOUS
 62
     7
100
AcDbLine
 10
536.0
 20
522.8
 30
0.0
 11
536.0
 21
550.8
 31
0.0
  0
LINE
  5
23E
100
AcDbEntity
  8
L-ZISSEN
  6
CONTINUOUS
 62
     7
100
AcDbLine
 10
541.0
 20
550.8
 30
0.0
 11
536.0
 21
550.8
 31
0.0
  0
LINE
  5
23F
100
AcDbEntity
  8
L-ZISSEN
  6
CONTINUOUS
 62
     7
100
AcDbLine
 10
541.0
 20
522.8
 30
0.0
 11
536.0
 21
522.8
 31
0.0
  0
LINE
  5
240
100
AcDbEntity
  8
L-ZISSEN
  6
CONTINUOUS
 62
     7
100
AcDbLine
 10
523.8
 20
524.3
 30
0.0
 11
505.8
 21
524.3
 31
0.0
  0
LINE
  5
241
100
AcDbEntity
  8
L-ZISSEN
  6
CONTINUOUS
 62
     7
100
AcDbLine
 10
505.8
 20
549.3
 30
0.0
 11
523.8
 21
549.3
 31
0.0
  0
LINE
  5
242
100
AcDbEntity
  8
L-ZISSEN
  6
CONTINUOUS
 62
     7
100
AcDbLine
 10
523.8
 20
549.3
 30
0.0
 11
523.8
 21
524.3
 31
0.0
  0
LINE
  5
243
100
AcDbEntity
  8
L-ZISSEN
  6
CONTINUOUS
 62
     7
100
AcDbLine
 10
507.55
 20
524.0
 30
0.0
 11
507.55
 21
519.2
 31
0.0
  0
LINE
  5
244
100
AcDbEntity
  8
L-ZISSEN
  6
CONTINUOUS
 62
     7
100
AcDbLine
 10
442.45
 20
524.0
 30
0.0
 11
442.45
 21
519.2
 31
0.0
  0
LINE
  5
245
100
AcDbEntity
  8
L-ZISSEN
  6
CONTINUOUS
 62
     7
100
AcDbLine
 10
442.45
 20
524.0
 30
0.0
 11
507.55
 21
524.0
 31
0.0
  0
LINE
  5
246
100
AcDbEntity
  8
L-ZISSEN
  6
CONTINUOUS
 62
     7
100
AcDbLine
 10
507.55
 20
519.2
 30
0.0
 11
442.45
 21
519.2
 31
0.0
  0
LINE
  5
247
100
AcDbEntity
  8
L-ZISSEN
  6
CONTINUOUS
 62
     7
100
AcDbLine
 10
444.2
 20
524.0
 30
0.0
 11
444.2
 21
556.8
 31
0.0
  0
LINE
  5
248
100
AcDbEntity
  8
L-ZISSEN
  6
CONTINUOUS
 62
     7
100
AcDbLine
 10
505.8
 20
556.8
 30
0.0
 11
505.8
 21
524.0
 31
0.0
  0
LINE
  5
249
100
AcDbEntity
  8
L-ZISSEN
  6
CONTINUOUS
 62
     7
100
AcDbLine
 10
442.45
 20
471.05
 30
0.0
 11
507.55
 21
471.05
 31
0.0
  0
LINE
  5
24A
100
AcDbEntity
  8
L-ZISSEN
  6
CONTINUOUS
 62
     7
100
AcDbLine
 10
459.847696
 20
418.95
 30
0.0
 11
507.55
 21
418.95
 31
0.0
  0
LINE
  5
24B
100
AcDbEntity
  8
L-ZISSEN
  6
CONTINUOUS
 62
     7
100
AcDbLine
 10
592.4
 20
418.95
 30
0.0
 11
597.2
 21
418.95
 31
0.0
  0
LINE
  5
24C
100
AcDbEntity
  8
L-ZISSEN
  6
CONTINUOUS
 62
     7
100
AcDbLine
 10
592.4
 20
471.05
 30
0.0
 11
597.2
 21
471.05
 31
0.0
  0
LINE
  5
24D
100
AcDbEntity
  8
L-ZISSEN
  6
CONTINUOUS
 62
     7
100
AcDbLine
 10
597.2
 20
439.329021
 30
0.0
 11
597.2
 21
418.95
 31
0.0
  0
LINE
  5
24E
100
AcDbEntity
  8
L-ZISSEN
  6
CONTINUOUS
 62
     7
100
AcDbLine
 10
633.2
 20
407.0
 30
0.0
 11
633.2
 21
469.0
 31
0.0
  0
TEXT
  5
24F
100
AcDbEntity
  8
L-ZISSEN
  6
CONTINUOUS
 62
     7
100
AcDbText
 10
435.0
 20
600.0
 30
0.0
 40
4.5
  1
JUNCTION BOX
100
AcDbText
  0
TEXT
  5
250
100
AcDbEntity
  8
L-ZISSEN
  6
CONTINUOUS
 62
     7
100
AcDbText
 10
435.0
 20
590.0
 30
0.0
 40
4.5
  1
MODEL NO. :
100
AcDbText
  0
TEXT
  5
251
100
AcDbEntity
  8
L-ZISSEN
  6
CONTINUOUS
 62
     7
100
AcDbText
 10
675.0
 20
590.0
 30
0.0
 40
4.5
  1
MODEL NO. :
100
AcDbText
  0
TEXT
  5
252
100
AcDbEntity
  8
L-ZISSEN
  6
CONTINUOUS
 62
     7
100
AcDbText
 10
675.0
 20
600.0
 30
0.0
 40
4.5
  1
JUNCTION BOX
100
AcDbText
  0
LINE
  5
253
100
AcDbEntity
  8
L-ZISSEN
  6
CONTINUOUS
 62
     7
100
AcDbLine
 10
873.2
 20
407.0
 30
0.0
 11
873.2
 21
469.0
 31
0.0
  0
LINE
  5
254
100
AcDbEntity
  8
L-ZISSEN
  6
CONTINUOUS
 62
     7
100
AcDbLine
 10
832.4
 20
471.05
 30
0.0
 11
837.2
 21
471.05
 31
0.0
  0
LINE
  5
255
100
AcDbEntity
  8
L-ZISSEN
  6
CONTINUOUS
 62
     7
100
AcDbLine
 10
832.4
 20
418.95
 30
0.0
 11
837.2
 21
418.95
 31
0.0
  0
LINE
  5
256
100
AcDbEntity
  8
L-ZISSEN
  6
CONTINUOUS
 62
     7
100
AcDbLine
 10
760.152304
 20
418.95
 30
0.0
 11
712.45
 21
418.95
 31
0.0
  0
LINE
  5
257
100
AcDbEntity
  8
L-ZISSEN
  6
CONTINUOUS
 62
     7
100
AcDbLine
 10
777.55
 20
471.05
 30
0.0
 11
712.45
 21
471.05
 31
0.0
  0
LINE
  5
258
100
AcDbEntity
  8
L-ZISSEN
  6
CONTINUOUS
 62
     7
100
AcDbLine
 10
714.2
 20
556.8
 30
0.0
 11
714.2
 21
524.0
 31
0.0
  0
LINE
  5
259
100
AcDbEntity
  8
L-ZISSEN
  6
CONTINUOUS
 62
     7
100
AcDbLine
 10
775.8
 20
524.0
 30
0.0
 11
775.8
 21
556.8
 31
0.0
  0
LINE
  5
25A
100
AcDbEntity
  8
L-ZISSEN
  6
CONTINUOUS
 62
     7
100
AcDbLine
 10
712.45
 20
519.2
 30
0.0
 11
777.55
 21
519.2
 31
0.0
  0
LINE
  5
25B
100
AcDbEntity
  8
L-ZISSEN
  6
CONTINUOUS
 62
     7
100
AcDbLine
 10
777.55
 20
524.0
 30
0.0
 11
712.45
 21
524.0
 31
0.0
  0
LINE
  5
25C
100
AcDbEntity
  8
L-ZISSEN
  6
CONTINUOUS
 62
     7
100
AcDbLine
 10
777.55
 20
524.0
 30
0.0
 11
777.55
 21
519.2
 31
0.0
  0
LINE
  5
25D
100
AcDbEntity
  8
L-ZISSEN
  6
CONTINUOUS
 62
     7
100
AcDbLine
 10
712.45
 20
524.0
 30
0.0
 11
712.45
 21
519.2
 31
0.0
  0
LINE
  5
25E
100
AcDbEntity
  8
L-ZISSEN
  6
CONTINUOUS
 62
     7
100
AcDbLine
 10
696.2
 20
549.3
 30
0.0
 11
696.2
 21
524.3
 31
0.0
  0
LINE
  5
25F
100
AcDbEntity
  8
L-ZISSEN
  6
CONTINUOUS
 62
     7
100
AcDbLine
 10
714.2
 20
549.3
 30
0.0
 11
696.2
 21
549.3
 31
0.0
  0
LINE
  5
260
100
AcDbEntity
  8
L-ZISSEN
  6
CONTINUOUS
 62
     7
100
AcDbLine
 10
696.2
 20
524.3
 30
0.0
 11
714.2
 21
524.3
 31
0.0
  0
LINE
  5
261
100
AcDbEntity
  8
L-ZISSEN
  6
CONTINUOUS
 62
     7
100
AcDbLine
 10
679.0
 20
522.8
 30
0.0
 11
684.0
 21
522.8
 31
0.0
  0
LINE
  5
262
100
AcDbEntity
  8
L-ZISSEN
  6
CONTINUOUS
 62
     7
100
AcDbLine
 10
679.0
 20
550.8
 30
0.0
 11
684.0
 21
550.8
 31
0.0
  0
LINE
  5
263
100
AcDbEntity
  8
L-ZISSEN
  6
CONTINUOUS
 62
     7
100
AcDbLine
 10
684.0
 20
522.8
 30
0.0
 11
684.0
 21
550.8
 31
0.0
  0
LINE
  5
264
100
AcDbEntity
  8
L-ZISSEN
  6
CONTINUOUS
 62
     7
100
AcDbLine
 10
679.0
 20
522.8
 30
0.0
 11
679.0
 21
550.8
 31
0.0
  0
LINE
  5
265
100
AcDbEntity
  8
L-ZISSEN
  6
CONTINUOUS
 62
     7
100
AcDbLine
 10
684.0
 20
547.3
 30
0.0
 11
696.2
 21
547.3
 31
0.0
  0
LINE
  5
266
100
AcDbEntity
  8
L-ZISSEN
  6
CONTINUOUS
 62
     7
100
AcDbLine
 10
684.0
 20
526.3
 30
0.0
 11
696.2
 21
526.3
 31
0.0
  0
LINE
  5
267
100
AcDbEntity
  8
L-ZISSEN
  6
CONTINUOUS
 62
     7
100
AcDbLine
 10
870.0
 20
469.3
 30
0.0
 11
837.2
 21
469.3
 31
0.0
  0
LINE
  5
268
100
AcDbEntity
  8
L-ZISSEN
  6
CONTINUOUS
 62
     7
100
AcDbLine
 10
837.2
 20
420.7
 30
0.0
 11
870.0
 21
420.7
 31
0.0
  0
LINE
  5
269
100
AcDbEntity
  8
L-ZISSEN
  6
CONTINUOUS
 62
     7
100
AcDbLine
 10
832.4
 20
418.95
 30
0.0
 11
832.4
 21
471.05
 31
0.0
  0
LINE
  5
26A
100
AcDbEntity
  8
L-ZISSEN
  6
CONTINUOUS
 62
     7
100
AcDbLine
 10
870.0
 20
407.0
 30
0.0
 11
870.0
 21
469.3
 31
0.0
  0
LINE
  5
26B
100
AcDbEntity
  8
L-ZISSEN
  6
CONTINUOUS
 62
     7
100
AcDbLine
 10
873.2
 20
469.0
 30
0.0
 11
870.0
 21
469.0
 31
0.0
  0
LINE
  5
26C
100
AcDbEntity
  8
L-ZISSEN
  6
CONTINUOUS
 62
     7
100
AcDbLine
 10
777.55
 20
471.05
 30
0.0
 11
777.55
 21
423.188921
 31
0.0
  0
LINE
  5
26D
100
AcDbEntity
  8
L-ZISSEN
  6
CONTINUOUS
 62
     7
100
AcDbLine
 10
712.45
 20
471.05
 30
0.0
 11
712.45
 21
418.95
 31
0.0
  0
LINE
  5
26E
100
AcDbEntity
  8
L-ZISSEN
  6
CONTINUOUS
 62
     7
100
AcDbLine
 10
696.2
 20
432.5
 30
0.0
 11
712.45
 21
432.5
 31
0.0
  0
LINE
  5
26F
100
AcDbEntity
  8
L-ZISSEN
  6
CONTINUOUS
 62
     7
100
AcDbLine
 10
712.45
 20
457.5
 30
0.0
 11
696.2
 21
457.5
 31
0.0
  0
LINE
  5
270
100
AcDbEntity
  8
L-ZISSEN
  6
CONTINUOUS
 62
     7
100
AcDbLine
 10
696.2
 20
457.5
 30
0.0
 11
696.2
 21
432.5
 31
0.0
  0
LINE
  5
271
100
AcDbEntity
  8
L-ZISSEN
  6
CONTINUOUS
 62
     7
100
AcDbLine
 10
679.0
 20
431.0
 30
0.0
 11
679.0
 21
459.0
 31
0.0
  0
LINE
  5
272
100
AcDbEntity
  8
L-ZISSEN
  6
CONTINUOUS
 62
     7
100
AcDbLine
 10
684.0
 20
431.0
 30
0.0
 11
684.0
 21
459.0
 31
0.0
  0
LINE
  5
273
100
AcDbEntity
  8
L-ZISSEN
  6
CONTINUOUS
 62
     7
100
AcDbLine
 10
679.0
 20
459.0
 30
0.0
 11
684.0
 21
459.0
 31
0.0
  0
LINE
  5
274
100
AcDbEntity
  8
L-ZISSEN
  6
CONTINUOUS
 62
     7
100
AcDbLine
 10
679.0
 20
431.0
 30
0.0
 11
684.0
 21
431.0
 31
0.0
  0
LINE
  5
275
100
AcDbEntity
  8
L-ZISSEN
  6
CONTINUOUS
 62
     7
100
AcDbLine
 10
684.0
 20
455.5
 30
0.0
 11
696.2
 21
455.5
 31
0.0
  0
LINE
  5
276
100
AcDbEntity
  8
L-ZISSEN
  6
CONTINUOUS
 62
     7
100
AcDbLine
 10
684.0
 20
434.5
 30
0.0
 11
696.2
 21
434.5
 31
0.0
  0
LINE
  5
277
100
AcDbEntity
  8
L-ZISSEN
  6
CONTINUOUS
 62
     7
100
AcDbLine
 10
837.2
 20
471.05
 30
0.0
 11
837.2
 21
418.95
 31
0.0
  0
LINE
  5
278
100
AcDbEntity
  8
L-TYUSIN
  6
CENTER
 62
     1
100
AcDbLine
 10
415.0
 20
340.0
 30
0.0
 11
1175.0
 21
340.0
 31
0.0
  0
TEXT
  5
279
100
AcDbEntity
  8
L-ZISSEN
  6
CONTINUOUS
 62
     7
100
AcDbText
 10
675.0
 20
315.0
 30
0.0
 40
4.5
  1
MODELNO. :
100
AcDbText
  0
TEXT
  5
27A
100
AcDbEntity
  8
L-ZISSEN
  6
CONTINUOUS
 62
     7
100
AcDbText
 10
675.0
 20
325.0
 30
0.0
 40
4.5
  1
JUNCTION BOX
100
AcDbText
  0
LINE
  5
27B
100
AcDbEntity
  8
L-ZISSEN
  6
CONTINUOUS
 62
     7
100
AcDbLine
 10
873.2
 20
72.0
 30
0.0
 11
873.2
 21
189.0
 31
0.0
  0
LINE
  5
27C
100
AcDbEntity
  8
L-ZISSEN
  6
CONTINUOUS
 62
     7
100
AcDbLine
 10
837.2
 20
136.05
 30
0.0
 11
837.2
 21
83.95
 31
0.0
  0
LINE
  5
27D
100
AcDbEntity
  8
L-ZISSEN
  6
CONTINUOUS
 62
     7
100
AcDbLine
 10
832.4
 20
136.05
 30
0.0
 11
837.2
 21
136.05
 31
0.0
  0
LINE
  5
27E
100
AcDbEntity
  8
L-ZISSEN
  6
CONTINUOUS
 62
     7
100
AcDbLine
 10
832.4
 20
83.95
 30
0.0
 11
837.2
 21
83.95
 31
0.0
  0
LINE
  5
27F
100
AcDbEntity
  8
L-ZISSEN
  6
CONTINUOUS
 62
     7
100
AcDbLine
 10
760.152304
 20
83.95
 30
0.0
 11
712.45
 21
83.95
 31
0.0
  0
LINE
  5
280
100
AcDbEntity
  8
L-ZISSEN
  6
CONTINUOUS
 62
     7
100
AcDbLine
 10
777.55
 20
136.05
 30
0.0
 11
712.45
 21
136.05
 31
0.0
  0
LINE
  5
281
100
AcDbEntity
  8
L-ZISSEN
  6
CONTINUOUS
 62
     7
100
AcDbLine
 10
714.2
 20
266.8
 30
0.0
 11
714.2
 21
234.0
 31
0.0
  0
LINE
  5
282
100
AcDbEntity
  8
L-ZISSEN
  6
CONTINUOUS
 62
     7
100
AcDbLine
 10
775.8
 20
234.0
 30
0.0
 11
775.8
 21
266.8
 31
0.0
  0
LINE
  5
283
100
AcDbEntity
  8
L-ZISSEN
  6
CONTINUOUS
 62
     7
100
AcDbLine
 10
712.45
 20
229.2
 30
0.0
 11
777.55
 21
229.2
 31
0.0
  0
LINE
  5
284
100
AcDbEntity
  8
L-ZISSEN
  6
CONTINUOUS
 62
     7
100
AcDbLine
 10
777.55
 20
234.0
 30
0.0
 11
712.45
 21
234.0
 31
0.0
  0
LINE
  5
285
100
AcDbEntity
  8
L-ZISSEN
  6
CONTINUOUS
 62
     7
100
AcDbLine
 10
777.55
 20
234.0
 30
0.0
 11
777.55
 21
229.2
 31
0.0
  0
LINE
  5
286
100
AcDbEntity
  8
L-ZISSEN
  6
CONTINUOUS
 62
     7
100
AcDbLine
 10
712.45
 20
234.0
 30
0.0
 11
712.45
 21
229.2
 31
0.0
  0
LINE
  5
287
100
AcDbEntity
  8
L-ZISSEN
  6
CONTINUOUS
 62
     7
100
AcDbLine
 10
696.2
 20
259.3
 30
0.0
 11
696.2
 21
234.3
 31
0.0
  0
LINE
  5
288
100
AcDbEntity
  8
L-ZISSEN
  6
CONTINUOUS
 62
     7
100
AcDbLine
 10
714.2
 20
259.3
 30
0.0
 11
696.2
 21
259.3
 31
0.0
  0
LINE
  5
289
100
AcDbEntity
  8
L-ZISSEN
  6
CONTINUOUS
 62
     7
100
AcDbLine
 10
696.2
 20
234.3
 30
0.0
 11
714.2
 21
234.3
 31
0.0
  0
LINE
  5
28A
100
AcDbEntity
  8
L-ZISSEN
  6
CONTINUOUS
 62
     7
100
AcDbLine
 10
679.0
 20
232.8
 30
0.0
 11
684.0
 21
232.8
 31
0.0
  0
LINE
  5
28B
100
AcDbEntity
  8
L-ZISSEN
  6
CONTINUOUS
 62
     7
100
AcDbLine
 10
679.0
 20
260.8
 30
0.0
 11
684.0
 21
260.8
 31
0.0
  0
LINE
  5
28C
100
AcDbEntity
  8
L-ZISSEN
  6
CONTINUOUS
 62
     7
100
AcDbLine
 10
684.0
 20
232.8
 30
0.0
 11
684.0
 21
260.8
 31
0.0
  0
LINE
  5
28D
100
AcDbEntity
  8
L-ZISSEN
  6
CONTINUOUS
 62
     7
100
AcDbLine
 10
679.0
 20
232.8
 30
0.0
 11
679.0
 21
260.8
 31
0.0
  0
LINE
  5
28E
100
AcDbEntity
  8
L-ZISSEN
  6
CONTINUOUS
 62
     7
100
AcDbLine
 10
684.0
 20
257.3
 30
0.0
 11
696.2
 21
257.3
 31
0.0
  0
LINE
  5
28F
100
AcDbEntity
  8
L-ZISSEN
  6
CONTINUOUS
 62
     7
100
AcDbLine
 10
684.0
 20
236.3
 30
0.0
 11
696.2
 21
236.3
 31
0.0
  0
LINE
  5
290
100
AcDbEntity
  8
L-ZISSEN
  6
CONTINUOUS
 62
     7
100
AcDbLine
 10
870.0
 20
134.3
 30
0.0
 11
837.2
 21
134.3
 31
0.0
  0
LINE
  5
291
100
AcDbEntity
  8
L-ZISSEN
  6
CONTINUOUS
 62
     7
100
AcDbLine
 10
837.2
 20
85.7
 30
0.0
 11
870.0
 21
85.7
 31
0.0
  0
LINE
  5
292
100
AcDbEntity
  8
L-ZISSEN
  6
CONTINUOUS
 62
     7
100
AcDbLine
 10
832.4
 20
83.95
 30
0.0
 11
832.4
 21
136.05
 31
0.0
  0
LINE
  5
293
100
AcDbEntity
  8
L-ZISSEN
  6
CONTINUOUS
 62
     7
100
AcDbLine
 10
870.0
 20
72.0
 30
0.0
 11
870.0
 21
189.3
 31
0.0
  0
LINE
  5
294
100
AcDbEntity
  8
L-ZISSEN
  6
CONTINUOUS
 62
     7
100
AcDbLine
 10
777.55
 20
136.05
 30
0.0
 11
777.55
 21
88.188921
 31
0.0
  0
LINE
  5
295
100
AcDbEntity
  8
L-ZISSEN
  6
CONTINUOUS
 62
     7
100
AcDbLine
 10
712.45
 20
136.05
 30
0.0
 11
712.45
 21
83.95
 31
0.0
  0
LINE
  5
296
100
AcDbEntity
  8
L-ZISSEN
  6
CONTINUOUS
 62
     7
100
AcDbLine
 10
696.2
 20
97.5
 30
0.0
 11
712.45
 21
97.5
 31
0.0
  0
LINE
  5
297
100
AcDbEntity
  8
L-ZISSEN
  6
CONTINUOUS
 62
     7
100
AcDbLine
 10
712.45
 20
122.5
 30
0.0
 11
696.2
 21
122.5
 31
0.0
  0
LINE
  5
298
100
AcDbEntity
  8
L-ZISSEN
  6
CONTINUOUS
 62
     7
100
AcDbLine
 10
696.2
 20
122.5
 30
0.0
 11
696.2
 21
97.5
 31
0.0
  0
LINE
  5
299
100
AcDbEntity
  8
L-ZISSEN
  6
CONTINUOUS
 62
     7
100
AcDbLine
 10
679.0
 20
96.0
 30
0.0
 11
679.0
 21
124.0
 31
0.0
  0
LINE
  5
29A
100
AcDbEntity
  8
L-ZISSEN
  6
CONTINUOUS
 62
     7
100
AcDbLine
 10
684.0
 20
96.0
 30
0.0
 11
684.0
 21
124.0
 31
0.0
  0
LINE
  5
29B
100
AcDbEntity
  8
L-ZISSEN
  6
CONTINUOUS
 62
     7
100
AcDbLine
 10
679.0
 20
124.0
 30
0.0
 11
684.0
 21
124.0
 31
0.0
  0
LINE
  5
29C
100
AcDbEntity
  8
L-ZISSEN
  6
CONTINUOUS
 62
     7
100
AcDbLine
 10
679.0
 20
96.0
 30
0.0
 11
684.0
 21
96.0
 31
0.0
  0
LINE
  5
29D
100
AcDbEntity
  8
L-ZISSEN
  6
CONTINUOUS
 62
     7
100
AcDbLine
 10
684.0
 20
120.5
 30
0.0
 11
696.2
 21
120.5
 31
0.0
  0
LINE
  5
29E
100
AcDbEntity
  8
L-ZISSEN
  6
CONTINUOUS
 62
     7
100
AcDbLine
 10
684.0
 20
99.5
 30
0.0
 11
696.2
 21
99.5
 31
0.0
  0
LINE
  5
29F
100
AcDbEntity
  8
L-ZISSEN
  6
CONTINUOUS
 62
     7
100
AcDbLine
 10
714.0
 20
72.0
 30
0.0
 11
714.0
 21
83.95
 31
0.0
  0
LINE
  5
2A0
100
AcDbEntity
  8
L-ZISSEN
  6
CONTINUOUS
 62
     7
100
AcDbLine
 10
684.0
 20
154.5
 30
0.0
 11
696.2
 21
154.5
 31
0.0
  0
LINE
  5
2A1
100
AcDbEntity
  8
L-ZISSEN
  6
CONTINUOUS
 62
     7
100
AcDbLine
 10
684.0
 20
175.5
 30
0.0
 11
696.2
 21
175.5
 31
0.0
  0
LINE
  5
2A2
100
AcDbEntity
  8
L-ZISSEN
  6
CONTINUOUS
 62
     7
100
AcDbLine
 10
679.0
 20
151.0
 30
0.0
 11
684.0
 21
151.0
 31
0.0
  0
LINE
  5
2A3
100
AcDbEntity
  8
L-ZISSEN
  6
CONTINUOUS
 62
     7
100
AcDbLine
 10
679.0
 20
179.0
 30
0.0
 11
684.0
 21
179.0
 31
0.0
  0
LINE
  5
2A4
100
AcDbEntity
  8
L-ZISSEN
  6
CONTINUOUS
 62
     7
100
AcDbLine
 10
684.0
 20
151.0
 30
0.0
 11
684.0
 21
179.0
 31
0.0
  0
LINE
  5
2A5
100
AcDbEntity
  8
L-ZISSEN
  6
CONTINUOUS
 62
     7
100
AcDbLine
 10
679.0
 20
151.0
 30
0.0
 11
679.0
 21
179.0
 31
0.0
  0
LINE
  5
2A6
100
AcDbEntity
  8
L-ZISSEN
  6
CONTINUOUS
 62
     7
100
AcDbLine
 10
696.2
 20
177.5
 30
0.0
 11
696.2
 21
152.5
 31
0.0
  0
LINE
  5
2A7
100
AcDbEntity
  8
L-ZISSEN
  6
CONTINUOUS
 62
     7
100
AcDbLine
 10
712.45
 20
177.5
 30
0.0
 11
696.2
 21
177.5
 31
0.0
  0
LINE
  5
2A8
100
AcDbEntity
  8
L-ZISSEN
  6
CONTINUOUS
 62
     7
100
AcDbLine
 10
696.2
 20
152.5
 30
0.0
 11
712.45
 21
152.5
 31
0.0
  0
LINE
  5
2A9
100
AcDbEntity
  8
L-ZISSEN
  6
CONTINUOUS
 62
     7
100
AcDbLine
 10
712.45
 20
191.05
 30
0.0
 11
712.45
 21
138.95
 31
0.0
  0
LINE
  5
2AA
100
AcDbEntity
  8
L-ZISSEN
  6
CONTINUOUS
 62
     7
100
AcDbLine
 10
777.55
 20
191.05
 30
0.0
 11
777.55
 21
138.95
 31
0.0
  0
LINE
  5
2AB
100
AcDbEntity
  8
L-ZISSEN
  6
CONTINUOUS
 62
     7
100
AcDbLine
 10
777.55
 20
191.05
 30
0.0
 11
712.45
 21
191.05
 31
0.0
  0
LINE
  5
2AC
100
AcDbEntity
  8
L-ZISSEN
  6
CONTINUOUS
 62
     7
100
AcDbLine
 10
777.55
 20
138.95
 30
0.0
 11
712.45
 21
138.95
 31
0.0
  0
LINE
  5
2AD
100
AcDbEntity
  8
L-ZISSEN
  6
CONTINUOUS
 62
     7
100
AcDbLine
 10
873.2
 20
189.0
 30
0.0
 11
870.0
 21
189.0
 31
0.0
  0
LINE
  5
2AE
100
AcDbEntity
  8
L-ZISSEN
  6
CONTINUOUS
 62
     7
100
AcDbLine
 10
832.4
 20
138.95
 30
0.0
 11
832.4
 21
191.05
 31
0.0
  0
LINE
  5
2AF
100
AcDbEntity
  8
L-ZISSEN
  6
CONTINUOUS
 62
     7
100
AcDbLine
 10
837.2
 20
140.7
 30
0.0
 11
870.0
 21
140.7
 31
0.0
  0
LINE
  5
2B0
100
AcDbEntity
  8
L-ZISSEN
  6
CONTINUOUS
 62
     7
100
AcDbLine
 10
870.0
 20
189.3
 30
0.0
 11
837.2
 21
189.3
 31
0.0
  0
LINE
  5
2B1
100
AcDbEntity
  8
L-ZISSEN
  6
CONTINUOUS
 62
     7
100
AcDbLine
 10
832.4
 20
138.95
 30
0.0
 11
837.2
 21
138.95
 31
0.0
  0
LINE
  5
2B2
100
AcDbEntity
  8
L-ZISSEN
  6
CONTINUOUS
 62
     7
100
AcDbLine
 10
832.4
 20
191.05
 30
0.0
 11
837.2
 21
191.05
 31
0.0
  0
LINE
  5
2B3
100
AcDbEntity
  8
L-ZISSEN
  6
CONTINUOUS
 62
     7
100
AcDbLine
 10
837.2
 20
191.05
 30
0.0
 11
837.2
 21
138.95
 31
0.0
  0
LINE
  5
2B4
100
AcDbEntity
  8
L-ZISSEN
  6
CONTINUOUS
 62
     7
100
AcDbLine
 10
873.2
 20
189.0
 30
0.0
 11
870.0
 21
189.0
 31
0.0
  0
LINE
  5
2B5
100
AcDbEntity
  8
L-ZISSEN
  6
CONTINUOUS
 62
     7
100
AcDbLine
 10
776.0
 20
136.05
 30
0.0
 11
776.0
 21
138.95
 31
0.0
  0
LINE
  5
2B6
100
AcDbEntity
  8
L-ZISSEN
  6
CONTINUOUS
 62
     7
100
AcDbLine
 10
714.0
 20
136.05
 30
0.0
 11
714.0
 21
138.95
 31
0.0
  0
LINE
  5
2B7
100
AcDbEntity
  8
L-ZISSEN
  6
CONTINUOUS
 62
     7
100
AcDbLine
 10
506.0
 20
136.05
 30
0.0
 11
506.0
 21
138.95
 31
0.0
  0
LINE
  5
2B8
100
AcDbEntity
  8
L-ZISSEN
  6
CONTINUOUS
 62
     7
100
AcDbLine
 10
444.0
 20
136.05
 30
0.0
 11
444.0
 21
138.95
 31
0.0
  0
LINE
  5
2B9
100
AcDbEntity
  8
L-ZISSEN
  6
CONTINUOUS
 62
     7
100
AcDbLine
 10
633.2
 20
189.0
 30
0.0
 11
630.0
 21
189.0
 31
0.0
  0
LINE
  5
2BA
100
AcDbEntity
  8
L-ZISSEN
  6
CONTINUOUS
 62
     7
100
AcDbLine
 10
597.2
 20
159.329021
 30
0.0
 11
597.2
 21
138.95
 31
0.0
  0
LINE
  5
2BB
100
AcDbEntity
  8
L-ZISSEN
  6
CONTINUOUS
 62
     7
100
AcDbLine
 10
592.4
 20
191.05
 30
0.0
 11
597.2
 21
191.05
 31
0.0
  0
LINE
  5
2BC
100
AcDbEntity
  8
L-ZISSEN
  6
CONTINUOUS
 62
     7
100
AcDbLine
 10
592.4
 20
138.95
 30
0.0
 11
597.2
 21
138.95
 31
0.0
  0
CIRCLE
  5
2BD
100
AcDbEntity
  8
L-ZISSEN
  6
CONTINUOUS
 62
     7
100
AcDbCircle
 10
610.0
 20
165.0
 30
0.0
 40
14.0
  0
CIRCLE
  5
2BE
100
AcDbEntity
  8
L-ZISSEN
  6
CONTINUOUS
 62
     7
100
AcDbCircle
 10
610.0
 20
165.0
 30
0.0
 40
7.5
  0
LINE
  5
2BF
100
AcDbEntity
  8
L-ZISSEN
  6
CONTINUOUS
 62
     7
100
AcDbLine
 10
630.0
 20
189.3
 30
0.0
 11
597.2
 21
189.3
 31
0.0
  0
LINE
  5
2C0
100
AcDbEntity
  8
L-ZISSEN
  6
CONTINUOUS
 62
     7
100
AcDbLine
 10
597.2
 20
140.7
 30
0.0
 11
630.0
 21
140.7
 31
0.0
  0
LINE
  5
2C1
100
AcDbEntity
  8
L-ZISSEN
  6
CONTINUOUS
 62
     7
100
AcDbLine
 10
597.2
 20
191.05
 30
0.0
 11
597.2
 21
170.670979
 31
0.0
  0
LINE
  5
2C2
100
AcDbEntity
  8
L-ZISSEN
  6
CONTINUOUS
 62
     7
100
AcDbLine
 10
592.4
 20
138.95
 30
0.0
 11
592.4
 21
191.05
 31
0.0
  0
LINE
  5
2C3
100
AcDbEntity
  8
L-ZISSEN
  6
CONTINUOUS
 62
     7
100
AcDbLine
 10
633.2
 20
189.0
 30
0.0
 11
630.0
 21
189.0
 31
0.0
  0
LINE
  5
2C4
100
AcDbEntity
  8
L-ZISSEN
  6
CONTINUOUS
 62
     7
100
AcDbLine
 10
442.45
 20
138.95
 30
0.0
 11
507.55
 21
138.95
 31
0.0
  0
LINE
  5
2C5
100
AcDbEntity
  8
L-ZISSEN
  6
CONTINUOUS
 62
     7
100
AcDbLine
 10
442.45
 20
191.05
 30
0.0
 11
507.55
 21
191.05
 31
0.0
  0
LINE
  5
2C6
100
AcDbEntity
  8
L-ZISSEN
  6
CONTINUOUS
 62
     7
100
AcDbLine
 10
442.45
 20
191.05
 30
0.0
 11
442.45
 21
138.95
 31
0.0
  0
LINE
  5
2C7
100
AcDbEntity
  8
L-ZISSEN
  6
CONTINUOUS
 62
     7
100
AcDbLine
 10
507.55
 20
191.05
 30
0.0
 11
507.55
 21
138.95
 31
0.0
  0
LINE
  5
2C8
100
AcDbEntity
  8
L-ZISSEN
  6
CONTINUOUS
 62
     7
100
AcDbLine
 10
523.8
 20
152.5
 30
0.0
 11
507.55
 21
152.5
 31
0.0
  0
LINE
  5
2C9
100
AcDbEntity
  8
L-ZISSEN
  6
CONTINUOUS
 62
     7
100
AcDbLine
 10
507.55
 20
177.5
 30
0.0
 11
523.8
 21
177.5
 31
0.0
  0
LINE
  5
2CA
100
AcDbEntity
  8
L-ZISSEN
  6
CONTINUOUS
 62
     7
100
AcDbLine
 10
523.8
 20
177.5
 30
0.0
 11
523.8
 21
152.5
 31
0.0
  0
LINE
  5
2CB
100
AcDbEntity
  8
L-ZISSEN
  6
CONTINUOUS
 62
     7
100
AcDbLine
 10
541.0
 20
151.0
 30
0.0
 11
541.0
 21
179.0
 31
0.0
  0
LINE
  5
2CC
100
AcDbEntity
  8
L-ZISSEN
  6
CONTINUOUS
 62
     7
100
AcDbLine
 10
536.0
 20
151.0
 30
0.0
 11
536.0
 21
179.0
 31
0.0
  0
LINE
  5
2CD
100
AcDbEntity
  8
L-ZISSEN
  6
CONTINUOUS
 62
     7
100
AcDbLine
 10
541.0
 20
179.0
 30
0.0
 11
536.0
 21
179.0
 31
0.0
  0
LINE
  5
2CE
100
AcDbEntity
  8
L-ZISSEN
  6
CONTINUOUS
 62
     7
100
AcDbLine
 10
541.0
 20
151.0
 30
0.0
 11
536.0
 21
151.0
 31
0.0
  0
LINE
  5
2CF
100
AcDbEntity
  8
L-ZISSEN
  6
CONTINUOUS
 62
     7
100
AcDbLine
 10
536.0
 20
175.5
 30
0.0
 11
523.8
 21
175.5
 31
0.0
  0
LINE
  5
2D0
100
AcDbEntity
  8
L-ZISSEN
  6
CONTINUOUS
 62
     7
100
AcDbLine
 10
536.0
 20
154.5
 30
0.0
 11
523.8
 21
154.5
 31
0.0
  0
LINE
  5
2D1
100
AcDbEntity
  8
L-ZISSEN
  6
CONTINUOUS
 62
     7
100
AcDbLine
 10
506.0
 20
72.0
 30
0.0
 11
506.0
 21
83.95
 31
0.0
  0
LINE
  5
2D2
100
AcDbEntity
  8
L-ZISSEN
  6
CONTINUOUS
 62
     7
100
AcDbLine
 10
536.0
 20
99.5
 30
0.0
 11
523.8
 21
99.5
 31
0.0
  0
LINE
  5
2D3
100
AcDbEntity
  8
L-ZISSEN
  6
CONTINUOUS
 62
     7
100
AcDbLine
 10
536.0
 20
120.5
 30
0.0
 11
523.8
 21
120.5
 31
0.0
  0
LINE
  5
2D4
100
AcDbEntity
  8
L-ZISSEN
  6
CONTINUOUS
 62
     7
100
AcDbLine
 10
541.0
 20
96.0
 30
0.0
 11
536.0
 21
96.0
 31
0.0
  0
LINE
  5
2D5
100
AcDbEntity
  8
L-ZISSEN
  6
CONTINUOUS
 62
     7
100
AcDbLine
 10
541.0
 20
124.0
 30
0.0
 11
536.0
 21
124.0
 31
0.0
  0
LINE
  5
2D6
100
AcDbEntity
  8
L-ZISSEN
  6
CONTINUOUS
 62
     7
100
AcDbLine
 10
536.0
 20
96.0
 30
0.0
 11
536.0
 21
124.0
 31
0.0
  0
LINE
  5
2D7
100
AcDbEntity
  8
L-ZISSEN
  6
CONTINUOUS
 62
     7
100
AcDbLine
 10
541.0
 20
96.0
 30
0.0
 11
541.0
 21
124.0
 31
0.0
  0
LINE
  5
2D8
100
AcDbEntity
  8
L-ZISSEN
  6
CONTINUOUS
 62
     7
100
AcDbLine
 10
523.8
 20
122.5
 30
0.0
 11
523.8
 21
97.5
 31
0.0
  0
LINE
  5
2D9
100
AcDbEntity
  8
L-ZISSEN
  6
CONTINUOUS
 62
     7
100
AcDbLine
 10
507.55
 20
122.5
 30
0.0
 11
523.8
 21
122.5
 31
0.0
  0
LINE
  5
2DA
100
AcDbEntity
  8
L-ZISSEN
  6
CONTINUOUS
 62
     7
100
AcDbLine
 10
523.8
 20
97.5
 30
0.0
 11
507.55
 21
97.5
 31
0.0
  0
LINE
  5
2DB
100
AcDbEntity
  8
L-ZISSEN
  6
CONTINUOUS
 62
     7
100
AcDbLine
 10
507.55
 20
136.05
 30
0.0
 11
507.55
 21
83.95
 31
0.0
  0
LINE
  5
2DC
100
AcDbEntity
  8
L-ZISSEN
  6
CONTINUOUS
 62
     7
100
AcDbLine
 10
442.45
 20
136.05
 30
0.0
 11
442.45
 21
88.188921
 31
0.0
  0
LINE
  5
2DD
100
AcDbEntity
  8
L-ZISSEN
  6
CONTINUOUS
 62
     7
100
AcDbLine
 10
630.0
 20
72.0
 30
0.0
 11
630.0
 21
189.3
 31
0.0
  0
LINE
  5
2DE
100
AcDbEntity
  8
L-ZISSEN
  6
CONTINUOUS
 62
     7
100
AcDbLine
 10
592.4
 20
83.95
 30
0.0
 11
592.4
 21
136.05
 31
0.0
  0
LINE
  5
2DF
100
AcDbEntity
  8
L-ZISSEN
  6
CONTINUOUS
 62
     7
100
AcDbLine
 10
597.2
 20
136.05
 30
0.0
 11
597.2
 21
115.670979
 31
0.0
  0
LINE
  5
2E0
100
AcDbEntity
  8
L-ZISSEN
  6
CONTINUOUS
 62
     7
100
AcDbLine
 10
597.2
 20
85.7
 30
0.0
 11
630.0
 21
85.7
 31
0.0
  0
LINE
  5
2E1
100
AcDbEntity
  8
L-ZISSEN
  6
CONTINUOUS
 62
     7
100
AcDbLine
 10
630.0
 20
134.3
 30
0.0
 11
597.2
 21
134.3
 31
0.0
  0
CIRCLE
  5
2E2
100
AcDbEntity
  8
L-ZISSEN
  6
CONTINUOUS
 62
     7
100
AcDbCircle
 10
610.0
 20
110.0
 30
0.0
 40
7.5
  0
CIRCLE
  5
2E3
100
AcDbEntity
  8
L-ZISSEN
  6
CONTINUOUS
 62
     7
100
AcDbCircle
 10
610.0
 20
110.0
 30
0.0
 40
14.0
  0
LINE
  5
2E4
100
AcDbEntity
  8
L-ZISSEN
  6
CONTINUOUS
 62
     7
100
AcDbLine
 10
536.0
 20
236.3
 30
0.0
 11
523.8
 21
236.3
 31
0.0
  0
LINE
  5
2E5
100
AcDbEntity
  8
L-ZISSEN
  6
CONTINUOUS
 62
     7
100
AcDbLine
 10
536.0
 20
257.3
 30
0.0
 11
523.8
 21
257.3
 31
0.0
  0
LINE
  5
2E6
100
AcDbEntity
  8
L-ZISSEN
  6
CONTINUOUS
 62
     7
100
AcDbLine
 10
541.0
 20
232.8
 30
0.0
 11
541.0
 21
260.8
 31
0.0
  0
LINE
  5
2E7
100
AcDbEntity
  8
L-ZISSEN
  6
CONTINUOUS
 62
     7
100
AcDbLine
 10
536.0
 20
232.8
 30
0.0
 11
536.0
 21
260.8
 31
0.0
  0
LINE
  5
2E8
100
AcDbEntity
  8
L-ZISSEN
  6
CONTINUOUS
 62
     7
100
AcDbLine
 10
541.0
 20
260.8
 30
0.0
 11
536.0
 21
260.8
 31
0.0
  0
LINE
  5
2E9
100
AcDbEntity
  8
L-ZISSEN
  6
CONTINUOUS
 62
     7
100
AcDbLine
 10
541.0
 20
232.8
 30
0.0
 11
536.0
 21
232.8
 31
0.0
  0
LINE
  5
2EA
100
AcDbEntity
  8
L-ZISSEN
  6
CONTINUOUS
 62
     7
100
AcDbLine
 10
523.8
 20
234.3
 30
0.0
 11
505.8
 21
234.3
 31
0.0
  0
LINE
  5
2EB
100
AcDbEntity
  8
L-ZISSEN
  6
CONTINUOUS
 62
     7
100
AcDbLine
 10
505.8
 20
259.3
 30
0.0
 11
523.8
 21
259.3
 31
0.0
  0
LINE
  5
2EC
100
AcDbEntity
  8
L-ZISSEN
  6
CONTINUOUS
 62
     7
100
AcDbLine
 10
523.8
 20
259.3
 30
0.0
 11
523.8
 21
234.3
 31
0.0
  0
LINE
  5
2ED
100
AcDbEntity
  8
L-ZISSEN
  6
CONTINUOUS
 62
     7
100
AcDbLine
 10
507.55
 20
234.0
 30
0.0
 11
507.55
 21
229.2
 31
0.0
  0
LINE
  5
2EE
100
AcDbEntity
  8
L-ZISSEN
  6
CONTINUOUS
 62
     7
100
AcDbLine
 10
442.45
 20
234.0
 30
0.0
 11
442.45
 21
229.2
 31
0.0
  0
LINE
  5
2EF
100
AcDbEntity
  8
L-ZISSEN
  6
CONTINUOUS
 62
     7
100
AcDbLine
 10
442.45
 20
234.0
 30
0.0
 11
507.55
 21
234.0
 31
0.0
  0
LINE
  5
2F0
100
AcDbEntity
  8
L-ZISSEN
  6
CONTINUOUS
 62
     7
100
AcDbLine
 10
507.55
 20
229.2
 30
0.0
 11
442.45
 21
229.2
 31
0.0
  0
LINE
  5
2F1
100
AcDbEntity
  8
L-ZISSEN
  6
CONTINUOUS
 62
     7
100
AcDbLine
 10
444.2
 20
234.0
 30
0.0
 11
444.2
 21
266.8
 31
0.0
  0
LINE
  5
2F2
100
AcDbEntity
  8
L-ZISSEN
  6
CONTINUOUS
 62
     7
100
AcDbLine
 10
505.8
 20
266.8
 30
0.0
 11
505.8
 21
234.0
 31
0.0
  0
LINE
  5
2F3
100
AcDbEntity
  8
L-ZISSEN
  6
CONTINUOUS
 62
     7
100
AcDbLine
 10
442.45
 20
136.05
 30
0.0
 11
507.55
 21
136.05
 31
0.0
  0
LINE
  5
2F4
100
AcDbEntity
  8
L-ZISSEN
  6
CONTINUOUS
 62
     7
100
AcDbLine
 10
459.847696
 20
83.95
 30
0.0
 11
507.55
 21
83.95
 31
0.0
  0
LINE
  5
2F5
100
AcDbEntity
  8
L-ZISSEN
  6
CONTINUOUS
 62
     7
100
AcDbLine
 10
592.4
 20
83.95
 30
0.0
 11
597.2
 21
83.95
 31
0.0
  0
LINE
  5
2F6
100
AcDbEntity
  8
L-ZISSEN
  6
CONTINUOUS
 62
     7
100
AcDbLine
 10
592.4
 20
136.05
 30
0.0
 11
597.2
 21
136.05
 31
0.0
  0
LINE
  5
2F7
100
AcDbEntity
  8
L-ZISSEN
  6
CONTINUOUS
 62
     7
100
AcDbLine
 10
597.2
 20
104.329021
 30
0.0
 11
597.2
 21
83.95
 31
0.0
  0
LINE
  5
2F8
100
AcDbEntity
  8
L-ZISSEN
  6
CONTINUOUS
 62
     7
100
AcDbLine
 10
633.2
 20
72.0
 30
0.0
 11
633.2
 21
189.0
 31
0.0
  0
TEXT
  5
2F9
100
AcDbEntity
  8
L-ZISSEN
  6
CONTINUOUS
 62
     7
100
AcDbText
 10
435.0
 20
325.0
 30
0.0
 40
4.5
  1
JUNCTION BOX
100
AcDbText
  0
TEXT
  5
2FA
100
AcDbEntity
  8
L-ZISSEN
  6
CONTINUOUS
 62
     7
100
AcDbText
 10
435.0
 20
315.0
 30
0.0
 40
4.5
  1
MODEL NO. :
100
AcDbText
  0
SOLID
  5
2FB
100
AcDbEntity
  8
L-ZISSEN
  6
CONTINUOUS
 62
     7
100
AcDbTrace
 10
126.602909
 20
453.75831
 30
0.0
 11
126.918975
 21
454.345291
 31
0.0
 12
125.0
 22
455.0
 32
0.0
 13
125.0
 23
455.0
 33
0.0
  0
LINE
  5
2FC
100
AcDbEntity
  8
L-ZISSEN
  6
CONTINUOUS
 62
     7
100
AcDbLine
 10
126.760942
 20
454.0518
 30
0.0
 11
190.0
 21
420.0
 31
0.0
  0
LINE
  5
2FD
100
AcDbEntity
  8
L-ZISSEN
  6
CONTINUOUS
 62
     7
100
AcDbLine
 10
190.0
 20
420.0
 30
0.0
 11
192.0
 21
420.0
 31
0.0
  0
TEXT
  5
2FE
100
AcDbEntity
  8
L-ZISSEN
  6
CONTINUOUS
 62
     7
100
AcDbText
 10
194.0
 20
417.75
 30
0.0
 40
4.5
  1
P.P
100
AcDbText
  0
TEXT
  5
2FF
100
AcDbEntity
  8
L-ZISSEN
  6
CONTINUOUS
 62
     7
100
AcDbText
 10
725.0
 20
590.0
 30
0.0
 40
4.5
  1
NOL-5**-1XL FG20L
100
AcDbText
  0
TEXT
  5
300
100
AcDbEntity
  8
L-ZISSEN
  6
CONTINUOUS
 62
     7
100
AcDbText
 10
725.0
 20
580.0
 30
0.0
 40
4.5
  1
NOL-5**-1XL FG21L
100
AcDbText
  0
LINE
  5
301
100
AcDbEntity
  8
L-ZISSEN
  6
CONTINUOUS
 62
     7
100
AcDbLine
 10
287.0
 20
90.082904
 30
0.0
 11
287.0
 21
73.917096
 31
0.0
  0
LINE
  5
302
100
AcDbEntity
  8
L-ZISSEN
  6
CONTINUOUS
 62
     7
100
AcDbLine
 10
292.0
 20
90.082904
 30
0.0
 11
292.0
 21
73.917096
 31
0.0
  0
LINE
  5
303
100
AcDbEntity
  8
L-ZISSEN
  6
CONTINUOUS
 62
     7
100
AcDbLine
 10
297.75
 20
60.0
 30
0.0
 11
297.75
 21
76.0
 31
0.0
  0
LINE
  5
304
100
AcDbEntity
  8
L-ZISSEN
  6
CONTINUOUS
 62
     7
100
AcDbLine
 10
306.25
 20
60.0
 30
0.0
 11
306.25
 21
76.0
 31
0.0
  0
LINE
  5
305
100
AcDbEntity
  8
L-ZISSEN
  6
CONTINUOUS
 62
     7
100
AcDbLine
 10
311.0
 20
76.0
 30
0.0
 11
292.0
 21
76.0
 31
0.0
  0
LINE
  5
306
100
AcDbEntity
  8
L-ZISSEN
  6
CONTINUOUS
 62
     7
100
AcDbLine
 10
299.0
 20
88.0
 30
0.0
 11
292.0
 21
88.0
 31
0.0
  0
LINE
  5
307
100
AcDbEntity
  8
L-ZISSEN
  6
CONTINUOUS
 62
     7
100
AcDbLine
 10
311.0
 20
76.0
 30
0.0
 11
311.0
 21
95.5
 31
0.0
  0
LINE
  5
308
100
AcDbEntity
  8
L-ZISSEN
  6
CONTINUOUS
 62
     7
100
AcDbLine
 10
299.0
 20
88.0
 30
0.0
 11
299.0
 21
95.5
 31
0.0
  0
LINE
  5
309
100
AcDbEntity
  8
L-ZISSEN
  6
CONTINUOUS
 62
     7
100
AcDbLine
 10
275.0
 20
79.113249
 30
0.0
 11
277.5
 21
79.113249
 31
0.0
  0
LINE
  5
30A
100
AcDbEntity
  8
L-ZISSEN
  6
CONTINUOUS
 62
     7
100
AcDbLine
 10
275.0
 20
84.886751
 30
0.0
 11
277.5
 21
84.886751
 31
0.0
  0
LINE
  5
30B
100
AcDbEntity
  8
L-ZISSEN
  6
CONTINUOUS
 62
     7
100
AcDbLine
 10
277.5
 20
69.5
 30
0.0
 11
281.0
 21
69.5
 31
0.0
  0
LINE
  5
30C
100
AcDbEntity
  8
L-ZISSEN
  6
CONTINUOUS
 62
     7
100
AcDbLine
 10
277.5
 20
94.5
 30
0.0
 11
281.0
 21
94.5
 31
0.0
  0
LINE
  5
30D
100
AcDbEntity
  8
L-ZISSEN
  6
CONTINUOUS
 62
     7
100
AcDbLine
 10
281.0
 20
79.75
 30
0.0
 11
287.0
 21
79.75
 31
0.0
  0
LINE
  5
30E
100
AcDbEntity
  8
L-ZISSEN
  6
CONTINUOUS
 62
     7
100
AcDbLine
 10
281.0
 20
84.25
 30
0.0
 11
287.0
 21
84.25
 31
0.0
  0
LINE
  5
30F
100
AcDbEntity
  8
L-ZISSEN
  6
CONTINUOUS
 62
     7
100
AcDbLine
 10
287.0
 20
73.917096
 30
0.0
 11
292.0
 21
73.917096
 31
0.0
  0
LINE
  5
310
100
AcDbEntity
  8
L-ZISSEN
  6
CONTINUOUS
 62
     7
100
AcDbLine
 10
287.0
 20
90.082904
 30
0.0
 11
292.0
 21
90.082904
 31
0.0
  0
LINE
  5
311
100
AcDbEntity
  8
L-ZISSEN
  6
CONTINUOUS
 62
     7
100
AcDbLine
 10
281.0
 20
94.5
 30
0.0
 11
281.0
 21
69.5
 31
0.0
  0
LINE
  5
312
100
AcDbEntity
  8
L-ZISSEN
  6
CONTINUOUS
 62
     7
100
AcDbLine
 10
277.5
 20
69.5
 30
0.0
 11
277.5
 21
94.5
 31
0.0
  0
LINE
  5
313
100
AcDbEntity
  8
L-ZISSEN
  6
CONTINUOUS
 62
     7
100
AcDbLine
 10
275.0
 20
84.886751
 30
0.0
 11
275.0
 21
79.113249
 31
0.0
  0
LINE
  5
314
100
AcDbEntity
  8
L-ZISSEN
  6
CONTINUOUS
 62
     7
100
AcDbLine
 10
306.25
 20
60.0
 30
0.0
 11
297.75
 21
60.0
 31
0.0
  0
LINE
  5
315
100
AcDbEntity
  8
L-ZISSEN
  6
CONTINUOUS
 62
     7
100
AcDbLine
 10
300.136
 20
101.0
 30
0.0
 11
300.136
 21
95.5
 31
0.0
  0
LINE
  5
316
100
AcDbEntity
  8
L-ZISSEN
  6
CONTINUOUS
 62
     7
100
AcDbLine
 10
309.864
 20
101.0
 30
0.0
 11
309.864
 21
95.5
 31
0.0
  0
LINE
  5
317
100
AcDbEntity
  8
L-ZISSEN
  6
CONTINUOUS
 62
     7
100
AcDbLine
 10
299.0
 20
95.5
 30
0.0
 11
311.0
 21
95.5
 31
0.0
  0
LINE
  5
318
100
AcDbEntity
  8
L-ZISSEN
  6
CONTINUOUS
 62
     7
100
AcDbLine
 10
120.136
 20
101.091026
 30
0.0
 11
120.136
 21
95.5
 31
0.0
  0
LINE
  5
319
100
AcDbEntity
  8
L-ZISSEN
  6
CONTINUOUS
 62
     7
100
AcDbLine
 10
129.864
 20
101.091026
 30
0.0
 11
129.864
 21
95.5
 31
0.0
  0
LINE
  5
31A
100
AcDbEntity
  8
L-ZISSEN
  6
CONTINUOUS
 62
     7
100
AcDbLine
 10
120.75
 20
60.0
 30
0.0
 11
120.75
 21
70.244682
 31
0.0
  0
LINE
  5
31B
100
AcDbEntity
  8
L-ZISSEN
  6
CONTINUOUS
 62
     7
100
AcDbLine
 10
129.25
 20
60.0
 30
0.0
 11
129.25
 21
70.244682
 31
0.0
  0
LINE
  5
31C
100
AcDbEntity
  8
L-ZISSEN
  6
CONTINUOUS
 62
     7
100
AcDbLine
 10
129.25
 20
60.0
 30
0.0
 11
120.75
 21
60.0
 31
0.0
  0
LINE
  5
31D
100
AcDbEntity
  8
L-ZISSEN
  6
CONTINUOUS
 62
     7
100
AcDbLine
 10
125.0
 20
84.886751
 30
0.0
 11
122.5
 21
83.443376
 31
0.0
  0
LINE
  5
31E
100
AcDbEntity
  8
L-ZISSEN
  6
CONTINUOUS
 62
     7
100
AcDbLine
 10
122.5
 20
83.443376
 30
0.0
 11
122.5
 21
80.556624
 31
0.0
  0
LINE
  5
31F
100
AcDbEntity
  8
L-ZISSEN
  6
CONTINUOUS
 62
     7
100
AcDbLine
 10
125.0
 20
79.113249
 30
0.0
 11
122.5
 21
80.556624
 31
0.0
  0
LINE
  5
320
100
AcDbEntity
  8
L-ZISSEN
  6
CONTINUOUS
 62
     7
100
AcDbLine
 10
125.0
 20
84.886751
 30
0.0
 11
127.5
 21
83.443376
 31
0.0
  0
LINE
  5
321
100
AcDbEntity
  8
L-ZISSEN
  6
CONTINUOUS
 62
     7
100
AcDbLine
 10
127.5
 20
83.443376
 30
0.0
 11
127.5
 21
80.556624
 31
0.0
  0
LINE
  5
322
100
AcDbEntity
  8
L-ZISSEN
  6
CONTINUOUS
 62
     7
100
AcDbLine
 10
125.0
 20
79.113249
 30
0.0
 11
127.5
 21
80.556624
 31
0.0
  0
LINE
  5
323
100
AcDbEntity
  8
L-ZISSEN
  6
CONTINUOUS
 62
     7
100
AcDbLine
 10
119.0
 20
92.965856
 30
0.0
 11
119.0
 21
95.5
 31
0.0
  0
LINE
  5
324
100
AcDbEntity
  8
L-ZISSEN
  6
CONTINUOUS
 62
     7
100
AcDbLine
 10
131.0
 20
92.965856
 30
0.0
 11
131.0
 21
95.5
 31
0.0
  0
LINE
  5
325
100
AcDbEntity
  8
L-ZISSEN
  6
CONTINUOUS
 62
     7
100
AcDbLine
 10
119.0
 20
95.5
 30
0.0
 11
131.0
 21
95.5
 31
0.0
  0
CIRCLE
  5
326
100
AcDbEntity
  8
L-ZISSEN
  6
CONTINUOUS
 62
     7
100
AcDbCircle
 10
125.0
 20
82.0
 30
0.0
 40
12.5
  0
LINE
  5
327
100
AcDbEntity
  8
L-ZISSEN
  6
CONTINUOUS
 62
     7
100
AcDbLine
 10
191.648872
 20
139.0
 30
0.0
 11
207.81468
 21
139.0
 31
0.0
  0
LINE
  5
328
100
AcDbEntity
  8
L-ZISSEN
  6
CONTINUOUS
 62
     7
100
AcDbLine
 10
191.648872
 20
139.0
 30
0.0
 11
191.648872
 21
129.0
 31
0.0
  0
LINE
  5
329
100
AcDbEntity
  8
L-ZISSEN
  6
CONTINUOUS
 62
     7
100
AcDbLine
 10
191.648872
 20
129.0
 30
0.0
 11
207.81468
 21
129.0
 31
0.0
  0
LINE
  5
32A
100
AcDbEntity
  8
L-ZISSEN
  6
CONTINUOUS
 62
     7
100
AcDbLine
 10
207.81468
 20
139.0
 30
0.0
 11
207.81468
 21
129.0
 31
0.0
  0
LINE
  5
32B
100
AcDbEntity
  8
L-ZISSEN
  6
CONTINUOUS
 62
     7
100
AcDbLine
 10
193.731776
 20
129.0
 30
0.0
 11
193.731776
 21
122.0
 31
0.0
  0
LINE
  5
32C
100
AcDbEntity
  8
L-ZISSEN
  6
CONTINUOUS
 62
     7
100
AcDbLine
 10
205.731776
 20
129.0
 30
0.0
 11
205.731776
 21
112.0
 31
0.0
  0
LINE
  5
32D
100
AcDbEntity
  8
L-ZISSEN
  6
CONTINUOUS
 62
     7
100
AcDbLine
 10
183.685603
 20
112.0
 30
0.0
 11
205.731776
 21
112.0
 31
0.0
  0
LINE
  5
32E
100
AcDbEntity
  8
L-ZISSEN
  6
CONTINUOUS
 62
     7
100
AcDbLine
 10
183.685603
 20
122.0
 30
0.0
 11
193.731776
 21
122.0
 31
0.0
  0
LINE
  5
32F
100
AcDbEntity
  8
L-ZISSEN
  6
CONTINUOUS
 62
     7
100
AcDbLine
 10
195.731776
 20
139.0
 30
0.0
 11
195.731776
 21
245.0
 31
0.0
  0
LINE
  5
330
100
AcDbEntity
  8
L-ZISSEN
  6
CONTINUOUS
 62
     7
100
AcDbLine
 10
203.731776
 20
139.0
 30
0.0
 11
203.731776
 21
245.0
 31
0.0
  0
LINE
  5
331
100
AcDbEntity
  8
L-ZISSEN
  6
CONTINUOUS
 62
     7
100
AcDbLine
 10
183.685603
 20
262.0
 30
0.0
 11
193.731776
 21
262.0
 31
0.0
  0
LINE
  5
332
100
AcDbEntity
  8
L-ZISSEN
  6
CONTINUOUS
 62
     7
100
AcDbLine
 10
183.685603
 20
272.0
 30
0.0
 11
205.731776
 21
272.0
 31
0.0
  0
LINE
  5
333
100
AcDbEntity
  8
L-ZISSEN
  6
CONTINUOUS
 62
     7
100
AcDbLine
 10
205.731776
 20
255.0
 30
0.0
 11
205.731776
 21
272.0
 31
0.0
  0
LINE
  5
334
100
AcDbEntity
  8
L-ZISSEN
  6
CONTINUOUS
 62
     7
100
AcDbLine
 10
193.731776
 20
255.0
 30
0.0
 11
193.731776
 21
262.0
 31
0.0
  0
LINE
  5
335
100
AcDbEntity
  8
L-ZISSEN
  6
CONTINUOUS
 62
     7
100
AcDbLine
 10
207.81468
 20
245.0
 30
0.0
 11
207.81468
 21
255.0
 31
0.0
  0
LINE
  5
336
100
AcDbEntity
  8
L-ZISSEN
  6
CONTINUOUS
 62
     7
100
AcDbLine
 10
191.648872
 20
255.0
 30
0.0
 11
207.81468
 21
255.0
 31
0.0
  0
LINE
  5
337
100
AcDbEntity
  8
L-ZISSEN
  6
CONTINUOUS
 62
     7
100
AcDbLine
 10
191.648872
 20
245.0
 30
0.0
 11
191.648872
 21
255.0
 31
0.0
  0
LINE
  5
338
100
AcDbEntity
  8
L-ZISSEN
  6
CONTINUOUS
 62
     7
100
AcDbLine
 10
191.648872
 20
245.0
 30
0.0
 11
207.81468
 21
245.0
 31
0.0
  0
LINE
  5
339
100
AcDbEntity
  8
L-ZISSEN
  6
CONTINUOUS
 62
     7
100
AcDbLine
 10
296.0
 20
129.0
 30
0.0
 11
296.0
 21
112.0
 31
0.0
  0
LINE
  5
33A
100
AcDbEntity
  8
L-ZISSEN
  6
CONTINUOUS
 62
     7
100
AcDbLine
 10
284.0
 20
129.0
 30
0.0
 11
284.0
 21
112.0
 31
0.0
  0
LINE
  5
33B
100
AcDbEntity
  8
L-ZISSEN
  6
CONTINUOUS
 62
     7
100
AcDbLine
 10
283.0
 20
129.0
 30
0.0
 11
297.0
 21
129.0
 31
0.0
  0
LINE
  5
33C
100
AcDbEntity
  8
L-ZISSEN
  6
CONTINUOUS
 62
     7
100
AcDbLine
 10
284.0
 20
112.0
 30
0.0
 11
296.0
 21
112.0
 31
0.0
  0
LINE
  5
33D
100
AcDbEntity
  8
L-ZISSEN
  6
CONTINUOUS
 62
     7
100
AcDbLine
 10
297.0
 20
129.0
 30
0.0
 11
297.0
 21
139.0
 31
0.0
  0
LINE
  5
33E
100
AcDbEntity
  8
L-ZISSEN
  6
CONTINUOUS
 62
     7
100
AcDbLine
 10
283.0
 20
129.0
 30
0.0
 11
283.0
 21
139.0
 31
0.0
  0
LINE
  5
33F
100
AcDbEntity
  8
L-ZISSEN
  6
CONTINUOUS
 62
     7
100
AcDbLine
 10
283.0
 20
139.0
 30
0.0
 11
297.0
 21
139.0
 31
0.0
  0
LINE
  5
340
100
AcDbEntity
  8
L-ZISSEN
  6
CONTINUOUS
 62
     7
100
AcDbLine
 10
284.0
 20
128.0
 30
0.0
 11
243.0
 21
128.0
 31
0.0
  0
LINE
  5
341
100
AcDbEntity
  8
L-ZISSEN
  6
CONTINUOUS
 62
     7
100
AcDbLine
 10
283.0
 20
245.0
 30
0.0
 11
297.0
 21
245.0
 31
0.0
  0
LINE
  5
342
100
AcDbEntity
  8
L-ZISSEN
  6
CONTINUOUS
 62
     7
100
AcDbLine
 10
283.0
 20
255.0
 30
0.0
 11
283.0
 21
245.0
 31
0.0
  0
LINE
  5
343
100
AcDbEntity
  8
L-ZISSEN
  6
CONTINUOUS
 62
     7
100
AcDbLine
 10
297.0
 20
255.0
 30
0.0
 11
297.0
 21
245.0
 31
0.0
  0
LINE
  5
344
100
AcDbEntity
  8
L-ZISSEN
  6
CONTINUOUS
 62
     7
100
AcDbLine
 10
284.0
 20
272.0
 30
0.0
 11
296.0
 21
272.0
 31
0.0
  0
LINE
  5
345
100
AcDbEntity
  8
L-ZISSEN
  6
CONTINUOUS
 62
     7
100
AcDbLine
 10
283.0
 20
255.0
 30
0.0
 11
297.0
 21
255.0
 31
0.0
  0
LINE
  5
346
100
AcDbEntity
  8
L-ZISSEN
  6
CONTINUOUS
 62
     7
100
AcDbLine
 10
284.0
 20
255.0
 30
0.0
 11
284.0
 21
272.0
 31
0.0
  0
LINE
  5
347
100
AcDbEntity
  8
L-ZISSEN
  6
CONTINUOUS
 62
     7
100
AcDbLine
 10
296.0
 20
255.0
 30
0.0
 11
296.0
 21
272.0
 31
0.0
  0
LINE
  5
348
100
AcDbEntity
  8
L-ZISSEN
  6
CONTINUOUS
 62
     7
100
AcDbLine
 10
284.0
 20
256.0
 30
0.0
 11
243.0
 21
256.0
 31
0.0
  0
LINE
  5
349
100
AcDbEntity
  8
L-ZISSEN
  6
CONTINUOUS
 62
     7
100
AcDbLine
 10
183.685603
 20
435.0
 30
0.0
 11
204.731776
 21
435.0
 31
0.0
  0
LINE
  5
34A
100
AcDbEntity
  8
L-ZISSEN
  6
CONTINUOUS
 62
     7
100
AcDbLine
 10
186.188234
 20
445.0
 30
0.0
 11
204.731776
 21
445.0
 31
0.0
  0
LINE
  5
34B
100
AcDbEntity
  8
L-ZISSEN
  6
CONTINUOUS
 62
     7
100
AcDbLine
 10
204.731776
 20
435.0
 30
0.0
 11
204.731776
 21
445.0
 31
0.0
  0
LINE
  5
34C
100
AcDbEntity
  8
L-ZISSEN
  6
CONTINUOUS
 62
     7
100
AcDbLine
 10
207.81468
 20
440.0
 30
0.0
 11
203.773228
 21
447.0
 31
0.0
  0
LINE
  5
34D
100
AcDbEntity
  8
L-ZISSEN
  6
CONTINUOUS
 62
     7
100
AcDbLine
 10
203.773228
 20
447.0
 30
0.0
 11
195.690324
 21
447.0
 31
0.0
  0
LINE
  5
34E
100
AcDbEntity
  8
L-ZISSEN
  6
CONTINUOUS
 62
     7
100
AcDbLine
 10
195.690324
 20
447.0
 30
0.0
 11
194.535624
 21
445.0
 31
0.0
  0
LINE
  5
34F
100
AcDbEntity
  8
L-ZISSEN
  6
CONTINUOUS
 62
     7
100
AcDbLine
 10
194.535624
 20
435.0
 30
0.0
 11
195.690324
 21
433.0
 31
0.0
  0
LINE
  5
350
100
AcDbEntity
  8
L-ZISSEN
  6
CONTINUOUS
 62
     7
100
AcDbLine
 10
195.690324
 20
433.0
 30
0.0
 11
203.773228
 21
433.0
 31
0.0
  0
LINE
  5
351
100
AcDbEntity
  8
L-ZISSEN
  6
CONTINUOUS
 62
     7
100
AcDbLine
 10
203.773228
 20
433.0
 30
0.0
 11
207.81468
 21
440.0
 31
0.0
  0
TEXT
  5
352
100
AcDbEntity
  8
L-ZISSEN
  6
CONTINUOUS
 62
     7
100
AcDbText
 10
485.0
 20
580.0
 30
0.0
 40
4.5
  1
NOL-5**-1XL FG21R
100
AcDbText
  0
TEXT
  5
353
100
AcDbEntity
  8
L-ZISSEN
  6
CONTINUOUS
 62
     7
100
AcDbText
 10
485.0
 20
590.0
 30
0.0
 40
4.5
  1
NOL-5**-1XL FG20R
100
AcDbText
  0
LINE
  5
354
100
AcDbEntity
  8
L-TYUSIN
  6
CENTER
 62
     1
100
AcDbLine
 10
655.0
 20
610.0
 30
0.0
 11
655.0
 21
20.0
 31
0.0
  0
TEXT
  5
355
100
AcDbEntity
  8
L-ZISSEN
  6
CONTINUOUS
 62
     7
100
AcDbText
 10
485.0
 20
315.0
 30
0.0
 40
4.5
  1
NOL-5**-1XL FG22R
100
AcDbText
  0
TEXT
  5
356
100
AcDbEntity
  8
L-ZISSEN
  6
CONTINUOUS
 62
     7
100
AcDbText
 10
485.0
 20
305.0
 30
0.0
 40
4.5
  1
NOL-5**-1XL FG23R
100
AcDbText
  0
TEXT
  5
357
100
AcDbEntity
  8
L-ZISSEN
  6
CONTINUOUS
 62
     7
100
AcDbText
 10
485.0
 20
285.0
 30
0.0
 40
4.5
  1
NOL-5**-1XL FG25R
100
AcDbText
  0
TEXT
  5
358
100
AcDbEntity
  8
L-ZISSEN
  6
CONTINUOUS
 62
     7
100
AcDbText
 10
485.0
 20
295.0
 30
0.0
 40
4.5
  1
NOL-5**-1XL FG24R
100
AcDbText
  0
LINE
  5
359
100
AcDbEntity
  8
L-ZISSEN
  6
CONTINUOUS
 62
     7
100
AcDbLine
 10
507.55
 20
471.05
 30
0.0
 11
507.55
 21
418.95
 31
0.0
  0
LINE
  5
35A
100
AcDbEntity
  8
L-ZISSEN
  6
CONTINUOUS
 62
     7
100
AcDbLine
 10
506.0
 20
418.95
 30
0.0
 11
506.0
 21
407.0
 31
0.0
  0
LINE
  5
35B
100
AcDbEntity
  8
L-ZISSEN
  6
CONTINUOUS
 62
     7
100
AcDbLine
 10
714.0
 20
418.95
 30
0.0
 11
714.0
 21
407.0
 31
0.0
  0
TEXT
  5
35C
100
AcDbEntity
  8
L-ZISSEN
  6
CONTINUOUS
 62
     7
100
AcDbText
 10
725.0
 20
315.0
 30
0.0
 40
4.5
  1
NOL-5**-1XL FG22L
100
AcDbText
  0
TEXT
  5
35D
100
AcDbEntity
  8
L-ZISSEN
  6
CONTINUOUS
 62
     7
100
AcDbText
 10
725.0
 20
305.0
 30
0.0
 40
4.5
  1
NOL-5**-1XL FG23L
100
AcDbText
  0
TEXT
  5
35E
100
AcDbEntity
  8
L-ZISSEN
  6
CONTINUOUS
 62
     7
100
AcDbText
 10
725.0
 20
295.0
 30
0.0
 40
4.5
  1
NOL-5**-1XL FG24L
100
AcDbText
  0
TEXT
  5
35F
100
AcDbEntity
  8
L-ZISSEN
  6
CONTINUOUS
 62
     7
100
AcDbText
 10
725.0
 20
285.0
 30
0.0
 40
4.5
  1
NOL-5**-1XL FG25L
100
AcDbText
  0
SOLID
  5
360
100
AcDbEntity
  8
L-ZISSEN
  6
CONTINUOUS
 62
     7
100
AcDbTrace
 10
80.194476
 20
454.077397
 30
0.0
 11
80.591295
 21
453.541693
 31
0.0
 12
82.0
 22
455.0
 32
0.0
 13
82.0
 23
455.0
 33
0.0
  0
LINE
  5
361
100
AcDbEntity
  8
L-ZISSEN
  6
CONTINUOUS
 62
     7
100
AcDbLine
 10
80.392886
 20
453.809545
 30
0.0
 11
55.0
 21
435.0
 31
0.0
  0
LINE
  5
362
100
AcDbEntity
  8
L-ZISSEN
  6
CONTINUOUS
 62
     7
100
AcDbLine
 10
55.0
 20
435.0
 30
0.0
 11
53.0
 21
435.0
 31
0.0
  0
TEXT
  5
363
100
AcDbEntity
  8
L-ZISSEN
  6
CONTINUOUS
 62
     7
100
AcDbText
 10
45.0
 20
432.75
 30
0.0
 40
4.5
  1
IN
100
AcDbText
  0
TEXT
  5
364
100
AcDbEntity
  8
L-ZISSEN
  6
CONTINUOUS
 62
     7
100
AcDbText
 10
30.0
 20
425.0
 30
0.0
 40
4.5
  1
Rc 1/4
100
AcDbText
  0
TEXT
  5
365
100
AcDbEntity
  8
L-ZISSEN
  6
CONTINUOUS
 62
     7
100
AcDbText
 10
30.0
 20
415.0
 30
0.0
 40
4.5
  1
Rc 3/8
100
AcDbText
  0
TEXT
  5
366
100
AcDbEntity
  8
L-ZISSEN
  6
CONTINUOUS
 62
     7
100
AcDbText
 10
30.0
 20
405.0
 30
0.0
 40
4.5
  1
Rc 1/2
100
AcDbText
  0
TEXT
  5
367
100
AcDbEntity
  8
L-ZISSEN
  6
CONTINUOUS
 62
     7
100
AcDbText
 10
65.0
 20
575.0
 30
0.0
 40
4.5
  1
MODEL NO. : NOL-803-1XL
100
AcDbText
  0
TEXT
  5
368
100
AcDbEntity
  8
L-ZISSEN
  6
CONTINUOUS
 62
     7
100
AcDbText
 10
135.5
 20
582.0
 30
0.0
 40
4.5
  1
02
100
AcDbText
  0
TEXT
  5
369
100
AcDbEntity
  8
L-ZISSEN
  6
CONTINUOUS
 62
     7
100
AcDbText
 10
135.5
 20
568.5
 30
0.0
 40
4.5
  1
04
100
AcDbText
  0
LINE
  5
36A
100
AcDbEntity
  8
L-TYUSIN
  6
CENTER
 62
     1
100
AcDbLine
 10
895.0
 20
610.0
 30
0.0
 11
895.0
 21
20.0
 31
0.0
  0
LINE
  5
36B
100
AcDbEntity
  8
L-ZISSEN
  6
CONTINUOUS
 62
     7
100
AcDbLine
 10
997.231776
 20
175.0
 30
0.0
 11
997.231776
 21
81.0
 31
0.0
  0
LINE
  5
36C
100
AcDbEntity
  8
L-ZISSEN
  6
CONTINUOUS
 62
     7
100
AcDbLine
 10
992.731776
 20
190.0
 30
0.0
 11
992.731776
 21
175.0
 31
0.0
  0
LINE
  5
36D
100
AcDbEntity
  8
L-ZISSEN
  6
CONTINUOUS
 62
     7
100
AcDbLine
 10
1011.731776
 20
190.0
 30
0.0
 11
992.731776
 21
190.0
 31
0.0
  0
LINE
  5
36E
100
AcDbEntity
  8
L-ZISSEN
  6
CONTINUOUS
 62
     7
100
AcDbLine
 10
992.731776
 20
175.0
 30
0.0
 11
1011.731776
 21
175.0
 31
0.0
  0
LINE
  5
36F
100
AcDbEntity
  8
L-ZISSEN
  6
CONTINUOUS
 62
     7
100
AcDbLine
 10
983.685603
 20
197.75
 30
0.0
 11
993.731776
 21
197.75
 31
0.0
  0
LINE
  5
370
100
AcDbEntity
  8
L-ZISSEN
  6
CONTINUOUS
 62
     7
100
AcDbLine
 10
983.685603
 20
208.25
 30
0.0
 11
993.731776
 21
208.25
 31
0.0
  0
LINE
  5
371
100
AcDbEntity
  8
L-ZISSEN
  6
CONTINUOUS
 62
     7
100
AcDbLine
 10
993.731776
 20
213.0
 30
0.0
 11
993.731776
 21
194.0
 31
0.0
  0
LINE
  5
372
100
AcDbEntity
  8
L-ZISSEN
  6
CONTINUOUS
 62
     7
100
AcDbLine
 10
993.731776
 20
194.0
 30
0.0
 11
1010.731776
 21
194.0
 31
0.0
  0
LINE
  5
373
100
AcDbEntity
  8
L-ZISSEN
  6
CONTINUOUS
 62
     7
100
AcDbLine
 10
994.231776
 20
194.0
 30
0.0
 11
994.231776
 21
190.0
 31
0.0
  0
LINE
  5
374
100
AcDbEntity
  8
L-ZISSEN
  6
CONTINUOUS
 62
     7
100
AcDbLine
 10
993.731776
 20
213.0
 30
0.0
 11
1010.731776
 21
213.0
 31
0.0
  0
LINE
  5
375
100
AcDbEntity
  8
L-ZISSEN
  6
CONTINUOUS
 62
     7
100
AcDbLine
 10
1010.231776
 20
194.0
 30
0.0
 11
1010.231776
 21
190.0
 31
0.0
  0
LINE
  5
376
100
AcDbEntity
  8
L-ZISSEN
  6
CONTINUOUS
 62
     7
100
AcDbLine
 10
1010.731776
 20
213.0
 30
0.0
 11
1010.731776
 21
194.0
 31
0.0
  0
LINE
  5
377
100
AcDbEntity
  8
L-ZISSEN
  6
CONTINUOUS
 62
     7
100
AcDbLine
 10
1011.731776
 20
190.0
 30
0.0
 11
1011.731776
 21
175.0
 31
0.0
  0
LINE
  5
378
100
AcDbEntity
  8
L-ZISSEN
  6
CONTINUOUS
 62
     7
100
AcDbLine
 10
1007.231776
 20
175.0
 30
0.0
 11
1007.231776
 21
81.0
 31
0.0
  0
LINE
  5
379
100
AcDbEntity
  8
L-ZISSEN
  6
CONTINUOUS
 62
     7
100
AcDbLine
 10
992.731776
 20
66.0
 30
0.0
 11
992.731776
 21
81.0
 31
0.0
  0
LINE
  5
37A
100
AcDbEntity
  8
L-ZISSEN
  6
CONTINUOUS
 62
     7
100
AcDbLine
 10
983.685603
 20
58.25
 30
0.0
 11
993.731776
 21
58.25
 31
0.0
  0
LINE
  5
37B
100
AcDbEntity
  8
L-ZISSEN
  6
CONTINUOUS
 62
     7
100
AcDbLine
 10
983.685603
 20
47.75
 30
0.0
 11
993.731776
 21
47.75
 31
0.0
  0
LINE
  5
37C
100
AcDbEntity
  8
L-ZISSEN
  6
CONTINUOUS
 62
     7
100
AcDbLine
 10
1011.731776
 20
66.0
 30
0.0
 11
992.731776
 21
66.0
 31
0.0
  0
LINE
  5
37D
100
AcDbEntity
  8
L-ZISSEN
  6
CONTINUOUS
 62
     7
100
AcDbLine
 10
993.731776
 20
43.0
 30
0.0
 11
1010.731776
 21
43.0
 31
0.0
  0
LINE
  5
37E
100
AcDbEntity
  8
L-ZISSEN
  6
CONTINUOUS
 62
     7
100
AcDbLine
 10
994.231776
 20
62.0
 30
0.0
 11
994.231776
 21
66.0
 31
0.0
  0
LINE
  5
37F
100
AcDbEntity
  8
L-ZISSEN
  6
CONTINUOUS
 62
     7
100
AcDbLine
 10
993.731776
 20
62.0
 30
0.0
 11
1010.731776
 21
62.0
 31
0.0
  0
LINE
  5
380
100
AcDbEntity
  8
L-ZISSEN
  6
CONTINUOUS
 62
     7
100
AcDbLine
 10
993.731776
 20
43.0
 30
0.0
 11
993.731776
 21
62.0
 31
0.0
  0
LINE
  5
381
100
AcDbEntity
  8
L-ZISSEN
  6
CONTINUOUS
 62
     7
100
AcDbLine
 10
992.731776
 20
81.0
 30
0.0
 11
1011.731776
 21
81.0
 31
0.0
  0
LINE
  5
382
100
AcDbEntity
  8
L-ZISSEN
  6
CONTINUOUS
 62
     7
100
AcDbLine
 10
1010.731776
 20
43.0
 30
0.0
 11
1010.731776
 21
62.0
 31
0.0
  0
LINE
  5
383
100
AcDbEntity
  8
L-ZISSEN
  6
CONTINUOUS
 62
     7
100
AcDbLine
 10
1011.731776
 20
66.0
 30
0.0
 11
1011.731776
 21
81.0
 31
0.0
  0
LINE
  5
384
100
AcDbEntity
  8
L-ZISSEN
  6
CONTINUOUS
 62
     7
100
AcDbLine
 10
1010.231776
 20
62.0
 30
0.0
 11
1010.231776
 21
66.0
 31
0.0
  0
LINE
  5
385
100
AcDbEntity
  8
L-ZISSEN
  6
CONTINUOUS
 62
     7
100
AcDbLine
 10
1080.185045
 20
43.0
 30
0.0
 11
1099.814955
 21
43.0
 31
0.0
  0
LINE
  5
386
100
AcDbEntity
  8
L-ZISSEN
  6
CONTINUOUS
 62
     7
100
AcDbLine
 10
1082.0
 20
62.0
 30
0.0
 11
1082.0
 21
66.0
 31
0.0
  0
LINE
  5
387
100
AcDbEntity
  8
L-ZISSEN
  6
CONTINUOUS
 62
     7
100
AcDbLine
 10
1100.969655
 20
66.0
 30
0.0
 11
1079.030345
 21
66.0
 31
0.0
  0
LINE
  5
388
100
AcDbEntity
  8
L-ZISSEN
  6
CONTINUOUS
 62
     7
100
AcDbLine
 10
1098.0
 20
62.0
 30
0.0
 11
1098.0
 21
66.0
 31
0.0
  0
LINE
  5
389
100
AcDbEntity
  8
L-ZISSEN
  6
CONTINUOUS
 62
     7
100
AcDbLine
 10
1079.030345
 20
81.0
 30
0.0
 11
1100.969655
 21
81.0
 31
0.0
  0
LINE
  5
38A
100
AcDbEntity
  8
L-ZISSEN
  6
CONTINUOUS
 62
     7
100
AcDbLine
 10
1080.185045
 20
62.0
 30
0.0
 11
1099.814955
 21
62.0
 31
0.0
  0
LINE
  5
38B
100
AcDbEntity
  8
L-ZISSEN
  6
CONTINUOUS
 62
     7
100
AcDbLine
 10
1079.030345
 20
66.0
 30
0.0
 11
1079.030345
 21
81.0
 31
0.0
  0
LINE
  5
38C
100
AcDbEntity
  8
L-ZISSEN
  6
CONTINUOUS
 62
     7
100
AcDbLine
 10
1100.969655
 20
66.0
 30
0.0
 11
1100.969655
 21
81.0
 31
0.0
  0
LINE
  5
38D
100
AcDbEntity
  8
L-ZISSEN
  6
CONTINUOUS
 62
     7
100
AcDbLine
 10
1095.0
 20
175.0
 30
0.0
 11
1095.0
 21
81.0
 31
0.0
  0
LINE
  5
38E
100
AcDbEntity
  8
L-ZISSEN
  6
CONTINUOUS
 62
     7
100
AcDbLine
 10
1085.0
 20
175.0
 30
0.0
 11
1085.0
 21
81.0
 31
0.0
  0
LINE
  5
38F
100
AcDbEntity
  8
L-ZISSEN
  6
CONTINUOUS
 62
     7
100
AcDbLine
 10
1080.185045
 20
43.0
 30
0.0
 11
1080.185045
 21
62.0
 31
0.0
  0
LINE
  5
390
100
AcDbEntity
  8
L-ZISSEN
  6
CONTINUOUS
 62
     7
100
AcDbLine
 10
1099.814955
 20
43.0
 30
0.0
 11
1099.814955
 21
62.0
 31
0.0
  0
LINE
  5
391
100
AcDbEntity
  8
L-ZISSEN
  6
CONTINUOUS
 62
     7
100
AcDbLine
 10
1099.814955
 20
213.0
 30
0.0
 11
1099.814955
 21
194.0
 31
0.0
  0
LINE
  5
392
100
AcDbEntity
  8
L-ZISSEN
  6
CONTINUOUS
 62
     7
100
AcDbLine
 10
1080.185045
 20
213.0
 30
0.0
 11
1080.185045
 21
194.0
 31
0.0
  0
LINE
  5
393
100
AcDbEntity
  8
L-ZISSEN
  6
CONTINUOUS
 62
     7
100
AcDbLine
 10
1100.969655
 20
190.0
 30
0.0
 11
1100.969655
 21
175.0
 31
0.0
  0
LINE
  5
394
100
AcDbEntity
  8
L-ZISSEN
  6
CONTINUOUS
 62
     7
100
AcDbLine
 10
1079.030345
 20
190.0
 30
0.0
 11
1079.030345
 21
175.0
 31
0.0
  0
LINE
  5
395
100
AcDbEntity
  8
L-ZISSEN
  6
CONTINUOUS
 62
     7
100
AcDbLine
 10
1080.185045
 20
194.0
 30
0.0
 11
1099.814955
 21
194.0
 31
0.0
  0
LINE
  5
396
100
AcDbEntity
  8
L-ZISSEN
  6
CONTINUOUS
 62
     7
100
AcDbLine
 10
1079.030345
 20
175.0
 30
0.0
 11
1100.969655
 21
175.0
 31
0.0
  0
LINE
  5
397
100
AcDbEntity
  8
L-ZISSEN
  6
CONTINUOUS
 62
     7
100
AcDbLine
 10
1098.0
 20
194.0
 30
0.0
 11
1098.0
 21
190.0
 31
0.0
  0
LINE
  5
398
100
AcDbEntity
  8
L-ZISSEN
  6
CONTINUOUS
 62
     7
100
AcDbLine
 10
1100.969655
 20
190.0
 30
0.0
 11
1079.030345
 21
190.0
 31
0.0
  0
LINE
  5
399
100
AcDbEntity
  8
L-ZISSEN
  6
CONTINUOUS
 62
     7
100
AcDbLine
 10
1082.0
 20
194.0
 30
0.0
 11
1082.0
 21
190.0
 31
0.0
  0
LINE
  5
39A
100
AcDbEntity
  8
L-ZISSEN
  6
CONTINUOUS
 62
     7
100
AcDbLine
 10
1080.185045
 20
213.0
 30
0.0
 11
1099.814955
 21
213.0
 31
0.0
  0
SOLID
  5
39B
100
AcDbEntity
  8
L-ZISSEN
  6
CONTINUOUS
 62
     7
100
AcDbTrace
 10
926.178511
 20
293.350084
 30
0.0
 11
926.649916
 21
293.821489
 31
0.0
 12
925.0
 22
295.0
 32
0.0
 13
925.0
 23
295.0
 33
0.0
  0
LINE
  5
39C
100
AcDbEntity
  8
L-ZISSEN
  6
CONTINUOUS
 62
     7
100
AcDbLine
 10
926.414214
 20
293.585786
 30
0.0
 11
935.0
 21
285.0
 31
0.0
  0
LINE
  5
39D
100
AcDbEntity
  8
L-ZISSEN
  6
CONTINUOUS
 62
     7
100
AcDbLine
 10
935.0
 20
285.0
 30
0.0
 11
937.0
 21
285.0
 31
0.0
  0
TEXT
  5
39E
100
AcDbEntity
  8
L-ZISSEN
  6
CONTINUOUS
 62
     7
100
AcDbText
 10
939.0
 20
282.75
 30
0.0
 40
4.5
  1
P.P
100
AcDbText
  0
LINE
  5
39F
100
AcDbEntity
  8
L-ZISSEN
  6
CONTINUOUS
 62
     7
100
AcDbLine
 10
183.685603
 20
272.0
 30
0.0
 11
183.685603
 21
262.0
 31
0.0
  0
LINE
  5
3A0
100
AcDbEntity
  8
L-ZISSEN
  6
CONTINUOUS
 62
     7
100
AcDbLine
 10
187.0
 20
262.0
 30
0.0
 11
187.0
 21
256.0
 31
0.0
  0
LINE
  5
3A1
100
AcDbEntity
  8
L-ZISSEN
  6
CONTINUOUS
 62
     7
100
AcDbLine
 10
183.685603
 20
122.0
 30
0.0
 11
183.685603
 21
112.0
 31
0.0
  0
LINE
  5
3A2
100
AcDbEntity
  8
L-ZISSEN
  6
CONTINUOUS
 62
     7
100
AcDbLine
 10
187.0
 20
112.0
 30
0.0
 11
187.0
 21
108.0
 31
0.0
  0
LINE
  5
3A3
100
AcDbEntity
  8
L-ZISSEN
  6
CONTINUOUS
 62
     7
100
AcDbLine
 10
983.685603
 20
58.25
 30
0.0
 11
983.685603
 21
47.75
 31
0.0
  0
LINE
  5
3A4
100
AcDbEntity
  8
L-ZISSEN
  6
CONTINUOUS
 62
     7
100
AcDbLine
 10
983.685603
 20
208.25
 30
0.0
 11
983.685603
 21
197.75
 31
0.0
  0
LINE
  5
3A5
100
AcDbEntity
  8
L-ZISSEN
  6
CONTINUOUS
 62
     7
100
AcDbLine
 10
983.599808
 20
274.75
 30
0.0
 11
994.325043
 21
274.75
 31
0.0
  0
LINE
  5
3A6
100
AcDbEntity
  8
L-ZISSEN
  6
CONTINUOUS
 62
     7
100
AcDbLine
 10
986.228568
 20
285.25
 30
0.0
 11
994.325043
 21
285.25
 31
0.0
  0
LINE
  5
3A7
100
AcDbEntity
  8
L-ZISSEN
  6
CONTINUOUS
 62
     7
100
AcDbLine
 10
993.731776
 20
275.092523
 30
0.0
 11
1002.231776
 21
270.185045
 31
0.0
  0
LINE
  5
3A8
100
AcDbEntity
  8
L-ZISSEN
  6
CONTINUOUS
 62
     7
100
AcDbLine
 10
1002.231776
 20
270.185045
 30
0.0
 11
1010.731776
 21
275.092523
 31
0.0
  0
LINE
  5
3A9
100
AcDbEntity
  8
L-ZISSEN
  6
CONTINUOUS
 62
     7
100
AcDbLine
 10
1010.731776
 20
275.092523
 30
0.0
 11
1010.731776
 21
284.907477
 31
0.0
  0
LINE
  5
3AA
100
AcDbEntity
  8
L-ZISSEN
  6
CONTINUOUS
 62
     7
100
AcDbLine
 10
1010.731776
 20
284.907477
 30
0.0
 11
1002.231776
 21
289.814955
 31
0.0
  0
LINE
  5
3AB
100
AcDbEntity
  8
L-ZISSEN
  6
CONTINUOUS
 62
     7
100
AcDbLine
 10
1002.231776
 20
289.814955
 30
0.0
 11
993.731776
 21
284.907477
 31
0.0
  0
LINE
  5
3AC
100
AcDbEntity
  8
L-ZISSEN
  6
CONTINUOUS
 62
     7
100
AcDbLine
 10
993.731776
 20
284.907477
 30
0.0
 11
993.731776
 21
275.092523
 31
0.0
  0
LINE
  5
3AD
100
AcDbEntity
  8
L-ZISSEN
  6
CONTINUOUS
 62
     7
100
AcDbLine
 10
992.731776
 20
274.515172
 30
0.0
 11
1002.231776
 21
269.030345
 31
0.0
  0
LINE
  5
3AE
100
AcDbEntity
  8
L-ZISSEN
  6
CONTINUOUS
 62
     7
100
AcDbLine
 10
1002.231776
 20
269.030345
 30
0.0
 11
1011.731776
 21
274.515172
 31
0.0
  0
LINE
  5
3AF
100
AcDbEntity
  8
L-ZISSEN
  6
CONTINUOUS
 62
     7
100
AcDbLine
 10
1011.731776
 20
274.515172
 30
0.0
 11
1011.731776
 21
285.484828
 31
0.0
  0
LINE
  5
3B0
100
AcDbEntity
  8
L-ZISSEN
  6
CONTINUOUS
 62
     7
100
AcDbLine
 10
1011.731776
 20
285.484828
 30
0.0
 11
1002.231776
 21
290.969655
 31
0.0
  0
LINE
  5
3B1
100
AcDbEntity
  8
L-ZISSEN
  6
CONTINUOUS
 62
     7
100
AcDbLine
 10
1002.231776
 20
290.969655
 30
0.0
 11
992.731776
 21
285.484828
 31
0.0
  0
LINE
  5
3B2
100
AcDbEntity
  8
L-ZISSEN
  6
CONTINUOUS
 62
     7
100
AcDbLine
 10
992.731776
 20
285.484828
 30
0.0
 11
992.731776
 21
285.25
 31
0.0
  0
LINE
  5
3B3
100
AcDbEntity
  8
L-ZISSEN
  6
CONTINUOUS
 62
     7
100
AcDbLine
 10
992.731776
 20
274.75
 30
0.0
 11
992.731776
 21
274.515172
 31
0.0
  0
TEXT
  5
3B4
100
AcDbEntity
  8
L-ZISSEN
  6
CONTINUOUS
 62
     7
100
AcDbText
 10
915.0
 20
325.0
 30
0.0
 40
4.5
  1
GLASS LEVEL GAUGE
100
AcDbText
  0
TEXT
  5
3B5
100
AcDbEntity
  8
L-ZISSEN
  6
CONTINUOUS
 62
     7
100
AcDbText
 10
915.0
 20
315.0
 30
0.0
 40
4.5
  1
MODEL NO. : NOL-5**-1XLS
100
AcDbText
  0
LINE
  5
3B6
100
AcDbEntity
  8
L-ZISSEN
  6
CONTINUOUS
 62
     7
100
AcDbLine
 10
122.0
 20
275.5
 30
0.0
 11
122.0
 21
274.0
 31
0.0
  0
LINE
  5
3B7
100
AcDbEntity
  8
L-ZISSEN
  6
CONTINUOUS
 62
     7
100
AcDbLine
 10
128.0
 20
275.5
 30
0.0
 11
128.0
 21
274.0
 31
0.0
  0
LINE
  5
3B8
100
AcDbEntity
  8
L-ZISSEN
  6
CONTINUOUS
 62
     7
100
AcDbLine
 10
156.0
 20
275.5
 30
0.0
 11
156.0
 21
274.0
 31
0.0
  0
LINE
  5
3B9
100
AcDbEntity
  8
L-ZISSEN
  6
CONTINUOUS
 62
     7
100
AcDbLine
 10
94.0
 20
275.5
 30
0.0
 11
94.0
 21
274.0
 31
0.0
  0
LINE
  5
3BA
100
AcDbEntity
  8
L-ZISSEN
  6
CONTINUOUS
 62
     7
100
AcDbLine
 10
282.0
 20
275.5
 30
0.0
 11
282.0
 21
274.0
 31
0.0
  0
LINE
  5
3BB
100
AcDbEntity
  8
L-ZISSEN
  6
CONTINUOUS
 62
     7
100
AcDbLine
 10
276.0
 20
275.5
 30
0.0
 11
276.0
 21
274.0
 31
0.0
  0
LINE
  5
3BC
100
AcDbEntity
  8
L-ZISSEN
  6
CONTINUOUS
 62
     7
100
AcDbLine
 10
328.0
 20
275.5
 30
0.0
 11
328.0
 21
274.0
 31
0.0
  0
LINE
  5
3BD
100
AcDbEntity
  8
L-ZISSEN
  6
CONTINUOUS
 62
     7
100
AcDbLine
 10
334.0
 20
275.5
 30
0.0
 11
334.0
 21
274.0
 31
0.0
  0
LINE
  5
3BE
100
AcDbEntity
  8
L-ZISSEN
  6
CONTINUOUS
 62
     7
100
AcDbLine
 10
67.85
 20
256.0
 30
0.0
 11
67.85
 21
128.0
 31
0.0
  0
LINE
  5
3BF
100
AcDbEntity
  8
L-ZISSEN
  6
CONTINUOUS
 62
     7
100
AcDbLine
 10
247.85
 20
256.0
 30
0.0
 11
247.85
 21
128.0
 31
0.0
  0
SOLID
  5
3C0
100
AcDbEntity
  8
L-ZISSEN
100
AcDbTrace
 10
126.232335
 20
295.110112
 30
0.0
 11
125.643524
 21
295.422755
 31
0.0
 12
125.0
 22
293.5
 32
0.0
 13
125.0
 23
293.5
 33
0.0
  0
LINE
  5
3C1
100
AcDbEntity
  8
L-ZISSEN
100
AcDbLine
 10
125.937929
 20
295.266434
 30
0.0
 11
155.0
 21
350.0
 31
0.0
  0
LINE
  5
3C2
100
AcDbEntity
  8
L-ZISSEN
100
AcDbLine
 10
155.0
 20
350.0
 30
0.0
 11
157.0
 21
350.0
 31
0.0
  0
TEXT
  5
3C3
100
AcDbEntity
  8
L-ZISSEN
100
AcDbText
 10
159.0
 20
347.75
 30
0.0
 40
4.5
  1
P.P
100
AcDbText
  0
LINE
  5
3C4
100
AcDbEntity
  8
L-ZISSEN
  6
CONTINUOUS
 62
     7
100
AcDbLine
 10
336.25
 20
284.5
 30
0.0
 11
336.25
 21
283.5
 31
0.0
  0
LINE
  5
3C5
100
AcDbEntity
  8
L-ZISSEN
  6
CONTINUOUS
 62
     7
100
AcDbLine
 10
341.776865
 20
294.8
 30
0.0
 11
342.483294
 21
296.740897
 31
0.0
  0
SOLID
  5
3C6
100
AcDbEntity
  8
L-ZISSEN
100
AcDbTrace
 10
306.624834
 20
294.712858
 30
0.0
 11
306.143646
 21
295.174271
 31
0.0
 12
305.0
 22
293.5
 32
0.0
 13
305.0
 23
293.5
 33
0.0
  0
LINE
  5
3C7
100
AcDbEntity
  8
L-ZISSEN
100
AcDbLine
 10
306.38424
 20
294.943565
 30
0.0
 11
340.0
 21
330.0
 31
0.0
  0
LINE
  5
3C8
100
AcDbEntity
  8
L-ZISSEN
100
AcDbLine
 10
340.0
 20
330.0
 30
0.0
 11
342.0
 21
330.0
 31
0.0
  0
TEXT
  5
3C9
100
AcDbEntity
  8
L-ZISSEN
100
AcDbText
 10
344.0
 20
327.75
 30
0.0
 40
4.5
  1
P.P
100
AcDbText
  0
SOLID
  5
3CA
100
AcDbEntity
  8
L-ZISSEN
100
AcDbTrace
 10
926.62069
 20
230.718391
 30
0.0
 11
926.137931
 21
231.178161
 31
0.0
 12
925.0
 22
229.5
 32
0.0
 13
925.0
 23
229.5
 33
0.0
  0
LINE
  5
3CB
100
AcDbEntity
  8
L-ZISSEN
100
AcDbLine
 10
926.37931
 20
230.948276
 30
0.0
 11
935.0
 21
240.0
 31
0.0
  0
LINE
  5
3CC
100
AcDbEntity
  8
L-ZISSEN
100
AcDbLine
 10
935.0
 20
240.0
 30
0.0
 11
937.0
 21
240.0
 31
0.0
  0
TEXT
  5
3CD
100
AcDbEntity
  8
L-ZISSEN
100
AcDbText
 10
939.0
 20
237.75
 30
0.0
 40
4.5
  1
P.P
100
AcDbText
  0
SOLID
  5
3CE
100
AcDbEntity
  8
L-ZISSEN
100
AcDbTrace
 10
1106.62069
 20
230.718391
 30
0.0
 11
1106.137931
 21
231.178161
 31
0.0
 12
1105.0
 22
229.5
 32
0.0
 13
1105.0
 23
229.5
 33
0.0
  0
LINE
  5
3CF
100
AcDbEntity
  8
L-ZISSEN
100
AcDbLine
 10
1106.37931
 20
230.948276
 30
0.0
 11
1115.0
 21
240.0
 31
0.0
  0
LINE
  5
3D0
100
AcDbEntity
  8
L-ZISSEN
100
AcDbLine
 10
1115.0
 20
240.0
 30
0.0
 11
1117.0
 21
240.0
 31
0.0
  0
TEXT
  5
3D1
100
AcDbEntity
  8
L-ZISSEN
100
AcDbText
 10
1119.0
 20
237.75
 30
0.0
 40
4.5
  1
P.P
100
AcDbText
  0
SOLID
  5
3D2
100
AcDbEntity
  8
L-ZISSEN
100
AcDbTrace
 10
450.724655
 20
367.06615
 30
0.0
 11
450.285652
 21
367.567868
 31
0.0
 12
449.0
 22
366.0
 32
0.0
 13
449.0
 23
366.0
 33
0.0
  0
LINE
  5
3D3
100
AcDbEntity
  8
L-ZISSEN
100
AcDbLine
 10
450.505153
 20
367.317009
 30
0.0
 11
465.0
 21
380.0
 31
0.0
  0
LINE
  5
3D4
100
AcDbEntity
  8
L-ZISSEN
100
AcDbLine
 10
465.0
 20
380.0
 30
0.0
 11
467.0
 21
380.0
 31
0.0
  0
TEXT
  5
3D5
100
AcDbEntity
  8
L-ZISSEN
100
AcDbText
 10
469.0
 20
377.75
 30
0.0
 40
4.5
  1
P.P
100
AcDbText
  0
SOLID
  5
3D6
100
AcDbEntity
  8
L-ZISSEN
100
AcDbTrace
 10
566.882003
 20
367.132244
 30
0.0
 11
566.42387
 21
367.616556
 31
0.0
 12
565.2
 22
366.0
 32
0.0
 13
565.2
 23
366.0
 33
0.0
  0
LINE
  5
3D7
100
AcDbEntity
  8
L-ZISSEN
100
AcDbLine
 10
566.652937
 20
367.3744
 30
0.0
 11
580.0
 21
380.0
 31
0.0
  0
LINE
  5
3D8
100
AcDbEntity
  8
L-ZISSEN
100
AcDbLine
 10
580.0
 20
380.0
 30
0.0
 11
582.0
 21
380.0
 31
0.0
  0
TEXT
  5
3D9
100
AcDbEntity
  8
L-ZISSEN
100
AcDbText
 10
584.0
 20
377.75
 30
0.0
 40
4.5
  1
P.P
100
AcDbText
  0
SOLID
  5
3DA
100
AcDbEntity
  8
L-ZISSEN
100
AcDbTrace
 10
450.724655
 20
32.06615
 30
0.0
 11
450.285652
 21
32.567868
 31
0.0
 12
449.0
 22
31.0
 32
0.0
 13
449.0
 23
31.0
 33
0.0
  0
LINE
  5
3DB
100
AcDbEntity
  8
L-ZISSEN
100
AcDbLine
 10
450.505153
 20
32.317009
 30
0.0
 11
465.0
 21
45.0
 31
0.0
  0
LINE
  5
3DC
100
AcDbEntity
  8
L-ZISSEN
100
AcDbLine
 10
465.0
 20
45.0
 30
0.0
 11
467.0
 21
45.0
 31
0.0
  0
TEXT
  5
3DD
100
AcDbEntity
  8
L-ZISSEN
100
AcDbText
 10
469.0
 20
42.75
 30
0.0
 40
4.5
  1
P.P
100
AcDbText
  0
SOLID
  5
3DE
100
AcDbEntity
  8
L-ZISSEN
100
AcDbTrace
 10
566.882003
 20
32.132244
 30
0.0
 11
566.42387
 21
32.616556
 31
0.0
 12
565.2
 22
31.0
 32
0.0
 13
565.2
 23
31.0
 33
0.0
  0
LINE
  5
3DF
100
AcDbEntity
  8
L-ZISSEN
100
AcDbLine
 10
566.652937
 20
32.3744
 30
0.0
 11
580.0
 21
45.0
 31
0.0
  0
LINE
  5
3E0
100
AcDbEntity
  8
L-ZISSEN
100
AcDbLine
 10
580.0
 20
45.0
 30
0.0
 11
582.0
 21
45.0
 31
0.0
  0
TEXT
  5
3E1
100
AcDbEntity
  8
L-ZISSEN
100
AcDbText
 10
584.0
 20
42.75
 30
0.0
 40
4.5
  1
P.P
100
AcDbText
  0
SOLID
  5
3E2
100
AcDbEntity
  8
L-ZISSEN
100
AcDbTrace
 10
769.966699
 20
367.744534
 30
0.0
 11
769.456758
 21
367.31511
 31
0.0
 12
771.0
 22
366.0
 32
0.0
 13
771.0
 23
366.0
 33
0.0
  0
LINE
  5
3E3
100
AcDbEntity
  8
L-ZISSEN
100
AcDbLine
 10
769.711729
 20
367.529822
 30
0.0
 11
755.0
 21
385.0
 31
0.0
  0
LINE
  5
3E4
100
AcDbEntity
  8
L-ZISSEN
100
AcDbLine
 10
755.0
 20
385.0
 30
0.0
 11
753.0
 21
385.0
 31
0.0
  0
TEXT
  5
3E5
100
AcDbEntity
  8
L-ZISSEN
100
AcDbText
 10
742.0
 20
382.75
 30
0.0
 40
4.5
  1
P.P
100
AcDbText
  0
SOLID
  5
3E6
100
AcDbEntity
  8
L-ZISSEN
100
AcDbTrace
 10
806.873859
 20
367.144249
 30
0.0
 11
806.412273
 21
367.625271
 31
0.0
 12
805.2
 22
366.0
 32
0.0
 13
805.2
 23
366.0
 33
0.0
  0
LINE
  5
3E7
100
AcDbEntity
  8
L-ZISSEN
100
AcDbLine
 10
806.643066
 20
367.38476
 30
0.0
 11
825.0
 21
385.0
 31
0.0
  0
LINE
  5
3E8
100
AcDbEntity
  8
L-ZISSEN
100
AcDbLine
 10
825.0
 20
385.0
 30
0.0
 11
827.0
 21
385.0
 31
0.0
  0
TEXT
  5
3E9
100
AcDbEntity
  8
L-ZISSEN
100
AcDbText
 10
829.0
 20
382.75
 30
0.0
 40
4.5
  1
P.P
100
AcDbText
  0
SOLID
  5
3EA
100
AcDbEntity
  8
L-ZISSEN
100
AcDbTrace
 10
769.714348
 20
32.567868
 30
0.0
 11
769.275345
 21
32.06615
 31
0.0
 12
771.0
 22
31.0
 32
0.0
 13
771.0
 23
31.0
 33
0.0
  0
LINE
  5
3EB
100
AcDbEntity
  8
L-ZISSEN
100
AcDbLine
 10
769.494847
 20
32.317009
 30
0.0
 11
755.0
 21
45.0
 31
0.0
  0
LINE
  5
3EC
100
AcDbEntity
  8
L-ZISSEN
100
AcDbLine
 10
755.0
 20
45.0
 30
0.0
 11
753.0
 21
45.0
 31
0.0
  0
TEXT
  5
3ED
100
AcDbEntity
  8
L-ZISSEN
100
AcDbText
 10
742.0
 20
42.75
 30
0.0
 40
4.5
  1
P.P
100
AcDbText
  0
SOLID
  5
3EE
100
AcDbEntity
  8
L-ZISSEN
100
AcDbTrace
 10
806.882003
 20
32.132244
 30
0.0
 11
806.42387
 21
32.616556
 31
0.0
 12
805.2
 22
31.0
 32
0.0
 13
805.2
 23
31.0
 33
0.0
  0
LINE
  5
3EF
100
AcDbEntity
  8
L-ZISSEN
100
AcDbLine
 10
806.652937
 20
32.3744
 30
0.0
 11
820.0
 21
45.0
 31
0.0
  0
LINE
  5
3F0
100
AcDbEntity
  8
L-ZISSEN
100
AcDbLine
 10
820.0
 20
45.0
 30
0.0
 11
822.0
 21
45.0
 31
0.0
  0
TEXT
  5
3F1
100
AcDbEntity
  8
L-ZISSEN
100
AcDbText
 10
824.0
 20
42.75
 30
0.0
 40
4.5
  1
P.P
100
AcDbText
  0
SOLID
  5
3F2
100
AcDbEntity
  8
L-ZISSEN
100
AcDbTrace
 10
450.546347
 20
493.311458
 30
0.0
 11
450.037422
 21
493.742087
 31
0.0
 12
449.0
 22
492.0
 32
0.0
 13
449.0
 23
492.0
 33
0.0
  0
LINE
  5
3F3
100
AcDbEntity
  8
L-ZISSEN
100
AcDbLine
 10
450.291884
 20
493.526773
 30
0.0
 11
460.0
 21
505.0
 31
0.0
  0
LINE
  5
3F4
100
AcDbEntity
  8
L-ZISSEN
100
AcDbLine
 10
460.0
 20
505.0
 30
0.0
 11
462.0
 21
505.0
 31
0.0
  0
TEXT
  5
3F5
100
AcDbEntity
  8
L-ZISSEN
100
AcDbText
 10
464.0
 20
502.75
 30
0.0
 40
4.5
  1
P.P
100
AcDbText
  0
SOLID
  5
3F6
100
AcDbEntity
  8
L-ZISSEN
100
AcDbTrace
 10
769.962578
 20
493.742087
 30
0.0
 11
769.453653
 21
493.311458
 31
0.0
 12
771.0
 22
492.0
 32
0.0
 13
771.0
 23
492.0
 33
0.0
  0
LINE
  5
3F7
100
AcDbEntity
  8
L-ZISSEN
100
AcDbLine
 10
769.708116
 20
493.526773
 30
0.0
 11
760.0
 21
505.0
 31
0.0
  0
LINE
  5
3F8
100
AcDbEntity
  8
L-ZISSEN
100
AcDbLine
 10
760.0
 20
505.0
 30
0.0
 11
758.0
 21
505.0
 31
0.0
  0
TEXT
  5
3F9
100
AcDbEntity
  8
L-ZISSEN
100
AcDbText
 10
747.0
 20
502.75
 30
0.0
 40
4.5
  1
P.P
100
AcDbText
  0
SOLID
  5
3FA
100
AcDbEntity
  8
L-ZISSEN
100
AcDbTrace
 10
450.762426
 20
203.002481
 30
0.0
 11
450.34203
 21
203.51989
 31
0.0
 12
449.0
 22
202.0
 32
0.0
 13
449.0
 23
202.0
 33
0.0
  0
LINE
  5
3FB
100
AcDbEntity
  8
L-ZISSEN
100
AcDbLine
 10
450.552228
 20
203.261185
 30
0.0
 11
465.0
 21
215.0
 31
0.0
  0
LINE
  5
3FC
100
AcDbEntity
  8
L-ZISSEN
100
AcDbLine
 10
465.0
 20
215.0
 30
0.0
 11
467.0
 21
215.0
 31
0.0
  0
TEXT
  5
3FD
100
AcDbEntity
  8
L-ZISSEN
100
AcDbText
 10
469.0
 20
212.75
 30
0.0
 40
4.5
  1
P.P
100
AcDbText
  0
SOLID
  5
3FE
100
AcDbEntity
  8
L-ZISSEN
100
AcDbTrace
 10
769.65797
 20
203.51989
 30
0.0
 11
769.237574
 21
203.002481
 31
0.0
 12
771.0
 22
202.0
 32
0.0
 13
771.0
 23
202.0
 33
0.0
  0
LINE
  5
3FF
100
AcDbEntity
  8
L-ZISSEN
100
AcDbLine
 10
769.447772
 20
203.261185
 30
0.0
 11
755.0
 21
215.0
 31
0.0
  0
LINE
  5
400
100
AcDbEntity
  8
L-ZISSEN
100
AcDbLine
 10
755.0
 20
215.0
 30
0.0
 11
753.0
 21
215.0
 31
0.0
  0
TEXT
  5
401
100
AcDbEntity
  8
L-ZISSEN
100
AcDbText
 10
742.0
 20
212.75
 30
0.0
 40
4.5
  1
P.P
100
AcDbText
  0
LINE
  5
402
100
AcDbEntity
  8
L-ZISSEN
  6
CONTINUOUS
 62
     7
100
AcDbLine
 10
444.0
 20
560.0
 30
0.0
 11
444.0
 21
556.8
 31
0.0
  0
LINE
  5
403
100
AcDbEntity
  8
L-ZISSEN
100
AcDbLine
 10
444.2
 20
556.8
 30
0.0
 11
506.2
 21
556.8
 31
0.0
  0
LINE
  5
404
100
AcDbEntity
  8
L-ZISSEN
100
AcDbLine
 10
776.0
 20
556.8
 30
0.0
 11
714.0
 21
556.8
 31
0.0
  0
LINE
  5
405
100
AcDbEntity
  8
L-ZISSEN
  6
CONTINUOUS
 62
     7
100
AcDbLine
 10
776.0
 20
560.0
 30
0.0
 11
776.0
 21
556.8
 31
0.0
  0
LINE
  5
406
100
AcDbEntity
  8
L-ZISSEN
  6
CONTINUOUS
 62
     7
100
AcDbLine
 10
506.0
 20
266.8
 30
0.0
 11
506.0
 21
270.0
 31
0.0
  0
LINE
  5
407
100
AcDbEntity
  8
L-ZISSEN
100
AcDbLine
 10
444.0
 20
266.8
 30
0.0
 11
506.0
 21
266.8
 31
0.0
  0
LINE
  5
408
100
AcDbEntity
  8
L-ZISSEN
100
AcDbLine
 10
776.0
 20
266.8
 30
0.0
 11
714.0
 21
266.8
 31
0.0
  0
LINE
  5
409
100
AcDbEntity
  8
L-ZISSEN
  6
CONTINUOUS
 62
     7
100
AcDbLine
 10
776.0
 20
266.8
 30
0.0
 11
776.0
 21
270.0
 31
0.0
  0
TEXT
  5
40A
100
AcDbEntity
  8
L-ZISSEN
100
AcDbText
 10
161.65516
 20
575.212362
 30
0.0
 40
4.5
  1
(S)
100
AcDbText
  0
CIRCLE
  5
40D
100
AcDbEntity
  8
L-ZISSEN
  6
CONTINUOUS
 62
     7
100
AcDbCircle
 10
139.849242
 20
469.849242
 30
0.0
 40
3.5
  0
ENDSEC
  0
SECTION
  2
OBJECTS
  0
DICTIONARY
  5
C
100
AcDbDictionary
  3
ACAD_GROUP
350
D
  3
ACAD_MLINESTYLE
350
E
  0
DICTIONARY
  5
D
102
{ACAD_REACTORS
330
C
102
}
100
AcDbDictionary
  0
DICTIONARY
  5
E
102
{ACAD_REACTORS
330
C
102
}
100
AcDbDictionary
  3
STANDARD
350
1B
  0
MLINESTYLE
  5
1B
102
{ACAD_REACTORS
330
E
102
}
100
AcDbMlineStyle
  2
STANDARD
 70
     0
  3

 62
     0
 51
90.0
 52
90.0
 71
     2
 49
0.5
 62
   256
  6
BYLAYER
 49
-0.5
 62
   256
  6
BYLAYER
  0
ENDSEC
  0
EOF
