  0
SECTION
  2
HEADER
  9
$ACADVER
  1
AC1006
  9
$INSBASE
 10
0.0
 20
0.0
 30
0.0
  9
$EXTMIN
 10
35.0
 20
30.0
  9
$EXTMAX
 10
1575.0
 20
890.0
  9
$LIMMIN
 10
0.0
 20
0.0
  9
$LIMMAX
 10
1680.0
 20
1188.0
  9
$ORTHOMODE
 70
     0
  9
$REGENMODE
 70
     1
  9
$FILLMODE
 70
     1
  9
$QTEXTMODE
 70
     0
  9
$MIRRTEXT
 70
     1
  9
$DRAGMODE
 70
     2
  9
$LTSCALE
 40
1.0
  9
$OSMODE
 70
     0
  9
$ATTMODE
 70
     1
  9
$TEXTSIZE
 40
4.5
  9
$TRACEWID
 40
0.05
  9
$TEXTSTYLE
  7
STANDARD
  9
$CLAYER
  8
L-ZISSEN
  9
$CELTYPE
  6
BYLAYER
  9
$CECOLOR
 62
   256
  9
$DIMSCALE
 40
1.0
  9
$DIMASZ
 40
2.0
  9
$DIMEXO
 40
1.0
  9
$DIMDLI
 40
0.38
  9
$DIMRND
 40
0.0
  9
$DIMDLE
 40
1.0
  9
$DIMEXE
 40
1.0
  9
$DIMTP
 40
0.0
  9
$DIMTM
 40
0.0
  9
$DIMTXT
 40
4.5
  9
$DIMCEN
 40
0.09
  9
$DIMTSZ
 40
0.0
  9
$DIMTOL
 70
     0
  9
$DIMLIM
 70
     0
  9
$DIMTIH
 70
     0
  9
$DIMTOH
 70
     0
  9
$DIMSE1
 70
     0
  9
$DIMSE2
 70
     0
  9
$DIMTAD
 70
     1
  9
$DIMZIN
 70
     0
  9
$DIMBLK
  1

  9
$DIMASO
 70
     0
  9
$DIMSHO
 70
     0
  9
$DIMPOST
  1

  9
$DIMAPOST
  1

  9
$DIMALT
 70
     0
  9
$DIMALTD
 70
     2
  9
$DIMALTF
 40
25.4
  9
$DIMLFAC
 40
1.0
  9
$DIMTOFL
 70
     1
  9
$DIMTVP
 40
0.0
  9
$DIMTIX
 70
     1
  9
$DIMSOXD
 70
     0
  9
$DIMSAH
 70
     0
  9
$DIMBLK1
  1

  9
$DIMBLK2
  1

  9
$LUNITS
 70
     2
  9
$LUPREC
 70
     4
  9
$AXISMODE
 70
     0
  9
$AXISUNIT
 10
0.0
 20
0.0
  9
$SKETCHINC
 40
0.1
  9
$FILLETRAD
 40
33.0
  9
$AUNITS
 70
     0
  9
$AUPREC
 70
     0
  9
$MENU
  1
acad
  9
$ELEVATION
 40
0.0
  9
$THICKNESS
 40
0.0
  9
$LIMCHECK
 70
     0
  9
$BLIPMODE
 70
     1
  9
$CHAMFERA
 40
2.0
  9
$CHAMFERB
 40
2.0
  9
$SKPOLY
 70
     0
  9
$TDCREATE
 40
2449653.7882996527
  9
$TDUPDATE
 40
2449653.7882996527
  9
$TDINDWG
 40
0.0000000000
  9
$TDUSRTIMER
 40
0.0000000000
  9
$USRTIMER
 70
     1
  9
$ANGBASE
 50
0.0
  9
$ANGDIR
 70
     0
  9
$PDMODE
 70
     0
  9
$PDSIZE
 40
0.0
  9
$PLINEWID
 40
0.0
  9
$COORDS
 70
     2
  9
$SPLFRAME
 70
     0
  9
$SPLINETYPE
 70
     6
  9
$SPLINESEGS
 70
     8
  9
$ATTDIA
 70
     0
  9
$ATTREQ
 70
     1
  9
$HANDLING
 70
     0
  9
$HANDSEED
  5
0
  9
$SURFTAB1
 70
     6
  9
$SURFTAB2
 70
     6
  9
$SURFTYPE
 70
     6
  9
$SURFU
 70
     6
  9
$SURFV
 70
     6
  9
$FLATLAND
 70
     0
  9
$UCSNAME
  2

  9
$UCSORG
 10
0.0
 20
0.0
 30
0.0
  9
$UCSXDIR
 10
1.0
 20
0.0
 30
0.0
  9
$UCSYDIR
 10
0.0
 20
1.0
 30
0.0
  9
$USERI1
 70
     0
  9
$USERI2
 70
     0
  9
$USERI3
 70
     0
  9
$USERI4
 70
     0
  9
$USERI5
 70
     0
  9
$USERR1
 40
0.0
  9
$USERR2
 40
0.0
  9
$USERR3
 40
0.0
  9
$USERR4
 40
0.0
  9
$USERR5
 40
0.0
  9
$WORLDVIEW
 70
     1
  0
ENDSEC
  0
SECTION
  2
TABLES
  0
TABLE
  2
VPORT
 70
     2
  0
VPORT
  2
*ACTIVE
 70
     0
 10
0.0
 20
0.0
 11
1.0
 21
1.0
 12
779.122344
 22
499.749736
 13
0.0
 23
0.0
 14
5.0
 24
5.0
 15
0.0
 25
0.0
 16
0.0
 26
0.0
 36
1.0
 17
0.0
 27
0.0
 37
0.0
 40
1038.489787
 41
1.5487
 42
50.0
 43
0.0
 44
0.0
 50
0.0
 51
0.0
 71
     0
 72
   100
 73
     1
 74
     0
 75
     0
 76
     0
 77
     0
 78
     0
  0
ENDTAB
  0
TABLE
  2
LTYPE
 70
     2
  0
LTYPE
  2
CONTINUOUS
 70
    64
  3
Solid line
 72
    65
 73
     0
 40
0.0
  0
LTYPE
  2
CENTER
 70
    64
  3
____ _ ____ _ ____ _ ____ _ 
 72
    65
 73
     4
 40
60.0
 49
45.0
 49
-5.0
 49
5.0
 49
-5.0
  0
ENDTAB
  0
TABLE
  2
LAYER
 70
     3
  0
LAYER
  2
0
 70
     0
 62
     7
  6
CONTINUOUS
  0
LAYER
  2
L-ZISSEN
 70
    64
 62
     7
  6
CONTINUOUS
  0
LAYER
  2
L-TYUSIN
 70
    64
 62
     1
  6
CENTER
  0
ENDTAB
  0
TABLE
  2
STYLE
 70
     1
  0
STYLE
  2
STANDARD
 70
    64
 40
0.0
 41
1.0
 50
0.0
 71
     0
 42
4.5
  3
TXT
  4

  0
ENDTAB
  0
TABLE
  2
VIEW
 70
     0
  0
ENDTAB
  0
TABLE
  2
UCS
 70
     0
  0
ENDTAB
  0
TABLE
  2
DWGMGR
 70
     0
  0
ENDTAB
  0
ENDSEC
  0
SECTION
  2
BLOCKS
  0
ENDSEC
  0
SECTION
  2
ENTITIES
  0
LINE
  8
L-TYUSIN
  6
CENTER
 62
     1
 10
575.0
 20
890.0
 30
0.0
 11
575.0
 21
30.0
 31
0.0
  0
LINE
  8
L-ZISSEN
  6
CONTINUOUS
 62
     7
 10
726.0
 20
659.5
 30
0.0
 11
713.8
 21
659.5
 31
0.0
  0
LINE
  8
L-ZISSEN
  6
CONTINUOUS
 62
     7
 10
726.0
 20
680.5
 30
0.0
 11
713.8
 21
680.5
 31
0.0
  0
LINE
  8
L-ZISSEN
  6
CONTINUOUS
 62
     7
 10
731.0
 20
656.0
 30
0.0
 11
726.0
 21
656.0
 31
0.0
  0
LINE
  8
L-ZISSEN
  6
CONTINUOUS
 62
     7
 10
731.0
 20
684.0
 30
0.0
 11
726.0
 21
684.0
 31
0.0
  0
LINE
  8
L-ZISSEN
  6
CONTINUOUS
 62
     7
 10
726.0
 20
656.0
 30
0.0
 11
726.0
 21
684.0
 31
0.0
  0
LINE
  8
L-ZISSEN
  6
CONTINUOUS
 62
     7
 10
731.0
 20
656.0
 30
0.0
 11
731.0
 21
684.0
 31
0.0
  0
LINE
  8
L-ZISSEN
  6
CONTINUOUS
 62
     7
 10
713.8
 20
682.5
 30
0.0
 11
713.8
 21
657.5
 31
0.0
  0
LINE
  8
L-ZISSEN
  6
CONTINUOUS
 62
     7
 10
697.55
 20
682.5
 30
0.0
 11
713.8
 21
682.5
 31
0.0
  0
LINE
  8
L-ZISSEN
  6
CONTINUOUS
 62
     7
 10
713.8
 20
657.5
 30
0.0
 11
697.55
 21
657.5
 31
0.0
  0
LINE
  8
L-ZISSEN
  6
CONTINUOUS
 62
     7
 10
853.2
 20
694.0
 30
0.0
 11
850.0
 21
694.0
 31
0.0
  0
LINE
  8
L-ZISSEN
  6
CONTINUOUS
 62
     7
 10
850.0
 20
632.0
 30
0.0
 11
850.0
 21
694.3
 31
0.0
  0
LINE
  8
L-ZISSEN
  6
CONTINUOUS
 62
     7
 10
812.4
 20
643.95
 30
0.0
 11
812.4
 21
696.05
 31
0.0
  0
LINE
  8
L-ZISSEN
  6
CONTINUOUS
 62
     7
 10
817.2
 20
696.05
 30
0.0
 11
817.2
 21
675.670979
 31
0.0
  0
LINE
  8
L-ZISSEN
  6
CONTINUOUS
 62
     7
 10
817.2
 20
645.7
 30
0.0
 11
850.0
 21
645.7
 31
0.0
  0
LINE
  8
L-ZISSEN
  6
CONTINUOUS
 62
     7
 10
850.0
 20
694.3
 30
0.0
 11
817.2
 21
694.3
 31
0.0
  0
CIRCLE
  8
L-ZISSEN
  6
CONTINUOUS
 62
     7
 10
830.0
 20
670.0
 30
0.0
 40
7.5
  0
CIRCLE
  8
L-ZISSEN
  6
CONTINUOUS
 62
     7
 10
830.0
 20
670.0
 30
0.0
 40
14.0
  0
LINE
  8
L-ZISSEN
  6
CONTINUOUS
 62
     7
 10
726.0
 20
796.3
 30
0.0
 11
713.8
 21
796.3
 31
0.0
  0
LINE
  8
L-ZISSEN
  6
CONTINUOUS
 62
     7
 10
726.0
 20
817.3
 30
0.0
 11
713.8
 21
817.3
 31
0.0
  0
LINE
  8
L-ZISSEN
  6
CONTINUOUS
 62
     7
 10
731.0
 20
792.8
 30
0.0
 11
731.0
 21
820.8
 31
0.0
  0
LINE
  8
L-ZISSEN
  6
CONTINUOUS
 62
     7
 10
726.0
 20
792.8
 30
0.0
 11
726.0
 21
820.8
 31
0.0
  0
LINE
  8
L-ZISSEN
  6
CONTINUOUS
 62
     7
 10
731.0
 20
820.8
 30
0.0
 11
726.0
 21
820.8
 31
0.0
  0
LINE
  8
L-ZISSEN
  6
CONTINUOUS
 62
     7
 10
731.0
 20
792.8
 30
0.0
 11
726.0
 21
792.8
 31
0.0
  0
LINE
  8
L-ZISSEN
  6
CONTINUOUS
 62
     7
 10
713.8
 20
794.3
 30
0.0
 11
695.8
 21
794.3
 31
0.0
  0
LINE
  8
L-ZISSEN
  6
CONTINUOUS
 62
     7
 10
695.8
 20
819.3
 30
0.0
 11
713.8
 21
819.3
 31
0.0
  0
LINE
  8
L-ZISSEN
  6
CONTINUOUS
 62
     7
 10
713.8
 20
819.3
 30
0.0
 11
713.8
 21
794.3
 31
0.0
  0
LINE
  8
L-ZISSEN
  6
CONTINUOUS
 62
     7
 10
697.55
 20
794.0
 30
0.0
 11
697.55
 21
789.2
 31
0.0
  0
LINE
  8
L-ZISSEN
  6
CONTINUOUS
 62
     7
 10
632.45
 20
794.0
 30
0.0
 11
632.45
 21
789.2
 31
0.0
  0
LINE
  8
L-ZISSEN
  6
CONTINUOUS
 62
     7
 10
632.45
 20
794.0
 30
0.0
 11
697.55
 21
794.0
 31
0.0
  0
LINE
  8
L-ZISSEN
  6
CONTINUOUS
 62
     7
 10
697.55
 20
789.2
 30
0.0
 11
632.45
 21
789.2
 31
0.0
  0
LINE
  8
L-ZISSEN
  6
CONTINUOUS
 62
     7
 10
634.2
 20
794.0
 30
0.0
 11
634.2
 21
826.8
 31
0.0
  0
LINE
  8
L-ZISSEN
  6
CONTINUOUS
 62
     7
 10
695.8
 20
826.8
 30
0.0
 11
695.8
 21
794.0
 31
0.0
  0
LINE
  8
L-ZISSEN
  6
CONTINUOUS
 62
     7
 10
632.45
 20
696.05
 30
0.0
 11
697.55
 21
696.05
 31
0.0
  0
LINE
  8
L-ZISSEN
  6
CONTINUOUS
 62
     7
 10
632.45
 20
643.95
 30
0.0
 11
697.55
 21
643.95
 31
0.0
  0
LINE
  8
L-ZISSEN
  6
CONTINUOUS
 62
     7
 10
812.4
 20
643.95
 30
0.0
 11
817.2
 21
643.95
 31
0.0
  0
LINE
  8
L-ZISSEN
  6
CONTINUOUS
 62
     7
 10
812.4
 20
696.05
 30
0.0
 11
817.2
 21
696.05
 31
0.0
  0
LINE
  8
L-ZISSEN
  6
CONTINUOUS
 62
     7
 10
817.2
 20
664.329021
 30
0.0
 11
817.2
 21
643.95
 31
0.0
  0
LINE
  8
L-ZISSEN
  6
CONTINUOUS
 62
     7
 10
853.2
 20
632.0
 30
0.0
 11
853.2
 21
694.0
 31
0.0
  0
TEXT
  8
L-ZISSEN
  6
CONTINUOUS
 62
     7
 10
595.0
 20
870.0
 30
0.0
 40
4.5
  1
JUNCTION BOX
  0
TEXT
  8
L-ZISSEN
  6
CONTINUOUS
 62
     7
 10
595.0
 20
860.0
 30
0.0
 40
4.5
  1
MODEL NO. :
  0
TEXT
  8
L-ZISSEN
  6
CONTINUOUS
 62
     7
 10
895.0
 20
865.0
 30
0.0
 40
4.5
  1
MODEL NO. :
  0
TEXT
  8
L-ZISSEN
  6
CONTINUOUS
 62
     7
 10
895.0
 20
875.0
 30
0.0
 40
4.5
  1
JUNCTION BOX
  0
LINE
  8
L-ZISSEN
  6
CONTINUOUS
 62
     7
 10
1153.2
 20
632.0
 30
0.0
 11
1153.2
 21
694.0
 31
0.0
  0
LINE
  8
L-ZISSEN
  6
CONTINUOUS
 62
     7
 10
1112.4
 20
696.05
 30
0.0
 11
1117.2
 21
696.05
 31
0.0
  0
LINE
  8
L-ZISSEN
  6
CONTINUOUS
 62
     7
 10
1112.4
 20
643.95
 30
0.0
 11
1117.2
 21
643.95
 31
0.0
  0
LINE
  8
L-ZISSEN
  6
CONTINUOUS
 62
     7
 10
997.55
 20
643.95
 30
0.0
 11
932.45
 21
643.95
 31
0.0
  0
LINE
  8
L-ZISSEN
  6
CONTINUOUS
 62
     7
 10
997.55
 20
696.05
 30
0.0
 11
932.45
 21
696.05
 31
0.0
  0
LINE
  8
L-ZISSEN
  6
CONTINUOUS
 62
     7
 10
934.2
 20
831.8
 30
0.0
 11
934.2
 21
799.0
 31
0.0
  0
LINE
  8
L-ZISSEN
  6
CONTINUOUS
 62
     7
 10
995.8
 20
799.0
 30
0.0
 11
995.8
 21
831.8
 31
0.0
  0
LINE
  8
L-ZISSEN
  6
CONTINUOUS
 62
     7
 10
932.45
 20
794.2
 30
0.0
 11
997.55
 21
794.2
 31
0.0
  0
LINE
  8
L-ZISSEN
  6
CONTINUOUS
 62
     7
 10
997.55
 20
799.0
 30
0.0
 11
932.45
 21
799.0
 31
0.0
  0
LINE
  8
L-ZISSEN
  6
CONTINUOUS
 62
     7
 10
997.55
 20
799.0
 30
0.0
 11
997.55
 21
794.2
 31
0.0
  0
LINE
  8
L-ZISSEN
  6
CONTINUOUS
 62
     7
 10
932.45
 20
799.0
 30
0.0
 11
932.45
 21
794.2
 31
0.0
  0
LINE
  8
L-ZISSEN
  6
CONTINUOUS
 62
     7
 10
916.2
 20
824.3
 30
0.0
 11
916.2
 21
799.3
 31
0.0
  0
LINE
  8
L-ZISSEN
  6
CONTINUOUS
 62
     7
 10
934.2
 20
824.3
 30
0.0
 11
916.2
 21
824.3
 31
0.0
  0
LINE
  8
L-ZISSEN
  6
CONTINUOUS
 62
     7
 10
916.2
 20
799.3
 30
0.0
 11
934.2
 21
799.3
 31
0.0
  0
LINE
  8
L-ZISSEN
  6
CONTINUOUS
 62
     7
 10
899.0
 20
797.8
 30
0.0
 11
904.0
 21
797.8
 31
0.0
  0
LINE
  8
L-ZISSEN
  6
CONTINUOUS
 62
     7
 10
899.0
 20
825.8
 30
0.0
 11
904.0
 21
825.8
 31
0.0
  0
LINE
  8
L-ZISSEN
  6
CONTINUOUS
 62
     7
 10
904.0
 20
797.8
 30
0.0
 11
904.0
 21
825.8
 31
0.0
  0
LINE
  8
L-ZISSEN
  6
CONTINUOUS
 62
     7
 10
899.0
 20
797.8
 30
0.0
 11
899.0
 21
825.8
 31
0.0
  0
LINE
  8
L-ZISSEN
  6
CONTINUOUS
 62
     7
 10
904.0
 20
822.3
 30
0.0
 11
916.2
 21
822.3
 31
0.0
  0
LINE
  8
L-ZISSEN
  6
CONTINUOUS
 62
     7
 10
904.0
 20
801.3
 30
0.0
 11
916.2
 21
801.3
 31
0.0
  0
LINE
  8
L-ZISSEN
  6
CONTINUOUS
 62
     7
 10
1150.0
 20
694.3
 30
0.0
 11
1117.2
 21
694.3
 31
0.0
  0
LINE
  8
L-ZISSEN
  6
CONTINUOUS
 62
     7
 10
1117.2
 20
645.7
 30
0.0
 11
1150.0
 21
645.7
 31
0.0
  0
LINE
  8
L-ZISSEN
  6
CONTINUOUS
 62
     7
 10
1112.4
 20
643.95
 30
0.0
 11
1112.4
 21
696.05
 31
0.0
  0
LINE
  8
L-ZISSEN
  6
CONTINUOUS
 62
     7
 10
1150.0
 20
632.0
 30
0.0
 11
1150.0
 21
694.3
 31
0.0
  0
LINE
  8
L-ZISSEN
  6
CONTINUOUS
 62
     7
 10
1153.2
 20
694.0
 30
0.0
 11
1150.0
 21
694.0
 31
0.0
  0
LINE
  8
L-ZISSEN
  6
CONTINUOUS
 62
     7
 10
932.45
 20
696.05
 30
0.0
 11
932.45
 21
643.95
 31
0.0
  0
LINE
  8
L-ZISSEN
  6
CONTINUOUS
 62
     7
 10
916.2
 20
657.5
 30
0.0
 11
932.45
 21
657.5
 31
0.0
  0
LINE
  8
L-ZISSEN
  6
CONTINUOUS
 62
     7
 10
932.45
 20
682.5
 30
0.0
 11
916.2
 21
682.5
 31
0.0
  0
LINE
  8
L-ZISSEN
  6
CONTINUOUS
 62
     7
 10
916.2
 20
682.5
 30
0.0
 11
916.2
 21
657.5
 31
0.0
  0
LINE
  8
L-ZISSEN
  6
CONTINUOUS
 62
     7
 10
899.0
 20
656.0
 30
0.0
 11
899.0
 21
684.0
 31
0.0
  0
LINE
  8
L-ZISSEN
  6
CONTINUOUS
 62
     7
 10
904.0
 20
656.0
 30
0.0
 11
904.0
 21
684.0
 31
0.0
  0
LINE
  8
L-ZISSEN
  6
CONTINUOUS
 62
     7
 10
899.0
 20
684.0
 30
0.0
 11
904.0
 21
684.0
 31
0.0
  0
LINE
  8
L-ZISSEN
  6
CONTINUOUS
 62
     7
 10
899.0
 20
656.0
 30
0.0
 11
904.0
 21
656.0
 31
0.0
  0
LINE
  8
L-ZISSEN
  6
CONTINUOUS
 62
     7
 10
904.0
 20
680.5
 30
0.0
 11
916.2
 21
680.5
 31
0.0
  0
LINE
  8
L-ZISSEN
  6
CONTINUOUS
 62
     7
 10
904.0
 20
659.5
 30
0.0
 11
916.2
 21
659.5
 31
0.0
  0
LINE
  8
L-ZISSEN
  6
CONTINUOUS
 62
     7
 10
1117.2
 20
696.05
 30
0.0
 11
1117.2
 21
643.95
 31
0.0
  0
LINE
  8
L-TYUSIN
  6
CENTER
 62
     1
 10
575.0
 20
530.0
 30
0.0
 11
1575.0
 21
530.0
 31
0.0
  0
TEXT
  8
L-ZISSEN
  6
CONTINUOUS
 62
     7
 10
895.0
 20
505.0
 30
0.0
 40
4.5
  1
MODEL NO. :
  0
TEXT
  8
L-ZISSEN
  6
CONTINUOUS
 62
     7
 10
895.0
 20
515.0
 30
0.0
 40
4.5
  1
JUNCTION BOX
  0
LINE
  8
L-ZISSEN
  6
CONTINUOUS
 62
     7
 10
1153.2
 20
202.0
 30
0.0
 11
1153.2
 21
319.0
 31
0.0
  0
LINE
  8
L-ZISSEN
  6
CONTINUOUS
 62
     7
 10
1117.2
 20
266.05
 30
0.0
 11
1117.2
 21
213.95
 31
0.0
  0
LINE
  8
L-ZISSEN
  6
CONTINUOUS
 62
     7
 10
1112.4
 20
266.05
 30
0.0
 11
1117.2
 21
266.05
 31
0.0
  0
LINE
  8
L-ZISSEN
  6
CONTINUOUS
 62
     7
 10
1112.4
 20
213.95
 30
0.0
 11
1117.2
 21
213.95
 31
0.0
  0
LINE
  8
L-ZISSEN
  6
CONTINUOUS
 62
     7
 10
997.55
 20
213.95
 30
0.0
 11
932.45
 21
213.95
 31
0.0
  0
LINE
  8
L-ZISSEN
  6
CONTINUOUS
 62
     7
 10
997.55
 20
266.05
 30
0.0
 11
932.45
 21
266.05
 31
0.0
  0
LINE
  8
L-ZISSEN
  6
CONTINUOUS
 62
     7
 10
934.2
 20
451.8
 30
0.0
 11
934.2
 21
419.0
 31
0.0
  0
LINE
  8
L-ZISSEN
  6
CONTINUOUS
 62
     7
 10
995.8
 20
419.0
 30
0.0
 11
995.8
 21
451.8
 31
0.0
  0
LINE
  8
L-ZISSEN
  6
CONTINUOUS
 62
     7
 10
932.45
 20
414.2
 30
0.0
 11
997.55
 21
414.2
 31
0.0
  0
LINE
  8
L-ZISSEN
  6
CONTINUOUS
 62
     7
 10
997.55
 20
419.0
 30
0.0
 11
932.45
 21
419.0
 31
0.0
  0
LINE
  8
L-ZISSEN
  6
CONTINUOUS
 62
     7
 10
997.55
 20
419.0
 30
0.0
 11
997.55
 21
414.2
 31
0.0
  0
LINE
  8
L-ZISSEN
  6
CONTINUOUS
 62
     7
 10
932.45
 20
419.0
 30
0.0
 11
932.45
 21
414.2
 31
0.0
  0
LINE
  8
L-ZISSEN
  6
CONTINUOUS
 62
     7
 10
916.2
 20
444.3
 30
0.0
 11
916.2
 21
419.3
 31
0.0
  0
LINE
  8
L-ZISSEN
  6
CONTINUOUS
 62
     7
 10
934.2
 20
444.3
 30
0.0
 11
916.2
 21
444.3
 31
0.0
  0
LINE
  8
L-ZISSEN
  6
CONTINUOUS
 62
     7
 10
916.2
 20
419.3
 30
0.0
 11
934.2
 21
419.3
 31
0.0
  0
LINE
  8
L-ZISSEN
  6
CONTINUOUS
 62
     7
 10
899.0
 20
417.8
 30
0.0
 11
904.0
 21
417.8
 31
0.0
  0
LINE
  8
L-ZISSEN
  6
CONTINUOUS
 62
     7
 10
899.0
 20
445.8
 30
0.0
 11
904.0
 21
445.8
 31
0.0
  0
LINE
  8
L-ZISSEN
  6
CONTINUOUS
 62
     7
 10
904.0
 20
417.8
 30
0.0
 11
904.0
 21
445.8
 31
0.0
  0
LINE
  8
L-ZISSEN
  6
CONTINUOUS
 62
     7
 10
899.0
 20
417.8
 30
0.0
 11
899.0
 21
445.8
 31
0.0
  0
LINE
  8
L-ZISSEN
  6
CONTINUOUS
 62
     7
 10
904.0
 20
442.3
 30
0.0
 11
916.2
 21
442.3
 31
0.0
  0
LINE
  8
L-ZISSEN
  6
CONTINUOUS
 62
     7
 10
904.0
 20
421.3
 30
0.0
 11
916.2
 21
421.3
 31
0.0
  0
LINE
  8
L-ZISSEN
  6
CONTINUOUS
 62
     7
 10
1150.0
 20
264.3
 30
0.0
 11
1117.2
 21
264.3
 31
0.0
  0
LINE
  8
L-ZISSEN
  6
CONTINUOUS
 62
     7
 10
1117.2
 20
215.7
 30
0.0
 11
1150.0
 21
215.7
 31
0.0
  0
LINE
  8
L-ZISSEN
  6
CONTINUOUS
 62
     7
 10
1112.4
 20
213.95
 30
0.0
 11
1112.4
 21
266.05
 31
0.0
  0
LINE
  8
L-ZISSEN
  6
CONTINUOUS
 62
     7
 10
1150.0
 20
202.0
 30
0.0
 11
1150.0
 21
319.3
 31
0.0
  0
LINE
  8
L-ZISSEN
  6
CONTINUOUS
 62
     7
 10
932.45
 20
266.05
 30
0.0
 11
932.45
 21
213.95
 31
0.0
  0
LINE
  8
L-ZISSEN
  6
CONTINUOUS
 62
     7
 10
916.2
 20
227.5
 30
0.0
 11
932.45
 21
227.5
 31
0.0
  0
LINE
  8
L-ZISSEN
  6
CONTINUOUS
 62
     7
 10
932.45
 20
252.5
 30
0.0
 11
916.2
 21
252.5
 31
0.0
  0
LINE
  8
L-ZISSEN
  6
CONTINUOUS
 62
     7
 10
916.2
 20
252.5
 30
0.0
 11
916.2
 21
227.5
 31
0.0
  0
LINE
  8
L-ZISSEN
  6
CONTINUOUS
 62
     7
 10
899.0
 20
226.0
 30
0.0
 11
899.0
 21
254.0
 31
0.0
  0
LINE
  8
L-ZISSEN
  6
CONTINUOUS
 62
     7
 10
904.0
 20
226.0
 30
0.0
 11
904.0
 21
254.0
 31
0.0
  0
LINE
  8
L-ZISSEN
  6
CONTINUOUS
 62
     7
 10
899.0
 20
254.0
 30
0.0
 11
904.0
 21
254.0
 31
0.0
  0
LINE
  8
L-ZISSEN
  6
CONTINUOUS
 62
     7
 10
899.0
 20
226.0
 30
0.0
 11
904.0
 21
226.0
 31
0.0
  0
LINE
  8
L-ZISSEN
  6
CONTINUOUS
 62
     7
 10
904.0
 20
250.5
 30
0.0
 11
916.2
 21
250.5
 31
0.0
  0
LINE
  8
L-ZISSEN
  6
CONTINUOUS
 62
     7
 10
904.0
 20
229.5
 30
0.0
 11
916.2
 21
229.5
 31
0.0
  0
LINE
  8
L-ZISSEN
  6
CONTINUOUS
 62
     7
 10
934.0
 20
202.0
 30
0.0
 11
934.0
 21
213.95
 31
0.0
  0
LINE
  8
L-ZISSEN
  6
CONTINUOUS
 62
     7
 10
904.0
 20
284.5
 30
0.0
 11
916.2
 21
284.5
 31
0.0
  0
LINE
  8
L-ZISSEN
  6
CONTINUOUS
 62
     7
 10
904.0
 20
305.5
 30
0.0
 11
916.2
 21
305.5
 31
0.0
  0
LINE
  8
L-ZISSEN
  6
CONTINUOUS
 62
     7
 10
899.0
 20
281.0
 30
0.0
 11
904.0
 21
281.0
 31
0.0
  0
LINE
  8
L-ZISSEN
  6
CONTINUOUS
 62
     7
 10
899.0
 20
309.0
 30
0.0
 11
904.0
 21
309.0
 31
0.0
  0
LINE
  8
L-ZISSEN
  6
CONTINUOUS
 62
     7
 10
904.0
 20
281.0
 30
0.0
 11
904.0
 21
309.0
 31
0.0
  0
LINE
  8
L-ZISSEN
  6
CONTINUOUS
 62
     7
 10
899.0
 20
281.0
 30
0.0
 11
899.0
 21
309.0
 31
0.0
  0
LINE
  8
L-ZISSEN
  6
CONTINUOUS
 62
     7
 10
916.2
 20
307.5
 30
0.0
 11
916.2
 21
282.5
 31
0.0
  0
LINE
  8
L-ZISSEN
  6
CONTINUOUS
 62
     7
 10
932.45
 20
307.5
 30
0.0
 11
916.2
 21
307.5
 31
0.0
  0
LINE
  8
L-ZISSEN
  6
CONTINUOUS
 62
     7
 10
916.2
 20
282.5
 30
0.0
 11
932.45
 21
282.5
 31
0.0
  0
LINE
  8
L-ZISSEN
  6
CONTINUOUS
 62
     7
 10
932.45
 20
321.05
 30
0.0
 11
932.45
 21
268.95
 31
0.0
  0
LINE
  8
L-ZISSEN
  6
CONTINUOUS
 62
     7
 10
997.55
 20
321.05
 30
0.0
 11
997.55
 21
268.95
 31
0.0
  0
LINE
  8
L-ZISSEN
  6
CONTINUOUS
 62
     7
 10
997.55
 20
321.05
 30
0.0
 11
932.45
 21
321.05
 31
0.0
  0
LINE
  8
L-ZISSEN
  6
CONTINUOUS
 62
     7
 10
997.55
 20
268.95
 30
0.0
 11
932.45
 21
268.95
 31
0.0
  0
LINE
  8
L-ZISSEN
  6
CONTINUOUS
 62
     7
 10
1153.2
 20
319.0
 30
0.0
 11
1150.0
 21
319.0
 31
0.0
  0
LINE
  8
L-ZISSEN
  6
CONTINUOUS
 62
     7
 10
1112.4
 20
268.95
 30
0.0
 11
1112.4
 21
321.05
 31
0.0
  0
LINE
  8
L-ZISSEN
  6
CONTINUOUS
 62
     7
 10
1117.2
 20
270.7
 30
0.0
 11
1150.0
 21
270.7
 31
0.0
  0
LINE
  8
L-ZISSEN
  6
CONTINUOUS
 62
     7
 10
1150.0
 20
319.3
 30
0.0
 11
1117.2
 21
319.3
 31
0.0
  0
LINE
  8
L-ZISSEN
  6
CONTINUOUS
 62
     7
 10
1112.4
 20
268.95
 30
0.0
 11
1117.2
 21
268.95
 31
0.0
  0
LINE
  8
L-ZISSEN
  6
CONTINUOUS
 62
     7
 10
1112.4
 20
321.05
 30
0.0
 11
1117.2
 21
321.05
 31
0.0
  0
LINE
  8
L-ZISSEN
  6
CONTINUOUS
 62
     7
 10
1117.2
 20
321.05
 30
0.0
 11
1117.2
 21
268.95
 31
0.0
  0
LINE
  8
L-ZISSEN
  6
CONTINUOUS
 62
     7
 10
1153.2
 20
319.0
 30
0.0
 11
1150.0
 21
319.0
 31
0.0
  0
LINE
  8
L-ZISSEN
  6
CONTINUOUS
 62
     7
 10
996.0
 20
266.05
 30
0.0
 11
996.0
 21
268.95
 31
0.0
  0
LINE
  8
L-ZISSEN
  6
CONTINUOUS
 62
     7
 10
934.0
 20
266.05
 30
0.0
 11
934.0
 21
268.95
 31
0.0
  0
TEXT
  8
L-ZISSEN
  6
CONTINUOUS
 62
     7
 10
945.0
 20
865.0
 30
0.0
 40
4.5
  1
NOL-5**-5XL FG20L
  0
TEXT
  8
L-ZISSEN
  6
CONTINUOUS
 62
     7
 10
945.0
 20
855.0
 30
0.0
 40
4.5
  1
NOL-5**-5XL FG21L
  0
TEXT
  8
L-ZISSEN
  6
CONTINUOUS
 62
     7
 10
645.0
 20
850.0
 30
0.0
 40
4.5
  1
NOL-5**-5XL FG21R
  0
TEXT
  8
L-ZISSEN
  6
CONTINUOUS
 62
     7
 10
645.0
 20
860.0
 30
0.0
 40
4.5
  1
NOL-5**-5XL FG20R
  0
LINE
  8
L-TYUSIN
  6
CENTER
 62
     1
 10
875.0
 20
890.0
 30
0.0
 11
875.0
 21
30.0
 31
0.0
  0
LINE
  8
L-ZISSEN
  6
CONTINUOUS
 62
     7
 10
697.55
 20
696.05
 30
0.0
 11
697.55
 21
643.95
 31
0.0
  0
LINE
  8
L-ZISSEN
  6
CONTINUOUS
 62
     7
 10
696.0
 20
643.95
 30
0.0
 11
696.0
 21
632.0
 31
0.0
  0
LINE
  8
L-ZISSEN
  6
CONTINUOUS
 62
     7
 10
934.0
 20
643.95
 30
0.0
 11
934.0
 21
632.0
 31
0.0
  0
TEXT
  8
L-ZISSEN
  6
CONTINUOUS
 62
     7
 10
945.0
 20
505.0
 30
0.0
 40
4.5
  1
NOL-5**-5XL FG22L
  0
TEXT
  8
L-ZISSEN
  6
CONTINUOUS
 62
     7
 10
945.0
 20
495.0
 30
0.0
 40
4.5
  1
NOL-5**-5XL FG23L
  0
TEXT
  8
L-ZISSEN
  6
CONTINUOUS
 62
     7
 10
945.0
 20
485.0
 30
0.0
 40
4.5
  1
NOL-5**-5XL FG24L
  0
TEXT
  8
L-ZISSEN
  6
CONTINUOUS
 62
     7
 10
945.0
 20
475.0
 30
0.0
 40
4.5
  1
NOL-5**-5XL FG25L
  0
TEXT
  8
L-ZISSEN
  6
CONTINUOUS
 62
     7
 10
75.0
 20
840.0
 30
0.0
 40
4.5
  1
MODEL NO. : NOL-503-5XL
  0
TEXT
  8
L-ZISSEN
  6
CONTINUOUS
 62
     7
 10
145.5
 20
847.0
 30
0.0
 40
4.5
  1
02
  0
TEXT
  8
L-ZISSEN
  6
CONTINUOUS
 62
     7
 10
145.5
 20
833.5
 30
0.0
 40
4.5
  1
04
  0
LINE
  8
L-TYUSIN
  6
CENTER
 62
     1
 10
1175.0
 20
890.0
 30
0.0
 11
1175.0
 21
30.0
 31
0.0
  0
LINE
  8
L-ZISSEN
  6
CONTINUOUS
 62
     7
 10
1292.6
 20
306.25
 30
0.0
 11
1300.0
 21
306.25
 31
0.0
  0
LINE
  8
L-ZISSEN
  6
CONTINUOUS
 62
     7
 10
1292.6
 20
316.75
 30
0.0
 11
1300.0
 21
316.75
 31
0.0
  0
LINE
  8
L-ZISSEN
  6
CONTINUOUS
 62
     7
 10
1300.0
 20
444.75
 30
0.0
 11
1303.193267
 21
444.75
 31
0.0
  0
LINE
  8
L-ZISSEN
  6
CONTINUOUS
 62
     7
 10
1300.0
 20
455.25
 30
0.0
 11
1303.193267
 21
455.25
 31
0.0
  0
LINE
  8
L-ZISSEN
  6
CONTINUOUS
 62
     7
 10
1302.6
 20
445.092523
 30
0.0
 11
1311.1
 21
440.185045
 31
0.0
  0
LINE
  8
L-ZISSEN
  6
CONTINUOUS
 62
     7
 10
1311.1
 20
440.185045
 30
0.0
 11
1319.6
 21
445.092523
 31
0.0
  0
LINE
  8
L-ZISSEN
  6
CONTINUOUS
 62
     7
 10
1319.6
 20
445.092523
 30
0.0
 11
1319.6
 21
454.907477
 31
0.0
  0
LINE
  8
L-ZISSEN
  6
CONTINUOUS
 62
     7
 10
1319.6
 20
454.907477
 30
0.0
 11
1311.1
 21
459.814955
 31
0.0
  0
LINE
  8
L-ZISSEN
  6
CONTINUOUS
 62
     7
 10
1311.1
 20
459.814955
 30
0.0
 11
1302.6
 21
454.907477
 31
0.0
  0
LINE
  8
L-ZISSEN
  6
CONTINUOUS
 62
     7
 10
1302.6
 20
454.907477
 30
0.0
 11
1302.6
 21
445.092523
 31
0.0
  0
LINE
  8
L-ZISSEN
  6
CONTINUOUS
 62
     7
 10
1301.6
 20
444.515172
 30
0.0
 11
1311.1
 21
439.030345
 31
0.0
  0
LINE
  8
L-ZISSEN
  6
CONTINUOUS
 62
     7
 10
1311.1
 20
439.030345
 30
0.0
 11
1320.6
 21
444.515172
 31
0.0
  0
LINE
  8
L-ZISSEN
  6
CONTINUOUS
 62
     7
 10
1320.6
 20
444.515172
 30
0.0
 11
1320.6
 21
455.484828
 31
0.0
  0
LINE
  8
L-ZISSEN
  6
CONTINUOUS
 62
     7
 10
1320.6
 20
455.484828
 30
0.0
 11
1311.1
 21
460.969655
 31
0.0
  0
LINE
  8
L-ZISSEN
  6
CONTINUOUS
 62
     7
 10
1311.1
 20
460.969655
 30
0.0
 11
1301.6
 21
455.484828
 31
0.0
  0
LINE
  8
L-ZISSEN
  6
CONTINUOUS
 62
     7
 10
1301.6
 20
455.484828
 30
0.0
 11
1301.6
 21
455.25
 31
0.0
  0
LINE
  8
L-ZISSEN
  6
CONTINUOUS
 62
     7
 10
1301.6
 20
444.75
 30
0.0
 11
1301.6
 21
444.515172
 31
0.0
  0
TEXT
  8
L-ZISSEN
  6
CONTINUOUS
 62
     7
 10
1195.0
 20
515.0
 30
0.0
 40
4.5
  1
GLASS LEVEL GAUGE
  0
TEXT
  8
L-ZISSEN
  6
CONTINUOUS
 62
     7
 10
1195.0
 20
505.0
 30
0.0
 40
4.5
  1
MODEL NO. :
  0
TEXT
  8
L-ZISSEN
  6
CONTINUOUS
 62
     7
 10
1245.0
 20
505.0
 30
0.0
 40
4.5
  1
NOL-5**-5XLS
  0
LINE
  8
L-TYUSIN
  6
CENTER
 62
     1
 10
160.0
 20
561.5
 30
0.0
 11
160.0
 21
34.5
 31
0.0
  0
LINE
  8
L-TYUSIN
  6
CENTER
 62
     1
 10
65.0
 20
690.0
 30
0.0
 11
270.682904
 21
690.0
 31
0.0
  0
LINE
  8
L-TYUSIN
  6
CENTER
 62
     1
 10
160.0
 20
595.0
 30
0.0
 11
160.0
 21
802.0
 31
0.0
  0
LINE
  8
L-ZISSEN
  6
CONTINUOUS
 62
     7
 10
250.0
 20
419.5
 30
0.0
 11
250.0
 21
449.5
 31
0.0
  0
LINE
  8
L-ZISSEN
  6
CONTINUOUS
 62
     7
 10
70.0
 20
797.0
 30
0.0
 11
70.0
 21
620.0
 31
0.0
  0
LINE
  8
L-ZISSEN
  6
CONTINUOUS
 62
     7
 10
90.0
 20
600.0
 30
0.0
 11
230.0
 21
600.0
 31
0.0
  0
LINE
  8
L-ZISSEN
  6
CONTINUOUS
 62
     7
 10
250.0
 20
449.5
 30
0.0
 11
70.0
 21
449.5
 31
0.0
  0
LINE
  8
L-ZISSEN
  6
CONTINUOUS
 62
     7
 10
70.0
 20
419.5
 30
0.0
 11
250.0
 21
419.5
 31
0.0
  0
LINE
  8
L-ZISSEN
  6
CONTINUOUS
 62
     7
 10
70.0
 20
449.5
 30
0.0
 11
70.0
 21
419.5
 31
0.0
  0
LINE
  8
L-ZISSEN
  6
CONTINUOUS
 62
     7
 10
250.0
 20
620.0
 30
0.0
 11
250.0
 21
797.0
 31
0.0
  0
LINE
  8
L-ZISSEN
  6
CONTINUOUS
 62
     7
 10
121.5
 20
450.5
 30
0.0
 11
121.5
 21
449.5
 31
0.0
  0
ARC
  8
L-ZISSEN
  6
CONTINUOUS
 62
     7
 10
90.0
 20
620.0
 30
0.0
 40
20.0
 50
180.0
 51
270.0
  0
ARC
  8
L-ZISSEN
  6
CONTINUOUS
 62
     7
 10
230.0
 20
620.0
 30
0.0
 40
20.0
 50
270.0
 51
0.0
  0
CIRCLE
  8
L-ZISSEN
  6
CONTINUOUS
 62
     7
 10
230.0
 20
620.0
 30
0.0
 40
8.0
  0
LINE
  8
L-ZISSEN
  6
CONTINUOUS
 62
     7
 10
243.856406
 20
466.5
 30
0.0
 11
243.856406
 21
453.5
 31
0.0
  0
LINE
  8
L-ZISSEN
  6
CONTINUOUS
 62
     7
 10
244.0
 20
453.5
 30
0.0
 11
216.0
 21
453.5
 31
0.0
  0
LINE
  8
L-ZISSEN
  6
CONTINUOUS
 62
     7
 10
216.0
 20
453.5
 30
0.0
 11
216.0
 21
449.5
 31
0.0
  0
LINE
  8
L-ZISSEN
  6
CONTINUOUS
 62
     7
 10
244.0
 20
453.5
 30
0.0
 11
244.0
 21
449.5
 31
0.0
  0
LINE
  8
L-ZISSEN
  6
CONTINUOUS
 62
     7
 10
250.0
 20
466.5
 30
0.0
 11
203.0
 21
466.5
 31
0.0
  0
LINE
  8
L-ZISSEN
  6
CONTINUOUS
 62
     7
 10
250.0
 20
466.5
 30
0.0
 11
250.0
 21
556.5
 31
0.0
  0
LINE
  8
L-ZISSEN
  6
CONTINUOUS
 62
     7
 10
250.0
 20
556.5
 30
0.0
 11
70.0
 21
556.5
 31
0.0
  0
LINE
  8
L-ZISSEN
  6
CONTINUOUS
 62
     7
 10
70.0
 20
556.5
 30
0.0
 11
70.0
 21
466.5
 31
0.0
  0
LINE
  8
L-ZISSEN
  6
CONTINUOUS
 62
     7
 10
216.143594
 20
466.5
 30
0.0
 11
216.143594
 21
453.5
 31
0.0
  0
LINE
  8
L-ZISSEN
  6
CONTINUOUS
 62
     7
 10
250.0
 20
469.7
 30
0.0
 11
238.0
 21
469.7
 31
0.0
  0
ARC
  8
L-ZISSEN
  6
CONTINUOUS
 62
     7
 10
224.0
 20
532.5
 30
0.0
 40
9.0
 50
270.0
 51
90.0
  0
ARC
  8
L-ZISSEN
  6
CONTINUOUS
 62
     7
 10
216.0
 20
532.5
 30
0.0
 40
9.0
 50
90.0
 51
270.0
  0
LINE
  8
L-ZISSEN
  6
CONTINUOUS
 62
     7
 10
224.0
 20
523.5
 30
0.0
 11
216.0
 21
523.5
 31
0.0
  0
LINE
  8
L-ZISSEN
  6
CONTINUOUS
 62
     7
 10
224.0
 20
541.5
 30
0.0
 11
216.0
 21
541.5
 31
0.0
  0
LINE
  8
L-ZISSEN
  6
CONTINUOUS
 62
     7
 10
96.0
 20
541.5
 30
0.0
 11
104.0
 21
541.5
 31
0.0
  0
LINE
  8
L-ZISSEN
  6
CONTINUOUS
 62
     7
 10
96.0
 20
523.5
 30
0.0
 11
104.0
 21
523.5
 31
0.0
  0
ARC
  8
L-ZISSEN
  6
CONTINUOUS
 62
     7
 10
104.0
 20
532.5
 30
0.0
 40
9.0
 50
270.0
 51
90.0
  0
ARC
  8
L-ZISSEN
  6
CONTINUOUS
 62
     7
 10
96.0
 20
532.5
 30
0.0
 40
9.0
 50
90.0
 51
270.0
  0
LINE
  8
L-TYUSIN
  6
CENTER
 62
     1
 10
100.0
 20
517.5
 30
0.0
 11
100.0
 21
547.5
 31
0.0
  0
LINE
  8
L-TYUSIN
  6
CENTER
 62
     1
 10
118.0
 20
532.5
 30
0.0
 11
82.0
 21
532.5
 31
0.0
  0
LINE
  8
L-ZISSEN
  6
CONTINUOUS
 62
     7
 10
216.143594
 20
482.7
 30
0.0
 11
216.143594
 21
469.7
 31
0.0
  0
LINE
  8
L-ZISSEN
  6
CONTINUOUS
 62
     7
 10
243.856406
 20
482.7
 30
0.0
 11
243.856406
 21
469.7
 31
0.0
  0
LINE
  8
L-ZISSEN
  6
CONTINUOUS
 62
     7
 10
243.856406
 20
482.7
 30
0.0
 11
238.0
 21
482.7
 31
0.0
  0
LINE
  8
L-TYUSIN
  6
CENTER
 62
     1
 10
100.0
 20
78.5
 30
0.0
 11
100.0
 21
48.5
 31
0.0
  0
ARC
  8
L-ZISSEN
  6
CONTINUOUS
 62
     7
 10
96.0
 20
63.5
 30
0.0
 40
9.0
 50
90.0
 51
270.0
  0
ARC
  8
L-ZISSEN
  6
CONTINUOUS
 62
     7
 10
104.0
 20
63.5
 30
0.0
 40
9.0
 50
270.0
 51
90.0
  0
LINE
  8
L-ZISSEN
  6
CONTINUOUS
 62
     7
 10
96.0
 20
72.5
 30
0.0
 11
104.0
 21
72.5
 31
0.0
  0
LINE
  8
L-ZISSEN
  6
CONTINUOUS
 62
     7
 10
96.0
 20
54.5
 30
0.0
 11
104.0
 21
54.5
 31
0.0
  0
LINE
  8
L-ZISSEN
  6
CONTINUOUS
 62
     7
 10
224.0
 20
54.5
 30
0.0
 11
216.0
 21
54.5
 31
0.0
  0
LINE
  8
L-ZISSEN
  6
CONTINUOUS
 62
     7
 10
224.0
 20
72.5
 30
0.0
 11
216.0
 21
72.5
 31
0.0
  0
ARC
  8
L-ZISSEN
  6
CONTINUOUS
 62
     7
 10
216.0
 20
63.5
 30
0.0
 40
9.0
 50
90.0
 51
270.0
  0
ARC
  8
L-ZISSEN
  6
CONTINUOUS
 62
     7
 10
224.0
 20
63.5
 30
0.0
 40
9.0
 50
270.0
 51
90.0
  0
LINE
  8
L-ZISSEN
  6
CONTINUOUS
 62
     7
 10
250.0
 20
126.3
 30
0.0
 11
238.0
 21
126.3
 31
0.0
  0
LINE
  8
L-ZISSEN
  6
CONTINUOUS
 62
     7
 10
70.0
 20
39.5
 30
0.0
 11
70.0
 21
129.5
 31
0.0
  0
LINE
  8
L-ZISSEN
  6
CONTINUOUS
 62
     7
 10
250.0
 20
39.5
 30
0.0
 11
70.0
 21
39.5
 31
0.0
  0
LINE
  8
L-ZISSEN
  6
CONTINUOUS
 62
     7
 10
250.0
 20
129.5
 30
0.0
 11
250.0
 21
39.5
 31
0.0
  0
LINE
  8
L-ZISSEN
  6
CONTINUOUS
 62
     7
 10
250.0
 20
129.5
 30
0.0
 11
164.864
 21
129.5
 31
0.0
  0
LINE
  8
L-ZISSEN
  6
CONTINUOUS
 62
     7
 10
250.0
 20
146.5
 30
0.0
 11
70.0
 21
146.5
 31
0.0
  0
LINE
  8
L-ZISSEN
  6
CONTINUOUS
 62
     7
 10
222.0
 20
482.7
 30
0.0
 11
216.143594
 21
482.7
 31
0.0
  0
LINE
  8
L-ZISSEN
  6
CONTINUOUS
 62
     7
 10
222.0
 20
113.3
 30
0.0
 11
216.143594
 21
113.3
 31
0.0
  0
LINE
  8
L-ZISSEN
  6
CONTINUOUS
 62
     7
 10
222.0
 20
110.5
 30
0.0
 11
222.0
 21
129.5
 31
0.0
  0
LINE
  8
L-ZISSEN
  6
CONTINUOUS
 62
     7
 10
238.0
 20
110.5
 30
0.0
 11
238.0
 21
129.5
 31
0.0
  0
LINE
  8
L-ZISSEN
  6
CONTINUOUS
 62
     7
 10
238.0
 20
110.5
 30
0.0
 11
222.0
 21
110.5
 31
0.0
  0
LINE
  8
L-ZISSEN
  6
CONTINUOUS
 62
     7
 10
243.856406
 20
113.3
 30
0.0
 11
238.0
 21
113.3
 31
0.0
  0
LINE
  8
L-ZISSEN
  6
CONTINUOUS
 62
     7
 10
243.856406
 20
113.3
 30
0.0
 11
243.856406
 21
126.3
 31
0.0
  0
LINE
  8
L-ZISSEN
  6
CONTINUOUS
 62
     7
 10
216.143594
 20
113.3
 30
0.0
 11
216.143594
 21
126.3
 31
0.0
  0
LINE
  8
L-ZISSEN
  6
CONTINUOUS
 62
     7
 10
216.143594
 20
129.5
 30
0.0
 11
216.143594
 21
142.5
 31
0.0
  0
LINE
  8
L-ZISSEN
  6
CONTINUOUS
 62
     7
 10
244.0
 20
142.5
 30
0.0
 11
244.0
 21
146.5
 31
0.0
  0
LINE
  8
L-ZISSEN
  6
CONTINUOUS
 62
     7
 10
216.0
 20
142.5
 30
0.0
 11
216.0
 21
146.5
 31
0.0
  0
LINE
  8
L-ZISSEN
  6
CONTINUOUS
 62
     7
 10
244.0
 20
142.5
 30
0.0
 11
216.0
 21
142.5
 31
0.0
  0
LINE
  8
L-ZISSEN
  6
CONTINUOUS
 62
     7
 10
243.856406
 20
129.5
 30
0.0
 11
243.856406
 21
142.5
 31
0.0
  0
LINE
  8
L-ZISSEN
  6
CONTINUOUS
 62
     7
 10
76.143594
 20
129.5
 30
0.0
 11
76.143594
 21
142.5
 31
0.0
  0
LINE
  8
L-ZISSEN
  6
CONTINUOUS
 62
     7
 10
76.0
 20
142.5
 30
0.0
 11
104.0
 21
142.5
 31
0.0
  0
LINE
  8
L-ZISSEN
  6
CONTINUOUS
 62
     7
 10
104.0
 20
142.5
 30
0.0
 11
104.0
 21
146.5
 31
0.0
  0
LINE
  8
L-ZISSEN
  6
CONTINUOUS
 62
     7
 10
76.0
 20
142.5
 30
0.0
 11
76.0
 21
146.5
 31
0.0
  0
LINE
  8
L-ZISSEN
  6
CONTINUOUS
 62
     7
 10
103.856406
 20
129.5
 30
0.0
 11
103.856406
 21
142.5
 31
0.0
  0
LINE
  8
L-ZISSEN
  6
CONTINUOUS
 62
     7
 10
103.856406
 20
113.3
 30
0.0
 11
103.856406
 21
126.3
 31
0.0
  0
LINE
  8
L-ZISSEN
  6
CONTINUOUS
 62
     7
 10
76.143594
 20
113.3
 30
0.0
 11
76.143594
 21
126.3
 31
0.0
  0
LINE
  8
L-ZISSEN
  6
CONTINUOUS
 62
     7
 10
76.143594
 20
113.3
 30
0.0
 11
82.0
 21
113.3
 31
0.0
  0
LINE
  8
L-ZISSEN
  6
CONTINUOUS
 62
     7
 10
82.0
 20
110.5
 30
0.0
 11
98.0
 21
110.5
 31
0.0
  0
LINE
  8
L-ZISSEN
  6
CONTINUOUS
 62
     7
 10
82.0
 20
110.5
 30
0.0
 11
82.0
 21
129.5
 31
0.0
  0
LINE
  8
L-ZISSEN
  6
CONTINUOUS
 62
     7
 10
98.0
 20
110.5
 30
0.0
 11
98.0
 21
129.5
 31
0.0
  0
LINE
  8
L-ZISSEN
  6
CONTINUOUS
 62
     7
 10
98.0
 20
113.3
 30
0.0
 11
103.856406
 21
113.3
 31
0.0
  0
LINE
  8
L-ZISSEN
  6
CONTINUOUS
 62
     7
 10
98.0
 20
482.7
 30
0.0
 11
103.856406
 21
482.7
 31
0.0
  0
LINE
  8
L-ZISSEN
  6
CONTINUOUS
 62
     7
 10
98.0
 20
485.5
 30
0.0
 11
98.0
 21
466.5
 31
0.0
  0
LINE
  8
L-ZISSEN
  6
CONTINUOUS
 62
     7
 10
82.0
 20
485.5
 30
0.0
 11
82.0
 21
466.5
 31
0.0
  0
LINE
  8
L-ZISSEN
  6
CONTINUOUS
 62
     7
 10
76.143594
 20
482.7
 30
0.0
 11
82.0
 21
482.7
 31
0.0
  0
LINE
  8
L-ZISSEN
  6
CONTINUOUS
 62
     7
 10
76.143594
 20
482.7
 30
0.0
 11
76.143594
 21
469.7
 31
0.0
  0
LINE
  8
L-ZISSEN
  6
CONTINUOUS
 62
     7
 10
103.856406
 20
482.7
 30
0.0
 11
103.856406
 21
469.7
 31
0.0
  0
LINE
  8
L-ZISSEN
  6
CONTINUOUS
 62
     7
 10
103.856406
 20
466.5
 30
0.0
 11
103.856406
 21
453.5
 31
0.0
  0
LINE
  8
L-ZISSEN
  6
CONTINUOUS
 62
     7
 10
76.0
 20
453.5
 30
0.0
 11
76.0
 21
449.5
 31
0.0
  0
LINE
  8
L-ZISSEN
  6
CONTINUOUS
 62
     7
 10
104.0
 20
453.5
 30
0.0
 11
104.0
 21
449.5
 31
0.0
  0
LINE
  8
L-ZISSEN
  6
CONTINUOUS
 62
     7
 10
76.0
 20
453.5
 30
0.0
 11
104.0
 21
453.5
 31
0.0
  0
LINE
  8
L-ZISSEN
  6
CONTINUOUS
 62
     7
 10
76.143594
 20
466.5
 30
0.0
 11
76.143594
 21
453.5
 31
0.0
  0
LINE
  8
L-ZISSEN
  6
CONTINUOUS
 62
     7
 10
70.0
 20
176.5
 30
0.0
 11
70.0
 21
146.5
 31
0.0
  0
LINE
  8
L-ZISSEN
  6
CONTINUOUS
 62
     7
 10
250.0
 20
146.5
 30
0.0
 11
250.0
 21
176.5
 31
0.0
  0
LINE
  8
L-ZISSEN
  6
CONTINUOUS
 62
     7
 10
250.0
 20
176.5
 30
0.0
 11
70.0
 21
176.5
 31
0.0
  0
LINE
  8
L-ZISSEN
  6
CONTINUOUS
 62
     7
 10
216.0
 20
143.224268
 30
0.0
 11
183.787839
 21
131.5
 31
0.0
  0
LINE
  8
L-ZISSEN
  6
CONTINUOUS
 62
     7
 10
183.787839
 20
131.5
 30
0.0
 11
136.212161
 21
131.5
 31
0.0
  0
LINE
  8
L-ZISSEN
  6
CONTINUOUS
 62
     7
 10
104.0
 20
143.224268
 30
0.0
 11
136.212161
 21
131.5
 31
0.0
  0
LINE
  8
L-ZISSEN
  6
CONTINUOUS
 62
     7
 10
222.0
 20
126.3
 30
0.0
 11
164.864
 21
126.3
 31
0.0
  0
LINE
  8
L-ZISSEN
  6
CONTINUOUS
 62
     7
 10
82.0
 20
126.3
 30
0.0
 11
70.0
 21
126.3
 31
0.0
  0
LINE
  8
L-ZISSEN
  6
CONTINUOUS
 62
     7
 10
222.0
 20
469.7
 30
0.0
 11
203.0
 21
469.7
 31
0.0
  0
LINE
  8
L-ZISSEN
  6
CONTINUOUS
 62
     7
 10
82.0
 20
469.7
 30
0.0
 11
70.0
 21
469.7
 31
0.0
  0
LINE
  8
L-ZISSEN
  6
CONTINUOUS
 62
     7
 10
155.136
 20
129.5
 30
0.0
 11
70.0
 21
129.5
 31
0.0
  0
LINE
  8
L-ZISSEN
  6
CONTINUOUS
 62
     7
 10
155.136
 20
126.3
 30
0.0
 11
98.0
 21
126.3
 31
0.0
  0
LINE
  8
L-ZISSEN
  6
CONTINUOUS
 62
     7
 10
77.4
 20
419.5
 30
0.0
 11
77.4
 21
176.5
 31
0.0
  0
LINE
  8
L-ZISSEN
  6
CONTINUOUS
 62
     7
 10
98.0
 20
176.5
 30
0.0
 11
98.0
 21
419.5
 31
0.0
  0
LINE
  8
L-ZISSEN
  6
CONTINUOUS
 62
     7
 10
82.0
 20
176.5
 30
0.0
 11
82.0
 21
419.5
 31
0.0
  0
LINE
  8
L-ZISSEN
  6
CONTINUOUS
 62
     7
 10
238.0
 20
176.5
 30
0.0
 11
238.0
 21
419.5
 31
0.0
  0
LINE
  8
L-ZISSEN
  6
CONTINUOUS
 62
     7
 10
222.0
 20
176.5
 30
0.0
 11
222.0
 21
419.5
 31
0.0
  0
LINE
  8
L-ZISSEN
  6
CONTINUOUS
 62
     7
 10
242.6
 20
419.5
 30
0.0
 11
242.6
 21
176.5
 31
0.0
  0
CIRCLE
  8
L-ZISSEN
  6
CONTINUOUS
 62
     7
 10
90.0
 20
620.0
 30
0.0
 40
8.0
  0
CIRCLE
  8
L-ZISSEN
  6
CONTINUOUS
 62
     7
 10
90.0
 20
760.0
 30
0.0
 40
8.0
  0
CIRCLE
  8
L-ZISSEN
  6
CONTINUOUS
 62
     7
 10
230.0
 20
760.0
 30
0.0
 40
8.0
  0
LINE
  8
L-ZISSEN
  6
CONTINUOUS
 62
     7
 10
250.0
 20
797.0
 30
0.0
 11
70.0
 21
797.0
 31
0.0
  0
LINE
  8
L-ZISSEN
  6
CONTINUOUS
 62
     7
 10
250.0
 20
737.0
 30
0.0
 11
220.991803
 21
737.0
 31
0.0
  0
LINE
  8
L-ZISSEN
  6
CONTINUOUS
 62
     7
 10
250.0
 20
793.8
 30
0.0
 11
70.0
 21
793.8
 31
0.0
  0
ARC
  8
L-ZISSEN
  6
CONTINUOUS
 62
     7
 10
160.0
 20
690.0
 30
0.0
 40
77.0
 50
37.61768
 51
142.38232
  0
LINE
  8
L-ZISSEN
  6
CONTINUOUS
 62
     7
 10
99.008197
 20
737.0
 30
0.0
 11
70.0
 21
737.0
 31
0.0
  0
LINE
  8
L-ZISSEN
  6
CONTINUOUS
 62
     7
 10
513.8
 20
469.7
 30
0.0
 11
513.8
 21
556.5
 31
0.0
  0
LINE
  8
L-ZISSEN
  6
CONTINUOUS
 62
     7
 10
517.0
 20
466.5
 30
0.0
 11
517.0
 21
556.5
 31
0.0
  0
LINE
  8
L-ZISSEN
  6
CONTINUOUS
 62
     7
 10
492.6
 20
419.5
 30
0.0
 11
492.6
 21
176.5
 31
0.0
  0
LINE
  8
L-ZISSEN
  6
CONTINUOUS
 62
     7
 10
472.0
 20
176.5
 30
0.0
 11
472.0
 21
419.5
 31
0.0
  0
LINE
  8
L-ZISSEN
  6
CONTINUOUS
 62
     7
 10
488.0
 20
176.5
 30
0.0
 11
488.0
 21
419.5
 31
0.0
  0
LINE
  8
L-ZISSEN
  6
CONTINUOUS
 62
     7
 10
332.0
 20
176.5
 30
0.0
 11
332.0
 21
419.5
 31
0.0
  0
LINE
  8
L-ZISSEN
  6
CONTINUOUS
 62
     7
 10
348.0
 20
176.5
 30
0.0
 11
348.0
 21
419.5
 31
0.0
  0
LINE
  8
L-ZISSEN
  6
CONTINUOUS
 62
     7
 10
327.4
 20
419.5
 30
0.0
 11
327.4
 21
176.5
 31
0.0
  0
LINE
  8
L-ZISSEN
  6
CONTINUOUS
 62
     7
 10
513.8
 20
469.7
 30
0.0
 11
457.0
 21
469.7
 31
0.0
  0
LINE
  8
L-ZISSEN
  6
CONTINUOUS
 62
     7
 10
354.0
 20
143.224268
 30
0.0
 11
386.212161
 21
131.5
 31
0.0
  0
LINE
  8
L-ZISSEN
  6
CONTINUOUS
 62
     7
 10
433.787839
 20
131.5
 30
0.0
 11
386.212161
 21
131.5
 31
0.0
  0
LINE
  8
L-ZISSEN
  6
CONTINUOUS
 62
     7
 10
466.0
 20
143.224268
 30
0.0
 11
433.787839
 21
131.5
 31
0.0
  0
LINE
  8
L-ZISSEN
  6
CONTINUOUS
 62
     7
 10
500.0
 20
176.5
 30
0.0
 11
320.0
 21
176.5
 31
0.0
  0
LINE
  8
L-ZISSEN
  6
CONTINUOUS
 62
     7
 10
500.0
 20
146.5
 30
0.0
 11
500.0
 21
176.5
 31
0.0
  0
LINE
  8
L-ZISSEN
  6
CONTINUOUS
 62
     7
 10
320.0
 20
176.5
 30
0.0
 11
320.0
 21
146.5
 31
0.0
  0
LINE
  8
L-ZISSEN
  6
CONTINUOUS
 62
     7
 10
326.0
 20
453.5
 30
0.0
 11
354.0
 21
453.5
 31
0.0
  0
LINE
  8
L-ZISSEN
  6
CONTINUOUS
 62
     7
 10
354.0
 20
453.5
 30
0.0
 11
354.0
 21
449.5
 31
0.0
  0
LINE
  8
L-ZISSEN
  6
CONTINUOUS
 62
     7
 10
326.0
 20
453.5
 30
0.0
 11
326.0
 21
449.5
 31
0.0
  0
LINE
  8
L-ZISSEN
  6
CONTINUOUS
 62
     7
 10
500.0
 20
146.5
 30
0.0
 11
320.0
 21
146.5
 31
0.0
  0
LINE
  8
L-TYUSIN
  6
CENTER
 62
     1
 10
508.8
 20
532.5
 30
0.0
 11
522.0
 21
532.5
 31
0.0
  0
LINE
  8
L-ZISSEN
  6
CONTINUOUS
 62
     7
 10
500.0
 20
469.7
 30
0.0
 11
488.0
 21
469.7
 31
0.0
  0
LINE
  8
L-ZISSEN
  6
CONTINUOUS
 62
     7
 10
517.0
 20
556.5
 30
0.0
 11
513.8
 21
556.5
 31
0.0
  0
LINE
  8
L-ZISSEN
  6
CONTINUOUS
 62
     7
 10
517.0
 20
466.5
 30
0.0
 11
457.0
 21
466.5
 31
0.0
  0
LINE
  8
L-ZISSEN
  6
CONTINUOUS
 62
     7
 10
448.5
 20
450.5
 30
0.0
 11
448.5
 21
449.5
 31
0.0
  0
LINE
  8
L-ZISSEN
  6
CONTINUOUS
 62
     7
 10
371.5
 20
450.5
 30
0.0
 11
371.5
 21
449.5
 31
0.0
  0
LINE
  8
L-ZISSEN
  6
CONTINUOUS
 62
     7
 10
320.0
 20
449.5
 30
0.0
 11
320.0
 21
419.5
 31
0.0
  0
LINE
  8
L-ZISSEN
  6
CONTINUOUS
 62
     7
 10
320.0
 20
419.5
 30
0.0
 11
500.0
 21
419.5
 31
0.0
  0
LINE
  8
L-ZISSEN
  6
CONTINUOUS
 62
     7
 10
500.0
 20
449.5
 30
0.0
 11
320.0
 21
449.5
 31
0.0
  0
LINE
  8
L-ZISSEN
  6
CONTINUOUS
 62
     7
 10
500.0
 20
419.5
 30
0.0
 11
500.0
 21
449.5
 31
0.0
  0
LINE
  8
L-TYUSIN
  6
CENTER
 62
     1
 10
410.0
 20
532.5
 30
0.0
 11
410.0
 21
85.5
 31
0.0
  0
LINE
  8
L-ZISSEN
  6
CONTINUOUS
 62
     7
 10
457.0
 20
469.7
 30
0.0
 11
457.0
 21
466.5
 31
0.0
  0
LINE
  8
L-ZISSEN
  6
CONTINUOUS
 62
     7
 10
352.0
 20
466.5
 30
0.0
 11
328.0
 21
466.5
 31
0.0
  0
LINE
  8
L-ZISSEN
  6
CONTINUOUS
 62
     7
 10
164.0
 20
520.5
 30
0.0
 11
214.0
 21
520.5
 31
0.0
  0
CIRCLE
  8
L-ZISSEN
  6
CONTINUOUS
 62
     7
 10
189.0
 20
634.0
 30
0.0
 40
25.0
  0
LINE
  8
L-ZISSEN
  6
CONTINUOUS
 62
     7
 10
164.0
 20
515.5
 30
0.0
 11
214.0
 21
515.5
 31
0.0
  0
LINE
  8
L-ZISSEN
  6
CONTINUOUS
 62
     7
 10
214.0
 20
520.5
 30
0.0
 11
214.0
 21
471.5
 31
0.0
  0
LINE
  8
L-ZISSEN
  6
CONTINUOUS
 62
     7
 10
214.0
 20
471.5
 30
0.0
 11
164.0
 21
471.5
 31
0.0
  0
LINE
  8
L-ZISSEN
  6
CONTINUOUS
 62
     7
 10
164.0
 20
471.5
 30
0.0
 11
164.0
 21
520.5
 31
0.0
  0
LINE
  8
L-ZISSEN
  6
CONTINUOUS
 62
     7
 10
200.0
 20
471.5
 30
0.0
 11
200.0
 21
459.5
 31
0.0
  0
LINE
  8
L-ZISSEN
  6
CONTINUOUS
 62
     7
 10
200.0
 20
459.5
 30
0.0
 11
178.0
 21
459.5
 31
0.0
  0
LINE
  8
L-ZISSEN
  6
CONTINUOUS
 62
     7
 10
178.0
 20
459.5
 30
0.0
 11
178.0
 21
471.5
 31
0.0
  0
LINE
  8
L-ZISSEN
  6
CONTINUOUS
 62
     7
 10
199.5
 20
459.5
 30
0.0
 11
199.5
 21
449.5
 31
0.0
  0
LINE
  8
L-ZISSEN
  6
CONTINUOUS
 62
     7
 10
178.5
 20
459.5
 30
0.0
 11
178.5
 21
449.5
 31
0.0
  0
LINE
  8
L-ZISSEN
  6
CONTINUOUS
 62
     7
 10
223.071797
 20
632.0
 30
0.0
 11
216.143594
 21
620.0
 31
0.0
  0
LINE
  8
L-ZISSEN
  6
CONTINUOUS
 62
     7
 10
216.143594
 20
620.0
 30
0.0
 11
223.071797
 21
608.0
 31
0.0
  0
LINE
  8
L-ZISSEN
  6
CONTINUOUS
 62
     7
 10
223.071797
 20
608.0
 30
0.0
 11
236.928203
 21
608.0
 31
0.0
  0
LINE
  8
L-ZISSEN
  6
CONTINUOUS
 62
     7
 10
236.928203
 20
608.0
 30
0.0
 11
243.856406
 21
620.0
 31
0.0
  0
LINE
  8
L-ZISSEN
  6
CONTINUOUS
 62
     7
 10
243.856406
 20
620.0
 30
0.0
 11
236.928203
 21
632.0
 31
0.0
  0
LINE
  8
L-ZISSEN
  6
CONTINUOUS
 62
     7
 10
236.928203
 20
632.0
 30
0.0
 11
223.071797
 21
632.0
 31
0.0
  0
LINE
  8
L-ZISSEN
  6
CONTINUOUS
 62
     7
 10
223.071797
 20
748.0
 30
0.0
 11
216.143594
 21
760.0
 31
0.0
  0
LINE
  8
L-ZISSEN
  6
CONTINUOUS
 62
     7
 10
216.143594
 20
760.0
 30
0.0
 11
223.071797
 21
772.0
 31
0.0
  0
LINE
  8
L-ZISSEN
  6
CONTINUOUS
 62
     7
 10
223.071797
 20
772.0
 30
0.0
 11
236.928203
 21
772.0
 31
0.0
  0
LINE
  8
L-ZISSEN
  6
CONTINUOUS
 62
     7
 10
236.928203
 20
772.0
 30
0.0
 11
243.856406
 21
760.0
 31
0.0
  0
LINE
  8
L-ZISSEN
  6
CONTINUOUS
 62
     7
 10
243.856406
 20
760.0
 30
0.0
 11
236.928203
 21
748.0
 31
0.0
  0
LINE
  8
L-ZISSEN
  6
CONTINUOUS
 62
     7
 10
236.928203
 20
748.0
 30
0.0
 11
223.071797
 21
748.0
 31
0.0
  0
LINE
  8
L-ZISSEN
  6
CONTINUOUS
 62
     7
 10
96.928203
 20
748.0
 30
0.0
 11
103.856406
 21
760.0
 31
0.0
  0
LINE
  8
L-ZISSEN
  6
CONTINUOUS
 62
     7
 10
103.856406
 20
760.0
 30
0.0
 11
96.928203
 21
772.0
 31
0.0
  0
LINE
  8
L-ZISSEN
  6
CONTINUOUS
 62
     7
 10
96.928203
 20
772.0
 30
0.0
 11
83.071797
 21
772.0
 31
0.0
  0
LINE
  8
L-ZISSEN
  6
CONTINUOUS
 62
     7
 10
83.071797
 20
772.0
 30
0.0
 11
76.143594
 21
760.0
 31
0.0
  0
LINE
  8
L-ZISSEN
  6
CONTINUOUS
 62
     7
 10
76.143594
 20
760.0
 30
0.0
 11
83.071797
 21
748.0
 31
0.0
  0
LINE
  8
L-ZISSEN
  6
CONTINUOUS
 62
     7
 10
83.071797
 20
748.0
 30
0.0
 11
96.928203
 21
748.0
 31
0.0
  0
LINE
  8
L-ZISSEN
  6
CONTINUOUS
 62
     7
 10
96.928203
 20
632.0
 30
0.0
 11
103.856406
 21
620.0
 31
0.0
  0
LINE
  8
L-ZISSEN
  6
CONTINUOUS
 62
     7
 10
103.856406
 20
620.0
 30
0.0
 11
96.928203
 21
608.0
 31
0.0
  0
LINE
  8
L-ZISSEN
  6
CONTINUOUS
 62
     7
 10
96.928203
 20
608.0
 30
0.0
 11
83.071797
 21
608.0
 31
0.0
  0
LINE
  8
L-ZISSEN
  6
CONTINUOUS
 62
     7
 10
83.071797
 20
608.0
 30
0.0
 11
76.143594
 21
620.0
 31
0.0
  0
LINE
  8
L-ZISSEN
  6
CONTINUOUS
 62
     7
 10
76.143594
 20
620.0
 30
0.0
 11
83.071797
 21
632.0
 31
0.0
  0
LINE
  8
L-ZISSEN
  6
CONTINUOUS
 62
     7
 10
83.071797
 20
632.0
 30
0.0
 11
96.928203
 21
632.0
 31
0.0
  0
LINE
  8
L-ZISSEN
  6
CONTINUOUS
 62
     7
 10
329.0
 20
471.5
 30
0.0
 11
329.0
 21
520.5
 31
0.0
  0
LINE
  8
L-ZISSEN
  6
CONTINUOUS
 62
     7
 10
379.0
 20
471.5
 30
0.0
 11
348.0
 21
471.5
 31
0.0
  0
LINE
  8
L-ZISSEN
  6
CONTINUOUS
 62
     7
 10
379.0
 20
520.5
 30
0.0
 11
379.0
 21
471.5
 31
0.0
  0
LINE
  8
L-ZISSEN
  6
CONTINUOUS
 62
     7
 10
329.0
 20
515.5
 30
0.0
 11
379.0
 21
515.5
 31
0.0
  0
LINE
  8
L-ZISSEN
  6
CONTINUOUS
 62
     7
 10
329.0
 20
520.5
 30
0.0
 11
379.0
 21
520.5
 31
0.0
  0
LINE
  8
L-ZISSEN
  6
CONTINUOUS
 62
     7
 10
365.0
 20
459.5
 30
0.0
 11
352.0
 21
459.5
 31
0.0
  0
LINE
  8
L-ZISSEN
  6
CONTINUOUS
 62
     7
 10
365.0
 20
471.5
 30
0.0
 11
365.0
 21
459.5
 31
0.0
  0
LINE
  8
L-ZISSEN
  6
CONTINUOUS
 62
     7
 10
364.5
 20
459.5
 30
0.0
 11
364.5
 21
449.5
 31
0.0
  0
LINE
  8
L-TYUSIN
  6
CENTER
 62
     1
 10
202.0
 20
532.5
 30
0.0
 11
238.0
 21
532.5
 31
0.0
  0
LINE
  8
L-TYUSIN
  6
CENTER
 62
     1
 10
220.0
 20
517.5
 30
0.0
 11
220.0
 21
547.5
 31
0.0
  0
LINE
  8
L-ZISSEN
  6
CONTINUOUS
 62
     7
 10
222.0
 20
485.5
 30
0.0
 11
238.0
 21
485.5
 31
0.0
  0
LINE
  8
L-ZISSEN
  6
CONTINUOUS
 62
     7
 10
222.0
 20
485.5
 30
0.0
 11
222.0
 21
466.5
 31
0.0
  0
LINE
  8
L-ZISSEN
  6
CONTINUOUS
 62
     7
 10
238.0
 20
485.5
 30
0.0
 11
238.0
 21
466.5
 31
0.0
  0
LINE
  8
L-ZISSEN
  6
CONTINUOUS
 62
     7
 10
348.0
 20
485.5
 30
0.0
 11
348.0
 21
466.5
 31
0.0
  0
LINE
  8
L-ZISSEN
  6
CONTINUOUS
 62
     7
 10
332.0
 20
485.5
 30
0.0
 11
332.0
 21
466.5
 31
0.0
  0
LINE
  8
L-ZISSEN
  6
CONTINUOUS
 62
     7
 10
332.0
 20
485.5
 30
0.0
 11
348.0
 21
485.5
 31
0.0
  0
LINE
  8
L-ZISSEN
  6
CONTINUOUS
 62
     7
 10
328.0
 20
466.5
 30
0.0
 11
328.0
 21
453.5
 31
0.0
  0
LINE
  8
L-ZISSEN
  6
CONTINUOUS
 62
     7
 10
352.0
 20
466.5
 30
0.0
 11
352.0
 21
453.5
 31
0.0
  0
LINE
  8
L-ZISSEN
  6
CONTINUOUS
 62
     7
 10
466.0
 20
453.5
 30
0.0
 11
466.0
 21
449.5
 31
0.0
  0
LINE
  8
L-ZISSEN
  6
CONTINUOUS
 62
     7
 10
494.0
 20
453.5
 30
0.0
 11
494.0
 21
449.5
 31
0.0
  0
LINE
  8
L-ZISSEN
  6
CONTINUOUS
 62
     7
 10
466.0
 20
453.5
 30
0.0
 11
494.0
 21
453.5
 31
0.0
  0
LINE
  8
L-ZISSEN
  6
CONTINUOUS
 62
     7
 10
492.0
 20
466.5
 30
0.0
 11
492.0
 21
453.5
 31
0.0
  0
LINE
  8
L-ZISSEN
  6
CONTINUOUS
 62
     7
 10
468.0
 20
466.5
 30
0.0
 11
468.0
 21
453.5
 31
0.0
  0
LINE
  8
L-ZISSEN
  6
CONTINUOUS
 62
     7
 10
472.0
 20
485.5
 30
0.0
 11
472.0
 21
482.7
 31
0.0
  0
LINE
  8
L-ZISSEN
  6
CONTINUOUS
 62
     7
 10
472.0
 20
485.5
 30
0.0
 11
488.0
 21
485.5
 31
0.0
  0
LINE
  8
L-ZISSEN
  6
CONTINUOUS
 62
     7
 10
488.0
 20
485.5
 30
0.0
 11
488.0
 21
482.7
 31
0.0
  0
LINE
  8
L-ZISSEN
  6
CONTINUOUS
 62
     7
 10
468.0
 20
482.7
 30
0.0
 11
468.0
 21
469.7
 31
0.0
  0
LINE
  8
L-ZISSEN
  6
CONTINUOUS
 62
     7
 10
492.0
 20
482.7
 30
0.0
 11
468.0
 21
482.7
 31
0.0
  0
LINE
  8
L-ZISSEN
  6
CONTINUOUS
 62
     7
 10
492.0
 20
482.7
 30
0.0
 11
492.0
 21
469.7
 31
0.0
  0
LINE
  8
L-ZISSEN
  6
CONTINUOUS
 62
     7
 10
242.6
 20
415.0
 30
0.0
 11
263.6
 21
415.0
 31
0.0
  0
LINE
  8
L-ZISSEN
  6
CONTINUOUS
 62
     7
 10
242.6
 20
405.0
 30
0.0
 11
251.6
 21
405.0
 31
0.0
  0
LINE
  8
L-ZISSEN
  6
CONTINUOUS
 62
     7
 10
249.517096
 20
388.0
 30
0.0
 11
265.682904
 21
388.0
 31
0.0
  0
LINE
  8
L-ZISSEN
  6
CONTINUOUS
 62
     7
 10
249.517096
 20
388.0
 30
0.0
 11
249.517096
 21
398.0
 31
0.0
  0
LINE
  8
L-ZISSEN
  6
CONTINUOUS
 62
     7
 10
249.517096
 20
398.0
 30
0.0
 11
265.682904
 21
398.0
 31
0.0
  0
LINE
  8
L-ZISSEN
  6
CONTINUOUS
 62
     7
 10
265.682904
 20
388.0
 30
0.0
 11
265.682904
 21
398.0
 31
0.0
  0
LINE
  8
L-ZISSEN
  6
CONTINUOUS
 62
     7
 10
251.6
 20
398.0
 30
0.0
 11
251.6
 21
405.0
 31
0.0
  0
LINE
  8
L-ZISSEN
  6
CONTINUOUS
 62
     7
 10
263.6
 20
398.0
 30
0.0
 11
263.6
 21
415.0
 31
0.0
  0
LINE
  8
L-ZISSEN
  6
CONTINUOUS
 62
     7
 10
261.6
 20
208.0
 30
0.0
 11
261.6
 21
388.0
 31
0.0
  0
LINE
  8
L-ZISSEN
  6
CONTINUOUS
 62
     7
 10
253.6
 20
208.0
 30
0.0
 11
253.6
 21
388.0
 31
0.0
  0
LINE
  8
L-ZISSEN
  6
CONTINUOUS
 62
     7
 10
263.6
 20
198.0
 30
0.0
 11
263.6
 21
181.0
 31
0.0
  0
LINE
  8
L-ZISSEN
  6
CONTINUOUS
 62
     7
 10
251.6
 20
198.0
 30
0.0
 11
251.6
 21
191.0
 31
0.0
  0
LINE
  8
L-ZISSEN
  6
CONTINUOUS
 62
     7
 10
265.682904
 20
208.0
 30
0.0
 11
265.682904
 21
198.0
 31
0.0
  0
LINE
  8
L-ZISSEN
  6
CONTINUOUS
 62
     7
 10
249.517096
 20
198.0
 30
0.0
 11
265.682904
 21
198.0
 31
0.0
  0
LINE
  8
L-ZISSEN
  6
CONTINUOUS
 62
     7
 10
249.517096
 20
208.0
 30
0.0
 11
249.517096
 21
198.0
 31
0.0
  0
LINE
  8
L-ZISSEN
  6
CONTINUOUS
 62
     7
 10
249.517096
 20
208.0
 30
0.0
 11
265.682904
 21
208.0
 31
0.0
  0
LINE
  8
L-ZISSEN
  6
CONTINUOUS
 62
     7
 10
242.6
 20
191.0
 30
0.0
 11
251.6
 21
191.0
 31
0.0
  0
LINE
  8
L-ZISSEN
  6
CONTINUOUS
 62
     7
 10
242.6
 20
181.0
 30
0.0
 11
263.6
 21
181.0
 31
0.0
  0
CIRCLE
  8
L-ZISSEN
  6
CONTINUOUS
 62
     7
 10
160.0
 20
112.5
 30
0.0
 40
12.5
  0
LINE
  8
L-ZISSEN
  6
CONTINUOUS
 62
     7
 10
166.0
 20
123.465856
 30
0.0
 11
166.0
 21
126.0
 31
0.0
  0
LINE
  8
L-ZISSEN
  6
CONTINUOUS
 62
     7
 10
154.0
 20
123.465856
 30
0.0
 11
154.0
 21
126.0
 31
0.0
  0
LINE
  8
L-ZISSEN
  6
CONTINUOUS
 62
     7
 10
160.0
 20
109.613249
 30
0.0
 11
162.5
 21
111.056624
 31
0.0
  0
LINE
  8
L-ZISSEN
  6
CONTINUOUS
 62
     7
 10
162.5
 20
113.943376
 30
0.0
 11
162.5
 21
111.056624
 31
0.0
  0
LINE
  8
L-ZISSEN
  6
CONTINUOUS
 62
     7
 10
160.0
 20
115.386751
 30
0.0
 11
162.5
 21
113.943376
 31
0.0
  0
LINE
  8
L-ZISSEN
  6
CONTINUOUS
 62
     7
 10
160.0
 20
109.613249
 30
0.0
 11
157.5
 21
111.056624
 31
0.0
  0
LINE
  8
L-ZISSEN
  6
CONTINUOUS
 62
     7
 10
157.5
 20
113.943376
 30
0.0
 11
157.5
 21
111.056624
 31
0.0
  0
LINE
  8
L-ZISSEN
  6
CONTINUOUS
 62
     7
 10
160.0
 20
115.386751
 30
0.0
 11
157.5
 21
113.943376
 31
0.0
  0
LINE
  8
L-ZISSEN
  6
CONTINUOUS
 62
     7
 10
164.25
 20
90.5
 30
0.0
 11
155.75
 21
90.5
 31
0.0
  0
LINE
  8
L-ZISSEN
  6
CONTINUOUS
 62
     7
 10
164.25
 20
90.5
 30
0.0
 11
164.25
 21
100.744682
 31
0.0
  0
LINE
  8
L-ZISSEN
  6
CONTINUOUS
 62
     7
 10
155.75
 20
90.5
 30
0.0
 11
155.75
 21
100.744682
 31
0.0
  0
LINE
  8
L-ZISSEN
  6
CONTINUOUS
 62
     7
 10
164.864
 20
131.5
 30
0.0
 11
164.864
 21
126.0
 31
0.0
  0
LINE
  8
L-ZISSEN
  6
CONTINUOUS
 62
     7
 10
155.136
 20
131.5
 30
0.0
 11
155.136
 21
126.0
 31
0.0
  0
LINE
  8
L-ZISSEN
  6
CONTINUOUS
 62
     7
 10
154.0
 20
126.0
 30
0.0
 11
166.0
 21
126.0
 31
0.0
  0
LINE
  8
L-TYUSIN
  6
CENTER
 62
     1
 10
118.0
 20
63.5
 30
0.0
 11
82.0
 21
63.5
 31
0.0
  0
LINE
  8
L-TYUSIN
  6
CENTER
 62
     1
 10
202.0
 20
63.5
 30
0.0
 11
238.0
 21
63.5
 31
0.0
  0
LINE
  8
L-TYUSIN
  6
CENTER
 62
     1
 10
220.0
 20
78.5
 30
0.0
 11
220.0
 21
48.5
 31
0.0
  0
LINE
  8
L-ZISSEN
  6
CONTINUOUS
 62
     7
 10
326.0
 20
142.5
 30
0.0
 11
326.0
 21
146.5
 31
0.0
  0
LINE
  8
L-ZISSEN
  6
CONTINUOUS
 62
     7
 10
354.0
 20
142.5
 30
0.0
 11
354.0
 21
146.5
 31
0.0
  0
LINE
  8
L-ZISSEN
  6
CONTINUOUS
 62
     7
 10
326.0
 20
142.5
 30
0.0
 11
354.0
 21
142.5
 31
0.0
  0
LINE
  8
L-ZISSEN
  6
CONTINUOUS
 62
     7
 10
352.0
 20
129.5
 30
0.0
 11
352.0
 21
142.5
 31
0.0
  0
LINE
  8
L-ZISSEN
  6
CONTINUOUS
 62
     7
 10
352.0
 20
129.5
 30
0.0
 11
328.0
 21
129.5
 31
0.0
  0
LINE
  8
L-ZISSEN
  6
CONTINUOUS
 62
     7
 10
332.0
 20
110.5
 30
0.0
 11
332.0
 21
129.5
 31
0.0
  0
LINE
  8
L-ZISSEN
  6
CONTINUOUS
 62
     7
 10
332.0
 20
110.5
 30
0.0
 11
348.0
 21
110.5
 31
0.0
  0
LINE
  8
L-ZISSEN
  6
CONTINUOUS
 62
     7
 10
348.0
 20
110.5
 30
0.0
 11
348.0
 21
129.5
 31
0.0
  0
LINE
  8
L-ZISSEN
  6
CONTINUOUS
 62
     7
 10
328.0
 20
129.5
 30
0.0
 11
328.0
 21
142.5
 31
0.0
  0
LINE
  8
L-ZISSEN
  6
CONTINUOUS
 62
     7
 10
492.0
 20
113.3
 30
0.0
 11
492.0
 21
126.3
 31
0.0
  0
LINE
  8
L-ZISSEN
  6
CONTINUOUS
 62
     7
 10
492.0
 20
113.3
 30
0.0
 11
468.0
 21
113.3
 31
0.0
  0
LINE
  8
L-ZISSEN
  6
CONTINUOUS
 62
     7
 10
468.0
 20
113.3
 30
0.0
 11
468.0
 21
126.3
 31
0.0
  0
LINE
  8
L-ZISSEN
  6
CONTINUOUS
 62
     7
 10
488.0
 20
110.5
 30
0.0
 11
488.0
 21
113.3
 31
0.0
  0
LINE
  8
L-ZISSEN
  6
CONTINUOUS
 62
     7
 10
472.0
 20
110.5
 30
0.0
 11
488.0
 21
110.5
 31
0.0
  0
LINE
  8
L-ZISSEN
  6
CONTINUOUS
 62
     7
 10
472.0
 20
110.5
 30
0.0
 11
472.0
 21
113.3
 31
0.0
  0
LINE
  8
L-ZISSEN
  6
CONTINUOUS
 62
     7
 10
468.0
 20
129.5
 30
0.0
 11
468.0
 21
142.5
 31
0.0
  0
LINE
  8
L-ZISSEN
  6
CONTINUOUS
 62
     7
 10
492.0
 20
129.5
 30
0.0
 11
492.0
 21
142.5
 31
0.0
  0
LINE
  8
L-ZISSEN
  6
CONTINUOUS
 62
     7
 10
466.0
 20
142.5
 30
0.0
 11
494.0
 21
142.5
 31
0.0
  0
LINE
  8
L-ZISSEN
  6
CONTINUOUS
 62
     7
 10
494.0
 20
142.5
 30
0.0
 11
494.0
 21
146.5
 31
0.0
  0
LINE
  8
L-ZISSEN
  6
CONTINUOUS
 62
     7
 10
466.0
 20
142.5
 30
0.0
 11
466.0
 21
146.5
 31
0.0
  0
LINE
  8
L-ZISSEN
  6
CONTINUOUS
 62
     7
 10
457.0
 20
126.3
 30
0.0
 11
457.0
 21
129.5
 31
0.0
  0
LINE
  8
L-ZISSEN
  6
CONTINUOUS
 62
     7
 10
517.0
 20
129.5
 30
0.0
 11
457.0
 21
129.5
 31
0.0
  0
LINE
  8
L-ZISSEN
  6
CONTINUOUS
 62
     7
 10
517.0
 20
39.5
 30
0.0
 11
513.8
 21
39.5
 31
0.0
  0
LINE
  8
L-ZISSEN
  6
CONTINUOUS
 62
     7
 10
500.0
 20
126.3
 30
0.0
 11
488.0
 21
126.3
 31
0.0
  0
LINE
  8
L-TYUSIN
  6
CENTER
 62
     1
 10
508.8
 20
63.5
 30
0.0
 11
522.0
 21
63.5
 31
0.0
  0
LINE
  8
L-ZISSEN
  6
CONTINUOUS
 62
     7
 10
513.8
 20
126.3
 30
0.0
 11
457.0
 21
126.3
 31
0.0
  0
LINE
  8
L-ZISSEN
  6
CONTINUOUS
 62
     7
 10
517.0
 20
129.5
 30
0.0
 11
517.0
 21
39.5
 31
0.0
  0
LINE
  8
L-ZISSEN
  6
CONTINUOUS
 62
     7
 10
513.8
 20
126.3
 30
0.0
 11
513.8
 21
39.5
 31
0.0
  0
LINE
  8
L-ZISSEN
  6
CONTINUOUS
 62
     7
 10
404.0
 20
126.0
 30
0.0
 11
416.0
 21
126.0
 31
0.0
  0
LINE
  8
L-ZISSEN
  6
CONTINUOUS
 62
     7
 10
414.864
 20
131.5
 30
0.0
 11
414.864
 21
126.0
 31
0.0
  0
LINE
  8
L-ZISSEN
  6
CONTINUOUS
 62
     7
 10
405.136
 20
131.5
 30
0.0
 11
405.136
 21
126.0
 31
0.0
  0
LINE
  8
L-ZISSEN
  6
CONTINUOUS
 62
     7
 10
411.25
 20
90.5
 30
0.0
 11
402.75
 21
90.5
 31
0.0
  0
LINE
  8
L-ZISSEN
  6
CONTINUOUS
 62
     7
 10
380.0
 20
115.386751
 30
0.0
 11
380.0
 21
109.613249
 31
0.0
  0
LINE
  8
L-ZISSEN
  6
CONTINUOUS
 62
     7
 10
382.5
 20
100.0
 30
0.0
 11
382.5
 21
125.0
 31
0.0
  0
LINE
  8
L-ZISSEN
  6
CONTINUOUS
 62
     7
 10
386.0
 20
125.0
 30
0.0
 11
386.0
 21
100.0
 31
0.0
  0
LINE
  8
L-ZISSEN
  6
CONTINUOUS
 62
     7
 10
392.0
 20
120.582904
 30
0.0
 11
397.0
 21
120.582904
 31
0.0
  0
LINE
  8
L-ZISSEN
  6
CONTINUOUS
 62
     7
 10
392.0
 20
104.417096
 30
0.0
 11
397.0
 21
104.417096
 31
0.0
  0
LINE
  8
L-ZISSEN
  6
CONTINUOUS
 62
     7
 10
386.0
 20
114.75
 30
0.0
 11
392.0
 21
114.75
 31
0.0
  0
LINE
  8
L-ZISSEN
  6
CONTINUOUS
 62
     7
 10
386.0
 20
110.25
 30
0.0
 11
392.0
 21
110.25
 31
0.0
  0
LINE
  8
L-ZISSEN
  6
CONTINUOUS
 62
     7
 10
382.5
 20
125.0
 30
0.0
 11
386.0
 21
125.0
 31
0.0
  0
LINE
  8
L-ZISSEN
  6
CONTINUOUS
 62
     7
 10
382.5
 20
100.0
 30
0.0
 11
386.0
 21
100.0
 31
0.0
  0
LINE
  8
L-ZISSEN
  6
CONTINUOUS
 62
     7
 10
380.0
 20
115.386751
 30
0.0
 11
382.5
 21
115.386751
 31
0.0
  0
LINE
  8
L-ZISSEN
  6
CONTINUOUS
 62
     7
 10
380.0
 20
109.613249
 30
0.0
 11
382.5
 21
109.613249
 31
0.0
  0
LINE
  8
L-ZISSEN
  6
CONTINUOUS
 62
     7
 10
404.0
 20
118.5
 30
0.0
 11
404.0
 21
126.0
 31
0.0
  0
LINE
  8
L-ZISSEN
  6
CONTINUOUS
 62
     7
 10
416.0
 20
106.5
 30
0.0
 11
416.0
 21
126.0
 31
0.0
  0
LINE
  8
L-ZISSEN
  6
CONTINUOUS
 62
     7
 10
404.0
 20
118.5
 30
0.0
 11
397.0
 21
118.5
 31
0.0
  0
LINE
  8
L-ZISSEN
  6
CONTINUOUS
 62
     7
 10
416.0
 20
106.5
 30
0.0
 11
397.0
 21
106.5
 31
0.0
  0
LINE
  8
L-ZISSEN
  6
CONTINUOUS
 62
     7
 10
411.25
 20
90.5
 30
0.0
 11
411.25
 21
106.5
 31
0.0
  0
LINE
  8
L-ZISSEN
  6
CONTINUOUS
 62
     7
 10
402.75
 20
90.5
 30
0.0
 11
402.75
 21
106.5
 31
0.0
  0
LINE
  8
L-ZISSEN
  6
CONTINUOUS
 62
     7
 10
397.0
 20
120.582904
 30
0.0
 11
397.0
 21
104.417096
 31
0.0
  0
LINE
  8
L-ZISSEN
  6
CONTINUOUS
 62
     7
 10
392.0
 20
120.582904
 30
0.0
 11
392.0
 21
104.417096
 31
0.0
  0
LINE
  8
L-ZISSEN
  6
CONTINUOUS
 62
     7
 10
403.0
 20
208.0
 30
0.0
 11
417.0
 21
208.0
 31
0.0
  0
LINE
  8
L-ZISSEN
  6
CONTINUOUS
 62
     7
 10
403.0
 20
198.0
 30
0.0
 11
403.0
 21
208.0
 31
0.0
  0
LINE
  8
L-ZISSEN
  6
CONTINUOUS
 62
     7
 10
417.0
 20
198.0
 30
0.0
 11
417.0
 21
208.0
 31
0.0
  0
LINE
  8
L-ZISSEN
  6
CONTINUOUS
 62
     7
 10
404.0
 20
181.0
 30
0.0
 11
416.0
 21
181.0
 31
0.0
  0
LINE
  8
L-ZISSEN
  6
CONTINUOUS
 62
     7
 10
403.0
 20
198.0
 30
0.0
 11
417.0
 21
198.0
 31
0.0
  0
LINE
  8
L-ZISSEN
  6
CONTINUOUS
 62
     7
 10
404.0
 20
198.0
 30
0.0
 11
404.0
 21
181.0
 31
0.0
  0
LINE
  8
L-ZISSEN
  6
CONTINUOUS
 62
     7
 10
416.0
 20
198.0
 30
0.0
 11
416.0
 21
181.0
 31
0.0
  0
LINE
  8
L-ZISSEN
  6
CONTINUOUS
 62
     7
 10
414.0
 20
208.0
 30
0.0
 11
414.0
 21
388.0
 31
0.0
  0
LINE
  8
L-ZISSEN
  6
CONTINUOUS
 62
     7
 10
406.0
 20
208.0
 30
0.0
 11
406.0
 21
388.0
 31
0.0
  0
LINE
  8
L-ZISSEN
  6
CONTINUOUS
 62
     7
 10
416.0
 20
398.0
 30
0.0
 11
416.0
 21
415.0
 31
0.0
  0
LINE
  8
L-ZISSEN
  6
CONTINUOUS
 62
     7
 10
404.0
 20
398.0
 30
0.0
 11
404.0
 21
415.0
 31
0.0
  0
LINE
  8
L-ZISSEN
  6
CONTINUOUS
 62
     7
 10
403.0
 20
398.0
 30
0.0
 11
417.0
 21
398.0
 31
0.0
  0
LINE
  8
L-ZISSEN
  6
CONTINUOUS
 62
     7
 10
404.0
 20
415.0
 30
0.0
 11
416.0
 21
415.0
 31
0.0
  0
LINE
  8
L-ZISSEN
  6
CONTINUOUS
 62
     7
 10
417.0
 20
398.0
 30
0.0
 11
417.0
 21
388.0
 31
0.0
  0
LINE
  8
L-ZISSEN
  6
CONTINUOUS
 62
     7
 10
403.0
 20
398.0
 30
0.0
 11
403.0
 21
388.0
 31
0.0
  0
LINE
  8
L-ZISSEN
  6
CONTINUOUS
 62
     7
 10
403.0
 20
388.0
 30
0.0
 11
417.0
 21
388.0
 31
0.0
  0
ARC
  8
L-ZISSEN
  6
CONTINUOUS
 62
     7
 10
194.0
 20
664.0
 30
0.0
 40
6.0
 50
283.518684
 51
0.0
  0
CIRCLE
  8
L-ZISSEN
  6
CONTINUOUS
 62
     7
 10
194.0
 20
664.0
 30
0.0
 40
5.25
  0
ARC
  8
L-ZISSEN
  6
CONTINUOUS
 62
     7
 10
126.0
 20
664.0
 30
0.0
 40
6.0
 50
180.0
 51
270.0
  0
LINE
  8
L-ZISSEN
  6
CONTINUOUS
 62
     7
 10
126.0
 20
658.0
 30
0.0
 11
132.797059
 21
658.0
 31
0.0
  0
CIRCLE
  8
L-ZISSEN
  6
CONTINUOUS
 62
     7
 10
126.0
 20
664.0
 30
0.0
 40
5.25
  0
LINE
  8
L-ZISSEN
  6
CONTINUOUS
 62
     7
 10
117.0
 20
675.0
 30
0.0
 11
117.0
 21
705.0
 31
0.0
  0
ARC
  8
L-ZISSEN
  6
CONTINUOUS
 62
     7
 10
160.0
 20
646.0
 30
0.0
 40
6.0
 50
180.0
 51
0.0
  0
LINE
  8
L-ZISSEN
  6
CONTINUOUS
 62
     7
 10
154.0
 20
646.0
 30
0.0
 11
152.450326
 21
648.684114
 31
0.0
  0
LINE
  8
L-ZISSEN
  6
CONTINUOUS
 62
     7
 10
166.0
 20
646.0
 30
0.0
 11
167.549674
 21
648.684114
 31
0.0
  0
ARC
  8
L-ZISSEN
  6
CONTINUOUS
 62
     7
 10
160.0
 20
646.0
 30
0.0
 40
5.25
 50
126.802981
 51
53.197019
  0
ARC
  8
L-ZISSEN
  6
CONTINUOUS
 62
     7
 10
160.0
 20
690.0
 30
0.0
 40
42.0
 50
229.632406
 51
259.64456
  0
ARC
  8
L-ZISSEN
  6
CONTINUOUS
 62
     7
 10
160.0
 20
690.0
 30
0.0
 40
42.0
 50
280.35544
 51
282.34312
  0
ARC
  8
L-ZISSEN
  6
CONTINUOUS
 62
     7
 10
160.0
 20
690.0
 30
0.0
 40
42.0
 50
49.632406
 51
79.64456
  0
ARC
  8
L-ZISSEN
  6
CONTINUOUS
 62
     7
 10
160.0
 20
690.0
 30
0.0
 40
42.0
 50
100.35544
 51
130.367594
  0
ARC
  8
L-ZISSEN
  6
CONTINUOUS
 62
     7
 10
160.0
 20
734.0
 30
0.0
 40
5.25
 50
306.802981
 51
233.197019
  0
LINE
  8
L-ZISSEN
  6
CONTINUOUS
 62
     7
 10
166.0
 20
734.0
 30
0.0
 11
167.549674
 21
731.315886
 31
0.0
  0
LINE
  8
L-ZISSEN
  6
CONTINUOUS
 62
     7
 10
154.0
 20
734.0
 30
0.0
 11
152.450326
 21
731.315886
 31
0.0
  0
ARC
  8
L-ZISSEN
  6
CONTINUOUS
 62
     7
 10
160.0
 20
734.0
 30
0.0
 40
6.0
 50
0.0
 51
180.0
  0
CIRCLE
  8
L-ZISSEN
  6
CONTINUOUS
 62
     7
 10
126.0
 20
716.0
 30
0.0
 40
5.25
  0
LINE
  8
L-ZISSEN
  6
CONTINUOUS
 62
     7
 10
126.0
 20
722.0
 30
0.0
 11
132.797059
 21
722.0
 31
0.0
  0
ARC
  8
L-ZISSEN
  6
CONTINUOUS
 62
     7
 10
126.0
 20
716.0
 30
0.0
 40
6.0
 50
90.0
 51
180.0
  0
CIRCLE
  8
L-ZISSEN
  6
CONTINUOUS
 62
     7
 10
194.0
 20
716.0
 30
0.0
 40
5.25
  0
ARC
  8
L-ZISSEN
  6
CONTINUOUS
 62
     7
 10
194.0
 20
716.0
 30
0.0
 40
6.0
 50
0.0
 51
90.0
  0
LINE
  8
L-ZISSEN
  6
CONTINUOUS
 62
     7
 10
194.0
 20
722.0
 30
0.0
 11
187.202941
 21
722.0
 31
0.0
  0
LINE
  8
L-ZISSEN
  6
CONTINUOUS
 62
     7
 10
203.0
 20
705.0
 30
0.0
 11
183.84798
 21
705.0
 31
0.0
  0
LINE
  8
L-ZISSEN
  6
CONTINUOUS
 62
     7
 10
117.0
 20
675.0
 30
0.0
 11
150.986122
 21
675.0
 31
0.0
  0
LINE
  8
L-ZISSEN
  6
CONTINUOUS
 62
     7
 10
170.0
 20
718.0
 30
0.0
 11
170.0
 21
712.431119
 31
0.0
  0
LINE
  8
L-ZISSEN
  6
CONTINUOUS
 62
     7
 10
150.0
 20
706.918201
 30
0.0
 11
150.0
 21
718.0
 31
0.0
  0
ARC
  8
L-ZISSEN
  6
CONTINUOUS
 62
     7
 10
160.0
 20
718.0
 30
0.0
 40
10.0
 50
0.0
 51
51.156878
  0
ARC
  8
L-ZISSEN
  6
CONTINUOUS
 62
     7
 10
147.272078
 20
702.727922
 30
0.0
 40
5.0
 50
27.027338
 51
152.972662
  0
ARC
  8
L-ZISSEN
  6
CONTINUOUS
 62
     7
 10
174.849242
 20
675.150758
 30
0.0
 40
9.0
 50
225.0
 51
45.0
  0
LINE
  8
L-ZISSEN
  6
CONTINUOUS
 62
     7
 10
181.213203
 20
681.514719
 30
0.0
 11
176.976454
 21
685.751468
 31
0.0
  0
LINE
  8
L-ZISSEN
  6
CONTINUOUS
 62
     7
 10
168.485281
 20
668.786797
 30
0.0
 11
164.248532
 21
673.023546
 31
0.0
  0
LINE
  8
L-ZISSEN
  6
CONTINUOUS
 62
     7
 10
150.986122
 20
705.0
 30
0.0
 11
117.0
 21
705.0
 31
0.0
  0
LINE
  8
L-ZISSEN
  6
CONTINUOUS
 62
     7
 10
183.84798
 20
675.0
 30
0.0
 11
203.0
 21
675.0
 31
0.0
  0
LINE
  8
L-ZISSEN
  6
CONTINUOUS
 62
     7
 10
168.485281
 20
711.213203
 30
0.0
 11
164.248532
 21
706.976454
 31
0.0
  0
LINE
  8
L-ZISSEN
  6
CONTINUOUS
 62
     7
 10
181.213203
 20
698.485281
 30
0.0
 11
176.976454
 21
694.248532
 31
0.0
  0
ARC
  8
L-ZISSEN
  6
CONTINUOUS
 62
     7
 10
174.849242
 20
704.849242
 30
0.0
 40
9.0
 50
315.0
 51
135.0
  0
ARC
  8
L-ZISSEN
  6
CONTINUOUS
 62
     7
 10
160.0
 20
662.0
 30
0.0
 40
10.0
 50
180.0
 51
231.744156
  0
LINE
  8
L-ZISSEN
  6
CONTINUOUS
 62
     7
 10
150.0
 20
675.0
 30
0.0
 11
150.0
 21
662.0
 31
0.0
  0
LINE
  8
L-ZISSEN
  6
CONTINUOUS
 62
     7
 10
170.0
 20
662.0
 30
0.0
 11
170.0
 21
667.568881
 31
0.0
  0
CIRCLE
  8
L-ZISSEN
  6
CONTINUOUS
 62
     7
 10
174.849242
 20
675.150758
 30
0.0
 40
3.5
  0
LINE
  8
L-ZISSEN
  6
CONTINUOUS
 62
     7
 10
117.0
 20
450.5
 30
0.0
 11
117.0
 21
483.5
 31
0.0
  0
LINE
  8
L-ZISSEN
  6
CONTINUOUS
 62
     7
 10
203.0
 20
471.5
 30
0.0
 11
203.0
 21
450.5
 31
0.0
  0
LINE
  8
L-TYUSIN
  6
CENTER
 62
     1
 10
112.0
 20
468.5
 30
0.0
 11
208.0
 21
468.5
 31
0.0
  0
LINE
  8
L-ZISSEN
  6
CONTINUOUS
 62
     7
 10
203.0
 20
450.5
 30
0.0
 11
199.5
 21
450.5
 31
0.0
  0
LINE
  8
L-ZISSEN
  6
CONTINUOUS
 62
     7
 10
202.0
 20
458.5
 30
0.0
 11
199.5
 21
458.5
 31
0.0
  0
ARC
  8
L-ZISSEN
  6
CONTINUOUS
 62
     7
 10
160.0
 20
514.75
 30
0.0
 40
12.75
 50
26.806602
 51
180.0
  0
LINE
  8
L-ZISSEN
  6
CONTINUOUS
 62
     7
 10
147.25
 20
514.75
 30
0.0
 11
147.25
 21
503.3
 31
0.0
  0
LINE
  8
L-ZISSEN
  6
CONTINUOUS
 62
     7
 10
164.0
 20
503.3
 30
0.0
 11
142.5
 21
503.3
 31
0.0
  0
LINE
  8
L-ZISSEN
  6
CONTINUOUS
 62
     7
 10
142.5
 20
489.8
 30
0.0
 11
142.5
 21
503.3
 31
0.0
  0
LINE
  8
L-ZISSEN
  6
CONTINUOUS
 62
     7
 10
143.5
 20
489.8
 30
0.0
 11
143.5
 21
483.5
 31
0.0
  0
CIRCLE
  8
L-ZISSEN
  6
CONTINUOUS
 62
     7
 10
160.0
 20
690.0
 30
0.0
 40
12.75
  0
CIRCLE
  8
L-ZISSEN
  6
CONTINUOUS
 62
     7
 10
160.0
 20
690.0
 30
0.0
 40
17.5
  0
LINE
  8
L-ZISSEN
  6
CONTINUOUS
 62
     7
 10
460.0
 20
458.5
 30
0.0
 11
425.0
 21
458.5
 31
0.0
  0
LINE
  8
L-ZISSEN
  6
CONTINUOUS
 62
     7
 10
460.0
 20
450.5
 30
0.0
 11
364.5
 21
450.5
 31
0.0
  0
LINE
  8
L-TYUSIN
  6
CENTER
 62
     1
 10
390.0
 20
468.5
 30
0.0
 11
430.0
 21
468.5
 31
0.0
  0
LINE
  8
L-ZISSEN
  6
CONTINUOUS
 62
     7
 10
426.5
 20
489.8
 30
0.0
 11
426.5
 21
485.5
 31
0.0
  0
LINE
  8
L-ZISSEN
  6
CONTINUOUS
 62
     7
 10
393.5
 20
489.8
 30
0.0
 11
393.5
 21
485.5
 31
0.0
  0
LINE
  8
L-ZISSEN
  6
CONTINUOUS
 62
     7
 10
427.5
 20
489.8
 30
0.0
 11
427.5
 21
503.3
 31
0.0
  0
LINE
  8
L-ZISSEN
  6
CONTINUOUS
 62
     7
 10
392.5
 20
489.8
 30
0.0
 11
392.5
 21
503.3
 31
0.0
  0
LINE
  8
L-ZISSEN
  6
CONTINUOUS
 62
     7
 10
427.5
 20
503.3
 30
0.0
 11
392.5
 21
503.3
 31
0.0
  0
LINE
  8
L-ZISSEN
  6
CONTINUOUS
 62
     7
 10
427.5
 20
489.8
 30
0.0
 11
392.5
 21
489.8
 31
0.0
  0
LINE
  8
L-ZISSEN
  6
CONTINUOUS
 62
     7
 10
397.25
 20
514.75
 30
0.0
 11
397.25
 21
503.3
 31
0.0
  0
LINE
  8
L-ZISSEN
  6
CONTINUOUS
 62
     7
 10
422.75
 20
514.75
 30
0.0
 11
422.75
 21
503.3
 31
0.0
  0
ARC
  8
L-ZISSEN
  6
CONTINUOUS
 62
     7
 10
410.0
 20
514.75
 30
0.0
 40
12.75
 50
360.0
 51
180.0
  0
ARC
  8
L-ZISSEN
  6
CONTINUOUS
 62
     7
 10
410.0
 20
468.5
 30
0.0
 40
15.0
 50
60.0
 51
120.0
  0
LINE
  8
L-ZISSEN
  6
CONTINUOUS
 62
     7
 10
425.0
 20
477.160254
 30
0.0
 11
425.0
 21
450.5
 31
0.0
  0
LINE
  8
L-ZISSEN
  6
CONTINUOUS
 62
     7
 10
395.0
 20
477.160254
 30
0.0
 11
395.0
 21
450.5
 31
0.0
  0
LINE
  8
L-ZISSEN
  6
CONTINUOUS
 62
     7
 10
433.849242
 20
485.5
 30
0.0
 11
386.150758
 21
485.5
 31
0.0
  0
LINE
  8
L-ZISSEN
  6
CONTINUOUS
 62
     7
 10
386.150758
 20
485.5
 30
0.0
 11
386.150758
 21
463.9
 31
0.0
  0
LINE
  8
L-ZISSEN
  6
CONTINUOUS
 62
     7
 10
433.849242
 20
485.5
 30
0.0
 11
433.849242
 21
463.9
 31
0.0
  0
LINE
  8
L-ZISSEN
  6
CONTINUOUS
 62
     7
 10
395.0
 20
458.5
 30
0.0
 11
364.5
 21
458.5
 31
0.0
  0
LINE
  8
L-ZISSEN
  6
CONTINUOUS
 62
     7
 10
402.5
 20
481.490381
 30
0.0
 11
395.0
 21
477.160254
 31
0.0
  0
LINE
  8
L-ZISSEN
  6
CONTINUOUS
 62
     7
 10
417.5
 20
481.490381
 30
0.0
 11
425.0
 21
477.160254
 31
0.0
  0
LINE
  8
L-ZISSEN
  6
CONTINUOUS
 62
     7
 10
406.585157
 20
485.5
 30
0.0
 11
406.585157
 21
483.106124
 31
0.0
  0
LINE
  8
L-ZISSEN
  6
CONTINUOUS
 62
     7
 10
413.414843
 20
485.5
 30
0.0
 11
413.414843
 21
483.106124
 31
0.0
  0
LINE
  8
L-ZISSEN
  6
CONTINUOUS
 62
     7
 10
372.0
 20
467.508955
 30
0.0
 11
372.0
 21
458.5
 31
0.0
  0
LINE
  8
L-ZISSEN
  6
CONTINUOUS
 62
     7
 10
386.150758
 20
472.65941
 30
0.0
 11
372.0
 21
467.508955
 31
0.0
  0
LINE
  8
L-ZISSEN
  6
CONTINUOUS
 62
     7
 10
379.0
 20
487.934934
 30
0.0
 11
382.63568
 21
489.258213
 31
0.0
  0
LINE
  8
L-ZISSEN
  6
CONTINUOUS
 62
     7
 10
373.816383
 20
468.170065
 30
0.0
 11
372.604385
 21
471.5
 31
0.0
  0
LINE
  8
L-ZISSEN
  6
CONTINUOUS
 62
     7
 10
386.150758
 20
483.381578
 30
0.0
 11
382.63568
 21
489.258213
 31
0.0
  0
LINE
  8
L-ZISSEN
  6
CONTINUOUS
 62
     7
 10
448.0
 20
467.508955
 30
0.0
 11
448.0
 21
458.5
 31
0.0
  0
LINE
  8
L-ZISSEN
  6
CONTINUOUS
 62
     7
 10
447.483294
 20
471.740897
 30
0.0
 11
449.580324
 21
484.811951
 31
0.0
  0
LINE
  8
L-ZISSEN
  6
CONTINUOUS
 62
     7
 10
446.183617
 20
468.170065
 30
0.0
 11
447.483294
 21
471.740897
 31
0.0
  0
LINE
  8
L-ZISSEN
  6
CONTINUOUS
 62
     7
 10
449.580324
 20
484.811951
 30
0.0
 11
437.36432
 21
489.258213
 31
0.0
  0
LINE
  8
L-ZISSEN
  6
CONTINUOUS
 62
     7
 10
433.849242
 20
483.381578
 30
0.0
 11
437.36432
 21
489.258213
 31
0.0
  0
LINE
  8
L-ZISSEN
  6
CONTINUOUS
 62
     7
 10
433.849242
 20
472.65941
 30
0.0
 11
448.0
 21
467.508955
 31
0.0
  0
LINE
  8
L-ZISSEN
  6
CONTINUOUS
 62
     7
 10
460.0
 20
458.5
 30
0.0
 11
460.0
 21
450.5
 31
0.0
  0
POLYLINE
  8
L-ZISSEN
  6
CONTINUOUS
 62
     7
 66
     1
 10
0.0
 20
0.0
 30
0.0
 70
     1
  0
VERTEX
  8
L-ZISSEN
  6
CONTINUOUS
 62
     7
 10
160.0
 20
649.336906
 30
0.0
 42
0.104168
 50
90.0
  0
VERTEX
  8
L-ZISSEN
  6
CONTINUOUS
 62
     7
 10
162.467586
 20
649.856632
 30
0.0
 42
0.100664
 50
90.0
  0
VERTEX
  8
L-ZISSEN
  6
CONTINUOUS
 62
     7
 10
164.596194
 20
651.362894
 30
0.0
 42
0.096076
 70
     2
 50
46.780821
  0
VERTEX
  8
L-ZISSEN
  6
CONTINUOUS
 62
     7
 10
166.126079
 20
653.788233
 30
0.0
 42
0.110798
 50
46.780821
  0
VERTEX
  8
L-ZISSEN
  6
CONTINUOUS
 62
     7
 10
166.5
 20
656.254062
 30
0.0
 42
0.093065
 50
90.0
  0
VERTEX
  8
L-ZISSEN
  6
CONTINUOUS
 62
     7
 10
165.999286
 20
658.920897
 30
0.0
 42
0.096076
 50
90.0
  0
VERTEX
  8
L-ZISSEN
  6
CONTINUOUS
 62
     7
 10
164.596194
 20
661.145229
 30
0.0
 42
0.100664
 70
     2
 50
133.219179
  0
VERTEX
  8
L-ZISSEN
  6
CONTINUOUS
 62
     7
 10
162.467586
 20
662.651491
 30
0.0
 42
0.104168
 50
133.219179
  0
VERTEX
  8
L-ZISSEN
  6
CONTINUOUS
 62
     7
 10
160.0
 20
663.171217
 30
0.0
 42
0.104168
 50
90.0
  0
VERTEX
  8
L-ZISSEN
  6
CONTINUOUS
 62
     7
 10
157.532414
 20
662.651491
 30
0.0
 42
0.100664
 50
90.0
  0
VERTEX
  8
L-ZISSEN
  6
CONTINUOUS
 62
     7
 10
155.403806
 20
661.145229
 30
0.0
 42
0.096076
 70
     2
 50
226.780821
  0
VERTEX
  8
L-ZISSEN
  6
CONTINUOUS
 62
     7
 10
154.000714
 20
658.920897
 30
0.0
 42
0.093065
 50
226.780821
  0
VERTEX
  8
L-ZISSEN
  6
CONTINUOUS
 62
     7
 10
153.5
 20
656.254062
 30
0.0
 42
0.093065
 50
90.0
  0
VERTEX
  8
L-ZISSEN
  6
CONTINUOUS
 62
     7
 10
154.000714
 20
653.587226
 30
0.0
 42
0.096076
 50
90.0
  0
VERTEX
  8
L-ZISSEN
  6
CONTINUOUS
 62
     7
 10
155.403806
 20
651.362894
 30
0.0
 42
0.100664
 70
     2
 50
313.219179
  0
VERTEX
  8
L-ZISSEN
  6
CONTINUOUS
 62
     7
 10
157.532414
 20
649.856632
 30
0.0
 42
0.104168
 50
313.219179
  0
SEQEND
  8
L-ZISSEN
  6
CONTINUOUS
 62
     7
  0
LINE
  8
L-ZISSEN
  6
CONTINUOUS
 62
     7
 10
148.365393
 20
471.248246
 30
0.0
 11
148.365393
 21
458.5
 31
0.0
  0
LINE
  8
L-ZISSEN
  6
CONTINUOUS
 62
     7
 10
171.634607
 20
471.5
 30
0.0
 11
171.634607
 21
458.5
 31
0.0
  0
LINE
  8
L-ZISSEN
  6
CONTINUOUS
 62
     7
 10
150.4224
 20
474.721553
 30
0.0
 11
150.4224
 21
471.248246
 31
0.0
  0
LINE
  8
L-ZISSEN
  6
CONTINUOUS
 62
     7
 10
153.082844
 20
487.035082
 30
0.0
 11
150.4224
 21
474.721531
 31
0.0
  0
POLYLINE
  8
L-ZISSEN
  6
CONTINUOUS
 62
     7
 66
     1
 10
0.0
 20
0.0
 30
0.0
  0
VERTEX
  8
L-ZISSEN
  6
CONTINUOUS
 62
     7
 10
151.052131
 20
477.636167
 30
0.0
 42
0.078851
 70
     2
 50
220.679217
  0
VERTEX
  8
L-ZISSEN
  6
CONTINUOUS
 62
     7
 10
149.221638
 20
474.99727
 30
0.0
 42
0.112744
 50
220.679217
  0
VERTEX
  8
L-ZISSEN
  6
CONTINUOUS
 62
     7
 10
148.365393
 20
471.248246
 30
0.0
 42
0.112744
  0
SEQEND
  8
L-ZISSEN
  6
CONTINUOUS
 62
     7
  0
LINE
  8
L-ZISSEN
  6
CONTINUOUS
 62
     7
 10
152.319061
 20
483.5
 30
0.0
 11
117.0
 21
483.5
 31
0.0
  0
LINE
  8
L-ZISSEN
  6
CONTINUOUS
 62
     7
 10
153.742657
 20
489.8
 30
0.0
 11
142.5
 21
489.8
 31
0.0
  0
POLYLINE
  8
L-ZISSEN
  6
CONTINUOUS
 62
     7
 66
     1
 10
0.0
 20
0.0
 30
0.0
  0
VERTEX
  8
L-ZISSEN
  6
CONTINUOUS
 62
     7
 10
169.0
 20
662.0
 30
0.0
 42
0.093065
 50
90.0
  0
VERTEX
  8
L-ZISSEN
  6
CONTINUOUS
 62
     7
 10
168.306703
 20
665.692542
 30
0.0
 42
0.096076
 50
90.0
  0
VERTEX
  8
L-ZISSEN
  6
CONTINUOUS
 62
     7
 10
166.363961
 20
668.772386
 30
0.0
 42
0.100664
 70
     2
 50
133.219179
  0
VERTEX
  8
L-ZISSEN
  6
CONTINUOUS
 62
     7
 10
163.416657
 20
670.857979
 30
0.0
 42
0.104168
 50
133.219179
  0
VERTEX
  8
L-ZISSEN
  6
CONTINUOUS
 62
     7
 10
160.0
 20
671.5776
 30
0.0
 42
0.104168
 50
90.0
  0
VERTEX
  8
L-ZISSEN
  6
CONTINUOUS
 62
     7
 10
156.583343
 20
670.857979
 30
0.0
 42
0.100664
 50
90.0
  0
VERTEX
  8
L-ZISSEN
  6
CONTINUOUS
 62
     7
 10
153.636039
 20
668.772386
 30
0.0
 42
0.096076
 70
     2
 50
226.780821
  0
VERTEX
  8
L-ZISSEN
  6
CONTINUOUS
 62
     7
 10
151.693297
 20
665.692542
 30
0.0
 42
0.093065
 50
226.780821
  0
VERTEX
  8
L-ZISSEN
  6
CONTINUOUS
 62
     7
 10
151.0
 20
662.0
 30
0.0
 42
0.093065
 50
90.0
  0
SEQEND
  8
L-ZISSEN
  6
CONTINUOUS
 62
     7
  0
ARC
  8
L-ZISSEN
  6
CONTINUOUS
 62
     7
 10
160.0
 20
662.0
 30
0.0
 40
10.0
 50
308.843122
 51
0.0
  0
POLYLINE
  8
L-ZISSEN
  6
CONTINUOUS
 62
     7
 66
     1
 10
0.0
 20
0.0
 30
0.0
  0
VERTEX
  8
L-ZISSEN
  6
CONTINUOUS
 62
     7
 10
166.056778
 20
653.616467
 30
0.0
 42
0.012076
 50
90.0
  0
VERTEX
  8
L-ZISSEN
  6
CONTINUOUS
 62
     7
 10
166.363961
 20
653.927938
 30
0.0
 42
0.096076
 70
     2
 50
46.780821
  0
VERTEX
  8
L-ZISSEN
  6
CONTINUOUS
 62
     7
 10
168.482264
 20
657.286099
 30
0.0
 42
0.110798
 50
46.780821
  0
VERTEX
  8
L-ZISSEN
  6
CONTINUOUS
 62
     7
 10
169.0
 20
660.700323
 30
0.0
 42
0.093065
 50
90.0
  0
VERTEX
  8
L-ZISSEN
  6
CONTINUOUS
 62
     7
 10
168.306703
 20
664.392865
 30
0.0
 42
0.096076
 50
90.0
  0
VERTEX
  8
L-ZISSEN
  6
CONTINUOUS
 62
     7
 10
166.363961
 20
667.472709
 30
0.0
 42
0.100664
 70
     2
 50
133.219179
  0
VERTEX
  8
L-ZISSEN
  6
CONTINUOUS
 62
     7
 10
163.416657
 20
669.558303
 30
0.0
 42
0.104168
 50
133.219179
  0
VERTEX
  8
L-ZISSEN
  6
CONTINUOUS
 62
     7
 10
160.0
 20
670.277923
 30
0.0
 42
0.104168
 50
90.0
  0
VERTEX
  8
L-ZISSEN
  6
CONTINUOUS
 62
     7
 10
156.583343
 20
669.558303
 30
0.0
 42
0.100664
 50
90.0
  0
VERTEX
  8
L-ZISSEN
  6
CONTINUOUS
 62
     7
 10
153.636039
 20
667.472709
 30
0.0
 42
0.096076
 70
     2
 50
226.780821
  0
VERTEX
  8
L-ZISSEN
  6
CONTINUOUS
 62
     7
 10
151.693297
 20
664.392865
 30
0.0
 42
0.093065
 50
226.780821
  0
VERTEX
  8
L-ZISSEN
  6
CONTINUOUS
 62
     7
 10
151.0
 20
660.700323
 30
0.0
 42
0.093065
 50
90.0
  0
VERTEX
  8
L-ZISSEN
  6
CONTINUOUS
 62
     7
 10
151.693297
 20
657.007782
 30
0.0
 42
0.096076
 50
90.0
  0
VERTEX
  8
L-ZISSEN
  6
CONTINUOUS
 62
     7
 10
153.636039
 20
653.927938
 30
0.0
 42
0.014888
 70
     2
 50
313.219179
  0
VERTEX
  8
L-ZISSEN
  6
CONTINUOUS
 62
     7
 10
154.01687
 20
653.546109
 30
0.0
 42
0.104168
 50
313.219179
  0
SEQEND
  8
L-ZISSEN
  6
CONTINUOUS
 62
     7
  0
POLYLINE
  8
L-ZISSEN
  6
CONTINUOUS
 62
     7
 66
     1
 10
0.0
 20
0.0
 30
0.0
 70
     1
  0
VERTEX
  8
L-ZISSEN
  6
CONTINUOUS
 62
     7
 10
160.0
 20
730.663094
 30
0.0
 42
-0.104168
  0
VERTEX
  8
L-ZISSEN
  6
CONTINUOUS
 62
     7
 10
162.467586
 20
730.143368
 30
0.0
 42
-0.100664
  0
VERTEX
  8
L-ZISSEN
  6
CONTINUOUS
 62
     7
 10
164.596194
 20
728.637106
 30
0.0
 42
-0.096076
 70
     2
 50
313.219179
  0
VERTEX
  8
L-ZISSEN
  6
CONTINUOUS
 62
     7
 10
166.126079
 20
726.211767
 30
0.0
 42
-0.110798
  0
VERTEX
  8
L-ZISSEN
  6
CONTINUOUS
 62
     7
 10
166.5
 20
723.745938
 30
0.0
 42
-0.093065
  0
VERTEX
  8
L-ZISSEN
  6
CONTINUOUS
 62
     7
 10
165.999286
 20
721.079103
 30
0.0
 42
-0.096076
  0
VERTEX
  8
L-ZISSEN
  6
CONTINUOUS
 62
     7
 10
164.596194
 20
718.854771
 30
0.0
 42
-0.100664
 70
     2
 50
226.780821
  0
VERTEX
  8
L-ZISSEN
  6
CONTINUOUS
 62
     7
 10
162.467586
 20
717.348509
 30
0.0
 42
-0.104168
  0
VERTEX
  8
L-ZISSEN
  6
CONTINUOUS
 62
     7
 10
160.0
 20
716.828783
 30
0.0
 42
-0.104168
  0
VERTEX
  8
L-ZISSEN
  6
CONTINUOUS
 62
     7
 10
157.532414
 20
717.348509
 30
0.0
 42
-0.100664
  0
VERTEX
  8
L-ZISSEN
  6
CONTINUOUS
 62
     7
 10
155.403806
 20
718.854771
 30
0.0
 42
-0.096076
 70
     2
 50
133.219179
  0
VERTEX
  8
L-ZISSEN
  6
CONTINUOUS
 62
     7
 10
154.000714
 20
721.079103
 30
0.0
 42
-0.093065
  0
VERTEX
  8
L-ZISSEN
  6
CONTINUOUS
 62
     7
 10
153.5
 20
723.745938
 30
0.0
 42
-0.093065
  0
VERTEX
  8
L-ZISSEN
  6
CONTINUOUS
 62
     7
 10
154.000714
 20
726.412774
 30
0.0
 42
-0.096076
  0
VERTEX
  8
L-ZISSEN
  6
CONTINUOUS
 62
     7
 10
155.403806
 20
728.637106
 30
0.0
 42
-0.100664
 70
     2
 50
46.780821
  0
VERTEX
  8
L-ZISSEN
  6
CONTINUOUS
 62
     7
 10
157.532414
 20
730.143368
 30
0.0
 42
-0.104168
  0
SEQEND
  8
L-ZISSEN
  6
CONTINUOUS
 62
     7
  0
POLYLINE
  8
L-ZISSEN
  6
CONTINUOUS
 62
     7
 66
     1
 10
0.0
 20
0.0
 30
0.0
  0
VERTEX
  8
L-ZISSEN
  6
CONTINUOUS
 62
     7
 10
166.056778
 20
726.383533
 30
0.0
 42
-0.012076
  0
VERTEX
  8
L-ZISSEN
  6
CONTINUOUS
 62
     7
 10
166.363961
 20
726.072062
 30
0.0
 42
-0.096076
 70
     2
 50
313.219179
  0
VERTEX
  8
L-ZISSEN
  6
CONTINUOUS
 62
     7
 10
168.482264
 20
722.713901
 30
0.0
 42
-0.110798
  0
VERTEX
  8
L-ZISSEN
  6
CONTINUOUS
 62
     7
 10
169.0
 20
719.299677
 30
0.0
 42
-0.093065
  0
VERTEX
  8
L-ZISSEN
  6
CONTINUOUS
 62
     7
 10
168.306703
 20
715.607135
 30
0.0
 42
-0.096076
  0
VERTEX
  8
L-ZISSEN
  6
CONTINUOUS
 62
     7
 10
166.363961
 20
712.527291
 30
0.0
 42
-0.100664
 70
     2
 50
226.780821
  0
VERTEX
  8
L-ZISSEN
  6
CONTINUOUS
 62
     7
 10
163.416657
 20
710.441697
 30
0.0
 42
-0.104168
  0
VERTEX
  8
L-ZISSEN
  6
CONTINUOUS
 62
     7
 10
160.0
 20
709.722077
 30
0.0
 42
-0.104168
  0
VERTEX
  8
L-ZISSEN
  6
CONTINUOUS
 62
     7
 10
156.583343
 20
710.441697
 30
0.0
 42
-0.100664
  0
VERTEX
  8
L-ZISSEN
  6
CONTINUOUS
 62
     7
 10
153.636039
 20
712.527291
 30
0.0
 42
-0.096076
 70
     2
 50
133.219179
  0
VERTEX
  8
L-ZISSEN
  6
CONTINUOUS
 62
     7
 10
151.693297
 20
715.607135
 30
0.0
 42
-0.093065
  0
VERTEX
  8
L-ZISSEN
  6
CONTINUOUS
 62
     7
 10
151.0
 20
719.299677
 30
0.0
 42
-0.093065
  0
VERTEX
  8
L-ZISSEN
  6
CONTINUOUS
 62
     7
 10
151.693297
 20
722.992218
 30
0.0
 42
-0.096076
  0
VERTEX
  8
L-ZISSEN
  6
CONTINUOUS
 62
     7
 10
153.636039
 20
726.072062
 30
0.0
 42
-0.014888
 70
     2
 50
46.780821
  0
VERTEX
  8
L-ZISSEN
  6
CONTINUOUS
 62
     7
 10
154.01687
 20
726.453891
 30
0.0
 42
-0.104168
  0
SEQEND
  8
L-ZISSEN
  6
CONTINUOUS
 62
     7
  0
POLYLINE
  8
L-ZISSEN
  6
CONTINUOUS
 62
     7
 66
     1
 10
0.0
 20
0.0
 30
0.0
  0
VERTEX
  8
L-ZISSEN
  6
CONTINUOUS
 62
     7
 10
169.0
 20
718.0
 30
0.0
 42
-0.093065
  0
VERTEX
  8
L-ZISSEN
  6
CONTINUOUS
 62
     7
 10
168.306703
 20
714.307458
 30
0.0
 42
-0.096076
  0
VERTEX
  8
L-ZISSEN
  6
CONTINUOUS
 62
     7
 10
166.363961
 20
711.227614
 30
0.0
 42
-0.100664
 70
     2
 50
226.780821
  0
VERTEX
  8
L-ZISSEN
  6
CONTINUOUS
 62
     7
 10
163.416657
 20
709.142021
 30
0.0
 42
-0.104168
  0
VERTEX
  8
L-ZISSEN
  6
CONTINUOUS
 62
     7
 10
160.0
 20
708.4224
 30
0.0
 42
-0.104168
  0
VERTEX
  8
L-ZISSEN
  6
CONTINUOUS
 62
     7
 10
156.583343
 20
709.142021
 30
0.0
 42
-0.100664
  0
VERTEX
  8
L-ZISSEN
  6
CONTINUOUS
 62
     7
 10
153.636039
 20
711.227614
 30
0.0
 42
-0.096076
 70
     2
 50
133.219179
  0
VERTEX
  8
L-ZISSEN
  6
CONTINUOUS
 62
     7
 10
151.693297
 20
714.307458
 30
0.0
 42
-0.093065
  0
VERTEX
  8
L-ZISSEN
  6
CONTINUOUS
 62
     7
 10
151.0
 20
718.0
 30
0.0
 42
-0.093065
  0
SEQEND
  8
L-ZISSEN
  6
CONTINUOUS
 62
     7
  0
ARC
  8
L-ZISSEN
  6
CONTINUOUS
 62
     7
 10
160.0
 20
718.0
 30
0.0
 40
10.0
 50
128.255844
 51
180.0
  0
LINE
  8
L-ZISSEN
  6
CONTINUOUS
 62
     7
 10
120.75
 20
464.9
 30
0.0
 11
120.75
 21
459.5
 31
0.0
  0
LINE
  8
L-ZISSEN
  6
CONTINUOUS
 62
     7
 10
131.25
 20
464.9
 30
0.0
 11
131.25
 21
459.5
 31
0.0
  0
LINE
  8
L-ZISSEN
  6
CONTINUOUS
 62
     7
 10
120.75
 20
464.9
 30
0.0
 11
131.25
 21
464.9
 31
0.0
  0
LINE
  8
L-ZISSEN
  6
CONTINUOUS
 62
     7
 10
154.75
 20
463.9
 30
0.0
 11
154.75
 21
458.5
 31
0.0
  0
LINE
  8
L-ZISSEN
  6
CONTINUOUS
 62
     7
 10
154.75
 20
463.9
 30
0.0
 11
165.25
 21
463.9
 31
0.0
  0
LINE
  8
L-ZISSEN
  6
CONTINUOUS
 62
     7
 10
165.25
 20
463.9
 30
0.0
 11
165.25
 21
458.5
 31
0.0
  0
POLYLINE
  8
L-ZISSEN
  6
CONTINUOUS
 62
     7
 66
     1
 10
0.0
 20
0.0
 30
0.0
  0
VERTEX
  8
L-ZISSEN
  6
CONTINUOUS
 62
     7
 10
150.4224
 20
471.248246
 30
0.0
 42
0.104168
  0
VERTEX
  8
L-ZISSEN
  6
CONTINUOUS
 62
     7
 10
151.142021
 20
467.831589
 30
0.0
 42
0.100664
  0
VERTEX
  8
L-ZISSEN
  6
CONTINUOUS
 62
     7
 10
153.227614
 20
464.884285
 30
0.0
 42
0.046364
 70
     2
 50
316.780821
  0
VERTEX
  8
L-ZISSEN
  6
CONTINUOUS
 62
     7
 10
154.75
 20
463.698708
 30
0.0
 42
0.110798
 50
316.780821
  0
SEQEND
  8
L-ZISSEN
  6
CONTINUOUS
 62
     7
  0
POLYLINE
  8
L-ZISSEN
  6
CONTINUOUS
 62
     7
 66
     1
 10
0.0
 20
0.0
 30
0.0
  0
VERTEX
  8
L-ZISSEN
  6
CONTINUOUS
 62
     7
 10
148.365393
 20
471.248246
 30
0.0
 42
0.112744
  0
VERTEX
  8
L-ZISSEN
  6
CONTINUOUS
 62
     7
 10
149.221638
 20
467.499222
 30
0.0
 42
0.103298
  0
VERTEX
  8
L-ZISSEN
  6
CONTINUOUS
 62
     7
 10
151.773091
 20
464.177178
 30
0.0
 42
0.06945
 70
     2
 50
319.320783
  0
VERTEX
  8
L-ZISSEN
  6
CONTINUOUS
 62
     7
 10
154.75
 20
462.263568
 30
0.0
 42
0.102683
 50
319.320783
  0
SEQEND
  8
L-ZISSEN
  6
CONTINUOUS
 62
     7
  0
LINE
  8
L-ZISSEN
  6
CONTINUOUS
 62
     7
 10
203.0
 20
675.0
 30
0.0
 11
203.0
 21
705.0
 31
0.0
  0
LINE
  8
L-ZISSEN
  6
CONTINUOUS
 62
     7
 10
365.0
 20
463.9
 30
0.0
 11
371.25
 21
463.9
 31
0.0
  0
LINE
  8
L-ZISSEN
  6
CONTINUOUS
 62
     7
 10
371.25
 20
463.9
 30
0.0
 11
371.25
 21
458.5
 31
0.0
  0
LINE
  8
L-ZISSEN
  6
CONTINUOUS
 62
     7
 10
430.75
 20
463.9
 30
0.0
 11
441.25
 21
463.9
 31
0.0
  0
LINE
  8
L-ZISSEN
  6
CONTINUOUS
 62
     7
 10
430.75
 20
463.9
 30
0.0
 11
430.75
 21
458.5
 31
0.0
  0
LINE
  8
L-ZISSEN
  6
CONTINUOUS
 62
     7
 10
441.25
 20
463.9
 30
0.0
 11
441.25
 21
458.5
 31
0.0
  0
LINE
  8
L-ZISSEN
  6
CONTINUOUS
 62
     7
 10
448.75
 20
463.9
 30
0.0
 11
459.25
 21
463.9
 31
0.0
  0
LINE
  8
L-ZISSEN
  6
CONTINUOUS
 62
     7
 10
448.75
 20
463.9
 30
0.0
 11
448.75
 21
458.5
 31
0.0
  0
LINE
  8
L-ZISSEN
  6
CONTINUOUS
 62
     7
 10
459.25
 20
463.9
 30
0.0
 11
459.25
 21
458.5
 31
0.0
  0
LINE
  8
L-ZISSEN
  6
CONTINUOUS
 62
     7
 10
378.75
 20
463.9
 30
0.0
 11
389.25
 21
463.9
 31
0.0
  0
LINE
  8
L-ZISSEN
  6
CONTINUOUS
 62
     7
 10
378.75
 20
463.9
 30
0.0
 11
378.75
 21
458.5
 31
0.0
  0
LINE
  8
L-ZISSEN
  6
CONTINUOUS
 62
     7
 10
389.25
 20
463.9
 30
0.0
 11
389.25
 21
458.5
 31
0.0
  0
LINE
  8
L-ZISSEN
  6
CONTINUOUS
 62
     7
 10
157.0
 20
450.5
 30
0.0
 11
157.0
 21
449.5
 31
0.0
  0
LINE
  8
L-ZISSEN
  6
CONTINUOUS
 62
     7
 10
163.0
 20
450.5
 30
0.0
 11
163.0
 21
449.5
 31
0.0
  0
LINE
  8
L-ZISSEN
  6
CONTINUOUS
 62
     7
 10
129.0
 20
450.5
 30
0.0
 11
129.0
 21
449.5
 31
0.0
  0
LINE
  8
L-ZISSEN
  6
CONTINUOUS
 62
     7
 10
123.0
 20
450.5
 30
0.0
 11
123.0
 21
449.5
 31
0.0
  0
LINE
  8
L-ZISSEN
  6
CONTINUOUS
 62
     7
 10
118.0
 20
458.5
 30
0.0
 11
118.0
 21
450.5
 31
0.0
  0
LINE
  8
L-ZISSEN
  6
CONTINUOUS
 62
     7
 10
202.0
 20
458.5
 30
0.0
 11
202.0
 21
450.5
 31
0.0
  0
LINE
  8
L-ZISSEN
  6
CONTINUOUS
 62
     7
 10
119.153846
 20
675.0
 30
0.0
 11
120.0
 21
664.0
 31
0.0
  0
LINE
  8
L-ZISSEN
  6
CONTINUOUS
 62
     7
 10
119.153846
 20
705.0
 30
0.0
 11
120.0
 21
716.0
 31
0.0
  0
LINE
  8
L-ZISSEN
  6
CONTINUOUS
 62
     7
 10
200.846154
 20
705.0
 30
0.0
 11
200.0
 21
716.0
 31
0.0
  0
LINE
  8
L-ZISSEN
  6
CONTINUOUS
 62
     7
 10
200.846154
 20
675.0
 30
0.0
 11
200.0
 21
664.0
 31
0.0
  0
LINE
  8
L-ZISSEN
  6
CONTINUOUS
 62
     7
 10
369.0
 20
450.5
 30
0.0
 11
369.0
 21
449.5
 31
0.0
  0
LINE
  8
L-ZISSEN
  6
CONTINUOUS
 62
     7
 10
387.0
 20
450.5
 30
0.0
 11
387.0
 21
449.5
 31
0.0
  0
LINE
  8
L-ZISSEN
  6
CONTINUOUS
 62
     7
 10
381.0
 20
450.5
 30
0.0
 11
381.0
 21
449.5
 31
0.0
  0
LINE
  8
L-ZISSEN
  6
CONTINUOUS
 62
     7
 10
439.0
 20
450.5
 30
0.0
 11
439.0
 21
449.5
 31
0.0
  0
LINE
  8
L-ZISSEN
  6
CONTINUOUS
 62
     7
 10
433.0
 20
450.5
 30
0.0
 11
433.0
 21
449.5
 31
0.0
  0
LINE
  8
L-ZISSEN
  6
CONTINUOUS
 62
     7
 10
451.0
 20
450.5
 30
0.0
 11
451.0
 21
449.5
 31
0.0
  0
LINE
  8
L-ZISSEN
  6
CONTINUOUS
 62
     7
 10
457.0
 20
450.5
 30
0.0
 11
457.0
 21
449.5
 31
0.0
  0
CIRCLE
  8
L-ZISSEN
  6
CONTINUOUS
 62
     7
 10
410.0
 20
468.5
 30
0.0
 40
5.7225
  0
POLYLINE
  8
L-ZISSEN
  6
CONTINUOUS
 62
     7
 66
     1
 10
0.0
 20
0.0
 30
0.0
  0
VERTEX
  8
L-ZISSEN
  6
CONTINUOUS
 62
     7
 10
153.082844
 20
487.035082
 30
0.0
 42
0.104168
  0
VERTEX
  8
L-ZISSEN
  6
CONTINUOUS
 62
     7
 10
153.602571
 20
484.567496
 30
0.0
 42
0.100664
  0
VERTEX
  8
L-ZISSEN
  6
CONTINUOUS
 62
     7
 10
155.108832
 20
482.438888
 30
0.0
 42
0.096076
 70
     2
 50
316.780821
  0
VERTEX
  8
L-ZISSEN
  6
CONTINUOUS
 62
     7
 10
157.534171
 20
480.909003
 30
0.0
 42
0.110798
 50
316.780821
  0
VERTEX
  8
L-ZISSEN
  6
CONTINUOUS
 62
     7
 10
160.0
 20
480.535082
 30
0.0
 42
0.093065
  0
VERTEX
  8
L-ZISSEN
  6
CONTINUOUS
 62
     7
 10
162.666836
 20
481.035796
 30
0.0
 42
0.054575
  0
VERTEX
  8
L-ZISSEN
  6
CONTINUOUS
 62
     7
 10
164.0
 20
481.730249
 30
0.0
 42
0.100664
 70
     2
 50
43.219179
  0
SEQEND
  8
L-ZISSEN
  6
CONTINUOUS
 62
     7
  0
POLYLINE
  8
L-ZISSEN
  6
CONTINUOUS
 62
     7
 66
     1
 10
0.0
 20
0.0
 30
0.0
  0
VERTEX
  8
L-ZISSEN
  6
CONTINUOUS
 62
     7
 10
164.0
 20
492.339915
 30
0.0
 42
0.054575
 70
     2
 50
136.780821
  0
VERTEX
  8
L-ZISSEN
  6
CONTINUOUS
 62
     7
 10
162.666836
 20
493.034367
 30
0.0
 42
0.093065
 50
136.780821
  0
VERTEX
  8
L-ZISSEN
  6
CONTINUOUS
 62
     7
 10
160.0
 20
493.535082
 30
0.0
 42
0.093065
  0
VERTEX
  8
L-ZISSEN
  6
CONTINUOUS
 62
     7
 10
157.333164
 20
493.034367
 30
0.0
 42
0.096076
  0
VERTEX
  8
L-ZISSEN
  6
CONTINUOUS
 62
     7
 10
155.108832
 20
491.631276
 30
0.0
 42
0.100664
 70
     2
 50
223.219179
  0
VERTEX
  8
L-ZISSEN
  6
CONTINUOUS
 62
     7
 10
153.602571
 20
489.502668
 30
0.0
 42
0.104168
 50
223.219179
  0
VERTEX
  8
L-ZISSEN
  6
CONTINUOUS
 62
     7
 10
153.082844
 20
487.035082
 30
0.0
 42
0.104168
  0
SEQEND
  8
L-ZISSEN
  6
CONTINUOUS
 62
     7
  0
POLYLINE
  8
L-ZISSEN
  6
CONTINUOUS
 62
     7
 66
     1
 10
0.0
 20
0.0
 30
0.0
  0
VERTEX
  8
L-ZISSEN
  6
CONTINUOUS
 62
     7
 10
150.4224
 20
474.721553
 30
0.0
 42
0.104168
  0
VERTEX
  8
L-ZISSEN
  6
CONTINUOUS
 62
     7
 10
151.142021
 20
471.304895
 30
0.0
 42
0.100664
  0
VERTEX
  8
L-ZISSEN
  6
CONTINUOUS
 62
     7
 10
153.227614
 20
468.357592
 30
0.0
 42
0.096076
 70
     2
 50
316.780821
  0
VERTEX
  8
L-ZISSEN
  6
CONTINUOUS
 62
     7
 10
156.585776
 20
466.239289
 30
0.0
 42
0.110798
 50
316.780821
  0
VERTEX
  8
L-ZISSEN
  6
CONTINUOUS
 62
     7
 10
160.0
 20
465.721553
 30
0.0
 42
0.093065
  0
VERTEX
  8
L-ZISSEN
  6
CONTINUOUS
 62
     7
 10
163.692542
 20
466.41485
 30
0.0
 42
0.096076
  0
VERTEX
  8
L-ZISSEN
  6
CONTINUOUS
 62
     7
 10
166.772386
 20
468.357592
 30
0.0
 42
0.106582
 70
     2
 50
43.219179
  0
VERTEX
  8
L-ZISSEN
  6
CONTINUOUS
 62
     7
 10
168.941266
 20
471.5
 30
0.0
 42
0.104168
 50
43.219179
  0
SEQEND
  8
L-ZISSEN
  6
CONTINUOUS
 62
     7
  0
LINE
  8
L-ZISSEN
  6
CONTINUOUS
 62
     7
 10
178.5
 20
450.5
 30
0.0
 11
117.0
 21
450.5
 31
0.0
  0
LINE
  8
L-ZISSEN
  6
CONTINUOUS
 62
     7
 10
117.0
 20
469.7
 30
0.0
 11
98.0
 21
469.7
 31
0.0
  0
LINE
  8
L-ZISSEN
  6
CONTINUOUS
 62
     7
 10
117.0
 20
466.5
 30
0.0
 11
70.0
 21
466.5
 31
0.0
  0
LINE
  8
L-ZISSEN
  6
CONTINUOUS
 62
     7
 10
178.5
 20
458.5
 30
0.0
 11
118.0
 21
458.5
 31
0.0
  0
LINE
  8
L-ZISSEN
  6
CONTINUOUS
 62
     7
 10
332.0
 20
471.5
 30
0.0
 11
329.0
 21
471.5
 31
0.0
  0
SOLID
  8
L-ZISSEN
  6
CONTINUOUS
 62
     7
 10
115.034536
 20
689.50194
 30
0.0
 11
115.302311
 21
688.891414
 31
0.0
 12
117.0
 22
690.0
 32
0.0
 13
117.0
 23
690.0
 33
0.0
  0
LINE
  8
L-ZISSEN
  6
CONTINUOUS
 62
     7
 10
115.168424
 20
689.196677
 30
0.0
 11
60.0
 21
665.0
 31
0.0
  0
LINE
  8
L-ZISSEN
  6
CONTINUOUS
 62
     7
 10
60.0
 20
665.0
 30
0.0
 11
58.0
 21
665.0
 31
0.0
  0
TEXT
  8
L-ZISSEN
  6
CONTINUOUS
 62
     7
 10
50.0
 20
662.75
 30
0.0
 40
4.5
  1
IN
  0
TEXT
  8
L-ZISSEN
  6
CONTINUOUS
 62
     7
 10
35.0
 20
655.0
 30
0.0
 40
4.5
  1
Rc 1/4
  0
TEXT
  8
L-ZISSEN
  6
CONTINUOUS
 62
     7
 10
35.0
 20
645.0
 30
0.0
 40
4.5
  1
Rc 3/8
  0
TEXT
  8
L-ZISSEN
  6
CONTINUOUS
 62
     7
 10
35.0
 20
635.0
 30
0.0
 40
4.5
  1
Rc 1/2
  0
LINE
  8
L-TYUSIN
  6
CENTER
 62
     1
 10
100.0
 20
788.8
 30
0.0
 11
100.0
 21
802.0
 31
0.0
  0
LINE
  8
L-TYUSIN
  6
CENTER
 62
     1
 10
220.0
 20
788.8
 30
0.0
 11
220.0
 21
802.0
 31
0.0
  0
LINE
  8
L-ZISSEN
  6
CONTINUOUS
 62
     7
 10
82.0
 20
485.5
 30
0.0
 11
98.0
 21
485.5
 31
0.0
  0
SOLID
  8
L-ZISSEN
 10
158.657336
 20
688.48067
 30
0.0
 11
159.222668
 21
688.127337
 31
0.0
 12
160.0
 22
690.0
 32
0.0
 13
160.0
 23
690.0
 33
0.0
  0
LINE
  8
L-ZISSEN
 10
158.940002
 20
688.304003
 30
0.0
 11
135.0
 21
650.0
 31
0.0
  0
LINE
  8
L-ZISSEN
 10
135.0
 20
650.0
 30
0.0
 11
133.0
 21
650.0
 31
0.0
  0
TEXT
  8
L-ZISSEN
 10
122.0
 20
647.75
 30
0.0
 40
4.5
  1
P.P
  0
LINE
  8
L-ZISSEN
  6
CONTINUOUS
 62
     7
 10
996.0
 20
643.95
 30
0.0
 11
996.0
 21
632.0
 31
0.0
  0
LINE
  8
L-ZISSEN
  6
CONTINUOUS
 62
     7
 10
997.55
 20
696.05
 30
0.0
 11
997.55
 21
643.95
 31
0.0
  0
LINE
  8
L-ZISSEN
  6
CONTINUOUS
 62
     7
 10
634.0
 20
643.95
 30
0.0
 11
634.0
 21
632.0
 31
0.0
  0
LINE
  8
L-ZISSEN
  6
CONTINUOUS
 62
     7
 10
632.45
 20
696.05
 30
0.0
 11
632.45
 21
643.95
 31
0.0
  0
LINE
  8
L-ZISSEN
  6
CONTINUOUS
 62
     7
 10
996.0
 20
202.0
 30
0.0
 11
996.0
 21
213.95
 31
0.0
  0
LINE
  8
L-ZISSEN
  6
CONTINUOUS
 62
     7
 10
997.55
 20
266.05
 30
0.0
 11
997.55
 21
213.95
 31
0.0
  0
LINE
  8
L-ZISSEN
  6
CONTINUOUS
 62
     7
 10
632.45
 20
266.05
 30
0.0
 11
632.45
 21
213.95
 31
0.0
  0
LINE
  8
L-ZISSEN
  6
CONTINUOUS
 62
     7
 10
634.0
 20
202.0
 30
0.0
 11
634.0
 21
213.95
 31
0.0
  0
TEXT
  8
L-ZISSEN
  6
CONTINUOUS
 62
     7
 10
645.0
 20
485.0
 30
0.0
 40
4.5
  1
NOL-5**-5XL FG24R
  0
TEXT
  8
L-ZISSEN
  6
CONTINUOUS
 62
     7
 10
645.0
 20
475.0
 30
0.0
 40
4.5
  1
NOL-5**-5XL FG25R
  0
TEXT
  8
L-ZISSEN
  6
CONTINUOUS
 62
     7
 10
645.0
 20
495.0
 30
0.0
 40
4.5
  1
NOL-5**-5XL FG23R
  0
TEXT
  8
L-ZISSEN
  6
CONTINUOUS
 62
     7
 10
645.0
 20
505.0
 30
0.0
 40
4.5
  1
NOL-5**-5XL FG22R
  0
TEXT
  8
L-ZISSEN
  6
CONTINUOUS
 62
     7
 10
595.0
 20
505.0
 30
0.0
 40
4.5
  1
MODEL NO. :
  0
TEXT
  8
L-ZISSEN
  6
CONTINUOUS
 62
     7
 10
595.0
 20
515.0
 30
0.0
 40
4.5
  1
JUNCTION BOX
  0
LINE
  8
L-ZISSEN
  6
CONTINUOUS
 62
     7
 10
853.2
 20
202.0
 30
0.0
 11
853.2
 21
319.0
 31
0.0
  0
LINE
  8
L-ZISSEN
  6
CONTINUOUS
 62
     7
 10
817.2
 20
234.329021
 30
0.0
 11
817.2
 21
213.95
 31
0.0
  0
LINE
  8
L-ZISSEN
  6
CONTINUOUS
 62
     7
 10
812.4
 20
266.05
 30
0.0
 11
817.2
 21
266.05
 31
0.0
  0
LINE
  8
L-ZISSEN
  6
CONTINUOUS
 62
     7
 10
812.4
 20
213.95
 30
0.0
 11
817.2
 21
213.95
 31
0.0
  0
LINE
  8
L-ZISSEN
  6
CONTINUOUS
 62
     7
 10
632.45
 20
213.95
 30
0.0
 11
697.55
 21
213.95
 31
0.0
  0
LINE
  8
L-ZISSEN
  6
CONTINUOUS
 62
     7
 10
632.45
 20
266.05
 30
0.0
 11
697.55
 21
266.05
 31
0.0
  0
LINE
  8
L-ZISSEN
  6
CONTINUOUS
 62
     7
 10
695.8
 20
451.8
 30
0.0
 11
695.8
 21
419.0
 31
0.0
  0
LINE
  8
L-ZISSEN
  6
CONTINUOUS
 62
     7
 10
634.2
 20
419.0
 30
0.0
 11
634.2
 21
451.8
 31
0.0
  0
LINE
  8
L-ZISSEN
  6
CONTINUOUS
 62
     7
 10
697.55
 20
414.2
 30
0.0
 11
632.45
 21
414.2
 31
0.0
  0
LINE
  8
L-ZISSEN
  6
CONTINUOUS
 62
     7
 10
632.45
 20
419.0
 30
0.0
 11
697.55
 21
419.0
 31
0.0
  0
LINE
  8
L-ZISSEN
  6
CONTINUOUS
 62
     7
 10
632.45
 20
419.0
 30
0.0
 11
632.45
 21
414.2
 31
0.0
  0
LINE
  8
L-ZISSEN
  6
CONTINUOUS
 62
     7
 10
697.55
 20
419.0
 30
0.0
 11
697.55
 21
414.2
 31
0.0
  0
LINE
  8
L-ZISSEN
  6
CONTINUOUS
 62
     7
 10
713.8
 20
444.3
 30
0.0
 11
713.8
 21
419.3
 31
0.0
  0
LINE
  8
L-ZISSEN
  6
CONTINUOUS
 62
     7
 10
695.8
 20
444.3
 30
0.0
 11
713.8
 21
444.3
 31
0.0
  0
LINE
  8
L-ZISSEN
  6
CONTINUOUS
 62
     7
 10
713.8
 20
419.3
 30
0.0
 11
695.8
 21
419.3
 31
0.0
  0
LINE
  8
L-ZISSEN
  6
CONTINUOUS
 62
     7
 10
731.0
 20
417.8
 30
0.0
 11
726.0
 21
417.8
 31
0.0
  0
LINE
  8
L-ZISSEN
  6
CONTINUOUS
 62
     7
 10
731.0
 20
445.8
 30
0.0
 11
726.0
 21
445.8
 31
0.0
  0
LINE
  8
L-ZISSEN
  6
CONTINUOUS
 62
     7
 10
726.0
 20
417.8
 30
0.0
 11
726.0
 21
445.8
 31
0.0
  0
LINE
  8
L-ZISSEN
  6
CONTINUOUS
 62
     7
 10
731.0
 20
417.8
 30
0.0
 11
731.0
 21
445.8
 31
0.0
  0
LINE
  8
L-ZISSEN
  6
CONTINUOUS
 62
     7
 10
726.0
 20
442.3
 30
0.0
 11
713.8
 21
442.3
 31
0.0
  0
LINE
  8
L-ZISSEN
  6
CONTINUOUS
 62
     7
 10
726.0
 20
421.3
 30
0.0
 11
713.8
 21
421.3
 31
0.0
  0
CIRCLE
  8
L-ZISSEN
  6
CONTINUOUS
 62
     7
 10
830.0
 20
240.0
 30
0.0
 40
14.0
  0
CIRCLE
  8
L-ZISSEN
  6
CONTINUOUS
 62
     7
 10
830.0
 20
240.0
 30
0.0
 40
7.5
  0
LINE
  8
L-ZISSEN
  6
CONTINUOUS
 62
     7
 10
850.0
 20
264.3
 30
0.0
 11
817.2
 21
264.3
 31
0.0
  0
LINE
  8
L-ZISSEN
  6
CONTINUOUS
 62
     7
 10
817.2
 20
215.7
 30
0.0
 11
850.0
 21
215.7
 31
0.0
  0
LINE
  8
L-ZISSEN
  6
CONTINUOUS
 62
     7
 10
817.2
 20
266.05
 30
0.0
 11
817.2
 21
245.670979
 31
0.0
  0
LINE
  8
L-ZISSEN
  6
CONTINUOUS
 62
     7
 10
812.4
 20
213.95
 30
0.0
 11
812.4
 21
266.05
 31
0.0
  0
LINE
  8
L-ZISSEN
  6
CONTINUOUS
 62
     7
 10
850.0
 20
202.0
 30
0.0
 11
850.0
 21
319.3
 31
0.0
  0
LINE
  8
L-ZISSEN
  6
CONTINUOUS
 62
     7
 10
697.55
 20
266.05
 30
0.0
 11
697.55
 21
213.95
 31
0.0
  0
LINE
  8
L-ZISSEN
  6
CONTINUOUS
 62
     7
 10
713.8
 20
227.5
 30
0.0
 11
697.55
 21
227.5
 31
0.0
  0
LINE
  8
L-ZISSEN
  6
CONTINUOUS
 62
     7
 10
697.55
 20
252.5
 30
0.0
 11
713.8
 21
252.5
 31
0.0
  0
LINE
  8
L-ZISSEN
  6
CONTINUOUS
 62
     7
 10
713.8
 20
252.5
 30
0.0
 11
713.8
 21
227.5
 31
0.0
  0
LINE
  8
L-ZISSEN
  6
CONTINUOUS
 62
     7
 10
731.0
 20
226.0
 30
0.0
 11
731.0
 21
254.0
 31
0.0
  0
LINE
  8
L-ZISSEN
  6
CONTINUOUS
 62
     7
 10
726.0
 20
226.0
 30
0.0
 11
726.0
 21
254.0
 31
0.0
  0
LINE
  8
L-ZISSEN
  6
CONTINUOUS
 62
     7
 10
731.0
 20
254.0
 30
0.0
 11
726.0
 21
254.0
 31
0.0
  0
LINE
  8
L-ZISSEN
  6
CONTINUOUS
 62
     7
 10
731.0
 20
226.0
 30
0.0
 11
726.0
 21
226.0
 31
0.0
  0
LINE
  8
L-ZISSEN
  6
CONTINUOUS
 62
     7
 10
726.0
 20
250.5
 30
0.0
 11
713.8
 21
250.5
 31
0.0
  0
LINE
  8
L-ZISSEN
  6
CONTINUOUS
 62
     7
 10
726.0
 20
229.5
 30
0.0
 11
713.8
 21
229.5
 31
0.0
  0
LINE
  8
L-ZISSEN
  6
CONTINUOUS
 62
     7
 10
696.0
 20
202.0
 30
0.0
 11
696.0
 21
213.95
 31
0.0
  0
LINE
  8
L-ZISSEN
  6
CONTINUOUS
 62
     7
 10
726.0
 20
284.5
 30
0.0
 11
713.8
 21
284.5
 31
0.0
  0
LINE
  8
L-ZISSEN
  6
CONTINUOUS
 62
     7
 10
726.0
 20
305.5
 30
0.0
 11
713.8
 21
305.5
 31
0.0
  0
LINE
  8
L-ZISSEN
  6
CONTINUOUS
 62
     7
 10
731.0
 20
281.0
 30
0.0
 11
726.0
 21
281.0
 31
0.0
  0
LINE
  8
L-ZISSEN
  6
CONTINUOUS
 62
     7
 10
731.0
 20
309.0
 30
0.0
 11
726.0
 21
309.0
 31
0.0
  0
LINE
  8
L-ZISSEN
  6
CONTINUOUS
 62
     7
 10
726.0
 20
281.0
 30
0.0
 11
726.0
 21
309.0
 31
0.0
  0
LINE
  8
L-ZISSEN
  6
CONTINUOUS
 62
     7
 10
731.0
 20
281.0
 30
0.0
 11
731.0
 21
309.0
 31
0.0
  0
LINE
  8
L-ZISSEN
  6
CONTINUOUS
 62
     7
 10
713.8
 20
307.5
 30
0.0
 11
713.8
 21
282.5
 31
0.0
  0
LINE
  8
L-ZISSEN
  6
CONTINUOUS
 62
     7
 10
697.55
 20
307.5
 30
0.0
 11
713.8
 21
307.5
 31
0.0
  0
LINE
  8
L-ZISSEN
  6
CONTINUOUS
 62
     7
 10
713.8
 20
282.5
 30
0.0
 11
697.55
 21
282.5
 31
0.0
  0
LINE
  8
L-ZISSEN
  6
CONTINUOUS
 62
     7
 10
697.55
 20
321.05
 30
0.0
 11
697.55
 21
268.95
 31
0.0
  0
LINE
  8
L-ZISSEN
  6
CONTINUOUS
 62
     7
 10
632.45
 20
321.05
 30
0.0
 11
632.45
 21
268.95
 31
0.0
  0
LINE
  8
L-ZISSEN
  6
CONTINUOUS
 62
     7
 10
632.45
 20
321.05
 30
0.0
 11
697.55
 21
321.05
 31
0.0
  0
LINE
  8
L-ZISSEN
  6
CONTINUOUS
 62
     7
 10
632.45
 20
268.95
 30
0.0
 11
697.55
 21
268.95
 31
0.0
  0
LINE
  8
L-ZISSEN
  6
CONTINUOUS
 62
     7
 10
853.2
 20
319.0
 30
0.0
 11
850.0
 21
319.0
 31
0.0
  0
LINE
  8
L-ZISSEN
  6
CONTINUOUS
 62
     7
 10
812.4
 20
268.95
 30
0.0
 11
812.4
 21
321.05
 31
0.0
  0
LINE
  8
L-ZISSEN
  6
CONTINUOUS
 62
     7
 10
817.2
 20
321.05
 30
0.0
 11
817.2
 21
300.670979
 31
0.0
  0
LINE
  8
L-ZISSEN
  6
CONTINUOUS
 62
     7
 10
817.2
 20
270.7
 30
0.0
 11
850.0
 21
270.7
 31
0.0
  0
LINE
  8
L-ZISSEN
  6
CONTINUOUS
 62
     7
 10
850.0
 20
319.3
 30
0.0
 11
817.2
 21
319.3
 31
0.0
  0
CIRCLE
  8
L-ZISSEN
  6
CONTINUOUS
 62
     7
 10
830.0
 20
295.0
 30
0.0
 40
7.5
  0
CIRCLE
  8
L-ZISSEN
  6
CONTINUOUS
 62
     7
 10
830.0
 20
295.0
 30
0.0
 40
14.0
  0
LINE
  8
L-ZISSEN
  6
CONTINUOUS
 62
     7
 10
812.4
 20
268.95
 30
0.0
 11
817.2
 21
268.95
 31
0.0
  0
LINE
  8
L-ZISSEN
  6
CONTINUOUS
 62
     7
 10
812.4
 20
321.05
 30
0.0
 11
817.2
 21
321.05
 31
0.0
  0
LINE
  8
L-ZISSEN
  6
CONTINUOUS
 62
     7
 10
817.2
 20
289.329021
 30
0.0
 11
817.2
 21
268.95
 31
0.0
  0
LINE
  8
L-ZISSEN
  6
CONTINUOUS
 62
     7
 10
853.2
 20
319.0
 30
0.0
 11
850.0
 21
319.0
 31
0.0
  0
LINE
  8
L-ZISSEN
  6
CONTINUOUS
 62
     7
 10
634.0
 20
266.05
 30
0.0
 11
634.0
 21
268.95
 31
0.0
  0
LINE
  8
L-ZISSEN
  6
CONTINUOUS
 62
     7
 10
696.0
 20
266.05
 30
0.0
 11
696.0
 21
268.95
 31
0.0
  0
LINE
  8
L-ZISSEN
  6
CONTINUOUS
 62
     7
 10
250.0
 20
685.0
 30
0.0
 11
263.6
 21
685.0
 31
0.0
  0
LINE
  8
L-ZISSEN
  6
CONTINUOUS
 62
     7
 10
250.0
 20
695.0
 30
0.0
 11
263.6
 21
695.0
 31
0.0
  0
LINE
  8
L-ZISSEN
  6
CONTINUOUS
 62
     7
 10
263.6
 20
685.0
 30
0.0
 11
263.6
 21
695.0
 31
0.0
  0
LINE
  8
L-ZISSEN
 10
253.558548
 20
697.0
 30
0.0
 11
252.403848
 21
695.0
 31
0.0
  0
LINE
  8
L-ZISSEN
 10
252.403848
 20
685.0
 30
0.0
 11
253.558548
 21
683.0
 31
0.0
  0
LINE
  8
L-ZISSEN
 10
253.558548
 20
683.0
 30
0.0
 11
261.641452
 21
683.0
 31
0.0
  0
LINE
  8
L-ZISSEN
 10
261.641452
 20
683.0
 30
0.0
 11
262.796152
 21
685.0
 31
0.0
  0
LINE
  8
L-ZISSEN
 10
265.682904
 20
690.0
 30
0.0
 11
263.6
 21
693.607695
 31
0.0
  0
LINE
  8
L-ZISSEN
 10
261.641452
 20
697.0
 30
0.0
 11
253.558548
 21
697.0
 31
0.0
  0
LINE
  8
L-ZISSEN
 10
262.796152
 20
695.0
 30
0.0
 11
261.641452
 21
697.0
 31
0.0
  0
LINE
  8
L-ZISSEN
 10
263.6
 20
686.392305
 30
0.0
 11
265.682904
 21
690.0
 31
0.0
  0
LINE
  8
L-ZISSEN
  6
CONTINUOUS
 62
     7
 10
1292.6
 20
82.25
 30
0.0
 11
1300.0
 21
82.25
 31
0.0
  0
LINE
  8
L-ZISSEN
  6
CONTINUOUS
 62
     7
 10
1292.6
 20
92.75
 30
0.0
 11
1300.0
 21
92.75
 31
0.0
  0
LINE
  8
L-ZISSEN
 10
1300.0
 20
76.0
 30
0.0
 11
1300.0
 21
321.0
 31
0.0
  0
LINE
  8
L-ZISSEN
 10
1301.2
 20
48.0
 30
0.0
 11
1301.2
 21
351.0
 31
0.0
  0
LINE
  8
L-ZISSEN
 10
1335.0
 20
48.0
 30
0.0
 11
1335.0
 21
351.0
 31
0.0
  0
LINE
  8
L-ZISSEN
 10
1300.0
 20
351.0
 30
0.0
 11
1335.0
 21
351.0
 31
0.0
  0
LINE
  8
L-ZISSEN
 10
1420.0
 20
351.0
 30
0.0
 11
1420.0
 21
48.0
 31
0.0
  0
LINE
  8
L-ZISSEN
 10
1400.0
 20
351.0
 30
0.0
 11
1400.0
 21
48.0
 31
0.0
  0
LINE
  8
L-ZISSEN
 10
1460.0
 20
351.0
 30
0.0
 11
1460.0
 21
48.0
 31
0.0
  0
LINE
  8
L-ZISSEN
 10
1480.0
 20
351.0
 30
0.0
 11
1480.0
 21
48.0
 31
0.0
  0
LINE
  8
L-ZISSEN
 10
1407.113249
 20
63.0
 30
0.0
 11
1404.226497
 21
58.0
 31
0.0
  0
LINE
  8
L-ZISSEN
 10
1404.226497
 20
58.0
 30
0.0
 11
1407.113249
 21
53.0
 31
0.0
  0
LINE
  8
L-ZISSEN
 10
1407.113249
 20
53.0
 30
0.0
 11
1412.886751
 21
53.0
 31
0.0
  0
LINE
  8
L-ZISSEN
 10
1412.886751
 20
53.0
 30
0.0
 11
1415.773503
 21
58.0
 31
0.0
  0
LINE
  8
L-ZISSEN
 10
1415.773503
 20
58.0
 30
0.0
 11
1412.886751
 21
63.0
 31
0.0
  0
LINE
  8
L-ZISSEN
 10
1412.886751
 20
63.0
 30
0.0
 11
1407.113249
 21
63.0
 31
0.0
  0
LINE
  8
L-ZISSEN
 10
1472.886751
 20
63.0
 30
0.0
 11
1475.773503
 21
58.0
 31
0.0
  0
LINE
  8
L-ZISSEN
 10
1475.773503
 20
58.0
 30
0.0
 11
1472.886751
 21
53.0
 31
0.0
  0
LINE
  8
L-ZISSEN
 10
1472.886751
 20
53.0
 30
0.0
 11
1467.113249
 21
53.0
 31
0.0
  0
LINE
  8
L-ZISSEN
 10
1467.113249
 20
53.0
 30
0.0
 11
1464.226497
 21
58.0
 31
0.0
  0
LINE
  8
L-ZISSEN
 10
1464.226497
 20
58.0
 30
0.0
 11
1467.113249
 21
63.0
 31
0.0
  0
LINE
  8
L-ZISSEN
 10
1467.113249
 20
63.0
 30
0.0
 11
1472.886751
 21
63.0
 31
0.0
  0
LINE
  8
L-ZISSEN
 10
1302.7
 20
53.0
 30
0.0
 11
1306.7
 21
53.0
 31
0.0
  0
LINE
  8
L-ZISSEN
 10
1306.7
 20
63.0
 30
0.0
 11
1302.7
 21
63.0
 31
0.0
  0
LINE
  8
L-ZISSEN
 10
1302.7
 20
51.9
 30
0.0
 11
1302.7
 21
64.1
 31
0.0
  0
LINE
  8
L-ZISSEN
 10
1302.7
 20
64.1
 30
0.0
 11
1301.2
 21
64.1
 31
0.0
  0
LINE
  8
L-ZISSEN
 10
1302.7
 20
51.9
 30
0.0
 11
1301.2
 21
51.9
 31
0.0
  0
LINE
  8
L-ZISSEN
 10
1306.7
 20
53.0
 30
0.0
 11
1306.7
 21
63.0
 31
0.0
  0
LINE
  8
L-ZISSEN
 10
1306.7
 20
336.0
 30
0.0
 11
1306.7
 21
346.0
 31
0.0
  0
LINE
  8
L-ZISSEN
 10
1302.7
 20
334.9
 30
0.0
 11
1301.2
 21
334.9
 31
0.0
  0
LINE
  8
L-ZISSEN
 10
1302.7
 20
347.1
 30
0.0
 11
1301.2
 21
347.1
 31
0.0
  0
LINE
  8
L-ZISSEN
 10
1302.7
 20
334.9
 30
0.0
 11
1302.7
 21
347.1
 31
0.0
  0
LINE
  8
L-ZISSEN
 10
1306.7
 20
346.0
 30
0.0
 11
1302.7
 21
346.0
 31
0.0
  0
LINE
  8
L-ZISSEN
 10
1302.7
 20
336.0
 30
0.0
 11
1306.7
 21
336.0
 31
0.0
  0
LINE
  8
L-ZISSEN
 10
1467.113249
 20
346.0
 30
0.0
 11
1472.886751
 21
346.0
 31
0.0
  0
LINE
  8
L-ZISSEN
 10
1464.226497
 20
341.0
 30
0.0
 11
1467.113249
 21
346.0
 31
0.0
  0
LINE
  8
L-ZISSEN
 10
1467.113249
 20
336.0
 30
0.0
 11
1464.226497
 21
341.0
 31
0.0
  0
LINE
  8
L-ZISSEN
 10
1472.886751
 20
336.0
 30
0.0
 11
1467.113249
 21
336.0
 31
0.0
  0
LINE
  8
L-ZISSEN
 10
1475.773503
 20
341.0
 30
0.0
 11
1472.886751
 21
336.0
 31
0.0
  0
LINE
  8
L-ZISSEN
 10
1472.886751
 20
346.0
 30
0.0
 11
1475.773503
 21
341.0
 31
0.0
  0
LINE
  8
L-ZISSEN
 10
1412.886751
 20
346.0
 30
0.0
 11
1407.113249
 21
346.0
 31
0.0
  0
LINE
  8
L-ZISSEN
 10
1415.773503
 20
341.0
 30
0.0
 11
1412.886751
 21
346.0
 31
0.0
  0
LINE
  8
L-ZISSEN
 10
1412.886751
 20
336.0
 30
0.0
 11
1415.773503
 21
341.0
 31
0.0
  0
LINE
  8
L-ZISSEN
 10
1407.113249
 20
336.0
 30
0.0
 11
1412.886751
 21
336.0
 31
0.0
  0
LINE
  8
L-ZISSEN
 10
1404.226497
 20
341.0
 30
0.0
 11
1407.113249
 21
336.0
 31
0.0
  0
LINE
  8
L-ZISSEN
 10
1407.113249
 20
346.0
 30
0.0
 11
1404.226497
 21
341.0
 31
0.0
  0
SOLID
  8
L-ZISSEN
 10
1441.649916
 20
371.178511
 30
0.0
 11
1441.178511
 21
371.649916
 31
0.0
 12
1440.0
 22
370.0
 32
0.0
 13
1440.0
 23
370.0
 33
0.0
  0
LINE
  8
L-ZISSEN
 10
1441.414214
 20
371.414214
 30
0.0
 11
1455.0
 21
385.0
 31
0.0
  0
LINE
  8
L-ZISSEN
 10
1455.0
 20
385.0
 30
0.0
 11
1457.0
 21
385.0
 31
0.0
  0
TEXT
  8
L-ZISSEN
 10
1459.0
 20
382.75
 30
0.0
 40
4.5
  1
P.P
  0
SOLID
  8
L-ZISSEN
 10
1211.649916
 20
451.178511
 30
0.0
 11
1211.178511
 21
451.649916
 31
0.0
 12
1210.0
 22
450.0
 32
0.0
 13
1210.0
 23
450.0
 33
0.0
  0
LINE
  8
L-ZISSEN
 10
1211.414214
 20
451.414214
 30
0.0
 11
1225.0
 21
465.0
 31
0.0
  0
LINE
  8
L-ZISSEN
 10
1225.0
 20
465.0
 30
0.0
 11
1227.0
 21
465.0
 31
0.0
  0
TEXT
  8
L-ZISSEN
 10
1229.0
 20
462.75
 30
0.0
 40
4.5
  1
P.P
  0
LINE
  8
L-ZISSEN
 10
1335.0
 20
430.0
 30
0.0
 11
1335.0
 21
470.0
 31
0.0
  0
LINE
  8
L-ZISSEN
 10
1301.2
 20
410.0
 30
0.0
 11
1301.2
 21
430.0
 31
0.0
  0
LINE
  8
L-ZISSEN
 10
1335.0
 20
470.0
 30
0.0
 11
1301.2
 21
470.0
 31
0.0
  0
LINE
  8
L-ZISSEN
 10
1333.8
 20
431.2
 30
0.0
 11
1333.8
 21
468.8
 31
0.0
  0
LINE
  8
L-ZISSEN
 10
1333.8
 20
468.8
 30
0.0
 11
1300.0
 21
468.8
 31
0.0
  0
LINE
  8
L-ZISSEN
 10
1300.0
 20
410.0
 30
0.0
 11
1301.2
 21
410.0
 31
0.0
  0
LINE
  8
L-ZISSEN
 10
1300.0
 20
490.0
 30
0.0
 11
1301.2
 21
490.0
 31
0.0
  0
LINE
  8
L-ZISSEN
 10
1335.0
 20
430.0
 30
0.0
 11
1301.2
 21
430.0
 31
0.0
  0
LINE
  8
L-ZISSEN
 10
1333.8
 20
431.2
 30
0.0
 11
1300.0
 21
431.2
 31
0.0
  0
LINE
  8
L-ZISSEN
 10
1301.2
 20
470.0
 30
0.0
 11
1301.2
 21
490.0
 31
0.0
  0
LINE
  8
L-ZISSEN
 10
1302.7
 20
473.9
 30
0.0
 11
1302.7
 21
486.1
 31
0.0
  0
LINE
  8
L-ZISSEN
 10
1302.7
 20
486.1
 30
0.0
 11
1301.2
 21
486.1
 31
0.0
  0
LINE
  8
L-ZISSEN
 10
1302.7
 20
473.9
 30
0.0
 11
1301.2
 21
473.9
 31
0.0
  0
LINE
  8
L-ZISSEN
 10
1306.7
 20
474.226497
 30
0.0
 11
1306.7
 21
485.773503
 31
0.0
  0
LINE
  8
L-ZISSEN
 10
1306.7
 20
485.773503
 30
0.0
 11
1302.7
 21
485.773503
 31
0.0
  0
LINE
  8
L-ZISSEN
 10
1306.7
 20
474.226497
 30
0.0
 11
1302.7
 21
474.226497
 31
0.0
  0
LINE
  8
L-ZISSEN
 10
1306.7
 20
425.773503
 30
0.0
 11
1302.7
 21
425.773503
 31
0.0
  0
LINE
  8
L-ZISSEN
 10
1306.7
 20
414.226497
 30
0.0
 11
1302.7
 21
414.226497
 31
0.0
  0
LINE
  8
L-ZISSEN
 10
1306.7
 20
425.773503
 30
0.0
 11
1306.7
 21
414.226497
 31
0.0
  0
LINE
  8
L-ZISSEN
 10
1302.7
 20
426.1
 30
0.0
 11
1301.2
 21
426.1
 31
0.0
  0
LINE
  8
L-ZISSEN
 10
1302.7
 20
413.9
 30
0.0
 11
1301.2
 21
413.9
 31
0.0
  0
LINE
  8
L-ZISSEN
 10
1302.7
 20
426.1
 30
0.0
 11
1302.7
 21
413.9
 31
0.0
  0
SOLID
  8
L-ZISSEN
 10
1211.649916
 20
371.178511
 30
0.0
 11
1211.178511
 21
371.649916
 31
0.0
 12
1210.0
 22
370.0
 32
0.0
 13
1210.0
 23
370.0
 33
0.0
  0
LINE
  8
L-ZISSEN
 10
1211.414214
 20
371.414214
 30
0.0
 11
1225.0
 21
385.0
 31
0.0
  0
LINE
  8
L-ZISSEN
 10
1225.0
 20
385.0
 30
0.0
 11
1227.0
 21
385.0
 31
0.0
  0
TEXT
  8
L-ZISSEN
 10
1229.0
 20
382.75
 30
0.0
 40
4.5
  1
P.P
  0
POLYLINE
  8
L-ZISSEN
  6
CONTINUOUS
 62
     7
 66
     1
 10
0.0
 20
0.0
 30
0.0
  0
VERTEX
  8
L-ZISSEN
  6
CONTINUOUS
 62
     7
 10
169.5776
 20
471.248246
 30
0.0
 42
-0.104168
  0
VERTEX
  8
L-ZISSEN
  6
CONTINUOUS
 62
     7
 10
168.857979
 20
467.831589
 30
0.0
 42
-0.100664
  0
VERTEX
  8
L-ZISSEN
  6
CONTINUOUS
 62
     7
 10
166.772386
 20
464.884285
 30
0.0
 42
-0.046364
 70
     2
 50
316.780821
  0
VERTEX
  8
L-ZISSEN
  6
CONTINUOUS
 62
     7
 10
165.25
 20
463.698708
 30
0.0
 42
-0.110798
  0
SEQEND
  8
L-ZISSEN
  6
CONTINUOUS
 62
     7
  0
POLYLINE
  8
L-ZISSEN
  6
CONTINUOUS
 62
     7
 66
     1
 10
0.0
 20
0.0
 30
0.0
  0
VERTEX
  8
L-ZISSEN
  6
CONTINUOUS
 62
     7
 10
171.634607
 20
471.248246
 30
0.0
 42
-0.112744
  0
VERTEX
  8
L-ZISSEN
  6
CONTINUOUS
 62
     7
 10
170.778362
 20
467.499222
 30
0.0
 42
-0.103298
  0
VERTEX
  8
L-ZISSEN
  6
CONTINUOUS
 62
     7
 10
168.226909
 20
464.177178
 30
0.0
 42
-0.06945
 70
     2
 50
319.320783
  0
VERTEX
  8
L-ZISSEN
  6
CONTINUOUS
 62
     7
 10
165.25
 20
462.263568
 30
0.0
 42
-0.102683
  0
SEQEND
  8
L-ZISSEN
  6
CONTINUOUS
 62
     7
  0
LINE
  8
L-ZISSEN
  6
CONTINUOUS
 62
     7
 10
169.5776
 20
471.5
 30
0.0
 11
169.5776
 21
471.248246
 31
0.0
  0
POLYLINE
  8
L-ZISSEN
  6
CONTINUOUS
 62
     7
 66
     1
 10
0.0
 20
0.0
 30
0.0
  0
VERTEX
  8
L-ZISSEN
  6
CONTINUOUS
 62
     7
 10
171.630936
 20
471.5
 30
0.0
 42
-0.007289
  0
VERTEX
  8
L-ZISSEN
  6
CONTINUOUS
 62
     7
 10
171.634607
 20
471.248246
 30
0.0
 42
-0.112744
  0
SEQEND
  8
L-ZISSEN
  6
CONTINUOUS
 62
     7
  0
SOLID
  8
L-ZISSEN
 10
158.856354
 20
470.174271
 30
0.0
 11
158.375166
 21
469.712858
 31
0.0
 12
160.0
 22
468.5
 32
0.0
 13
160.0
 23
468.5
 33
0.0
  0
LINE
  8
L-ZISSEN
 10
158.61576
 20
469.943565
 30
0.0
 11
125.0
 21
505.0
 31
0.0
  0
LINE
  8
L-ZISSEN
 10
125.0
 20
505.0
 30
0.0
 11
123.0
 21
505.0
 31
0.0
  0
TEXT
  8
L-ZISSEN
 10
112.0
 20
502.75
 30
0.0
 40
4.5
  1
P.P
  0
SOLID
  8
L-ZISSEN
 10
411.624834
 20
469.712858
 30
0.0
 11
411.143646
 21
470.174271
 31
0.0
 12
410.0
 22
468.5
 32
0.0
 13
410.0
 23
468.5
 33
0.0
  0
LINE
  8
L-ZISSEN
 10
411.38424
 20
469.943565
 30
0.0
 11
445.0
 21
505.0
 31
0.0
  0
LINE
  8
L-ZISSEN
 10
445.0
 20
505.0
 30
0.0
 11
447.0
 21
505.0
 31
0.0
  0
TEXT
  8
L-ZISSEN
 10
449.0
 20
502.75
 30
0.0
 40
4.5
  1
P.P
  0
SOLID
  8
L-ZISSEN
 10
607.601495
 20
545.243514
 30
0.0
 11
607.111626
 21
545.6957
 31
0.0
 12
606.0
 22
544.0
 32
0.0
 13
606.0
 23
544.0
 33
0.0
  0
LINE
  8
L-ZISSEN
 10
607.35656
 20
545.469607
 30
0.0
 11
630.0
 21
570.0
 31
0.0
  0
LINE
  8
L-ZISSEN
 10
630.0
 20
570.0
 30
0.0
 11
632.0
 21
570.0
 31
0.0
  0
TEXT
  8
L-ZISSEN
 10
634.0
 20
567.75
 30
0.0
 40
4.5
  1
P.P
  0
SOLID
  8
L-ZISSEN
 10
747.796296
 20
545.25018
 30
0.0
 11
747.304546
 21
545.70032
 31
0.0
 12
746.2
 22
544.0
 32
0.0
 13
746.2
 23
544.0
 33
0.0
  0
LINE
  8
L-ZISSEN
 10
747.550421
 20
545.47525
 30
0.0
 11
770.0
 21
570.0
 31
0.0
  0
LINE
  8
L-ZISSEN
 10
770.0
 20
570.0
 30
0.0
 11
772.0
 21
570.0
 31
0.0
  0
TEXT
  8
L-ZISSEN
 10
774.0
 20
567.75
 30
0.0
 40
4.5
  1
P.P
  0
SOLID
  8
L-ZISSEN
 10
607.589005
 20
115.259434
 30
0.0
 11
607.094648
 21
115.706709
 31
0.0
 12
606.0
 22
114.0
 32
0.0
 13
606.0
 23
114.0
 33
0.0
  0
LINE
  8
L-ZISSEN
 10
607.341827
 20
115.483072
 30
0.0
 11
625.0
 21
135.0
 31
0.0
  0
LINE
  8
L-ZISSEN
 10
625.0
 20
135.0
 30
0.0
 11
627.0
 21
135.0
 31
0.0
  0
TEXT
  8
L-ZISSEN
 10
629.0
 20
132.75
 30
0.0
 40
4.5
  1
P.P
  0
SOLID
  8
L-ZISSEN
 10
747.782356
 20
115.267777
 30
0.0
 11
747.285653
 21
115.712445
 31
0.0
 12
746.2
 22
114.0
 32
0.0
 13
746.2
 23
114.0
 33
0.0
  0
LINE
  8
L-ZISSEN
 10
747.534004
 20
115.490111
 30
0.0
 11
765.0
 21
135.0
 31
0.0
  0
LINE
  8
L-ZISSEN
 10
765.0
 20
135.0
 30
0.0
 11
767.0
 21
135.0
 31
0.0
  0
TEXT
  8
L-ZISSEN
 10
769.0
 20
132.75
 30
0.0
 40
4.5
  1
P.P
  0
SOLID
  8
L-ZISSEN
 10
1022.905352
 20
545.706709
 30
0.0
 11
1022.410995
 21
545.259434
 31
0.0
 12
1024.0
 22
544.0
 32
0.0
 13
1024.0
 23
544.0
 33
0.0
  0
LINE
  8
L-ZISSEN
 10
1022.658173
 20
545.483072
 30
0.0
 11
1005.0
 21
565.0
 31
0.0
  0
LINE
  8
L-ZISSEN
 10
1005.0
 20
565.0
 30
0.0
 11
1003.0
 21
565.0
 31
0.0
  0
TEXT
  8
L-ZISSEN
 10
992.0
 20
562.75
 30
0.0
 40
4.5
  1
P.P
  0
SOLID
  8
L-ZISSEN
 10
1047.782356
 20
545.267777
 30
0.0
 11
1047.285653
 21
545.712445
 31
0.0
 12
1046.2
 22
544.0
 32
0.0
 13
1046.2
 23
544.0
 33
0.0
  0
LINE
  8
L-ZISSEN
 10
1047.534004
 20
545.490111
 30
0.0
 11
1065.0
 21
565.0
 31
0.0
  0
LINE
  8
L-ZISSEN
 10
1065.0
 20
565.0
 30
0.0
 11
1067.0
 21
565.0
 31
0.0
  0
TEXT
  8
L-ZISSEN
 10
1069.0
 20
562.75
 30
0.0
 40
4.5
  1
P.P
  0
SOLID
  8
L-ZISSEN
 10
1022.888374
 20
115.6957
 30
0.0
 11
1022.398505
 21
115.243514
 31
0.0
 12
1024.0
 22
114.0
 32
0.0
 13
1024.0
 23
114.0
 33
0.0
  0
LINE
  8
L-ZISSEN
 10
1022.64344
 20
115.469607
 30
0.0
 11
1000.0
 21
140.0
 31
0.0
  0
LINE
  8
L-ZISSEN
 10
1000.0
 20
140.0
 30
0.0
 11
998.0
 21
140.0
 31
0.0
  0
TEXT
  8
L-ZISSEN
 10
987.0
 20
137.75
 30
0.0
 40
4.5
  1
P.P
  0
SOLID
  8
L-ZISSEN
 10
1047.642008
 20
115.425386
 30
0.0
 11
1047.101775
 21
115.816016
 31
0.0
 12
1046.2
 22
114.0
 32
0.0
 13
1046.2
 23
114.0
 33
0.0
  0
LINE
  8
L-ZISSEN
 10
1047.371891
 20
115.620701
 30
0.0
 11
1065.0
 21
140.0
 31
0.0
  0
LINE
  8
L-ZISSEN
 10
1065.0
 20
140.0
 30
0.0
 11
1067.0
 21
140.0
 31
0.0
  0
TEXT
  8
L-ZISSEN
 10
1069.0
 20
137.75
 30
0.0
 40
4.5
  1
P.P
  0
LINE
  8
L-ZISSEN
 10
1300.0
 20
48.0
 30
0.0
 11
1335.0
 21
48.0
 31
0.0
  0
SOLID
  8
L-ZISSEN
 10
607.712748
 20
724.085176
 30
0.0
 11
607.268218
 21
724.582003
 31
0.0
 12
606.0
 22
723.0
 32
0.0
 13
606.0
 23
723.0
 33
0.0
  0
LINE
  8
L-ZISSEN
 10
607.490483
 20
724.33359
 30
0.0
 11
625.0
 21
740.0
 31
0.0
  0
LINE
  8
L-ZISSEN
 10
625.0
 20
740.0
 30
0.0
 11
627.0
 21
740.0
 31
0.0
  0
TEXT
  8
L-ZISSEN
 10
629.0
 20
737.75
 30
0.0
 40
4.5
  1
P.P
  0
SOLID
  8
L-ZISSEN
 10
1022.985896
 20
729.755763
 30
0.0
 11
1022.471275
 21
729.331958
 31
0.0
 12
1024.0
 22
728.0
 32
0.0
 13
1024.0
 23
728.0
 33
0.0
  0
LINE
  8
L-ZISSEN
 10
1022.728585
 20
729.54386
 30
0.0
 11
1010.0
 21
745.0
 31
0.0
  0
LINE
  8
L-ZISSEN
 10
1010.0
 20
745.0
 30
0.0
 11
1008.0
 21
745.0
 31
0.0
  0
TEXT
  8
L-ZISSEN
 10
997.0
 20
742.75
 30
0.0
 40
4.5
  1
P.P
  0
SOLID
  8
L-ZISSEN
 10
607.559514
 20
349.295773
 30
0.0
 11
607.054965
 21
349.731519
 31
0.0
 12
606.0
 22
348.0
 32
0.0
 13
606.0
 23
348.0
 33
0.0
  0
LINE
  8
L-ZISSEN
 10
607.30724
 20
349.513646
 30
0.0
 11
625.0
 21
370.0
 31
0.0
  0
LINE
  8
L-ZISSEN
 10
625.0
 20
370.0
 30
0.0
 11
627.0
 21
370.0
 31
0.0
  0
TEXT
  8
L-ZISSEN
 10
629.0
 20
367.75
 30
0.0
 40
4.5
  1
P.P
  0
SOLID
  8
L-ZISSEN
 10
1025.764222
 20
348.999315
 30
0.0
 11
1025.344757
 21
349.517478
 31
0.0
 12
1024.0
 22
348.0
 32
0.0
 13
1024.0
 23
348.0
 33
0.0
  0
LINE
  8
L-ZISSEN
 10
1025.55449
 20
349.258396
 30
0.0
 11
1045.0
 21
365.0
 31
0.0
  0
LINE
  8
L-ZISSEN
 10
1045.0
 20
365.0
 30
0.0
 11
1047.0
 21
365.0
 31
0.0
  0
TEXT
  8
L-ZISSEN
 10
1049.0
 20
362.75
 30
0.0
 40
4.5
  1
P.P
  0
LINE
  8
L-ZISSEN
  6
CONTINUOUS
 62
     7
 10
634.0
 20
830.0
 30
0.0
 11
634.0
 21
826.8
 31
0.0
  0
LINE
  8
L-ZISSEN
  6
CONTINUOUS
 62
     7
 10
996.0
 20
835.0
 30
0.0
 11
996.0
 21
831.8
 31
0.0
  0
LINE
  8
L-ZISSEN
  6
CONTINUOUS
 62
     7
 10
634.0
 20
451.8
 30
0.0
 11
634.0
 21
455.0
 31
0.0
  0
LINE
  8
L-ZISSEN
  6
CONTINUOUS
 62
     7
 10
996.0
 20
451.8
 30
0.0
 11
996.0
 21
455.0
 31
0.0
  0
TEXT
  8
L-ZISSEN
 10
175.086667
 20
840.171702
 30
0.0
 40
4.5
  1
(S)
  0
ENDSEC
  0
EOF
