  0
SECTION
  2
HEADER
  9
$ACADVER
  1
AC1006
  9
$INSBASE
 10
0.0
 20
0.0
 30
0.0
  9
$EXTMIN
 10
0.0
 20
0.0
  9
$EXTMAX
 10
845.0
 20
500.0
  9
$LIMMIN
 10
0.0
 20
0.0
  9
$LIMMAX
 10
420.0
 20
297.0
  9
$ORTHOMODE
 70
     1
  9
$REGENMODE
 70
     1
  9
$FILLMODE
 70
     1
  9
$QTEXTMODE
 70
     0
  9
$MIRRTEXT
 70
     1
  9
$DRAGMODE
 70
     2
  9
$LTSCALE
 40
1.0
  9
$OSMODE
 70
     0
  9
$ATTMODE
 70
     1
  9
$TEXTSIZE
 40
0.2
  9
$TRACEWID
 40
0.05
  9
$TEXTSTYLE
  7
STANDARD
  9
$CLAYER
  8
L-ZISSEN
  9
$CELTYPE
  6
BYLAYER
  9
$CECOLOR
 62
   256
  9
$DIMSCALE
 40
1.0
  9
$DIMASZ
 40
1.5
  9
$DIMEXO
 40
1.0
  9
$DIMDLI
 40
0.38
  9
$DIMRND
 40
0.0
  9
$DIMDLE
 40
0.0
  9
$DIMEXE
 40
1.0
  9
$DIMTP
 40
0.0
  9
$DIMTM
 40
0.0
  9
$DIMTXT
 40
2.5
  9
$DIMCEN
 40
0.09
  9
$DIMTSZ
 40
0.0
  9
$DIMTOL
 70
     0
  9
$DIMLIM
 70
     0
  9
$DIMTIH
 70
     0
  9
$DIMTOH
 70
     0
  9
$DIMSE1
 70
     0
  9
$DIMSE2
 70
     0
  9
$DIMTAD
 70
     1
  9
$DIMZIN
 70
     0
  9
$DIMBLK
  1

  9
$DIMASO
 70
     1
  9
$DIMSHO
 70
     0
  9
$DIMPOST
  1

  9
$DIMAPOST
  1

  9
$DIMALT
 70
     0
  9
$DIMALTD
 70
     2
  9
$DIMALTF
 40
25.4
  9
$DIMLFAC
 40
1.0
  9
$DIMTOFL
 70
     1
  9
$DIMTVP
 40
0.0
  9
$DIMTIX
 70
     1
  9
$DIMSOXD
 70
     0
  9
$DIMSAH
 70
     0
  9
$DIMBLK1
  1

  9
$DIMBLK2
  1

  9
$LUNITS
 70
     2
  9
$LUPREC
 70
     4
  9
$AXISMODE
 70
     0
  9
$AXISUNIT
 10
0.0
 20
0.0
  9
$SKETCHINC
 40
0.1
  9
$FILLETRAD
 40
0.0
  9
$AUNITS
 70
     0
  9
$AUPREC
 70
     0
  9
$MENU
  1
acad
  9
$ELEVATION
 40
0.0
  9
$THICKNESS
 40
0.0
  9
$LIMCHECK
 70
     0
  9
$BLIPMODE
 70
     1
  9
$CHAMFERA
 40
0.0
  9
$CHAMFERB
 40
0.0
  9
$SKPOLY
 70
     0
  9
$TDCREATE
 40
2449653.7088642363
  9
$TDUPDATE
 40
2449653.7092400463
  9
$TDINDWG
 40
0.0001723380
  9
$TDUSRTIMER
 40
0.0001723380
  9
$USRTIMER
 70
     1
  9
$ANGBASE
 50
0.0
  9
$ANGDIR
 70
     0
  9
$PDMODE
 70
     0
  9
$PDSIZE
 40
0.0
  9
$PLINEWID
 40
0.0
  9
$COORDS
 70
     0
  9
$SPLFRAME
 70
     0
  9
$SPLINETYPE
 70
     6
  9
$SPLINESEGS
 70
     8
  9
$ATTDIA
 70
     0
  9
$ATTREQ
 70
     1
  9
$HANDLING
 70
     0
  9
$HANDSEED
  5
0
  9
$SURFTAB1
 70
     6
  9
$SURFTAB2
 70
     6
  9
$SURFTYPE
 70
     6
  9
$SURFU
 70
     6
  9
$SURFV
 70
     6
  9
$FLATLAND
 70
     0
  9
$UCSNAME
  2

  9
$UCSORG
 10
0.0
 20
0.0
 30
0.0
  9
$UCSXDIR
 10
1.0
 20
0.0
 30
0.0
  9
$UCSYDIR
 10
0.0
 20
1.0
 30
0.0
  9
$USERI1
 70
     0
  9
$USERI2
 70
     0
  9
$USERI3
 70
     0
  9
$USERI4
 70
     0
  9
$USERI5
 70
     0
  9
$USERR1
 40
0.0
  9
$USERR2
 40
0.0
  9
$USERR3
 40
0.0
  9
$USERR4
 40
0.0
  9
$USERR5
 40
0.0
  9
$WORLDVIEW
 70
     1
  0
ENDSEC
  0
SECTION
  2
TABLES
  0
TABLE
  2
VPORT
 70
     2
  0
VPORT
  2
*ACTIVE
 70
     0
 10
0.0
 20
0.0
 11
1.0
 21
1.0
 12
426.488233
 22
247.633917
 13
0.0
 23
0.0
 14
1.0
 24
1.0
 15
0.0
 25
0.0
 16
0.0
 26
0.0
 36
1.0
 17
0.0
 27
0.0
 37
0.0
 40
556.013659
 41
1.5487
 42
50.0
 43
0.0
 44
0.0
 50
0.0
 51
0.0
 71
     0
 72
   100
 73
     1
 74
     0
 75
     0
 76
     0
 77
     0
 78
     0
  0
ENDTAB
  0
TABLE
  2
LTYPE
 70
     2
  0
LTYPE
  2
CONTINUOUS
 70
    64
  3
Solid line
 72
    65
 73
     0
 40
0.0
  0
LTYPE
  2
CENTER
 70
    64
  3
_____ _ ____ _ ____ _ ____
 72
    65
 73
     4
 40
18.0
 49
15.0
 49
-1.0
 49
1.0
 49
-1.0
  0
ENDTAB
  0
TABLE
  2
LAYER
 70
     3
  0
LAYER
  2
0
 70
     0
 62
     7
  6
CONTINUOUS
  0
LAYER
  2
L-ZISSEN
 70
    64
 62
     7
  6
CONTINUOUS
  0
LAYER
  2
L-TYUSIN
 70
    64
 62
     7
  6
CONTINUOUS
  0
ENDTAB
  0
TABLE
  2
STYLE
 70
     1
  0
STYLE
  2
STANDARD
 70
    64
 40
0.0
 41
1.0
 50
0.0
 71
     0
 42
0.2
  3
txt
  4

  0
ENDTAB
  0
TABLE
  2
VIEW
 70
     0
  0
ENDTAB
  0
TABLE
  2
UCS
 70
     0
  0
ENDTAB
  0
TABLE
  2
DWGMGR
 70
     0
  0
ENDTAB
  0
ENDSEC
  0
SECTION
  2
BLOCKS
  0
ENDSEC
  0
SECTION
  2
ENTITIES
  0
LINE
  8
L-ZISSEN
  6
CONTINUOUS
 62
     7
 10
149.0
 20
308.0
 30
0.0
 11
142.202941
 21
308.0
 31
0.0
  0
ARC
  8
L-ZISSEN
  6
CONTINUOUS
 62
     7
 10
149.0
 20
314.0
 30
0.0
 40
6.0
 50
270.0
 51
0.0
  0
CIRCLE
  8
L-ZISSEN
  6
CONTINUOUS
 62
     7
 10
149.0
 20
314.0
 30
0.0
 40
5.25
  0
ARC
  8
L-ZISSEN
  6
CONTINUOUS
 62
     7
 10
81.0
 20
314.0
 30
0.0
 40
6.0
 50
180.0
 51
270.0
  0
LINE
  8
L-ZISSEN
  6
CONTINUOUS
 62
     7
 10
81.0
 20
308.0
 30
0.0
 11
87.797059
 21
308.0
 31
0.0
  0
CIRCLE
  8
L-ZISSEN
  6
CONTINUOUS
 62
     7
 10
81.0
 20
314.0
 30
0.0
 40
5.25
  0
LINE
  8
L-ZISSEN
  6
CONTINUOUS
 62
     7
 10
72.0
 20
325.0
 30
0.0
 11
72.0
 21
355.0
 31
0.0
  0
LINE
  8
L-TYUSIN
  6
CENTER
 62
     1
 10
115.0
 20
395.0
 30
0.0
 11
115.0
 21
285.0
 31
0.0
  0
LINE
  8
L-TYUSIN
  6
CENTER
 62
     1
 10
67.0
 20
340.0
 30
0.0
 11
163.0
 21
340.0
 31
0.0
  0
ARC
  8
L-ZISSEN
  6
CONTINUOUS
 62
     7
 10
115.0
 20
296.0
 30
0.0
 40
6.0
 50
180.0
 51
0.0
  0
LINE
  8
L-ZISSEN
  6
CONTINUOUS
 62
     7
 10
109.0
 20
296.0
 30
0.0
 11
107.450326
 21
298.684114
 31
0.0
  0
LINE
  8
L-ZISSEN
  6
CONTINUOUS
 62
     7
 10
121.0
 20
296.0
 30
0.0
 11
122.549674
 21
298.684114
 31
0.0
  0
ARC
  8
L-ZISSEN
  6
CONTINUOUS
 62
     7
 10
115.0
 20
296.0
 30
0.0
 40
5.25
 50
126.802981
 51
53.197019
  0
ARC
  8
L-ZISSEN
  6
CONTINUOUS
 62
     7
 10
115.0
 20
340.0
 30
0.0
 40
42.0
 50
229.632406
 51
259.64456
  0
ARC
  8
L-ZISSEN
  6
CONTINUOUS
 62
     7
 10
115.0
 20
340.0
 30
0.0
 40
42.0
 50
280.35544
 51
310.367594
  0
ARC
  8
L-ZISSEN
  6
CONTINUOUS
 62
     7
 10
115.0
 20
340.0
 30
0.0
 40
42.0
 50
49.632406
 51
79.64456
  0
ARC
  8
L-ZISSEN
  6
CONTINUOUS
 62
     7
 10
115.0
 20
340.0
 30
0.0
 40
42.0
 50
100.35544
 51
130.367594
  0
ARC
  8
L-ZISSEN
  6
CONTINUOUS
 62
     7
 10
115.0
 20
384.0
 30
0.0
 40
5.25
 50
306.802981
 51
233.197019
  0
LINE
  8
L-ZISSEN
  6
CONTINUOUS
 62
     7
 10
121.0
 20
384.0
 30
0.0
 11
122.549674
 21
381.315886
 31
0.0
  0
LINE
  8
L-ZISSEN
  6
CONTINUOUS
 62
     7
 10
109.0
 20
384.0
 30
0.0
 11
107.450326
 21
381.315886
 31
0.0
  0
ARC
  8
L-ZISSEN
  6
CONTINUOUS
 62
     7
 10
115.0
 20
384.0
 30
0.0
 40
6.0
 50
0.0
 51
180.0
  0
CIRCLE
  8
L-ZISSEN
  6
CONTINUOUS
 62
     7
 10
81.0
 20
366.0
 30
0.0
 40
5.25
  0
LINE
  8
L-ZISSEN
  6
CONTINUOUS
 62
     7
 10
81.0
 20
372.0
 30
0.0
 11
87.797059
 21
372.0
 31
0.0
  0
ARC
  8
L-ZISSEN
  6
CONTINUOUS
 62
     7
 10
81.0
 20
366.0
 30
0.0
 40
6.0
 50
90.0
 51
180.0
  0
CIRCLE
  8
L-ZISSEN
  6
CONTINUOUS
 62
     7
 10
149.0
 20
366.0
 30
0.0
 40
5.25
  0
ARC
  8
L-ZISSEN
  6
CONTINUOUS
 62
     7
 10
149.0
 20
366.0
 30
0.0
 40
6.0
 50
0.0
 51
90.0
  0
LINE
  8
L-ZISSEN
  6
CONTINUOUS
 62
     7
 10
149.0
 20
372.0
 30
0.0
 11
142.202941
 21
372.0
 31
0.0
  0
LINE
  8
L-ZISSEN
  6
CONTINUOUS
 62
     7
 10
158.0
 20
355.0
 30
0.0
 11
138.84798
 21
355.0
 31
0.0
  0
LINE
  8
L-ZISSEN
  6
CONTINUOUS
 62
     7
 10
72.0
 20
325.0
 30
0.0
 11
105.986122
 21
325.0
 31
0.0
  0
LINE
  8
L-ZISSEN
  6
CONTINUOUS
 62
     7
 10
125.0
 20
368.0
 30
0.0
 11
125.0
 21
362.431119
 31
0.0
  0
LINE
  8
L-ZISSEN
  6
CONTINUOUS
 62
     7
 10
105.0
 20
356.918201
 30
0.0
 11
105.0
 21
368.0
 31
0.0
  0
ARC
  8
L-ZISSEN
  6
CONTINUOUS
 62
     7
 10
115.0
 20
368.0
 30
0.0
 40
10.0
 50
0.0
 51
51.156878
  0
ARC
  8
L-ZISSEN
  6
CONTINUOUS
 62
     7
 10
102.272078
 20
352.727922
 30
0.0
 40
5.0
 50
27.027338
 51
152.972662
  0
ARC
  8
L-ZISSEN
  6
CONTINUOUS
 62
     7
 10
129.849242
 20
325.150758
 30
0.0
 40
9.0
 50
225.0
 51
45.0
  0
LINE
  8
L-ZISSEN
  6
CONTINUOUS
 62
     7
 10
136.213203
 20
331.514719
 30
0.0
 11
131.976454
 21
335.751468
 31
0.0
  0
LINE
  8
L-ZISSEN
  6
CONTINUOUS
 62
     7
 10
123.485281
 20
318.786797
 30
0.0
 11
119.248532
 21
323.023546
 31
0.0
  0
LINE
  8
L-ZISSEN
  6
CONTINUOUS
 62
     7
 10
105.986122
 20
355.0
 30
0.0
 11
72.0
 21
355.0
 31
0.0
  0
LINE
  8
L-ZISSEN
  6
CONTINUOUS
 62
     7
 10
138.84798
 20
325.0
 30
0.0
 11
158.0
 21
325.0
 31
0.0
  0
LINE
  8
L-ZISSEN
  6
CONTINUOUS
 62
     7
 10
123.485281
 20
361.213203
 30
0.0
 11
119.248532
 21
356.976454
 31
0.0
  0
LINE
  8
L-ZISSEN
  6
CONTINUOUS
 62
     7
 10
136.213203
 20
348.485281
 30
0.0
 11
131.976454
 21
344.248532
 31
0.0
  0
ARC
  8
L-ZISSEN
  6
CONTINUOUS
 62
     7
 10
129.849242
 20
354.849242
 30
0.0
 40
9.0
 50
315.0
 51
135.0
  0
ARC
  8
L-ZISSEN
  6
CONTINUOUS
 62
     7
 10
115.0
 20
312.0
 30
0.0
 40
10.0
 50
180.0
 51
231.744156
  0
LINE
  8
L-ZISSEN
  6
CONTINUOUS
 62
     7
 10
105.0
 20
325.0
 30
0.0
 11
105.0
 21
312.0
 31
0.0
  0
LINE
  8
L-ZISSEN
  6
CONTINUOUS
 62
     7
 10
125.0
 20
312.0
 30
0.0
 11
125.0
 21
317.568881
 31
0.0
  0
CIRCLE
  8
L-ZISSEN
  6
CONTINUOUS
 62
     7
 10
129.849242
 20
325.150758
 30
0.0
 40
3.5
  0
LINE
  8
L-ZISSEN
  6
CONTINUOUS
 62
     7
 10
72.0
 20
182.0
 30
0.0
 11
72.0
 21
215.0
 31
0.0
  0
LINE
  8
L-ZISSEN
  6
CONTINUOUS
 62
     7
 10
158.0
 20
215.0
 30
0.0
 11
158.0
 21
182.0
 31
0.0
  0
LINE
  8
L-TYUSIN
  6
CENTER
 62
     1
 10
67.0
 20
200.0
 30
0.0
 11
163.0
 21
200.0
 31
0.0
  0
LINE
  8
L-TYUSIN
  6
CENTER
 62
     1
 10
115.0
 20
264.0
 30
0.0
 11
115.0
 21
37.0
 31
0.0
  0
LINE
  8
L-ZISSEN
  6
CONTINUOUS
 62
     7
 10
158.0
 20
182.0
 30
0.0
 11
72.0
 21
182.0
 31
0.0
  0
LINE
  8
L-ZISSEN
  6
CONTINUOUS
 62
     7
 10
157.0
 20
190.0
 30
0.0
 11
73.0
 21
190.0
 31
0.0
  0
LINE
  8
L-ZISSEN
  6
CONTINUOUS
 62
     7
 10
158.0
 20
215.0
 30
0.0
 11
138.849242
 21
215.0
 31
0.0
  0
ARC
  8
L-ZISSEN
  6
CONTINUOUS
 62
     7
 10
115.0
 20
246.25
 30
0.0
 40
12.75
 50
360.0
 51
180.0
  0
LINE
  8
L-ZISSEN
  6
CONTINUOUS
 62
     7
 10
127.75
 20
246.25
 30
0.0
 11
127.75
 21
234.8
 31
0.0
  0
LINE
  8
L-ZISSEN
  6
CONTINUOUS
 62
     7
 10
102.25
 20
246.25
 30
0.0
 11
102.25
 21
234.8
 31
0.0
  0
LINE
  8
L-ZISSEN
  6
CONTINUOUS
 62
     7
 10
132.5
 20
221.3
 30
0.0
 11
121.257343
 21
221.3
 31
0.0
  0
LINE
  8
L-ZISSEN
  6
CONTINUOUS
 62
     7
 10
132.5
 20
234.8
 30
0.0
 11
97.5
 21
234.8
 31
0.0
  0
LINE
  8
L-ZISSEN
  6
CONTINUOUS
 62
     7
 10
97.5
 20
221.3
 30
0.0
 11
97.5
 21
234.8
 31
0.0
  0
LINE
  8
L-ZISSEN
  6
CONTINUOUS
 62
     7
 10
132.5
 20
221.3
 30
0.0
 11
132.5
 21
234.8
 31
0.0
  0
LINE
  8
L-ZISSEN
  6
CONTINUOUS
 62
     7
 10
98.5
 20
221.3
 30
0.0
 11
98.5
 21
215.0
 31
0.0
  0
LINE
  8
L-ZISSEN
  6
CONTINUOUS
 62
     7
 10
131.5
 20
221.3
 30
0.0
 11
131.5
 21
217.0
 31
0.0
  0
CIRCLE
  8
L-ZISSEN
  6
CONTINUOUS
 62
     7
 10
115.0
 20
340.0
 30
0.0
 40
12.75
  0
CIRCLE
  8
L-ZISSEN
  6
CONTINUOUS
 62
     7
 10
115.0
 20
340.0
 30
0.0
 40
17.5
  0
LINE
  8
L-ZISSEN
  6
CONTINUOUS
 62
     7
 10
295.0
 20
190.0
 30
0.0
 11
260.0
 21
190.0
 31
0.0
  0
LINE
  8
L-ZISSEN
  6
CONTINUOUS
 62
     7
 10
295.0
 20
182.0
 30
0.0
 11
195.0
 21
182.0
 31
0.0
  0
LINE
  8
L-TYUSIN
  6
CENTER
 62
     1
 10
225.0
 20
200.0
 30
0.0
 11
265.0
 21
200.0
 31
0.0
  0
LINE
  8
L-ZISSEN
  6
CONTINUOUS
 62
     7
 10
261.5
 20
221.3
 30
0.0
 11
261.5
 21
217.0
 31
0.0
  0
LINE
  8
L-ZISSEN
  6
CONTINUOUS
 62
     7
 10
228.5
 20
221.3
 30
0.0
 11
228.5
 21
217.0
 31
0.0
  0
LINE
  8
L-ZISSEN
  6
CONTINUOUS
 62
     7
 10
262.5
 20
221.3
 30
0.0
 11
262.5
 21
234.8
 31
0.0
  0
LINE
  8
L-ZISSEN
  6
CONTINUOUS
 62
     7
 10
227.5
 20
221.3
 30
0.0
 11
227.5
 21
234.8
 31
0.0
  0
LINE
  8
L-ZISSEN
  6
CONTINUOUS
 62
     7
 10
262.5
 20
234.8
 30
0.0
 11
227.5
 21
234.8
 31
0.0
  0
LINE
  8
L-ZISSEN
  6
CONTINUOUS
 62
     7
 10
262.5
 20
221.3
 30
0.0
 11
227.5
 21
221.3
 31
0.0
  0
LINE
  8
L-ZISSEN
  6
CONTINUOUS
 62
     7
 10
232.25
 20
246.25
 30
0.0
 11
232.25
 21
234.8
 31
0.0
  0
LINE
  8
L-ZISSEN
  6
CONTINUOUS
 62
     7
 10
257.75
 20
246.25
 30
0.0
 11
257.75
 21
234.8
 31
0.0
  0
ARC
  8
L-ZISSEN
  6
CONTINUOUS
 62
     7
 10
245.0
 20
246.25
 30
0.0
 40
12.75
 50
360.0
 51
180.0
  0
LINE
  8
L-TYUSIN
  6
CENTER
 62
     1
 10
245.0
 20
264.0
 30
0.0
 11
245.0
 21
37.0
 31
0.0
  0
ARC
  8
L-ZISSEN
  6
CONTINUOUS
 62
     7
 10
245.0
 20
200.0
 30
0.0
 40
15.0
 50
60.0
 51
120.0
  0
LINE
  8
L-ZISSEN
  6
CONTINUOUS
 62
     7
 10
260.0
 20
208.082904
 30
0.0
 11
260.0
 21
182.0
 31
0.0
  0
LINE
  8
L-ZISSEN
  6
CONTINUOUS
 62
     7
 10
230.0
 20
208.082904
 30
0.0
 11
230.0
 21
182.0
 31
0.0
  0
LINE
  8
L-ZISSEN
  6
CONTINUOUS
 62
     7
 10
268.849242
 20
217.0
 30
0.0
 11
221.150758
 21
217.0
 31
0.0
  0
LINE
  8
L-ZISSEN
  6
CONTINUOUS
 62
     7
 10
221.150758
 20
217.0
 30
0.0
 11
221.150758
 21
195.4
 31
0.0
  0
LINE
  8
L-ZISSEN
  6
CONTINUOUS
 62
     7
 10
268.849242
 20
217.0
 30
0.0
 11
268.849242
 21
195.4
 31
0.0
  0
LINE
  8
L-ZISSEN
  6
CONTINUOUS
 62
     7
 10
230.0
 20
190.0
 30
0.0
 11
195.0
 21
190.0
 31
0.0
  0
LINE
  8
L-ZISSEN
  6
CONTINUOUS
 62
     7
 10
237.5
 20
212.990381
 30
0.0
 11
230.5
 21
208.948929
 31
0.0
  0
LINE
  8
L-ZISSEN
  6
CONTINUOUS
 62
     7
 10
252.5
 20
212.990381
 30
0.0
 11
259.5
 21
208.948929
 31
0.0
  0
ARC
  8
L-ZISSEN
  6
CONTINUOUS
 62
     7
 10
231.0
 20
208.082904
 30
0.0
 40
1.0
 50
120.0
 51
180.0
  0
ARC
  8
L-ZISSEN
  6
CONTINUOUS
 62
     7
 10
259.0
 20
208.082904
 30
0.0
 40
1.0
 50
0.0
 51
60.0
  0
LINE
  8
L-ZISSEN
  6
CONTINUOUS
 62
     7
 10
241.585157
 20
217.0
 30
0.0
 11
241.585157
 21
214.606124
 31
0.0
  0
LINE
  8
L-ZISSEN
  6
CONTINUOUS
 62
     7
 10
248.414843
 20
217.0
 30
0.0
 11
248.414843
 21
214.606124
 31
0.0
  0
LINE
  8
L-ZISSEN
  6
CONTINUOUS
 62
     7
 10
207.0
 20
199.008955
 30
0.0
 11
207.0
 21
190.0
 31
0.0
  0
LINE
  8
L-ZISSEN
  6
CONTINUOUS
 62
     7
 10
221.150758
 20
204.15941
 30
0.0
 11
207.0
 21
199.008955
 31
0.0
  0
LINE
  8
L-ZISSEN
  6
CONTINUOUS
 62
     7
 10
195.0
 20
190.0
 30
0.0
 11
195.0
 21
182.0
 31
0.0
  0
LINE
  8
L-ZISSEN
  6
CONTINUOUS
 62
     7
 10
205.419676
 20
216.311951
 30
0.0
 11
217.63568
 21
220.758213
 31
0.0
  0
LINE
  8
L-ZISSEN
  6
CONTINUOUS
 62
     7
 10
208.816383
 20
199.670065
 30
0.0
 11
207.516706
 21
203.240897
 31
0.0
  0
LINE
  8
L-ZISSEN
  6
CONTINUOUS
 62
     7
 10
207.516706
 20
203.240897
 30
0.0
 11
205.419676
 21
216.311951
 31
0.0
  0
LINE
  8
L-ZISSEN
  6
CONTINUOUS
 62
     7
 10
221.150758
 20
214.881578
 30
0.0
 11
217.63568
 21
220.758213
 31
0.0
  0
LINE
  8
L-ZISSEN
  6
CONTINUOUS
 62
     7
 10
283.0
 20
199.008955
 30
0.0
 11
283.0
 21
190.0
 31
0.0
  0
LINE
  8
L-ZISSEN
  6
CONTINUOUS
 62
     7
 10
282.483294
 20
203.240897
 30
0.0
 11
284.580324
 21
216.311951
 31
0.0
  0
LINE
  8
L-ZISSEN
  6
CONTINUOUS
 62
     7
 10
281.183617
 20
199.670065
 30
0.0
 11
282.483294
 21
203.240897
 31
0.0
  0
LINE
  8
L-ZISSEN
  6
CONTINUOUS
 62
     7
 10
284.580324
 20
216.311951
 30
0.0
 11
272.36432
 21
220.758213
 31
0.0
  0
LINE
  8
L-ZISSEN
  6
CONTINUOUS
 62
     7
 10
268.849242
 20
214.881578
 30
0.0
 11
272.36432
 21
220.758213
 31
0.0
  0
LINE
  8
L-ZISSEN
  6
CONTINUOUS
 62
     7
 10
268.849242
 20
204.15941
 30
0.0
 11
283.0
 21
199.008955
 31
0.0
  0
LINE
  8
L-ZISSEN
  6
CONTINUOUS
 62
     7
 10
295.0
 20
190.0
 30
0.0
 11
295.0
 21
182.0
 31
0.0
  0
POLYLINE
  8
L-ZISSEN
  6
CONTINUOUS
 62
     7
 66
     1
 10
0.0
 20
0.0
 30
0.0
 70
     1
  0
VERTEX
  8
L-ZISSEN
  6
CONTINUOUS
 62
     7
 10
108.082844
 20
218.535082
 30
0.0
 42
0.104168
  0
VERTEX
  8
L-ZISSEN
  6
CONTINUOUS
 62
     7
 10
108.602571
 20
216.067496
 30
0.0
 42
0.100664
  0
VERTEX
  8
L-ZISSEN
  6
CONTINUOUS
 62
     7
 10
110.108832
 20
213.938888
 30
0.0
 42
0.096076
 70
     2
 50
316.780821
  0
VERTEX
  8
L-ZISSEN
  6
CONTINUOUS
 62
     7
 10
112.534171
 20
212.409003
 30
0.0
 42
0.110798
 50
316.780821
  0
VERTEX
  8
L-ZISSEN
  6
CONTINUOUS
 62
     7
 10
115.0
 20
212.035082
 30
0.0
 42
0.093065
  0
VERTEX
  8
L-ZISSEN
  6
CONTINUOUS
 62
     7
 10
117.666836
 20
212.535796
 30
0.0
 42
0.096076
  0
VERTEX
  8
L-ZISSEN
  6
CONTINUOUS
 62
     7
 10
119.891168
 20
213.938888
 30
0.0
 42
0.100664
 70
     2
 50
43.219179
  0
VERTEX
  8
L-ZISSEN
  6
CONTINUOUS
 62
     7
 10
121.397429
 20
216.067496
 30
0.0
 42
0.104168
 50
43.219179
  0
VERTEX
  8
L-ZISSEN
  6
CONTINUOUS
 62
     7
 10
121.917156
 20
218.535082
 30
0.0
 42
0.104168
  0
VERTEX
  8
L-ZISSEN
  6
CONTINUOUS
 62
     7
 10
121.397429
 20
221.002668
 30
0.0
 42
0.100664
  0
VERTEX
  8
L-ZISSEN
  6
CONTINUOUS
 62
     7
 10
119.891168
 20
223.131276
 30
0.0
 42
0.096076
 70
     2
 50
136.780821
  0
VERTEX
  8
L-ZISSEN
  6
CONTINUOUS
 62
     7
 10
117.666836
 20
224.534367
 30
0.0
 42
0.093065
 50
136.780821
  0
VERTEX
  8
L-ZISSEN
  6
CONTINUOUS
 62
     7
 10
115.0
 20
225.035082
 30
0.0
 42
0.093065
  0
VERTEX
  8
L-ZISSEN
  6
CONTINUOUS
 62
     7
 10
112.333164
 20
224.534367
 30
0.0
 42
0.096076
  0
VERTEX
  8
L-ZISSEN
  6
CONTINUOUS
 62
     7
 10
110.108832
 20
223.131276
 30
0.0
 42
0.100664
 70
     2
 50
223.219179
  0
VERTEX
  8
L-ZISSEN
  6
CONTINUOUS
 62
     7
 10
108.602571
 20
221.002668
 30
0.0
 42
0.104168
 50
223.219179
  0
SEQEND
  8
L-ZISSEN
  6
CONTINUOUS
 62
     7
  0
POLYLINE
  8
L-ZISSEN
  6
CONTINUOUS
 62
     7
 66
     1
 10
0.0
 20
0.0
 30
0.0
 70
     1
  0
VERTEX
  8
L-ZISSEN
  6
CONTINUOUS
 62
     7
 10
115.0
 20
299.336906
 30
0.0
 42
0.104168
 50
90.0
  0
VERTEX
  8
L-ZISSEN
  6
CONTINUOUS
 62
     7
 10
117.467586
 20
299.856632
 30
0.0
 42
0.100664
 50
90.0
  0
VERTEX
  8
L-ZISSEN
  6
CONTINUOUS
 62
     7
 10
119.596194
 20
301.362894
 30
0.0
 42
0.096076
 70
     2
 50
46.780821
  0
VERTEX
  8
L-ZISSEN
  6
CONTINUOUS
 62
     7
 10
121.126079
 20
303.788233
 30
0.0
 42
0.110798
 50
46.780821
  0
VERTEX
  8
L-ZISSEN
  6
CONTINUOUS
 62
     7
 10
121.5
 20
306.254062
 30
0.0
 42
0.093065
 50
90.0
  0
VERTEX
  8
L-ZISSEN
  6
CONTINUOUS
 62
     7
 10
120.999286
 20
308.920897
 30
0.0
 42
0.096076
 50
90.0
  0
VERTEX
  8
L-ZISSEN
  6
CONTINUOUS
 62
     7
 10
119.596194
 20
311.145229
 30
0.0
 42
0.100664
 70
     2
 50
133.219179
  0
VERTEX
  8
L-ZISSEN
  6
CONTINUOUS
 62
     7
 10
117.467586
 20
312.651491
 30
0.0
 42
0.104168
 50
133.219179
  0
VERTEX
  8
L-ZISSEN
  6
CONTINUOUS
 62
     7
 10
115.0
 20
313.171217
 30
0.0
 42
0.104168
 50
90.0
  0
VERTEX
  8
L-ZISSEN
  6
CONTINUOUS
 62
     7
 10
112.532414
 20
312.651491
 30
0.0
 42
0.100664
 50
90.0
  0
VERTEX
  8
L-ZISSEN
  6
CONTINUOUS
 62
     7
 10
110.403806
 20
311.145229
 30
0.0
 42
0.096076
 70
     2
 50
226.780821
  0
VERTEX
  8
L-ZISSEN
  6
CONTINUOUS
 62
     7
 10
109.000714
 20
308.920897
 30
0.0
 42
0.093065
 50
226.780821
  0
VERTEX
  8
L-ZISSEN
  6
CONTINUOUS
 62
     7
 10
108.5
 20
306.254062
 30
0.0
 42
0.093065
 50
90.0
  0
VERTEX
  8
L-ZISSEN
  6
CONTINUOUS
 62
     7
 10
109.000714
 20
303.587226
 30
0.0
 42
0.096076
 50
90.0
  0
VERTEX
  8
L-ZISSEN
  6
CONTINUOUS
 62
     7
 10
110.403806
 20
301.362894
 30
0.0
 42
0.100664
 70
     2
 50
313.219179
  0
VERTEX
  8
L-ZISSEN
  6
CONTINUOUS
 62
     7
 10
112.532414
 20
299.856632
 30
0.0
 42
0.104168
 50
313.219179
  0
SEQEND
  8
L-ZISSEN
  6
CONTINUOUS
 62
     7
  0
LINE
  8
L-ZISSEN
  6
CONTINUOUS
 62
     7
 10
103.365393
 20
202.748246
 30
0.0
 11
103.365393
 21
190.0
 31
0.0
  0
LINE
  8
L-ZISSEN
  6
CONTINUOUS
 62
     7
 10
126.634607
 20
202.748246
 30
0.0
 11
126.634607
 21
190.0
 31
0.0
  0
LINE
  8
L-ZISSEN
  6
CONTINUOUS
 62
     7
 10
105.4224
 20
206.221553
 30
0.0
 11
105.4224
 21
202.748246
 31
0.0
  0
LINE
  8
L-ZISSEN
  6
CONTINUOUS
 62
     7
 10
124.5776
 20
206.221553
 30
0.0
 11
124.5776
 21
202.748246
 31
0.0
  0
LINE
  8
L-ZISSEN
  6
CONTINUOUS
 62
     7
 10
108.082844
 20
218.535082
 30
0.0
 11
105.4224
 21
206.221531
 31
0.0
  0
LINE
  8
L-ZISSEN
  6
CONTINUOUS
 62
     7
 10
121.917156
 20
218.535082
 30
0.0
 11
124.5776
 21
206.221553
 31
0.0
  0
POLYLINE
  8
L-ZISSEN
  6
CONTINUOUS
 62
     7
 66
     1
 10
0.0
 20
0.0
 30
0.0
  0
VERTEX
  8
L-ZISSEN
  6
CONTINUOUS
 62
     7
 10
105.4224
 20
206.221553
 30
0.0
 42
0.104168
  0
VERTEX
  8
L-ZISSEN
  6
CONTINUOUS
 62
     7
 10
106.142021
 20
202.804895
 30
0.0
 42
0.100664
  0
VERTEX
  8
L-ZISSEN
  6
CONTINUOUS
 62
     7
 10
108.227614
 20
199.857592
 30
0.0
 42
0.096076
 70
     2
 50
316.780821
  0
VERTEX
  8
L-ZISSEN
  6
CONTINUOUS
 62
     7
 10
111.585776
 20
197.739289
 30
0.0
 42
0.110798
 50
316.780821
  0
VERTEX
  8
L-ZISSEN
  6
CONTINUOUS
 62
     7
 10
115.0
 20
197.221553
 30
0.0
 42
0.093065
  0
VERTEX
  8
L-ZISSEN
  6
CONTINUOUS
 62
     7
 10
118.692542
 20
197.91485
 30
0.0
 42
0.096076
  0
VERTEX
  8
L-ZISSEN
  6
CONTINUOUS
 62
     7
 10
121.772386
 20
199.857592
 30
0.0
 42
0.100664
 70
     2
 50
43.219179
  0
VERTEX
  8
L-ZISSEN
  6
CONTINUOUS
 62
     7
 10
123.857979
 20
202.804895
 30
0.0
 42
0.104168
 50
43.219179
  0
VERTEX
  8
L-ZISSEN
  6
CONTINUOUS
 62
     7
 10
124.5776
 20
206.221553
 30
0.0
 42
0.104168
  0
SEQEND
  8
L-ZISSEN
  6
CONTINUOUS
 62
     7
  0
POLYLINE
  8
L-ZISSEN
  6
CONTINUOUS
 62
     7
 66
     1
 10
0.0
 20
0.0
 30
0.0
  0
VERTEX
  8
L-ZISSEN
  6
CONTINUOUS
 62
     7
 10
106.052131
 20
209.136167
 30
0.0
 42
0.078851
 70
     2
 50
220.679217
  0
VERTEX
  8
L-ZISSEN
  6
CONTINUOUS
 62
     7
 10
104.221638
 20
206.49727
 30
0.0
 42
0.112744
 50
220.679217
  0
VERTEX
  8
L-ZISSEN
  6
CONTINUOUS
 62
     7
 10
103.365393
 20
202.748246
 30
0.0
 42
0.112744
  0
SEQEND
  8
L-ZISSEN
  6
CONTINUOUS
 62
     7
  0
LINE
  8
L-ZISSEN
  6
CONTINUOUS
 62
     7
 10
107.319061
 20
215.0
 30
0.0
 11
72.0
 21
215.0
 31
0.0
  0
LINE
  8
L-ZISSEN
  6
CONTINUOUS
 62
     7
 10
108.742657
 20
221.3
 30
0.0
 11
97.5
 21
221.3
 31
0.0
  0
POLYLINE
  8
L-ZISSEN
  6
CONTINUOUS
 62
     7
 66
     1
 10
0.0
 20
0.0
 30
0.0
  0
VERTEX
  8
L-ZISSEN
  6
CONTINUOUS
 62
     7
 10
124.0
 20
312.0
 30
0.0
 42
0.093065
 50
90.0
  0
VERTEX
  8
L-ZISSEN
  6
CONTINUOUS
 62
     7
 10
123.306703
 20
315.692542
 30
0.0
 42
0.096076
 50
90.0
  0
VERTEX
  8
L-ZISSEN
  6
CONTINUOUS
 62
     7
 10
121.363961
 20
318.772386
 30
0.0
 42
0.100664
 70
     2
 50
133.219179
  0
VERTEX
  8
L-ZISSEN
  6
CONTINUOUS
 62
     7
 10
118.416657
 20
320.857979
 30
0.0
 42
0.104168
 50
133.219179
  0
VERTEX
  8
L-ZISSEN
  6
CONTINUOUS
 62
     7
 10
115.0
 20
321.5776
 30
0.0
 42
0.104168
 50
90.0
  0
VERTEX
  8
L-ZISSEN
  6
CONTINUOUS
 62
     7
 10
111.583343
 20
320.857979
 30
0.0
 42
0.100664
 50
90.0
  0
VERTEX
  8
L-ZISSEN
  6
CONTINUOUS
 62
     7
 10
108.636039
 20
318.772386
 30
0.0
 42
0.096076
 70
     2
 50
226.780821
  0
VERTEX
  8
L-ZISSEN
  6
CONTINUOUS
 62
     7
 10
106.693297
 20
315.692542
 30
0.0
 42
0.093065
 50
226.780821
  0
VERTEX
  8
L-ZISSEN
  6
CONTINUOUS
 62
     7
 10
106.0
 20
312.0
 30
0.0
 42
0.093065
 50
90.0
  0
SEQEND
  8
L-ZISSEN
  6
CONTINUOUS
 62
     7
  0
ARC
  8
L-ZISSEN
  6
CONTINUOUS
 62
     7
 10
115.0
 20
312.0
 30
0.0
 40
10.0
 50
308.843122
 51
0.0
  0
POLYLINE
  8
L-ZISSEN
  6
CONTINUOUS
 62
     7
 66
     1
 10
0.0
 20
0.0
 30
0.0
  0
VERTEX
  8
L-ZISSEN
  6
CONTINUOUS
 62
     7
 10
121.056778
 20
303.616467
 30
0.0
 42
0.012076
 50
90.0
  0
VERTEX
  8
L-ZISSEN
  6
CONTINUOUS
 62
     7
 10
121.363961
 20
303.927938
 30
0.0
 42
0.096076
 70
     2
 50
46.780821
  0
VERTEX
  8
L-ZISSEN
  6
CONTINUOUS
 62
     7
 10
123.482264
 20
307.286099
 30
0.0
 42
0.110798
 50
46.780821
  0
VERTEX
  8
L-ZISSEN
  6
CONTINUOUS
 62
     7
 10
124.0
 20
310.700323
 30
0.0
 42
0.093065
 50
90.0
  0
VERTEX
  8
L-ZISSEN
  6
CONTINUOUS
 62
     7
 10
123.306703
 20
314.392865
 30
0.0
 42
0.096076
 50
90.0
  0
VERTEX
  8
L-ZISSEN
  6
CONTINUOUS
 62
     7
 10
121.363961
 20
317.472709
 30
0.0
 42
0.100664
 70
     2
 50
133.219179
  0
VERTEX
  8
L-ZISSEN
  6
CONTINUOUS
 62
     7
 10
118.416657
 20
319.558303
 30
0.0
 42
0.104168
 50
133.219179
  0
VERTEX
  8
L-ZISSEN
  6
CONTINUOUS
 62
     7
 10
115.0
 20
320.277923
 30
0.0
 42
0.104168
 50
90.0
  0
VERTEX
  8
L-ZISSEN
  6
CONTINUOUS
 62
     7
 10
111.583343
 20
319.558303
 30
0.0
 42
0.100664
 50
90.0
  0
VERTEX
  8
L-ZISSEN
  6
CONTINUOUS
 62
     7
 10
108.636039
 20
317.472709
 30
0.0
 42
0.096076
 70
     2
 50
226.780821
  0
VERTEX
  8
L-ZISSEN
  6
CONTINUOUS
 62
     7
 10
106.693297
 20
314.392865
 30
0.0
 42
0.093065
 50
226.780821
  0
VERTEX
  8
L-ZISSEN
  6
CONTINUOUS
 62
     7
 10
106.0
 20
310.700323
 30
0.0
 42
0.093065
 50
90.0
  0
VERTEX
  8
L-ZISSEN
  6
CONTINUOUS
 62
     7
 10
106.693297
 20
307.007782
 30
0.0
 42
0.096076
 50
90.0
  0
VERTEX
  8
L-ZISSEN
  6
CONTINUOUS
 62
     7
 10
108.636039
 20
303.927938
 30
0.0
 42
0.014888
 70
     2
 50
313.219179
  0
VERTEX
  8
L-ZISSEN
  6
CONTINUOUS
 62
     7
 10
109.01687
 20
303.546109
 30
0.0
 42
0.104168
 50
313.219179
  0
SEQEND
  8
L-ZISSEN
  6
CONTINUOUS
 62
     7
  0
POLYLINE
  8
L-ZISSEN
  6
CONTINUOUS
 62
     7
 66
     1
 10
0.0
 20
0.0
 30
0.0
 70
     1
  0
VERTEX
  8
L-ZISSEN
  6
CONTINUOUS
 62
     7
 10
115.0
 20
380.663094
 30
0.0
 42
-0.104168
  0
VERTEX
  8
L-ZISSEN
  6
CONTINUOUS
 62
     7
 10
117.467586
 20
380.143368
 30
0.0
 42
-0.100664
  0
VERTEX
  8
L-ZISSEN
  6
CONTINUOUS
 62
     7
 10
119.596194
 20
378.637106
 30
0.0
 42
-0.096076
 70
     2
 50
313.219179
  0
VERTEX
  8
L-ZISSEN
  6
CONTINUOUS
 62
     7
 10
121.126079
 20
376.211767
 30
0.0
 42
-0.110798
  0
VERTEX
  8
L-ZISSEN
  6
CONTINUOUS
 62
     7
 10
121.5
 20
373.745938
 30
0.0
 42
-0.093065
  0
VERTEX
  8
L-ZISSEN
  6
CONTINUOUS
 62
     7
 10
120.999286
 20
371.079103
 30
0.0
 42
-0.096076
  0
VERTEX
  8
L-ZISSEN
  6
CONTINUOUS
 62
     7
 10
119.596194
 20
368.854771
 30
0.0
 42
-0.100664
 70
     2
 50
226.780821
  0
VERTEX
  8
L-ZISSEN
  6
CONTINUOUS
 62
     7
 10
117.467586
 20
367.348509
 30
0.0
 42
-0.104168
  0
VERTEX
  8
L-ZISSEN
  6
CONTINUOUS
 62
     7
 10
115.0
 20
366.828783
 30
0.0
 42
-0.104168
  0
VERTEX
  8
L-ZISSEN
  6
CONTINUOUS
 62
     7
 10
112.532414
 20
367.348509
 30
0.0
 42
-0.100664
  0
VERTEX
  8
L-ZISSEN
  6
CONTINUOUS
 62
     7
 10
110.403806
 20
368.854771
 30
0.0
 42
-0.096076
 70
     2
 50
133.219179
  0
VERTEX
  8
L-ZISSEN
  6
CONTINUOUS
 62
     7
 10
109.000714
 20
371.079103
 30
0.0
 42
-0.093065
  0
VERTEX
  8
L-ZISSEN
  6
CONTINUOUS
 62
     7
 10
108.5
 20
373.745938
 30
0.0
 42
-0.093065
  0
VERTEX
  8
L-ZISSEN
  6
CONTINUOUS
 62
     7
 10
109.000714
 20
376.412774
 30
0.0
 42
-0.096076
  0
VERTEX
  8
L-ZISSEN
  6
CONTINUOUS
 62
     7
 10
110.403806
 20
378.637106
 30
0.0
 42
-0.100664
 70
     2
 50
46.780821
  0
VERTEX
  8
L-ZISSEN
  6
CONTINUOUS
 62
     7
 10
112.532414
 20
380.143368
 30
0.0
 42
-0.104168
  0
SEQEND
  8
L-ZISSEN
  6
CONTINUOUS
 62
     7
  0
POLYLINE
  8
L-ZISSEN
  6
CONTINUOUS
 62
     7
 66
     1
 10
0.0
 20
0.0
 30
0.0
  0
VERTEX
  8
L-ZISSEN
  6
CONTINUOUS
 62
     7
 10
121.056778
 20
376.383533
 30
0.0
 42
-0.012076
  0
VERTEX
  8
L-ZISSEN
  6
CONTINUOUS
 62
     7
 10
121.363961
 20
376.072062
 30
0.0
 42
-0.096076
 70
     2
 50
313.219179
  0
VERTEX
  8
L-ZISSEN
  6
CONTINUOUS
 62
     7
 10
123.482264
 20
372.713901
 30
0.0
 42
-0.110798
  0
VERTEX
  8
L-ZISSEN
  6
CONTINUOUS
 62
     7
 10
124.0
 20
369.299677
 30
0.0
 42
-0.093065
  0
VERTEX
  8
L-ZISSEN
  6
CONTINUOUS
 62
     7
 10
123.306703
 20
365.607135
 30
0.0
 42
-0.096076
  0
VERTEX
  8
L-ZISSEN
  6
CONTINUOUS
 62
     7
 10
121.363961
 20
362.527291
 30
0.0
 42
-0.100664
 70
     2
 50
226.780821
  0
VERTEX
  8
L-ZISSEN
  6
CONTINUOUS
 62
     7
 10
118.416657
 20
360.441697
 30
0.0
 42
-0.104168
  0
VERTEX
  8
L-ZISSEN
  6
CONTINUOUS
 62
     7
 10
115.0
 20
359.722077
 30
0.0
 42
-0.104168
  0
VERTEX
  8
L-ZISSEN
  6
CONTINUOUS
 62
     7
 10
111.583343
 20
360.441697
 30
0.0
 42
-0.100664
  0
VERTEX
  8
L-ZISSEN
  6
CONTINUOUS
 62
     7
 10
108.636039
 20
362.527291
 30
0.0
 42
-0.096076
 70
     2
 50
133.219179
  0
VERTEX
  8
L-ZISSEN
  6
CONTINUOUS
 62
     7
 10
106.693297
 20
365.607135
 30
0.0
 42
-0.093065
  0
VERTEX
  8
L-ZISSEN
  6
CONTINUOUS
 62
     7
 10
106.0
 20
369.299677
 30
0.0
 42
-0.093065
  0
VERTEX
  8
L-ZISSEN
  6
CONTINUOUS
 62
     7
 10
106.693297
 20
372.992218
 30
0.0
 42
-0.096076
  0
VERTEX
  8
L-ZISSEN
  6
CONTINUOUS
 62
     7
 10
108.636039
 20
376.072062
 30
0.0
 42
-0.014888
 70
     2
 50
46.780821
  0
VERTEX
  8
L-ZISSEN
  6
CONTINUOUS
 62
     7
 10
109.01687
 20
376.453891
 30
0.0
 42
-0.104168
  0
SEQEND
  8
L-ZISSEN
  6
CONTINUOUS
 62
     7
  0
POLYLINE
  8
L-ZISSEN
  6
CONTINUOUS
 62
     7
 66
     1
 10
0.0
 20
0.0
 30
0.0
  0
VERTEX
  8
L-ZISSEN
  6
CONTINUOUS
 62
     7
 10
124.0
 20
368.0
 30
0.0
 42
-0.093065
  0
VERTEX
  8
L-ZISSEN
  6
CONTINUOUS
 62
     7
 10
123.306703
 20
364.307458
 30
0.0
 42
-0.096076
  0
VERTEX
  8
L-ZISSEN
  6
CONTINUOUS
 62
     7
 10
121.363961
 20
361.227614
 30
0.0
 42
-0.100664
 70
     2
 50
226.780821
  0
VERTEX
  8
L-ZISSEN
  6
CONTINUOUS
 62
     7
 10
118.416657
 20
359.142021
 30
0.0
 42
-0.104168
  0
VERTEX
  8
L-ZISSEN
  6
CONTINUOUS
 62
     7
 10
115.0
 20
358.4224
 30
0.0
 42
-0.104168
  0
VERTEX
  8
L-ZISSEN
  6
CONTINUOUS
 62
     7
 10
111.583343
 20
359.142021
 30
0.0
 42
-0.100664
  0
VERTEX
  8
L-ZISSEN
  6
CONTINUOUS
 62
     7
 10
108.636039
 20
361.227614
 30
0.0
 42
-0.096076
 70
     2
 50
133.219179
  0
VERTEX
  8
L-ZISSEN
  6
CONTINUOUS
 62
     7
 10
106.693297
 20
364.307458
 30
0.0
 42
-0.093065
  0
VERTEX
  8
L-ZISSEN
  6
CONTINUOUS
 62
     7
 10
106.0
 20
368.0
 30
0.0
 42
-0.093065
  0
SEQEND
  8
L-ZISSEN
  6
CONTINUOUS
 62
     7
  0
ARC
  8
L-ZISSEN
  6
CONTINUOUS
 62
     7
 10
115.0
 20
368.0
 30
0.0
 40
10.0
 50
128.255844
 51
180.0
  0
LINE
  8
L-ZISSEN
  6
CONTINUOUS
 62
     7
 10
75.75
 20
195.4
 30
0.0
 11
75.75
 21
190.0
 31
0.0
  0
LINE
  8
L-ZISSEN
  6
CONTINUOUS
 62
     7
 10
86.25
 20
195.4
 30
0.0
 11
86.25
 21
190.0
 31
0.0
  0
LINE
  8
L-ZISSEN
  6
CONTINUOUS
 62
     7
 10
75.75
 20
195.4
 30
0.0
 11
86.25
 21
195.4
 31
0.0
  0
LINE
  8
L-ZISSEN
  6
CONTINUOUS
 62
     7
 10
109.75
 20
195.4
 30
0.0
 11
109.75
 21
190.0
 31
0.0
  0
LINE
  8
L-ZISSEN
  6
CONTINUOUS
 62
     7
 10
109.75
 20
195.4
 30
0.0
 11
120.25
 21
195.4
 31
0.0
  0
LINE
  8
L-ZISSEN
  6
CONTINUOUS
 62
     7
 10
120.25
 20
195.4
 30
0.0
 11
120.25
 21
190.0
 31
0.0
  0
POLYLINE
  8
L-ZISSEN
  6
CONTINUOUS
 62
     7
 66
     1
 10
0.0
 20
0.0
 30
0.0
  0
VERTEX
  8
L-ZISSEN
  6
CONTINUOUS
 62
     7
 10
105.4224
 20
202.748246
 30
0.0
 42
0.104168
  0
VERTEX
  8
L-ZISSEN
  6
CONTINUOUS
 62
     7
 10
106.142021
 20
199.331589
 30
0.0
 42
0.100664
  0
VERTEX
  8
L-ZISSEN
  6
CONTINUOUS
 62
     7
 10
108.227614
 20
196.384285
 30
0.0
 42
0.046364
 70
     2
 50
316.780821
  0
VERTEX
  8
L-ZISSEN
  6
CONTINUOUS
 62
     7
 10
109.75
 20
195.198708
 30
0.0
 42
0.110798
 50
316.780821
  0
SEQEND
  8
L-ZISSEN
  6
CONTINUOUS
 62
     7
  0
POLYLINE
  8
L-ZISSEN
  6
CONTINUOUS
 62
     7
 66
     1
 10
0.0
 20
0.0
 30
0.0
  0
VERTEX
  8
L-ZISSEN
  6
CONTINUOUS
 62
     7
 10
103.365393
 20
202.748246
 30
0.0
 42
0.112744
  0
VERTEX
  8
L-ZISSEN
  6
CONTINUOUS
 62
     7
 10
104.221638
 20
198.999222
 30
0.0
 42
0.103298
  0
VERTEX
  8
L-ZISSEN
  6
CONTINUOUS
 62
     7
 10
106.773091
 20
195.677178
 30
0.0
 42
0.06945
 70
     2
 50
319.320783
  0
VERTEX
  8
L-ZISSEN
  6
CONTINUOUS
 62
     7
 10
109.75
 20
193.763568
 30
0.0
 42
0.102683
 50
319.320783
  0
SEQEND
  8
L-ZISSEN
  6
CONTINUOUS
 62
     7
  0
POLYLINE
  8
L-ZISSEN
  6
CONTINUOUS
 62
     7
 66
     1
 10
0.0
 20
0.0
 30
0.0
  0
VERTEX
  8
L-ZISSEN
  6
CONTINUOUS
 62
     7
 10
120.25
 20
195.217651
 30
0.0
 42
0.050269
  0
VERTEX
  8
L-ZISSEN
  6
CONTINUOUS
 62
     7
 10
121.772386
 20
196.384285
 30
0.0
 42
0.100664
 70
     2
 50
43.219179
  0
VERTEX
  8
L-ZISSEN
  6
CONTINUOUS
 62
     7
 10
123.857979
 20
199.331589
 30
0.0
 42
0.104168
 50
43.219179
  0
VERTEX
  8
L-ZISSEN
  6
CONTINUOUS
 62
     7
 10
124.5776
 20
202.748246
 30
0.0
 42
0.104168
  0
SEQEND
  8
L-ZISSEN
  6
CONTINUOUS
 62
     7
  0
POLYLINE
  8
L-ZISSEN
  6
CONTINUOUS
 62
     7
 66
     1
 10
0.0
 20
0.0
 30
0.0
  0
VERTEX
  8
L-ZISSEN
  6
CONTINUOUS
 62
     7
 10
120.25
 20
193.814301
 30
0.0
 42
0.075558
  0
VERTEX
  8
L-ZISSEN
  6
CONTINUOUS
 62
     7
 10
123.226909
 20
195.677178
 30
0.0
 42
0.103298
 70
     2
 50
40.679217
  0
VERTEX
  8
L-ZISSEN
  6
CONTINUOUS
 62
     7
 10
125.778362
 20
198.999222
 30
0.0
 42
0.112744
 50
40.679217
  0
VERTEX
  8
L-ZISSEN
  6
CONTINUOUS
 62
     7
 10
126.634607
 20
202.748246
 30
0.0
 42
0.112744
  0
VERTEX
  8
L-ZISSEN
  6
CONTINUOUS
 62
     7
 10
125.778362
 20
206.49727
 30
0.0
 42
0.078851
  0
VERTEX
  8
L-ZISSEN
  6
CONTINUOUS
 62
     7
 10
123.947873
 20
209.136162
 30
0.0
 42
0.09225
 70
     2
 50
139.320783
  0
SEQEND
  8
L-ZISSEN
  6
CONTINUOUS
 62
     7
  0
LINE
  8
L-ZISSEN
  6
CONTINUOUS
 62
     7
 10
143.75
 20
195.4
 30
0.0
 11
154.25
 21
195.4
 31
0.0
  0
LINE
  8
L-ZISSEN
  6
CONTINUOUS
 62
     7
 10
154.25
 20
195.4
 30
0.0
 11
154.25
 21
190.0
 31
0.0
  0
LINE
  8
L-ZISSEN
  6
CONTINUOUS
 62
     7
 10
158.0
 20
325.0
 30
0.0
 11
158.0
 21
355.0
 31
0.0
  0
LINE
  8
L-ZISSEN
  6
CONTINUOUS
 62
     7
 10
138.849242
 20
217.0
 30
0.0
 11
138.849242
 21
190.0
 31
0.0
  0
LINE
  8
L-ZISSEN
  6
CONTINUOUS
 62
     7
 10
195.75
 20
195.4
 30
0.0
 11
195.75
 21
190.0
 31
0.0
  0
LINE
  8
L-ZISSEN
  6
CONTINUOUS
 62
     7
 10
195.75
 20
195.4
 30
0.0
 11
206.25
 21
195.4
 31
0.0
  0
LINE
  8
L-ZISSEN
  6
CONTINUOUS
 62
     7
 10
206.25
 20
195.4
 30
0.0
 11
206.25
 21
190.0
 31
0.0
  0
LINE
  8
L-ZISSEN
  6
CONTINUOUS
 62
     7
 10
265.75
 20
195.4
 30
0.0
 11
276.25
 21
195.4
 31
0.0
  0
LINE
  8
L-ZISSEN
  6
CONTINUOUS
 62
     7
 10
265.75
 20
195.4
 30
0.0
 11
265.75
 21
190.0
 31
0.0
  0
LINE
  8
L-ZISSEN
  6
CONTINUOUS
 62
     7
 10
276.25
 20
195.4
 30
0.0
 11
276.25
 21
190.0
 31
0.0
  0
LINE
  8
L-ZISSEN
  6
CONTINUOUS
 62
     7
 10
283.75
 20
195.4
 30
0.0
 11
294.25
 21
195.4
 31
0.0
  0
LINE
  8
L-ZISSEN
  6
CONTINUOUS
 62
     7
 10
283.75
 20
195.4
 30
0.0
 11
283.75
 21
190.0
 31
0.0
  0
LINE
  8
L-ZISSEN
  6
CONTINUOUS
 62
     7
 10
294.25
 20
195.4
 30
0.0
 11
294.25
 21
190.0
 31
0.0
  0
LINE
  8
L-ZISSEN
  6
CONTINUOUS
 62
     7
 10
213.75
 20
195.4
 30
0.0
 11
224.25
 21
195.4
 31
0.0
  0
LINE
  8
L-ZISSEN
  6
CONTINUOUS
 62
     7
 10
213.75
 20
195.4
 30
0.0
 11
213.75
 21
190.0
 31
0.0
  0
LINE
  8
L-ZISSEN
  6
CONTINUOUS
 62
     7
 10
224.25
 20
195.4
 30
0.0
 11
224.25
 21
190.0
 31
0.0
  0
LINE
  8
L-ZISSEN
  6
CONTINUOUS
 62
     7
 10
138.849242
 20
217.0
 30
0.0
 11
122.248823
 21
217.0
 31
0.0
  0
LINE
  8
L-ZISSEN
  6
CONTINUOUS
 62
     7
 10
73.0
 20
176.7
 30
0.0
 11
157.0
 21
176.7
 31
0.0
  0
LINE
  8
L-ZISSEN
  6
CONTINUOUS
 62
     7
 10
73.0
 20
164.7
 30
0.0
 11
157.0
 21
164.7
 31
0.0
  0
LINE
  8
L-ZISSEN
  6
CONTINUOUS
 62
     7
 10
157.0
 20
176.7
 30
0.0
 11
157.0
 21
164.7
 31
0.0
  0
LINE
  8
L-ZISSEN
  6
CONTINUOUS
 62
     7
 10
73.0
 20
176.7
 30
0.0
 11
73.0
 21
164.7
 31
0.0
  0
LINE
  8
L-ZISSEN
  6
CONTINUOUS
 62
     7
 10
146.0
 20
182.0
 30
0.0
 11
146.0
 21
176.7
 31
0.0
  0
LINE
  8
L-ZISSEN
  6
CONTINUOUS
 62
     7
 10
152.0
 20
182.0
 30
0.0
 11
152.0
 21
176.7
 31
0.0
  0
LINE
  8
L-ZISSEN
  6
CONTINUOUS
 62
     7
 10
112.0
 20
182.0
 30
0.0
 11
112.0
 21
176.7
 31
0.0
  0
LINE
  8
L-ZISSEN
  6
CONTINUOUS
 62
     7
 10
118.0
 20
182.0
 30
0.0
 11
118.0
 21
176.7
 31
0.0
  0
LINE
  8
L-ZISSEN
  6
CONTINUOUS
 62
     7
 10
84.0
 20
182.0
 30
0.0
 11
84.0
 21
176.7
 31
0.0
  0
LINE
  8
L-ZISSEN
  6
CONTINUOUS
 62
     7
 10
78.0
 20
182.0
 30
0.0
 11
78.0
 21
176.7
 31
0.0
  0
LINE
  8
L-ZISSEN
  6
CONTINUOUS
 62
     7
 10
76.2
 20
182.0
 30
0.0
 11
76.2
 21
176.7
 31
0.0
  0
LINE
  8
L-ZISSEN
  6
CONTINUOUS
 62
     7
 10
153.8
 20
182.0
 30
0.0
 11
153.8
 21
176.7
 31
0.0
  0
LINE
  8
L-ZISSEN
  6
CONTINUOUS
 62
     7
 10
97.564404
 20
64.5
 30
0.0
 11
132.435596
 21
64.5
 31
0.0
  0
LINE
  8
L-ZISSEN
  6
CONTINUOUS
 62
     7
 10
78.8
 20
83.483537
 30
0.0
 11
78.8
 21
164.7
 31
0.0
  0
LINE
  8
L-ZISSEN
  6
CONTINUOUS
 62
     7
 10
151.2
 20
83.483537
 30
0.0
 11
151.2
 21
164.7
 31
0.0
  0
ARC
  8
L-ZISSEN
  6
CONTINUOUS
 62
     7
 10
115.0
 20
100.5
 30
0.0
 40
40.0
 50
205.176717
 51
244.158067
  0
ARC
  8
L-ZISSEN
  6
CONTINUOUS
 62
     7
 10
115.0
 20
100.5
 30
0.0
 40
40.0
 50
295.841933
 51
334.823283
  0
LINE
  8
L-ZISSEN
  6
CONTINUOUS
 62
     7
 10
106.75
 20
52.0
 30
0.0
 11
123.25
 21
52.0
 31
0.0
  0
LINE
  8
L-ZISSEN
  6
CONTINUOUS
 62
     7
 10
103.0
 20
55.0
 30
0.0
 11
127.0
 21
55.0
 31
0.0
  0
LINE
  8
L-ZISSEN
  6
CONTINUOUS
 62
     7
 10
103.0
 20
61.0
 30
0.0
 11
103.0
 21
55.0
 31
0.0
  0
LINE
  8
L-ZISSEN
  6
CONTINUOUS
 62
     7
 10
127.0
 20
61.0
 30
0.0
 11
127.0
 21
55.0
 31
0.0
  0
LINE
  8
L-ZISSEN
  6
CONTINUOUS
 62
     7
 10
106.75
 20
52.0
 30
0.0
 11
103.75
 21
55.0
 31
0.0
  0
LINE
  8
L-ZISSEN
  6
CONTINUOUS
 62
     7
 10
123.25
 20
52.0
 30
0.0
 11
126.25
 21
55.0
 31
0.0
  0
LINE
  8
L-ZISSEN
  6
CONTINUOUS
 62
     7
 10
110.75
 20
51.0
 30
0.0
 11
119.25
 21
51.0
 31
0.0
  0
LINE
  8
L-ZISSEN
  6
CONTINUOUS
 62
     7
 10
110.75
 20
51.0
 30
0.0
 11
110.75
 21
52.0
 31
0.0
  0
LINE
  8
L-ZISSEN
  6
CONTINUOUS
 62
     7
 10
119.25
 20
51.0
 30
0.0
 11
119.25
 21
52.0
 31
0.0
  0
LINE
  8
L-ZISSEN
  6
CONTINUOUS
 62
     7
 10
73.0
 20
190.0
 30
0.0
 11
73.0
 21
182.0
 31
0.0
  0
LINE
  8
L-ZISSEN
  6
CONTINUOUS
 62
     7
 10
157.0
 20
190.0
 30
0.0
 11
157.0
 21
182.0
 31
0.0
  0
LINE
  8
L-ZISSEN
  6
CONTINUOUS
 62
     7
 10
74.153846
 20
325.0
 30
0.0
 11
75.0
 21
314.0
 31
0.0
  0
LINE
  8
L-ZISSEN
  6
CONTINUOUS
 62
     7
 10
74.153846
 20
355.0
 30
0.0
 11
75.0
 21
366.0
 31
0.0
  0
LINE
  8
L-ZISSEN
  6
CONTINUOUS
 62
     7
 10
155.846154
 20
355.0
 30
0.0
 11
155.0
 21
366.0
 31
0.0
  0
LINE
  8
L-ZISSEN
  6
CONTINUOUS
 62
     7
 10
155.846154
 20
325.0
 30
0.0
 11
155.0
 21
314.0
 31
0.0
  0
ARC
  8
L-ZISSEN
  6
CONTINUOUS
 62
     7
 10
245.0
 20
100.5
 30
0.0
 40
40.0
 50
295.841933
 51
334.823283
  0
ARC
  8
L-ZISSEN
  6
CONTINUOUS
 62
     7
 10
245.0
 20
100.5
 30
0.0
 40
40.0
 50
205.176717
 51
244.158067
  0
LINE
  8
L-ZISSEN
  6
CONTINUOUS
 62
     7
 10
281.2
 20
83.483537
 30
0.0
 11
281.2
 21
164.7
 31
0.0
  0
LINE
  8
L-ZISSEN
  6
CONTINUOUS
 62
     7
 10
208.8
 20
83.483537
 30
0.0
 11
208.8
 21
164.7
 31
0.0
  0
LINE
  8
L-ZISSEN
  6
CONTINUOUS
 62
     7
 10
227.564404
 20
64.5
 30
0.0
 11
262.435596
 21
64.5
 31
0.0
  0
LINE
  8
L-ZISSEN
  6
CONTINUOUS
 62
     7
 10
195.0
 20
164.7
 30
0.0
 11
295.0
 21
164.7
 31
0.0
  0
LINE
  8
L-ZISSEN
  6
CONTINUOUS
 62
     7
 10
195.0
 20
176.7
 30
0.0
 11
295.0
 21
176.7
 31
0.0
  0
LINE
  8
L-ZISSEN
  6
CONTINUOUS
 62
     7
 10
195.0
 20
176.7
 30
0.0
 11
195.0
 21
164.7
 31
0.0
  0
LINE
  8
L-ZISSEN
  6
CONTINUOUS
 62
     7
 10
295.0
 20
176.7
 30
0.0
 11
295.0
 21
164.7
 31
0.0
  0
LINE
  8
L-ZISSEN
  6
CONTINUOUS
 62
     7
 10
206.2
 20
182.0
 30
0.0
 11
206.2
 21
176.7
 31
0.0
  0
LINE
  8
L-ZISSEN
  6
CONTINUOUS
 62
     7
 10
283.8
 20
182.0
 30
0.0
 11
283.8
 21
176.7
 31
0.0
  0
LINE
  8
L-ZISSEN
  6
CONTINUOUS
 62
     7
 10
198.0
 20
182.0
 30
0.0
 11
198.0
 21
176.7
 31
0.0
  0
LINE
  8
L-ZISSEN
  6
CONTINUOUS
 62
     7
 10
204.0
 20
182.0
 30
0.0
 11
204.0
 21
176.7
 31
0.0
  0
LINE
  8
L-ZISSEN
  6
CONTINUOUS
 62
     7
 10
222.0
 20
182.0
 30
0.0
 11
222.0
 21
176.7
 31
0.0
  0
LINE
  8
L-ZISSEN
  6
CONTINUOUS
 62
     7
 10
216.0
 20
182.0
 30
0.0
 11
216.0
 21
176.7
 31
0.0
  0
LINE
  8
L-ZISSEN
  6
CONTINUOUS
 62
     7
 10
274.0
 20
182.0
 30
0.0
 11
274.0
 21
176.7
 31
0.0
  0
LINE
  8
L-ZISSEN
  6
CONTINUOUS
 62
     7
 10
268.0
 20
182.0
 30
0.0
 11
268.0
 21
176.7
 31
0.0
  0
LINE
  8
L-ZISSEN
  6
CONTINUOUS
 62
     7
 10
286.0
 20
182.0
 30
0.0
 11
286.0
 21
176.7
 31
0.0
  0
LINE
  8
L-ZISSEN
  6
CONTINUOUS
 62
     7
 10
292.0
 20
182.0
 30
0.0
 11
292.0
 21
176.7
 31
0.0
  0
TEXT
  8
L-ZISSEN
  6
CONTINUOUS
 62
     7
 10
75.0
 20
420.0
 30
0.0
 40
4.5
  1
MODEL No. : NOL-503(GS)
  0
TEXT
  8
L-ZISSEN
  6
CONTINUOUS
 62
     7
 10
145.5
 20
427.5
 30
0.0
 40
4.5
  1
02
  0
TEXT
  8
L-ZISSEN
  6
CONTINUOUS
 62
     7
 10
145.5
 20
412.5
 30
0.0
 40
4.5
  1
04
  0
CIRCLE
  8
L-ZISSEN
  6
CONTINUOUS
 62
     7
 10
245.0
 20
200.0
 30
0.0
 40
5.7225
  0
SOLID
  8
L-ZISSEN
  6
CONTINUOUS
 62
     7
 10
113.821489
 20
201.649916
 30
0.0
 11
113.350084
 21
201.178511
 31
0.0
 12
115.0
 22
200.0
 32
0.0
 13
115.0
 23
200.0
 33
0.0
  0
LINE
  8
L-ZISSEN
  6
CONTINUOUS
 62
     7
 10
113.585786
 20
201.414214
 30
0.0
 11
85.0
 21
230.0
 31
0.0
  0
LINE
  8
L-ZISSEN
  6
CONTINUOUS
 62
     7
 10
85.0
 20
230.0
 30
0.0
 11
83.0
 21
230.0
 31
0.0
  0
TEXT
  8
L-ZISSEN
  6
CONTINUOUS
 62
     7
 10
72.0
 20
227.75
 30
0.0
 40
4.5
  1
P.P
  0
SOLID
  8
L-ZISSEN
  6
CONTINUOUS
 62
     7
 10
243.975705
 20
201.749837
 30
0.0
 11
243.463557
 21
201.323048
 31
0.0
 12
245.0
 22
200.0
 32
0.0
 13
245.0
 23
200.0
 33
0.0
  0
LINE
  8
L-ZISSEN
  6
CONTINUOUS
 62
     7
 10
243.719631
 20
201.536443
 30
0.0
 11
220.0
 21
230.0
 31
0.0
  0
LINE
  8
L-ZISSEN
  6
CONTINUOUS
 62
     7
 10
220.0
 20
230.0
 30
0.0
 11
218.0
 21
230.0
 31
0.0
  0
TEXT
  8
L-ZISSEN
  6
CONTINUOUS
 62
     7
 10
207.0
 20
227.75
 30
0.0
 40
4.5
  1
P.P
  0
SOLID
  8
L-ZISSEN
  6
CONTINUOUS
 62
     7
 10
113.737328
 20
338.413566
 30
0.0
 11
114.3201
 21
338.089804
 31
0.0
 12
115.0
 22
340.0
 32
0.0
 13
115.0
 23
340.0
 33
0.0
  0
LINE
  8
L-ZISSEN
  6
CONTINUOUS
 62
     7
 10
114.028714
 20
338.251685
 30
0.0
 11
90.0
 21
295.0
 31
0.0
  0
LINE
  8
L-ZISSEN
  6
CONTINUOUS
 62
     7
 10
90.0
 20
295.0
 30
0.0
 11
88.0
 21
295.0
 31
0.0
  0
TEXT
  8
L-ZISSEN
  6
CONTINUOUS
 62
     7
 10
77.0
 20
292.75
 30
0.0
 40
4.5
  1
P.P
  0
LINE
  8
L-ZISSEN
  6
CONTINUOUS
 62
     7
 10
453.0
 20
359.0
 30
0.0
 11
453.0
 21
325.0
 31
0.0
  0
ARC
  8
L-ZISSEN
  6
CONTINUOUS
 62
     7
 10
510.0
 20
310.0
 30
0.0
 40
14.0
 50
90.0
 51
270.0
  0
LINE
  8
L-ZISSEN
  6
CONTINUOUS
 62
     7
 10
510.0
 20
296.0
 30
0.0
 11
570.0
 21
296.0
 31
0.0
  0
LINE
  8
L-ZISSEN
  6
CONTINUOUS
 62
     7
 10
570.0
 20
296.0
 30
0.0
 11
570.0
 21
359.0
 31
0.0
  0
LINE
  8
L-ZISSEN
  6
CONTINUOUS
 62
     7
 10
570.0
 20
359.0
 30
0.0
 11
562.497423
 21
359.0
 31
0.0
  0
LINE
  8
L-ZISSEN
  6
CONTINUOUS
 62
     7
 10
510.0
 20
324.0
 30
0.0
 11
553.119201
 21
324.0
 31
0.0
  0
LINE
  8
L-ZISSEN
  6
CONTINUOUS
 62
     7
 10
562.497423
 20
359.0
 30
0.0
 11
553.119201
 21
324.0
 31
0.0
  0
SOLID
  8
L-ZISSEN
  6
CONTINUOUS
 62
     7
 10
508.6
 20
311.466667
 30
0.0
 11
508.2
 21
310.933333
 31
0.0
 12
510.0
 22
310.0
 32
0.0
 13
510.0
 23
310.0
 33
0.0
  0
LINE
  8
L-ZISSEN
  6
CONTINUOUS
 62
     7
 10
508.4
 20
311.2
 30
0.0
 11
490.0
 21
325.0
 31
0.0
  0
LINE
  8
L-ZISSEN
  6
CONTINUOUS
 62
     7
 10
490.0
 20
325.0
 30
0.0
 11
488.0
 21
325.0
 31
0.0
  0
TEXT
  8
L-ZISSEN
  6
CONTINUOUS
 62
     7
 10
477.0
 20
322.75
 30
0.0
 40
4.5
  1
P.P
  0
LINE
  8
L-ZISSEN
  6
CONTINUOUS
 62
     7
 10
455.5
 20
359.0
 30
0.0
 11
422.4499
 21
359.0
 31
0.0
  0
LINE
  8
L-ZISSEN
  6
CONTINUOUS
 62
     7
 10
455.5
 20
296.0
 30
0.0
 11
453.0
 21
296.0
 31
0.0
  0
LINE
  8
L-ZISSEN
  6
CONTINUOUS
 62
     7
 10
455.5
 20
359.0
 30
0.0
 11
455.5
 21
296.0
 31
0.0
  0
LINE
  8
L-ZISSEN
  6
CONTINUOUS
 62
     7
 10
455.5
 20
324.0
 30
0.0
 11
453.0
 21
324.0
 31
0.0
  0
LINE
  8
L-ZISSEN
  6
CONTINUOUS
 62
     7
 10
364.5
 20
359.0
 30
0.0
 11
364.5
 21
296.0
 31
0.0
  0
LINE
  8
L-ZISSEN
  6
CONTINUOUS
 62
     7
 10
367.0
 20
359.0
 30
0.0
 11
367.0
 21
325.0
 31
0.0
  0
LINE
  8
L-ZISSEN
  6
CONTINUOUS
 62
     7
 10
364.5
 20
324.0
 30
0.0
 11
367.0
 21
324.0
 31
0.0
  0
LINE
  8
L-ZISSEN
  6
CONTINUOUS
 62
     7
 10
364.5
 20
296.0
 30
0.0
 11
367.0
 21
296.0
 31
0.0
  0
SOLID
  8
L-ZISSEN
  6
CONTINUOUS
 62
     7
 10
408.403826
 20
311.250336
 30
0.0
 11
408.084591
 21
310.665072
 31
0.0
 12
410.0
 22
310.0
 32
0.0
 13
410.0
 23
310.0
 33
0.0
  0
LINE
  8
L-ZISSEN
  6
CONTINUOUS
 62
     7
 10
408.244209
 20
310.957704
 30
0.0
 11
355.0
 21
340.0
 31
0.0
  0
LINE
  8
L-ZISSEN
  6
CONTINUOUS
 62
     7
 10
355.0
 20
340.0
 30
0.0
 11
353.0
 21
340.0
 31
0.0
  0
TEXT
  8
L-ZISSEN
  6
CONTINUOUS
 62
     7
 10
342.0
 20
337.75
 30
0.0
 40
4.5
  1
P.P
  0
LINE
  8
L-ZISSEN
  6
CONTINUOUS
 62
     7
 10
397.5501
 20
359.0
 30
0.0
 11
364.5
 21
359.0
 31
0.0
  0
LINE
  8
L-TYUSIN
  6
CENTER
 62
     1
 10
425.0
 20
356.4
 30
0.0
 11
425.0
 21
339.6
 31
0.0
  0
LINE
  8
L-TYUSIN
  6
CENTER
 62
     1
 10
440.0
 20
356.4
 30
0.0
 11
440.0
 21
339.6
 31
0.0
  0
LINE
  8
L-TYUSIN
  6
CENTER
 62
     1
 10
416.6
 20
348.0
 30
0.0
 11
448.4
 21
348.0
 31
0.0
  0
ARC
  8
L-ZISSEN
  6
CONTINUOUS
 62
     7
 10
440.0
 20
348.0
 30
0.0
 40
3.4
 50
270.0
 51
90.0
  0
LINE
  8
L-ZISSEN
  6
CONTINUOUS
 62
     7
 10
425.0
 20
351.4
 30
0.0
 11
440.0
 21
351.4
 31
0.0
  0
LINE
  8
L-ZISSEN
  6
CONTINUOUS
 62
     7
 10
440.0
 20
344.6
 30
0.0
 11
427.5
 21
344.6
 31
0.0
  0
ARC
  8
L-ZISSEN
  6
CONTINUOUS
 62
     7
 10
425.0
 20
348.0
 30
0.0
 40
3.4
 50
90.0
 51
131.434599
  0
ARC
  8
L-ZISSEN
  6
CONTINUOUS
 62
     7
 10
425.0
 20
348.0
 30
0.0
 40
3.4
 50
228.565401
 51
250.250077
  0
ARC
  8
L-ZISSEN
  6
CONTINUOUS
 62
     7
 10
395.0
 20
348.0
 30
0.0
 40
3.4
 50
289.749923
 51
311.434599
  0
ARC
  8
L-ZISSEN
  6
CONTINUOUS
 62
     7
 10
395.0
 20
348.0
 30
0.0
 40
3.4
 50
48.565401
 51
90.0
  0
LINE
  8
L-ZISSEN
  6
CONTINUOUS
 62
     7
 10
380.0
 20
344.6
 30
0.0
 11
392.5
 21
344.6
 31
0.0
  0
LINE
  8
L-ZISSEN
  6
CONTINUOUS
 62
     7
 10
395.0
 20
351.4
 30
0.0
 11
380.0
 21
351.4
 31
0.0
  0
ARC
  8
L-ZISSEN
  6
CONTINUOUS
 62
     7
 10
380.0
 20
348.0
 30
0.0
 40
3.4
 50
90.0
 51
270.0
  0
LINE
  8
L-TYUSIN
  6
CENTER
 62
     1
 10
380.0
 20
356.4
 30
0.0
 11
380.0
 21
339.6
 31
0.0
  0
LINE
  8
L-TYUSIN
  6
CENTER
 62
     1
 10
395.0
 20
356.4
 30
0.0
 11
395.0
 21
339.6
 31
0.0
  0
LINE
  8
L-TYUSIN
  6
CENTER
 62
     1
 10
403.4
 20
348.0
 30
0.0
 11
371.6
 21
348.0
 31
0.0
  0
LINE
  8
L-TYUSIN
  6
CENTER
 62
     1
 10
565.0
 20
348.0
 30
0.0
 11
575.0
 21
348.0
 31
0.0
  0
LINE
  8
L-ZISSEN
  6
CONTINUOUS
 62
     7
 10
455.5
 20
386.0
 30
0.0
 11
455.5
 21
460.0
 31
0.0
  0
LINE
  8
L-ZISSEN
  6
CONTINUOUS
 62
     7
 10
455.5
 20
460.0
 30
0.0
 11
364.5
 21
460.0
 31
0.0
  0
LINE
  8
L-ZISSEN
  6
CONTINUOUS
 62
     7
 10
453.0
 20
415.0
 30
0.0
 11
453.0
 21
457.5
 31
0.0
  0
LINE
  8
L-ZISSEN
  6
CONTINUOUS
 62
     7
 10
455.5
 20
386.0
 30
0.0
 11
453.0
 21
386.0
 31
0.0
  0
LINE
  8
L-ZISSEN
  6
CONTINUOUS
 62
     7
 10
453.0
 20
457.5
 30
0.0
 11
367.0
 21
457.5
 31
0.0
  0
LINE
  8
L-ZISSEN
  6
CONTINUOUS
 62
     7
 10
455.5
 20
452.497423
 30
0.0
 11
453.0
 21
452.497423
 31
0.0
  0
LINE
  8
L-ZISSEN
  6
CONTINUOUS
 62
     7
 10
455.5
 20
443.119201
 30
0.0
 11
453.0
 21
443.119201
 31
0.0
  0
LINE
  8
L-ZISSEN
  6
CONTINUOUS
 62
     7
 10
364.5
 20
443.119201
 30
0.0
 11
367.0
 21
443.119201
 31
0.0
  0
LINE
  8
L-ZISSEN
  6
CONTINUOUS
 62
     7
 10
364.5
 20
452.497423
 30
0.0
 11
367.0
 21
452.497423
 31
0.0
  0
LINE
  8
L-ZISSEN
  6
CONTINUOUS
 62
     7
 10
367.0
 20
415.0
 30
0.0
 11
367.0
 21
457.5
 31
0.0
  0
LINE
  8
L-ZISSEN
  6
CONTINUOUS
 62
     7
 10
364.5
 20
386.0
 30
0.0
 11
367.0
 21
386.0
 31
0.0
  0
LINE
  8
L-ZISSEN
  6
CONTINUOUS
 62
     7
 10
364.5
 20
386.0
 30
0.0
 11
364.5
 21
460.0
 31
0.0
  0
LINE
  8
L-TYUSIN
  6
CENTER
 62
     1
 10
432.5
 20
452.5
 30
0.0
 11
432.5
 21
465.0
 31
0.0
  0
LINE
  8
L-TYUSIN
  6
CENTER
 62
     1
 10
387.5
 20
452.5
 30
0.0
 11
387.5
 21
465.0
 31
0.0
  0
SOLID
  8
L-ZISSEN
  6
CONTINUOUS
 62
     7
 10
408.533333
 20
398.6
 30
0.0
 11
409.066667
 21
398.2
 31
0.0
 12
410.0
 22
400.0
 32
0.0
 13
410.0
 23
400.0
 33
0.0
  0
LINE
  8
L-ZISSEN
  6
CONTINUOUS
 62
     7
 10
408.8
 20
398.4
 30
0.0
 11
395.0
 21
380.0
 31
0.0
  0
LINE
  8
L-ZISSEN
  6
CONTINUOUS
 62
     7
 10
395.0
 20
380.0
 30
0.0
 11
393.0
 21
380.0
 31
0.0
  0
TEXT
  8
L-ZISSEN
  6
CONTINUOUS
 62
     7
 10
382.0
 20
377.75
 30
0.0
 40
4.5
  1
P.P
  0
TEXT
  8
L-ZISSEN
  6
CONTINUOUS
 62
     7
 10
355.0
 20
475.0
 30
0.0
 40
4.5
  1
MODEL No. : NOL-50*B
  0
TEXT
  8
L-ZISSEN
  6
CONTINUOUS
 62
     7
 10
355.0
 20
485.0
 30
0.0
 40
4.5
  1
BRACKET
  0
LINE
  8
L-ZISSEN
  6
CONTINUOUS
 62
     7
 10
817.0
 20
422.0
 30
0.0
 11
817.0
 21
417.5
 31
0.0
  0
LINE
  8
L-ZISSEN
  6
CONTINUOUS
 62
     7
 10
811.0
 20
422.0
 30
0.0
 11
811.0
 21
417.5
 31
0.0
  0
LINE
  8
L-ZISSEN
  6
CONTINUOUS
 62
     7
 10
793.0
 20
422.0
 30
0.0
 11
793.0
 21
417.5
 31
0.0
  0
LINE
  8
L-ZISSEN
  6
CONTINUOUS
 62
     7
 10
799.0
 20
422.0
 30
0.0
 11
799.0
 21
417.5
 31
0.0
  0
LINE
  8
L-ZISSEN
  6
CONTINUOUS
 62
     7
 10
741.0
 20
422.0
 30
0.0
 11
741.0
 21
417.5
 31
0.0
  0
LINE
  8
L-ZISSEN
  6
CONTINUOUS
 62
     7
 10
747.0
 20
422.0
 30
0.0
 11
747.0
 21
417.5
 31
0.0
  0
LINE
  8
L-ZISSEN
  6
CONTINUOUS
 62
     7
 10
729.0
 20
422.0
 30
0.0
 11
729.0
 21
417.5
 31
0.0
  0
LINE
  8
L-ZISSEN
  6
CONTINUOUS
 62
     7
 10
723.0
 20
422.0
 30
0.0
 11
723.0
 21
417.5
 31
0.0
  0
LINE
  8
L-ZISSEN
  6
CONTINUOUS
 62
     7
 10
808.8
 20
422.0
 30
0.0
 11
808.8
 21
417.5
 31
0.0
  0
LINE
  8
L-ZISSEN
  6
CONTINUOUS
 62
     7
 10
731.2
 20
422.0
 30
0.0
 11
731.2
 21
417.5
 31
0.0
  0
LINE
  8
L-ZISSEN
  6
CONTINUOUS
 62
     7
 10
820.0
 20
417.5
 30
0.0
 11
820.0
 21
405.5
 31
0.0
  0
LINE
  8
L-ZISSEN
  6
CONTINUOUS
 62
     7
 10
720.0
 20
417.5
 30
0.0
 11
720.0
 21
405.5
 31
0.0
  0
LINE
  8
L-ZISSEN
  6
CONTINUOUS
 62
     7
 10
720.0
 20
417.5
 30
0.0
 11
820.0
 21
417.5
 31
0.0
  0
LINE
  8
L-ZISSEN
  6
CONTINUOUS
 62
     7
 10
720.0
 20
405.5
 30
0.0
 11
820.0
 21
405.5
 31
0.0
  0
LINE
  8
L-ZISSEN
  6
CONTINUOUS
 62
     7
 10
664.25
 20
291.2
 30
0.0
 11
664.25
 21
292.2
 31
0.0
  0
LINE
  8
L-ZISSEN
  6
CONTINUOUS
 62
     7
 10
655.75
 20
291.2
 30
0.0
 11
655.75
 21
292.2
 31
0.0
  0
LINE
  8
L-ZISSEN
  6
CONTINUOUS
 62
     7
 10
655.75
 20
291.2
 30
0.0
 11
664.25
 21
291.2
 31
0.0
  0
LINE
  8
L-ZISSEN
  6
CONTINUOUS
 62
     7
 10
668.25
 20
292.2
 30
0.0
 11
671.25
 21
295.2
 31
0.0
  0
LINE
  8
L-ZISSEN
  6
CONTINUOUS
 62
     7
 10
651.75
 20
292.2
 30
0.0
 11
648.75
 21
295.2
 31
0.0
  0
LINE
  8
L-ZISSEN
  6
CONTINUOUS
 62
     7
 10
672.0
 20
310.2
 30
0.0
 11
672.0
 21
305.2
 31
0.0
  0
LINE
  8
L-ZISSEN
  6
CONTINUOUS
 62
     7
 10
648.0
 20
310.2
 30
0.0
 11
648.0
 21
305.2
 31
0.0
  0
LINE
  8
L-ZISSEN
  6
CONTINUOUS
 62
     7
 10
648.0
 20
295.2
 30
0.0
 11
672.0
 21
295.2
 31
0.0
  0
LINE
  8
L-ZISSEN
  6
CONTINUOUS
 62
     7
 10
651.75
 20
292.2
 30
0.0
 11
668.25
 21
292.2
 31
0.0
  0
LINE
  8
L-ZISSEN
  6
CONTINUOUS
 62
     7
 10
648.0
 20
301.2
 30
0.0
 11
672.0
 21
301.2
 31
0.0
  0
LINE
  8
L-ZISSEN
  6
CONTINUOUS
 62
     7
 10
698.8
 20
422.0
 30
0.0
 11
698.8
 21
417.5
 31
0.0
  0
LINE
  8
L-ZISSEN
  6
CONTINUOUS
 62
     7
 10
621.2
 20
422.0
 30
0.0
 11
621.2
 21
417.5
 31
0.0
  0
LINE
  8
L-ZISSEN
  6
CONTINUOUS
 62
     7
 10
623.0
 20
422.0
 30
0.0
 11
623.0
 21
417.5
 31
0.0
  0
LINE
  8
L-ZISSEN
  6
CONTINUOUS
 62
     7
 10
629.0
 20
422.0
 30
0.0
 11
629.0
 21
417.5
 31
0.0
  0
LINE
  8
L-ZISSEN
  6
CONTINUOUS
 62
     7
 10
663.0
 20
422.0
 30
0.0
 11
663.0
 21
417.5
 31
0.0
  0
LINE
  8
L-ZISSEN
  6
CONTINUOUS
 62
     7
 10
657.0
 20
422.0
 30
0.0
 11
657.0
 21
417.5
 31
0.0
  0
LINE
  8
L-ZISSEN
  6
CONTINUOUS
 62
     7
 10
697.0
 20
422.0
 30
0.0
 11
697.0
 21
417.5
 31
0.0
  0
LINE
  8
L-ZISSEN
  6
CONTINUOUS
 62
     7
 10
691.0
 20
422.0
 30
0.0
 11
691.0
 21
417.5
 31
0.0
  0
LINE
  8
L-ZISSEN
  6
CONTINUOUS
 62
     7
 10
618.0
 20
417.5
 30
0.0
 11
618.0
 21
405.5
 31
0.0
  0
LINE
  8
L-ZISSEN
  6
CONTINUOUS
 62
     7
 10
702.0
 20
417.5
 30
0.0
 11
702.0
 21
405.5
 31
0.0
  0
LINE
  8
L-ZISSEN
  6
CONTINUOUS
 62
     7
 10
618.0
 20
405.5
 30
0.0
 11
702.0
 21
405.5
 31
0.0
  0
LINE
  8
L-ZISSEN
  6
CONTINUOUS
 62
     7
 10
618.0
 20
417.5
 30
0.0
 11
702.0
 21
417.5
 31
0.0
  0
LINE
  8
L-ZISSEN
  6
CONTINUOUS
 62
     7
 10
672.0
 20
310.2
 30
0.0
 11
648.0
 21
310.2
 31
0.0
  0
LINE
  8
L-ZISSEN
  6
CONTINUOUS
 62
     7
 10
693.0
 20
343.0
 30
0.0
 11
693.0
 21
405.5
 31
0.0
  0
ARC
  8
L-ZISSEN
  6
CONTINUOUS
 62
     7
 10
660.0
 20
342.152113
 30
0.0
 40
33.0
 50
284.477512
 51
1.472294
  0
ARC
  8
L-ZISSEN
  6
CONTINUOUS
 62
     7
 10
660.0
 20
342.152113
 30
0.0
 40
33.0
 50
178.527706
 51
255.522488
  0
LINE
  8
L-ZISSEN
  6
CONTINUOUS
 62
     7
 10
627.0
 20
343.0
 30
0.0
 11
627.0
 21
405.5
 31
0.0
  0
LINE
  8
L-ZISSEN
  6
CONTINUOUS
 62
     7
 10
737.0
 20
343.0
 30
0.0
 11
737.0
 21
405.5
 31
0.0
  0
ARC
  8
L-ZISSEN
  6
CONTINUOUS
 62
     7
 10
770.0
 20
342.152113
 30
0.0
 40
33.0
 50
178.527706
 51
255.522488
  0
ARC
  8
L-ZISSEN
  6
CONTINUOUS
 62
     7
 10
770.0
 20
342.152113
 30
0.0
 40
33.0
 50
284.477512
 51
1.472294
  0
LINE
  8
L-ZISSEN
  6
CONTINUOUS
 62
     7
 10
803.0
 20
343.0
 30
0.0
 11
803.0
 21
405.5
 31
0.0
  0
LINE
  8
L-ZISSEN
  6
CONTINUOUS
 62
     7
 10
672.0
 20
305.2
 30
0.0
 11
648.0
 21
305.2
 31
0.0
  0
LINE
  8
L-ZISSEN
  6
CONTINUOUS
 62
     7
 10
672.0
 20
301.2
 30
0.0
 11
672.0
 21
295.2
 31
0.0
  0
LINE
  8
L-ZISSEN
  6
CONTINUOUS
 62
     7
 10
648.0
 20
301.2
 30
0.0
 11
648.0
 21
295.2
 31
0.0
  0
LINE
  8
L-ZISSEN
  6
CONTINUOUS
 62
     7
 10
652.0
 20
305.2
 30
0.0
 11
652.0
 21
301.2
 31
0.0
  0
LINE
  8
L-ZISSEN
  6
CONTINUOUS
 62
     7
 10
668.0
 20
305.2
 30
0.0
 11
668.0
 21
301.2
 31
0.0
  0
LINE
  8
L-ZISSEN
  6
CONTINUOUS
 62
     7
 10
778.0
 20
305.2
 30
0.0
 11
778.0
 21
301.2
 31
0.0
  0
LINE
  8
L-ZISSEN
  6
CONTINUOUS
 62
     7
 10
762.0
 20
305.2
 30
0.0
 11
762.0
 21
301.2
 31
0.0
  0
LINE
  8
L-ZISSEN
  6
CONTINUOUS
 62
     7
 10
758.0
 20
301.2
 30
0.0
 11
758.0
 21
295.2
 31
0.0
  0
LINE
  8
L-ZISSEN
  6
CONTINUOUS
 62
     7
 10
782.0
 20
301.2
 30
0.0
 11
782.0
 21
295.2
 31
0.0
  0
LINE
  8
L-ZISSEN
  6
CONTINUOUS
 62
     7
 10
782.0
 20
305.2
 30
0.0
 11
758.0
 21
305.2
 31
0.0
  0
LINE
  8
L-ZISSEN
  6
CONTINUOUS
 62
     7
 10
782.0
 20
310.2
 30
0.0
 11
758.0
 21
310.2
 31
0.0
  0
LINE
  8
L-ZISSEN
  6
CONTINUOUS
 62
     7
 10
758.0
 20
301.2
 30
0.0
 11
782.0
 21
301.2
 31
0.0
  0
LINE
  8
L-ZISSEN
  6
CONTINUOUS
 62
     7
 10
761.75
 20
292.2
 30
0.0
 11
778.25
 21
292.2
 31
0.0
  0
LINE
  8
L-ZISSEN
  6
CONTINUOUS
 62
     7
 10
758.0
 20
295.2
 30
0.0
 11
782.0
 21
295.2
 31
0.0
  0
LINE
  8
L-ZISSEN
  6
CONTINUOUS
 62
     7
 10
758.0
 20
310.2
 30
0.0
 11
758.0
 21
305.2
 31
0.0
  0
LINE
  8
L-ZISSEN
  6
CONTINUOUS
 62
     7
 10
782.0
 20
310.2
 30
0.0
 11
782.0
 21
305.2
 31
0.0
  0
LINE
  8
L-ZISSEN
  6
CONTINUOUS
 62
     7
 10
761.75
 20
292.2
 30
0.0
 11
758.75
 21
295.2
 31
0.0
  0
LINE
  8
L-ZISSEN
  6
CONTINUOUS
 62
     7
 10
778.25
 20
292.2
 30
0.0
 11
781.25
 21
295.2
 31
0.0
  0
LINE
  8
L-ZISSEN
  6
CONTINUOUS
 62
     7
 10
127.0
 20
61.0
 30
0.0
 11
103.0
 21
61.0
 31
0.0
  0
SOLID
  8
L-ZISSEN
  6
CONTINUOUS
 62
     7
 10
658.520799
 20
441.38675
 30
0.0
 11
658.150999
 21
440.83205
 31
0.0
 12
660.0
 22
440.0
 32
0.0
 13
660.0
 23
440.0
 33
0.0
  0
LINE
  8
L-ZISSEN
  6
CONTINUOUS
 62
     7
 10
658.335899
 20
441.1094
 30
0.0
 11
645.0
 21
450.0
 31
0.0
  0
LINE
  8
L-ZISSEN
  6
CONTINUOUS
 62
     7
 10
645.0
 20
450.0
 30
0.0
 11
643.0
 21
450.0
 31
0.0
  0
TEXT
  8
L-ZISSEN
  6
CONTINUOUS
 62
     7
 10
632.0
 20
447.75
 30
0.0
 40
4.5
  1
P.P
  0
SOLID
  8
L-ZISSEN
  6
CONTINUOUS
 62
     7
 10
768.520799
 20
441.38675
 30
0.0
 11
768.150999
 21
440.83205
 31
0.0
 12
770.0
 22
440.0
 32
0.0
 13
770.0
 23
440.0
 33
0.0
  0
LINE
  8
L-ZISSEN
  6
CONTINUOUS
 62
     7
 10
768.335899
 20
441.1094
 30
0.0
 11
755.0
 21
450.0
 31
0.0
  0
LINE
  8
L-ZISSEN
  6
CONTINUOUS
 62
     7
 10
755.0
 20
450.0
 30
0.0
 11
753.0
 21
450.0
 31
0.0
  0
TEXT
  8
L-ZISSEN
  6
CONTINUOUS
 62
     7
 10
742.0
 20
447.75
 30
0.0
 40
4.5
  1
P.P
  0
LINE
  8
L-TYUSIN
  6
CENTER
 62
     1
 10
330.0
 20
500.0
 30
0.0
 11
330.0
 21
10.0
 31
0.0
  0
LINE
  8
L-TYUSIN
  6
CENTER
 62
     1
 10
590.0
 20
500.0
 30
0.0
 11
590.0
 21
10.0
 31
0.0
  0
TEXT
  8
L-ZISSEN
  6
CONTINUOUS
 62
     7
 10
615.0
 20
480.0
 30
0.0
 40
4.5
  1
SUPER BOWL
  0
TEXT
  8
L-ZISSEN
  6
CONTINUOUS
 62
     7
 10
615.0
 20
470.0
 30
0.0
 40
4.5
  1
MODEL No. : NOL-50*S
  0
LINE
  8
L-ZISSEN
  6
CONTINUOUS
 62
     7
 10
572.0
 20
182.0
 30
0.0
 11
572.0
 21
178.0
 31
0.0
  0
LINE
  8
L-ZISSEN
  6
CONTINUOUS
 62
     7
 10
566.0
 20
182.0
 30
0.0
 11
566.0
 21
178.0
 31
0.0
  0
LINE
  8
L-ZISSEN
  6
CONTINUOUS
 62
     7
 10
548.0
 20
182.0
 30
0.0
 11
548.0
 21
178.0
 31
0.0
  0
LINE
  8
L-ZISSEN
  6
CONTINUOUS
 62
     7
 10
554.0
 20
182.0
 30
0.0
 11
554.0
 21
178.0
 31
0.0
  0
LINE
  8
L-ZISSEN
  6
CONTINUOUS
 62
     7
 10
496.0
 20
182.0
 30
0.0
 11
496.0
 21
178.0
 31
0.0
  0
LINE
  8
L-ZISSEN
  6
CONTINUOUS
 62
     7
 10
502.0
 20
182.0
 30
0.0
 11
502.0
 21
178.0
 31
0.0
  0
LINE
  8
L-ZISSEN
  6
CONTINUOUS
 62
     7
 10
484.0
 20
182.0
 30
0.0
 11
484.0
 21
178.0
 31
0.0
  0
LINE
  8
L-ZISSEN
  6
CONTINUOUS
 62
     7
 10
478.0
 20
182.0
 30
0.0
 11
478.0
 21
178.0
 31
0.0
  0
LINE
  8
L-ZISSEN
  6
CONTINUOUS
 62
     7
 10
563.8
 20
182.0
 30
0.0
 11
563.8
 21
178.0
 31
0.0
  0
LINE
  8
L-ZISSEN
  6
CONTINUOUS
 62
     7
 10
486.2
 20
182.0
 30
0.0
 11
486.2
 21
178.0
 31
0.0
  0
LINE
  8
L-ZISSEN
  6
CONTINUOUS
 62
     7
 10
575.0
 20
178.0
 30
0.0
 11
575.0
 21
166.0
 31
0.0
  0
LINE
  8
L-ZISSEN
  6
CONTINUOUS
 62
     7
 10
475.0
 20
178.0
 30
0.0
 11
475.0
 21
166.0
 31
0.0
  0
LINE
  8
L-ZISSEN
  6
CONTINUOUS
 62
     7
 10
475.0
 20
178.0
 30
0.0
 11
575.0
 21
178.0
 31
0.0
  0
LINE
  8
L-ZISSEN
  6
CONTINUOUS
 62
     7
 10
475.0
 20
166.0
 30
0.0
 11
575.0
 21
166.0
 31
0.0
  0
LINE
  8
L-ZISSEN
  6
CONTINUOUS
 62
     7
 10
358.0
 20
182.0
 30
0.0
 11
358.0
 21
178.0
 31
0.0
  0
LINE
  8
L-ZISSEN
  6
CONTINUOUS
 62
     7
 10
364.0
 20
182.0
 30
0.0
 11
364.0
 21
178.0
 31
0.0
  0
LINE
  8
L-ZISSEN
  6
CONTINUOUS
 62
     7
 10
398.0
 20
182.0
 30
0.0
 11
398.0
 21
178.0
 31
0.0
  0
LINE
  8
L-ZISSEN
  6
CONTINUOUS
 62
     7
 10
392.0
 20
182.0
 30
0.0
 11
392.0
 21
178.0
 31
0.0
  0
LINE
  8
L-ZISSEN
  6
CONTINUOUS
 62
     7
 10
432.0
 20
182.0
 30
0.0
 11
432.0
 21
178.0
 31
0.0
  0
LINE
  8
L-ZISSEN
  6
CONTINUOUS
 62
     7
 10
426.0
 20
182.0
 30
0.0
 11
426.0
 21
178.0
 31
0.0
  0
LINE
  8
L-ZISSEN
  6
CONTINUOUS
 62
     7
 10
353.0
 20
178.0
 30
0.0
 11
353.0
 21
166.0
 31
0.0
  0
LINE
  8
L-ZISSEN
  6
CONTINUOUS
 62
     7
 10
437.0
 20
178.0
 30
0.0
 11
437.0
 21
166.0
 31
0.0
  0
LINE
  8
L-ZISSEN
  6
CONTINUOUS
 62
     7
 10
353.0
 20
166.0
 30
0.0
 11
437.0
 21
166.0
 31
0.0
  0
LINE
  8
L-ZISSEN
  6
CONTINUOUS
 62
     7
 10
353.0
 20
178.0
 30
0.0
 11
437.0
 21
178.0
 31
0.0
  0
LINE
  8
L-ZISSEN
  6
CONTINUOUS
 62
     7
 10
407.5
 20
69.5
 30
0.0
 11
382.5
 21
69.5
 31
0.0
  0
LINE
  8
L-ZISSEN
  6
CONTINUOUS
 62
     7
 10
356.2
 20
182.0
 30
0.0
 11
356.2
 21
178.0
 31
0.0
  0
LINE
  8
L-ZISSEN
  6
CONTINUOUS
 62
     7
 10
433.8
 20
182.0
 30
0.0
 11
433.8
 21
178.0
 31
0.0
  0
LINE
  8
L-ZISSEN
  6
CONTINUOUS
 62
     7
 10
362.0
 20
166.0
 30
0.0
 11
362.0
 21
74.992958
 31
0.0
  0
LINE
  8
L-ZISSEN
  6
CONTINUOUS
 62
     7
 10
428.0
 20
166.0
 30
0.0
 11
428.0
 21
74.992958
 31
0.0
  0
LINE
  8
L-ZISSEN
  6
CONTINUOUS
 62
     7
 10
407.5
 20
69.5
 30
0.0
 11
428.0
 21
74.992958
 31
0.0
  0
LINE
  8
L-ZISSEN
  6
CONTINUOUS
 62
     7
 10
382.5
 20
69.5
 30
0.0
 11
362.0
 21
74.992958
 31
0.0
  0
LINE
  8
L-ZISSEN
  6
CONTINUOUS
 62
     7
 10
362.0
 20
74.992958
 30
0.0
 11
428.0
 21
74.992958
 31
0.0
  0
LINE
  8
L-ZISSEN
  6
CONTINUOUS
 62
     7
 10
558.0
 20
166.0
 30
0.0
 11
558.0
 21
74.992958
 31
0.0
  0
LINE
  8
L-ZISSEN
  6
CONTINUOUS
 62
     7
 10
492.0
 20
166.0
 30
0.0
 11
492.0
 21
74.992958
 31
0.0
  0
LINE
  8
L-ZISSEN
  6
CONTINUOUS
 62
     7
 10
492.0
 20
74.992958
 30
0.0
 11
558.0
 21
74.992958
 31
0.0
  0
LINE
  8
L-ZISSEN
  6
CONTINUOUS
 62
     7
 10
512.5
 20
69.5
 30
0.0
 11
492.0
 21
74.992958
 31
0.0
  0
LINE
  8
L-ZISSEN
  6
CONTINUOUS
 62
     7
 10
537.5
 20
69.5
 30
0.0
 11
512.5
 21
69.5
 31
0.0
  0
LINE
  8
L-ZISSEN
  6
CONTINUOUS
 62
     7
 10
537.5
 20
69.5
 30
0.0
 11
558.0
 21
74.992958
 31
0.0
  0
LINE
  8
L-ZISSEN
  6
CONTINUOUS
 62
     7
 10
405.0
 20
164.5
 30
0.0
 11
385.0
 21
164.5
 31
0.0
  0
LINE
  8
L-ZISSEN
  6
CONTINUOUS
 62
     7
 10
385.0
 20
164.5
 30
0.0
 11
385.0
 21
82.5
 31
0.0
  0
LINE
  8
L-ZISSEN
  6
CONTINUOUS
 62
     7
 10
405.0
 20
164.5
 30
0.0
 11
405.0
 21
82.5
 31
0.0
  0
LINE
  8
L-ZISSEN
  6
CONTINUOUS
 62
     7
 10
478.0
 20
164.5
 30
0.0
 11
492.0
 21
164.5
 31
0.0
  0
LINE
  8
L-ZISSEN
  6
CONTINUOUS
 62
     7
 10
405.0
 20
82.5
 30
0.0
 11
385.0
 21
82.5
 31
0.0
  0
LINE
  8
L-ZISSEN
  6
CONTINUOUS
 62
     7
 10
478.0
 20
82.5
 30
0.0
 11
492.0
 21
82.5
 31
0.0
  0
LINE
  8
L-ZISSEN
  6
CONTINUOUS
 62
     7
 10
478.0
 20
164.5
 30
0.0
 11
478.0
 21
82.5
 31
0.0
  0
SOLID
  8
L-ZISSEN
  6
CONTINUOUS
 62
     7
 10
393.821489
 20
201.649916
 30
0.0
 11
393.350084
 21
201.178511
 31
0.0
 12
395.0
 22
200.0
 32
0.0
 13
395.0
 23
200.0
 33
0.0
  0
LINE
  8
L-ZISSEN
  6
CONTINUOUS
 62
     7
 10
393.585786
 20
201.414214
 30
0.0
 11
380.0
 21
215.0
 31
0.0
  0
LINE
  8
L-ZISSEN
  6
CONTINUOUS
 62
     7
 10
380.0
 20
215.0
 30
0.0
 11
378.0
 21
215.0
 31
0.0
  0
TEXT
  8
L-ZISSEN
  6
CONTINUOUS
 62
     7
 10
367.0
 20
212.75
 30
0.0
 40
4.5
  1
P.P
  0
SOLID
  8
L-ZISSEN
  6
CONTINUOUS
 62
     7
 10
523.821489
 20
201.649916
 30
0.0
 11
523.350084
 21
201.178511
 31
0.0
 12
525.0
 22
200.0
 32
0.0
 13
525.0
 23
200.0
 33
0.0
  0
LINE
  8
L-ZISSEN
  6
CONTINUOUS
 62
     7
 10
523.585786
 20
201.414214
 30
0.0
 11
510.0
 21
215.0
 31
0.0
  0
LINE
  8
L-ZISSEN
  6
CONTINUOUS
 62
     7
 10
510.0
 20
215.0
 30
0.0
 11
508.0
 21
215.0
 31
0.0
  0
TEXT
  8
L-ZISSEN
  6
CONTINUOUS
 62
     7
 10
497.0
 20
212.75
 30
0.0
 40
4.5
  1
P.P
  0
TEXT
  8
L-ZISSEN
  6
CONTINUOUS
 62
     7
 10
762.0
 20
212.75
 30
0.0
 40
4.5
  1
P.P
  0
LINE
  8
L-ZISSEN
  6
CONTINUOUS
 62
     7
 10
775.0
 20
215.0
 30
0.0
 11
773.0
 21
215.0
 31
0.0
  0
LINE
  8
L-ZISSEN
  6
CONTINUOUS
 62
     7
 10
788.585786
 20
201.414214
 30
0.0
 11
775.0
 21
215.0
 31
0.0
  0
SOLID
  8
L-ZISSEN
  6
CONTINUOUS
 62
     7
 10
788.821489
 20
201.649916
 30
0.0
 11
788.350084
 21
201.178511
 31
0.0
 12
790.0
 22
200.0
 32
0.0
 13
790.0
 23
200.0
 33
0.0
  0
TEXT
  8
L-ZISSEN
  6
CONTINUOUS
 62
     7
 10
632.0
 20
212.75
 30
0.0
 40
4.5
  1
P.P
  0
LINE
  8
L-ZISSEN
  6
CONTINUOUS
 62
     7
 10
645.0
 20
215.0
 30
0.0
 11
643.0
 21
215.0
 31
0.0
  0
LINE
  8
L-ZISSEN
  6
CONTINUOUS
 62
     7
 10
658.585786
 20
201.414214
 30
0.0
 11
645.0
 21
215.0
 31
0.0
  0
SOLID
  8
L-ZISSEN
  6
CONTINUOUS
 62
     7
 10
658.821489
 20
201.649916
 30
0.0
 11
658.350084
 21
201.178511
 31
0.0
 12
660.0
 22
200.0
 32
0.0
 13
660.0
 23
200.0
 33
0.0
  0
LINE
  8
L-ZISSEN
  6
CONTINUOUS
 62
     7
 10
732.0
 20
164.5
 30
0.0
 11
757.0
 21
164.5
 31
0.0
  0
LINE
  8
L-ZISSEN
  6
CONTINUOUS
 62
     7
 10
802.5
 20
69.5
 30
0.0
 11
823.0
 21
74.992958
 31
0.0
  0
LINE
  8
L-ZISSEN
  6
CONTINUOUS
 62
     7
 10
802.5
 20
69.5
 30
0.0
 11
777.5
 21
69.5
 31
0.0
  0
LINE
  8
L-ZISSEN
  6
CONTINUOUS
 62
     7
 10
777.5
 20
69.5
 30
0.0
 11
757.0
 21
74.992958
 31
0.0
  0
LINE
  8
L-ZISSEN
  6
CONTINUOUS
 62
     7
 10
757.0
 20
74.992958
 30
0.0
 11
823.0
 21
74.992958
 31
0.0
  0
LINE
  8
L-ZISSEN
  6
CONTINUOUS
 62
     7
 10
757.0
 20
166.0
 30
0.0
 11
757.0
 21
72.5
 31
0.0
  0
LINE
  8
L-ZISSEN
  6
CONTINUOUS
 62
     7
 10
823.0
 20
166.0
 30
0.0
 11
823.0
 21
74.992958
 31
0.0
  0
LINE
  8
L-ZISSEN
  6
CONTINUOUS
 62
     7
 10
627.0
 20
74.992958
 30
0.0
 11
650.0
 21
74.992958
 31
0.0
  0
LINE
  8
L-ZISSEN
  6
CONTINUOUS
 62
     7
 10
647.5
 20
69.5
 30
0.0
 11
627.0
 21
74.992958
 31
0.0
  0
LINE
  8
L-ZISSEN
  6
CONTINUOUS
 62
     7
 10
672.5
 20
69.5
 30
0.0
 11
693.0
 21
74.992958
 31
0.0
  0
LINE
  8
L-ZISSEN
  6
CONTINUOUS
 62
     7
 10
693.0
 20
166.0
 30
0.0
 11
693.0
 21
74.992958
 31
0.0
  0
LINE
  8
L-ZISSEN
  6
CONTINUOUS
 62
     7
 10
627.0
 20
166.0
 30
0.0
 11
627.0
 21
74.992958
 31
0.0
  0
LINE
  8
L-ZISSEN
  6
CONTINUOUS
 62
     7
 10
698.8
 20
182.0
 30
0.0
 11
698.8
 21
178.0
 31
0.0
  0
LINE
  8
L-ZISSEN
  6
CONTINUOUS
 62
     7
 10
621.2
 20
182.0
 30
0.0
 11
621.2
 21
178.0
 31
0.0
  0
LINE
  8
L-ZISSEN
  6
CONTINUOUS
 62
     7
 10
672.5
 20
69.5
 30
0.0
 11
647.5
 21
69.5
 31
0.0
  0
LINE
  8
L-ZISSEN
  6
CONTINUOUS
 62
     7
 10
618.0
 20
178.0
 30
0.0
 11
702.0
 21
178.0
 31
0.0
  0
LINE
  8
L-ZISSEN
  6
CONTINUOUS
 62
     7
 10
618.0
 20
166.0
 30
0.0
 11
702.0
 21
166.0
 31
0.0
  0
LINE
  8
L-ZISSEN
  6
CONTINUOUS
 62
     7
 10
702.0
 20
178.0
 30
0.0
 11
702.0
 21
166.0
 31
0.0
  0
LINE
  8
L-ZISSEN
  6
CONTINUOUS
 62
     7
 10
618.0
 20
178.0
 30
0.0
 11
618.0
 21
166.0
 31
0.0
  0
LINE
  8
L-ZISSEN
  6
CONTINUOUS
 62
     7
 10
691.0
 20
182.0
 30
0.0
 11
691.0
 21
178.0
 31
0.0
  0
LINE
  8
L-ZISSEN
  6
CONTINUOUS
 62
     7
 10
697.0
 20
182.0
 30
0.0
 11
697.0
 21
178.0
 31
0.0
  0
LINE
  8
L-ZISSEN
  6
CONTINUOUS
 62
     7
 10
657.0
 20
182.0
 30
0.0
 11
657.0
 21
178.0
 31
0.0
  0
LINE
  8
L-ZISSEN
  6
CONTINUOUS
 62
     7
 10
663.0
 20
182.0
 30
0.0
 11
663.0
 21
178.0
 31
0.0
  0
LINE
  8
L-ZISSEN
  6
CONTINUOUS
 62
     7
 10
629.0
 20
182.0
 30
0.0
 11
629.0
 21
178.0
 31
0.0
  0
LINE
  8
L-ZISSEN
  6
CONTINUOUS
 62
     7
 10
623.0
 20
182.0
 30
0.0
 11
623.0
 21
178.0
 31
0.0
  0
LINE
  8
L-ZISSEN
  6
CONTINUOUS
 62
     7
 10
740.0
 20
166.0
 30
0.0
 11
840.0
 21
166.0
 31
0.0
  0
LINE
  8
L-ZISSEN
  6
CONTINUOUS
 62
     7
 10
740.0
 20
178.0
 30
0.0
 11
840.0
 21
178.0
 31
0.0
  0
LINE
  8
L-ZISSEN
  6
CONTINUOUS
 62
     7
 10
740.0
 20
178.0
 30
0.0
 11
740.0
 21
166.0
 31
0.0
  0
LINE
  8
L-ZISSEN
  6
CONTINUOUS
 62
     7
 10
840.0
 20
178.0
 30
0.0
 11
840.0
 21
166.0
 31
0.0
  0
LINE
  8
L-ZISSEN
  6
CONTINUOUS
 62
     7
 10
751.2
 20
182.0
 30
0.0
 11
751.2
 21
178.0
 31
0.0
  0
LINE
  8
L-ZISSEN
  6
CONTINUOUS
 62
     7
 10
828.8
 20
182.0
 30
0.0
 11
828.8
 21
178.0
 31
0.0
  0
LINE
  8
L-ZISSEN
  6
CONTINUOUS
 62
     7
 10
743.0
 20
182.0
 30
0.0
 11
743.0
 21
178.0
 31
0.0
  0
LINE
  8
L-ZISSEN
  6
CONTINUOUS
 62
     7
 10
749.0
 20
182.0
 30
0.0
 11
749.0
 21
178.0
 31
0.0
  0
LINE
  8
L-ZISSEN
  6
CONTINUOUS
 62
     7
 10
767.0
 20
182.0
 30
0.0
 11
767.0
 21
178.0
 31
0.0
  0
LINE
  8
L-ZISSEN
  6
CONTINUOUS
 62
     7
 10
761.0
 20
182.0
 30
0.0
 11
761.0
 21
178.0
 31
0.0
  0
LINE
  8
L-ZISSEN
  6
CONTINUOUS
 62
     7
 10
819.0
 20
182.0
 30
0.0
 11
819.0
 21
178.0
 31
0.0
  0
LINE
  8
L-ZISSEN
  6
CONTINUOUS
 62
     7
 10
813.0
 20
182.0
 30
0.0
 11
813.0
 21
178.0
 31
0.0
  0
LINE
  8
L-ZISSEN
  6
CONTINUOUS
 62
     7
 10
831.0
 20
182.0
 30
0.0
 11
831.0
 21
178.0
 31
0.0
  0
LINE
  8
L-ZISSEN
  6
CONTINUOUS
 62
     7
 10
837.0
 20
182.0
 30
0.0
 11
837.0
 21
178.0
 31
0.0
  0
LINE
  8
L-TYUSIN
  6
CENTER
 62
     1
 10
330.0
 20
260.0
 30
0.0
 11
845.0
 21
260.0
 31
0.0
  0
LINE
  8
L-ZISSEN
  6
CONTINUOUS
 62
     7
 10
732.0
 20
164.5
 30
0.0
 11
732.0
 21
149.5
 31
0.0
  0
LINE
  8
L-ZISSEN
  6
CONTINUOUS
 62
     7
 10
670.0
 20
72.5
 30
0.0
 11
650.0
 21
72.5
 31
0.0
  0
LINE
  8
L-ZISSEN
  6
CONTINUOUS
 62
     7
 10
650.0
 20
72.5
 30
0.0
 11
650.0
 21
164.5
 31
0.0
  0
LINE
  8
L-ZISSEN
  6
CONTINUOUS
 62
     7
 10
650.0
 20
164.5
 30
0.0
 11
670.0
 21
164.5
 31
0.0
  0
LINE
  8
L-ZISSEN
  6
CONTINUOUS
 62
     7
 10
670.0
 20
164.5
 30
0.0
 11
670.0
 21
72.5
 31
0.0
  0
LINE
  8
L-ZISSEN
  6
CONTINUOUS
 62
     7
 10
670.0
 20
74.992958
 30
0.0
 11
693.0
 21
74.992958
 31
0.0
  0
LINE
  8
L-ZISSEN
  6
CONTINUOUS
 62
     7
 10
650.0
 20
149.5
 30
0.0
 11
670.0
 21
149.5
 31
0.0
  0
LINE
  8
L-ZISSEN
  6
CONTINUOUS
 62
     7
 10
670.0
 20
98.5
 30
0.0
 11
650.0
 21
98.5
 31
0.0
  0
LINE
  8
L-ZISSEN
  6
CONTINUOUS
 62
     7
 10
664.0
 20
149.5
 30
0.0
 11
664.0
 21
98.5
 31
0.0
  0
LINE
  8
L-ZISSEN
  6
CONTINUOUS
 62
     7
 10
656.0
 20
149.5
 30
0.0
 11
656.0
 21
98.5
 31
0.0
  0
LINE
  8
L-ZISSEN
  6
CONTINUOUS
 62
     7
 10
732.0
 20
72.5
 30
0.0
 11
757.0
 21
72.5
 31
0.0
  0
LINE
  8
L-ZISSEN
  6
CONTINUOUS
 62
     7
 10
732.0
 20
98.5
 30
0.0
 11
746.0
 21
98.5
 31
0.0
  0
LINE
  8
L-ZISSEN
  6
CONTINUOUS
 62
     7
 10
732.0
 20
149.5
 30
0.0
 11
746.0
 21
149.5
 31
0.0
  0
LINE
  8
L-ZISSEN
  6
CONTINUOUS
 62
     7
 10
746.0
 20
149.5
 30
0.0
 11
746.0
 21
98.5
 31
0.0
  0
LINE
  8
L-ZISSEN
  6
CONTINUOUS
 62
     7
 10
732.0
 20
98.5
 30
0.0
 11
732.0
 21
72.5
 31
0.0
  0
LINE
  8
L-ZISSEN
  6
CONTINUOUS
 62
     7
 10
739.0
 20
98.5
 30
0.0
 11
739.0
 21
149.5
 31
0.0
  0
LINE
  8
L-ZISSEN
  6
CONTINUOUS
 62
     7
 10
672.124356
 20
63.5
 30
0.0
 11
647.875644
 21
63.5
 31
0.0
  0
LINE
  8
L-ZISSEN
  6
CONTINUOUS
 62
     7
 10
668.0
 20
57.5
 30
0.0
 11
668.0
 21
63.5
 31
0.0
  0
LINE
  8
L-ZISSEN
  6
CONTINUOUS
 62
     7
 10
652.0
 20
57.5
 30
0.0
 11
652.0
 21
63.5
 31
0.0
  0
LINE
  8
L-ZISSEN
  6
CONTINUOUS
 62
     7
 10
668.0
 20
57.5
 30
0.0
 11
652.0
 21
57.5
 31
0.0
  0
LINE
  8
L-ZISSEN
  6
CONTINUOUS
 62
     7
 10
672.124356
 20
63.5
 30
0.0
 11
672.124356
 21
69.5
 31
0.0
  0
LINE
  8
L-ZISSEN
  6
CONTINUOUS
 62
     7
 10
647.875644
 20
63.5
 30
0.0
 11
647.875644
 21
69.5
 31
0.0
  0
LINE
  8
L-ZISSEN
  6
CONTINUOUS
 62
     7
 10
798.0
 20
57.5
 30
0.0
 11
782.0
 21
57.5
 31
0.0
  0
LINE
  8
L-ZISSEN
  6
CONTINUOUS
 62
     7
 10
782.0
 20
57.5
 30
0.0
 11
782.0
 21
63.5
 31
0.0
  0
LINE
  8
L-ZISSEN
  6
CONTINUOUS
 62
     7
 10
798.0
 20
57.5
 30
0.0
 11
798.0
 21
63.5
 31
0.0
  0
LINE
  8
L-ZISSEN
  6
CONTINUOUS
 62
     7
 10
800.5
 20
63.5
 30
0.0
 11
800.5
 21
69.5
 31
0.0
  0
LINE
  8
L-ZISSEN
  6
CONTINUOUS
 62
     7
 10
800.5
 20
63.5
 30
0.0
 11
779.5
 21
63.5
 31
0.0
  0
LINE
  8
L-ZISSEN
  6
CONTINUOUS
 62
     7
 10
779.5
 20
63.5
 30
0.0
 11
779.5
 21
69.5
 31
0.0
  0
TEXT
  8
L-ZISSEN
  6
CONTINUOUS
 62
     7
 10
615.0
 20
230.0
 30
0.0
 40
4.5
  1
MODEL No. : NOL-50*XLS
  0
TEXT
  8
L-ZISSEN
  6
CONTINUOUS
 62
     7
 10
615.0
 20
240.0
 30
0.0
 40
4.5
  1
METAL BOWL WITH GLASS LEVEL GAUGE
  0
TEXT
  8
L-ZISSEN
  6
CONTINUOUS
 62
     7
 10
355.0
 20
230.0
 30
0.0
 40
4.5
  1
MODEL No. : NOL-50*XL
  0
TEXT
  8
L-ZISSEN
  6
CONTINUOUS
 62
     7
 10
355.0
 20
240.0
 30
0.0
 40
4.5
  1
METAL BOWL WITH LEVEL GAUGE
  0
SOLID
  8
L-ZISSEN
  6
CONTINUOUS
 62
     7
 10
70.279784
 20
198.926703
 30
0.0
 11
70.720865
 21
198.426811
 31
0.0
 12
72.0
 22
200.0
 32
0.0
 13
72.0
 23
200.0
 33
0.0
  0
LINE
  8
L-ZISSEN
  6
CONTINUOUS
 62
     7
 10
70.500324
 20
198.676757
 30
0.0
 11
55.0
 21
185.0
 31
0.0
  0
LINE
  8
L-ZISSEN
  6
CONTINUOUS
 62
     7
 10
55.0
 20
185.0
 30
0.0
 11
53.0
 21
185.0
 31
0.0
  0
TEXT
  8
L-ZISSEN
  6
CONTINUOUS
 62
     7
 10
45.0
 20
182.75
 30
0.0
 40
4.5
  1
IN
  0
TEXT
  8
L-ZISSEN
  6
CONTINUOUS
 62
     7
 10
30.0
 20
175.0
 30
0.0
 40
4.5
  1
Rc 1/4
  0
TEXT
  8
L-ZISSEN
  6
CONTINUOUS
 62
     7
 10
30.0
 20
165.0
 30
0.0
 40
4.5
  1
Rc 3/8
  0
TEXT
  8
L-ZISSEN
  6
CONTINUOUS
 62
     7
 10
30.0
 20
155.0
 30
0.0
 40
4.5
  1
Rc 1/2
  0
LINE
  8
L-ZISSEN
  6
CONTINUOUS
 62
     7
 10
403.0
 20
64.5
 30
0.0
 11
403.0
 21
60.5
 31
0.0
  0
LINE
  8
L-ZISSEN
  6
CONTINUOUS
 62
     7
 10
387.0
 20
64.5
 30
0.0
 11
387.0
 21
60.5
 31
0.0
  0
LINE
  8
L-ZISSEN
  6
CONTINUOUS
 62
     7
 10
383.0
 20
60.5
 30
0.0
 11
383.0
 21
54.5
 31
0.0
  0
LINE
  8
L-ZISSEN
  6
CONTINUOUS
 62
     7
 10
407.0
 20
60.5
 30
0.0
 11
407.0
 21
54.5
 31
0.0
  0
LINE
  8
L-ZISSEN
  6
CONTINUOUS
 62
     7
 10
407.0
 20
64.5
 30
0.0
 11
383.0
 21
64.5
 31
0.0
  0
LINE
  8
L-ZISSEN
  6
CONTINUOUS
 62
     7
 10
383.0
 20
60.5
 30
0.0
 11
407.0
 21
60.5
 31
0.0
  0
LINE
  8
L-ZISSEN
  6
CONTINUOUS
 62
     7
 10
386.75
 20
51.5
 30
0.0
 11
403.25
 21
51.5
 31
0.0
  0
LINE
  8
L-ZISSEN
  6
CONTINUOUS
 62
     7
 10
383.0
 20
54.5
 30
0.0
 11
407.0
 21
54.5
 31
0.0
  0
LINE
  8
L-ZISSEN
  6
CONTINUOUS
 62
     7
 10
386.75
 20
51.5
 30
0.0
 11
383.75
 21
54.5
 31
0.0
  0
LINE
  8
L-ZISSEN
  6
CONTINUOUS
 62
     7
 10
403.25
 20
51.5
 30
0.0
 11
406.25
 21
54.5
 31
0.0
  0
LINE
  8
L-ZISSEN
  6
CONTINUOUS
 62
     7
 10
407.0
 20
69.5
 30
0.0
 11
407.0
 21
64.5
 31
0.0
  0
LINE
  8
L-ZISSEN
  6
CONTINUOUS
 62
     7
 10
383.0
 20
69.5
 30
0.0
 11
383.0
 21
64.5
 31
0.0
  0
LINE
  8
L-ZISSEN
  6
CONTINUOUS
 62
     7
 10
533.25
 20
51.5
 30
0.0
 11
536.25
 21
54.5
 31
0.0
  0
LINE
  8
L-ZISSEN
  6
CONTINUOUS
 62
     7
 10
516.75
 20
51.5
 30
0.0
 11
513.75
 21
54.5
 31
0.0
  0
LINE
  8
L-ZISSEN
  6
CONTINUOUS
 62
     7
 10
513.0
 20
54.5
 30
0.0
 11
537.0
 21
54.5
 31
0.0
  0
LINE
  8
L-ZISSEN
  6
CONTINUOUS
 62
     7
 10
516.75
 20
51.5
 30
0.0
 11
533.25
 21
51.5
 31
0.0
  0
LINE
  8
L-ZISSEN
  6
CONTINUOUS
 62
     7
 10
513.0
 20
60.5
 30
0.0
 11
537.0
 21
60.5
 31
0.0
  0
LINE
  8
L-ZISSEN
  6
CONTINUOUS
 62
     7
 10
537.0
 20
64.5
 30
0.0
 11
513.0
 21
64.5
 31
0.0
  0
LINE
  8
L-ZISSEN
  6
CONTINUOUS
 62
     7
 10
537.0
 20
60.5
 30
0.0
 11
537.0
 21
54.5
 31
0.0
  0
LINE
  8
L-ZISSEN
  6
CONTINUOUS
 62
     7
 10
513.0
 20
60.5
 30
0.0
 11
513.0
 21
54.5
 31
0.0
  0
LINE
  8
L-ZISSEN
  6
CONTINUOUS
 62
     7
 10
517.0
 20
64.5
 30
0.0
 11
517.0
 21
60.5
 31
0.0
  0
LINE
  8
L-ZISSEN
  6
CONTINUOUS
 62
     7
 10
533.0
 20
64.5
 30
0.0
 11
533.0
 21
60.5
 31
0.0
  0
LINE
  8
L-ZISSEN
  6
CONTINUOUS
 62
     7
 10
537.0
 20
69.5
 30
0.0
 11
537.0
 21
64.5
 31
0.0
  0
LINE
  8
L-ZISSEN
  6
CONTINUOUS
 62
     7
 10
513.0
 20
69.5
 30
0.0
 11
513.0
 21
64.5
 31
0.0
  0
LINE
  8
L-ZISSEN
  6
CONTINUOUS
 62
     7
 10
655.136
 20
57.5
 30
0.0
 11
655.136
 21
52.0
 31
0.0
  0
LINE
  8
L-ZISSEN
  6
CONTINUOUS
 62
     7
 10
664.864
 20
57.5
 30
0.0
 11
664.864
 21
52.0
 31
0.0
  0
LINE
  8
L-ZISSEN
  6
CONTINUOUS
 62
     7
 10
655.75
 20
16.5
 30
0.0
 11
655.75
 21
26.744682
 31
0.0
  0
LINE
  8
L-ZISSEN
  6
CONTINUOUS
 62
     7
 10
664.25
 20
16.5
 30
0.0
 11
664.25
 21
26.744682
 31
0.0
  0
LINE
  8
L-ZISSEN
  6
CONTINUOUS
 62
     7
 10
664.25
 20
16.5
 30
0.0
 11
655.75
 21
16.5
 31
0.0
  0
LINE
  8
L-ZISSEN
  6
CONTINUOUS
 62
     7
 10
660.0
 20
41.386751
 30
0.0
 11
657.5
 21
39.943376
 31
0.0
  0
LINE
  8
L-ZISSEN
  6
CONTINUOUS
 62
     7
 10
657.5
 20
39.943376
 30
0.0
 11
657.5
 21
37.056624
 31
0.0
  0
LINE
  8
L-ZISSEN
  6
CONTINUOUS
 62
     7
 10
660.0
 20
35.613249
 30
0.0
 11
657.5
 21
37.056624
 31
0.0
  0
LINE
  8
L-ZISSEN
  6
CONTINUOUS
 62
     7
 10
660.0
 20
41.386751
 30
0.0
 11
662.5
 21
39.943376
 31
0.0
  0
LINE
  8
L-ZISSEN
  6
CONTINUOUS
 62
     7
 10
662.5
 20
39.943376
 30
0.0
 11
662.5
 21
37.056624
 31
0.0
  0
LINE
  8
L-ZISSEN
  6
CONTINUOUS
 62
     7
 10
660.0
 20
35.613249
 30
0.0
 11
662.5
 21
37.056624
 31
0.0
  0
LINE
  8
L-ZISSEN
  6
CONTINUOUS
 62
     7
 10
654.0
 20
49.465856
 30
0.0
 11
654.0
 21
52.0
 31
0.0
  0
LINE
  8
L-ZISSEN
  6
CONTINUOUS
 62
     7
 10
666.0
 20
49.465856
 30
0.0
 11
666.0
 21
52.0
 31
0.0
  0
LINE
  8
L-ZISSEN
  6
CONTINUOUS
 62
     7
 10
654.0
 20
52.0
 30
0.0
 11
666.0
 21
52.0
 31
0.0
  0
CIRCLE
  8
L-ZISSEN
  6
CONTINUOUS
 62
     7
 10
660.0
 20
38.5
 30
0.0
 40
12.5
  0
LINE
  8
L-ZISSEN
  6
CONTINUOUS
 62
     7
 10
784.0
 20
52.0
 30
0.0
 11
796.0
 21
52.0
 31
0.0
  0
LINE
  8
L-ZISSEN
  6
CONTINUOUS
 62
     7
 10
794.864
 20
57.5
 30
0.0
 11
794.864
 21
52.0
 31
0.0
  0
LINE
  8
L-ZISSEN
  6
CONTINUOUS
 62
     7
 10
785.136
 20
57.5
 30
0.0
 11
785.136
 21
52.0
 31
0.0
  0
LINE
  8
L-ZISSEN
  6
CONTINUOUS
 62
     7
 10
791.25
 20
16.5
 30
0.0
 11
782.75
 21
16.5
 31
0.0
  0
LINE
  8
L-ZISSEN
  6
CONTINUOUS
 62
     7
 10
760.0
 20
41.386751
 30
0.0
 11
760.0
 21
35.613249
 31
0.0
  0
LINE
  8
L-ZISSEN
  6
CONTINUOUS
 62
     7
 10
762.5
 20
26.0
 30
0.0
 11
762.5
 21
51.0
 31
0.0
  0
LINE
  8
L-ZISSEN
  6
CONTINUOUS
 62
     7
 10
766.0
 20
51.0
 30
0.0
 11
766.0
 21
26.0
 31
0.0
  0
LINE
  8
L-ZISSEN
  6
CONTINUOUS
 62
     7
 10
772.0
 20
46.582904
 30
0.0
 11
777.0
 21
46.582904
 31
0.0
  0
LINE
  8
L-ZISSEN
  6
CONTINUOUS
 62
     7
 10
772.0
 20
30.417096
 30
0.0
 11
777.0
 21
30.417096
 31
0.0
  0
LINE
  8
L-ZISSEN
  6
CONTINUOUS
 62
     7
 10
766.0
 20
40.75
 30
0.0
 11
772.0
 21
40.75
 31
0.0
  0
LINE
  8
L-ZISSEN
  6
CONTINUOUS
 62
     7
 10
766.0
 20
36.25
 30
0.0
 11
772.0
 21
36.25
 31
0.0
  0
LINE
  8
L-ZISSEN
  6
CONTINUOUS
 62
     7
 10
762.5
 20
51.0
 30
0.0
 11
766.0
 21
51.0
 31
0.0
  0
LINE
  8
L-ZISSEN
  6
CONTINUOUS
 62
     7
 10
762.5
 20
26.0
 30
0.0
 11
766.0
 21
26.0
 31
0.0
  0
LINE
  8
L-ZISSEN
  6
CONTINUOUS
 62
     7
 10
760.0
 20
41.386751
 30
0.0
 11
762.5
 21
41.386751
 31
0.0
  0
LINE
  8
L-ZISSEN
  6
CONTINUOUS
 62
     7
 10
760.0
 20
35.613249
 30
0.0
 11
762.5
 21
35.613249
 31
0.0
  0
LINE
  8
L-ZISSEN
  6
CONTINUOUS
 62
     7
 10
784.0
 20
44.5
 30
0.0
 11
784.0
 21
52.0
 31
0.0
  0
LINE
  8
L-ZISSEN
  6
CONTINUOUS
 62
     7
 10
796.0
 20
32.5
 30
0.0
 11
796.0
 21
52.0
 31
0.0
  0
LINE
  8
L-ZISSEN
  6
CONTINUOUS
 62
     7
 10
784.0
 20
44.5
 30
0.0
 11
777.0
 21
44.5
 31
0.0
  0
LINE
  8
L-ZISSEN
  6
CONTINUOUS
 62
     7
 10
796.0
 20
32.5
 30
0.0
 11
777.0
 21
32.5
 31
0.0
  0
LINE
  8
L-ZISSEN
  6
CONTINUOUS
 62
     7
 10
791.25
 20
16.5
 30
0.0
 11
791.25
 21
32.5
 31
0.0
  0
LINE
  8
L-ZISSEN
  6
CONTINUOUS
 62
     7
 10
782.75
 20
16.5
 30
0.0
 11
782.75
 21
32.5
 31
0.0
  0
LINE
  8
L-ZISSEN
  6
CONTINUOUS
 62
     7
 10
777.0
 20
46.582904
 30
0.0
 11
777.0
 21
30.417096
 31
0.0
  0
LINE
  8
L-ZISSEN
  6
CONTINUOUS
 62
     7
 10
772.0
 20
46.582904
 30
0.0
 11
772.0
 21
30.417096
 31
0.0
  0
LINE
  8
L-ZISSEN
 10
118.5
 20
42.0
 30
0.0
 11
111.5
 21
42.0
 31
0.0
  0
LINE
  8
L-ZISSEN
 10
118.5
 20
51.0
 30
0.0
 11
118.5
 21
42.0
 31
0.0
  0
LINE
  8
L-ZISSEN
 10
111.5
 20
51.0
 30
0.0
 11
111.5
 21
42.0
 31
0.0
  0
LINE
  8
L-ZISSEN
 10
123.0
 20
64.0
 30
0.0
 11
123.0
 21
61.0
 31
0.0
  0
LINE
  8
L-ZISSEN
 10
107.0
 20
61.0
 30
0.0
 11
107.0
 21
64.0
 31
0.0
  0
LINE
  8
L-ZISSEN
  6
CONTINUOUS
 62
     7
 10
143.75
 20
195.4
 30
0.0
 11
143.75
 21
190.0
 31
0.0
  0
LINE
  8
L-ZISSEN
 10
237.0
 20
61.0
 30
0.0
 11
237.0
 21
64.0
 31
0.0
  0
LINE
  8
L-ZISSEN
 10
253.0
 20
64.0
 30
0.0
 11
253.0
 21
61.0
 31
0.0
  0
LINE
  8
L-ZISSEN
 10
241.5
 20
51.0
 30
0.0
 11
241.5
 21
42.0
 31
0.0
  0
LINE
  8
L-ZISSEN
 10
248.5
 20
51.0
 30
0.0
 11
248.5
 21
42.0
 31
0.0
  0
LINE
  8
L-ZISSEN
 10
248.5
 20
42.0
 30
0.0
 11
241.5
 21
42.0
 31
0.0
  0
LINE
  8
L-ZISSEN
  6
CONTINUOUS
 62
     7
 10
257.0
 20
61.0
 30
0.0
 11
233.0
 21
61.0
 31
0.0
  0
LINE
  8
L-ZISSEN
  6
CONTINUOUS
 62
     7
 10
249.25
 20
51.0
 30
0.0
 11
249.25
 21
52.0
 31
0.0
  0
LINE
  8
L-ZISSEN
  6
CONTINUOUS
 62
     7
 10
240.75
 20
51.0
 30
0.0
 11
240.75
 21
52.0
 31
0.0
  0
LINE
  8
L-ZISSEN
  6
CONTINUOUS
 62
     7
 10
240.75
 20
51.0
 30
0.0
 11
249.25
 21
51.0
 31
0.0
  0
LINE
  8
L-ZISSEN
  6
CONTINUOUS
 62
     7
 10
253.25
 20
52.0
 30
0.0
 11
256.25
 21
55.0
 31
0.0
  0
LINE
  8
L-ZISSEN
  6
CONTINUOUS
 62
     7
 10
236.75
 20
52.0
 30
0.0
 11
233.75
 21
55.0
 31
0.0
  0
LINE
  8
L-ZISSEN
  6
CONTINUOUS
 62
     7
 10
257.0
 20
61.0
 30
0.0
 11
257.0
 21
55.0
 31
0.0
  0
LINE
  8
L-ZISSEN
  6
CONTINUOUS
 62
     7
 10
233.0
 20
61.0
 30
0.0
 11
233.0
 21
55.0
 31
0.0
  0
LINE
  8
L-ZISSEN
  6
CONTINUOUS
 62
     7
 10
233.0
 20
55.0
 30
0.0
 11
257.0
 21
55.0
 31
0.0
  0
LINE
  8
L-ZISSEN
  6
CONTINUOUS
 62
     7
 10
236.75
 20
52.0
 30
0.0
 11
253.25
 21
52.0
 31
0.0
  0
LINE
  8
L-ZISSEN
  6
CONTINUOUS
 62
     7
 10
390.75
 20
50.5
 30
0.0
 11
399.25
 21
50.5
 31
0.0
  0
LINE
  8
L-ZISSEN
  6
CONTINUOUS
 62
     7
 10
390.75
 20
50.5
 30
0.0
 11
390.75
 21
51.5
 31
0.0
  0
LINE
  8
L-ZISSEN
  6
CONTINUOUS
 62
     7
 10
399.25
 20
50.5
 30
0.0
 11
399.25
 21
51.5
 31
0.0
  0
LINE
  8
L-ZISSEN
 10
398.5
 20
41.5
 30
0.0
 11
391.5
 21
41.5
 31
0.0
  0
LINE
  8
L-ZISSEN
 10
398.5
 20
50.5
 30
0.0
 11
398.5
 21
41.5
 31
0.0
  0
LINE
  8
L-ZISSEN
 10
391.5
 20
50.5
 30
0.0
 11
391.5
 21
41.5
 31
0.0
  0
LINE
  8
L-ZISSEN
 10
521.5
 20
50.5
 30
0.0
 11
521.5
 21
41.5
 31
0.0
  0
LINE
  8
L-ZISSEN
 10
528.5
 20
50.5
 30
0.0
 11
528.5
 21
41.5
 31
0.0
  0
LINE
  8
L-ZISSEN
 10
528.5
 20
41.5
 30
0.0
 11
521.5
 21
41.5
 31
0.0
  0
LINE
  8
L-ZISSEN
  6
CONTINUOUS
 62
     7
 10
529.25
 20
50.5
 30
0.0
 11
529.25
 21
51.5
 31
0.0
  0
LINE
  8
L-ZISSEN
  6
CONTINUOUS
 62
     7
 10
520.75
 20
50.5
 30
0.0
 11
520.75
 21
51.5
 31
0.0
  0
LINE
  8
L-ZISSEN
  6
CONTINUOUS
 62
     7
 10
520.75
 20
50.5
 30
0.0
 11
529.25
 21
50.5
 31
0.0
  0
LINE
  8
L-ZISSEN
 10
663.5
 20
282.2
 30
0.0
 11
656.5
 21
282.2
 31
0.0
  0
LINE
  8
L-ZISSEN
 10
663.5
 20
291.2
 30
0.0
 11
663.5
 21
282.2
 31
0.0
  0
LINE
  8
L-ZISSEN
 10
656.5
 20
291.2
 30
0.0
 11
656.5
 21
282.2
 31
0.0
  0
LINE
  8
L-ZISSEN
 10
766.5
 20
291.2
 30
0.0
 11
766.5
 21
282.2
 31
0.0
  0
LINE
  8
L-ZISSEN
 10
773.5
 20
291.2
 30
0.0
 11
773.5
 21
282.2
 31
0.0
  0
LINE
  8
L-ZISSEN
 10
773.5
 20
282.2
 30
0.0
 11
766.5
 21
282.2
 31
0.0
  0
LINE
  8
L-ZISSEN
  6
CONTINUOUS
 62
     7
 10
765.75
 20
291.2
 30
0.0
 11
774.25
 21
291.2
 31
0.0
  0
LINE
  8
L-ZISSEN
  6
CONTINUOUS
 62
     7
 10
765.75
 20
291.2
 30
0.0
 11
765.75
 21
292.2
 31
0.0
  0
LINE
  8
L-ZISSEN
  6
CONTINUOUS
 62
     7
 10
774.25
 20
291.2
 30
0.0
 11
774.25
 21
292.2
 31
0.0
  0
ENDSEC
  0
EOF
