  0
SECTION
  2
HEADER
  9
$ACADVER
  1
AC1012
  9
$DWGCODEPAGE
  3
dos932
  9
$INSBASE
 10
321.2021621126917
 20
124.7420072218401
 30
0.0
  9
$EXTMIN
 10
28.23276728753796
 20
64.00285903962049
 30
0.0
  9
$EXTMAX
 10
628.572073571772
 20
309.9276391196938
 30
0.0
  9
$LIMMIN
 10
0.0
 20
0.0
  9
$LIMMAX
 10
420.0
 20
297.0
  9
$ORTHOMODE
 70
     1
  9
$REGENMODE
 70
     1
  9
$FILLMODE
 70
     1
  9
$QTEXTMODE
 70
     0
  9
$MIRRTEXT
 70
     1
  9
$DRAGMODE
 70
     2
  9
$LTSCALE
 40
1.0
  9
$OSMODE
 70
   759
  9
$ATTMODE
 70
     1
  9
$TEXTSIZE
 40
2.799999999999999
  9
$TRACEWID
 40
0.05
  9
$TEXTSTYLE
  7
STANDARD
  9
$CLAYER
  8
0
  9
$CELTYPE
  6
BYLAYER
  9
$CECOLOR
 62
   256
  9
$CELTSCALE
 40
1.0
  9
$DELOBJ
 70
     1
  9
$DISPSILH
 70
     0
  9
$DIMSCALE
 40
1.0
  9
$DIMASZ
 40
2.0
  9
$DIMEXO
 40
1.0
  9
$DIMDLI
 40
0.38
  9
$DIMRND
 40
0.0
  9
$DIMDLE
 40
0.0
  9
$DIMEXE
 40
1.0
  9
$DIMTP
 40
0.0
  9
$DIMTM
 40
0.0
  9
$DIMTXT
 40
2.799999999999999
  9
$DIMCEN
 40
0.09
  9
$DIMTSZ
 40
0.0
  9
$DIMTOL
 70
     0
  9
$DIMLIM
 70
     0
  9
$DIMTIH
 70
     0
  9
$DIMTOH
 70
     0
  9
$DIMSE1
 70
     0
  9
$DIMSE2
 70
     0
  9
$DIMTAD
 70
     1
  9
$DIMZIN
 70
     8
  9
$DIMBLK
  1

  9
$DIMASO
 70
     1
  9
$DIMSHO
 70
     0
  9
$DIMPOST
  1

  9
$DIMAPOST
  1

  9
$DIMALT
 70
     0
  9
$DIMALTD
 70
     2
  9
$DIMALTF
 40
25.4
  9
$DIMLFAC
 40
1.0
  9
$DIMTOFL
 70
     1
  9
$DIMTVP
 40
0.0
  9
$DIMTIX
 70
     1
  9
$DIMSOXD
 70
     0
  9
$DIMSAH
 70
     0
  9
$DIMBLK1
  1

  9
$DIMBLK2
  1

  9
$DIMSTYLE
  2
STANDARD
  9
$DIMCLRD
 70
     0
  9
$DIMCLRE
 70
     0
  9
$DIMCLRT
 70
     0
  9
$DIMTFAC
 40
1.0
  9
$DIMGAP
 40
1.0
  9
$DIMJUST
 70
     0
  9
$DIMSD1
 70
     0
  9
$DIMSD2
 70
     0
  9
$DIMTOLJ
 70
     1
  9
$DIMTZIN
 70
     8
  9
$DIMALTZ
 70
     0
  9
$DIMALTTZ
 70
     0
  9
$DIMFIT
 70
     3
  9
$DIMUPT
 70
     0
  9
$DIMUNIT
 70
     2
  9
$DIMDEC
 70
     4
  9
$DIMTDEC
 70
     4
  9
$DIMALTU
 70
     2
  9
$DIMALTTD
 70
     2
  9
$DIMTXSTY
  7
STANDARD
  9
$DIMAUNIT
 70
     0
  9
$LUNITS
 70
     2
  9
$LUPREC
 70
     4
  9
$SKETCHINC
 40
0.1
  9
$FILLETRAD
 40
0.0
  9
$AUNITS
 70
     0
  9
$AUPREC
 70
     0
  9
$MENU
  1
acad
  9
$ELEVATION
 40
0.0
  9
$PELEVATION
 40
0.0
  9
$THICKNESS
 40
0.0
  9
$LIMCHECK
 70
     0
  9
$BLIPMODE
 70
     0
  9
$CHAMFERA
 40
0.0
  9
$CHAMFERB
 40
0.0
  9
$CHAMFERC
 40
0.0
  9
$CHAMFERD
 40
0.0
  9
$SKPOLY
 70
     0
  9
$TDCREATE
 40
2450214.232181597
  9
$TDUPDATE
 40
2453172.824385879
  9
$TDINDWG
 40
2.3384587963
  9
$TDUSRTIMER
 40
2.3384587963
  9
$USRTIMER
 70
     1
  9
$ANGBASE
 50
0.0
  9
$ANGDIR
 70
     0
  9
$PDMODE
 70
     0
  9
$PDSIZE
 40
0.0
  9
$PLINEWID
 40
0.0
  9
$COORDS
 70
     2
  9
$SPLFRAME
 70
     0
  9
$SPLINETYPE
 70
     6
  9
$SPLINESEGS
 70
     8
  9
$ATTDIA
 70
     0
  9
$ATTREQ
 70
     1
  9
$HANDLING
 70
-16383
  9
$HANDSEED
  5
2C7
  9
$SURFTAB1
 70
     6
  9
$SURFTAB2
 70
     6
  9
$SURFTYPE
 70
     6
  9
$SURFU
 70
     6
  9
$SURFV
 70
     6
  9
$UCSNAME
  2

  9
$UCSORG
 10
0.0
 20
0.0
 30
0.0
  9
$UCSXDIR
 10
1.0
 20
0.0
 30
0.0
  9
$UCSYDIR
 10
0.0
 20
1.0
 30
0.0
  9
$PUCSNAME
  2

  9
$PUCSORG
 10
0.0
 20
0.0
 30
0.0
  9
$PUCSXDIR
 10
1.0
 20
0.0
 30
0.0
  9
$PUCSYDIR
 10
0.0
 20
1.0
 30
0.0
  9
$USERI1
 70
     0
  9
$USERI2
 70
     0
  9
$USERI3
 70
     0
  9
$USERI4
 70
     0
  9
$USERI5
 70
     0
  9
$USERR1
 40
0.0
  9
$USERR2
 40
0.0
  9
$USERR3
 40
0.0
  9
$USERR4
 40
0.0
  9
$USERR5
 40
0.0
  9
$WORLDVIEW
 70
     1
  9
$SHADEDGE
 70
     3
  9
$SHADEDIF
 70
    70
  9
$TILEMODE
 70
     1
  9
$MAXACTVP
 70
    16
  9
$PINSBASE
 10
0.0
 20
0.0
 30
0.0
  9
$PLIMCHECK
 70
     0
  9
$PEXTMIN
 10
1.000000000000000E+20
 20
1.000000000000000E+20
 30
1.000000000000000E+20
  9
$PEXTMAX
 10
-1.000000000000000E+20
 20
-1.000000000000000E+20
 30
-1.000000000000000E+20
  9
$PLIMMIN
 10
0.0
 20
0.0
  9
$PLIMMAX
 10
12.0
 20
9.0
  9
$UNITMODE
 70
     0
  9
$VISRETAIN
 70
     0
  9
$PLINEGEN
 70
     0
  9
$PSLTSCALE
 70
     0
  9
$TREEDEPTH
 70
  3020
  9
$PICKSTYLE
 70
     1
  9
$CMLSTYLE
  2
STANDARD
  9
$CMLJUST
 70
     0
  9
$CMLSCALE
 40
1.0
  9
$SAVEIMAGES
 70
     1
  0
ENDSEC
  0
SECTION
  2
CLASSES
  0
CLASS
  1
LWPOLYLINE
  2
AcDbPolyline
  3
AutoCAD 2000
 90
    32768
280
     0
281
     1
  0
CLASS
  1
DICTIONARYVAR
  2
AcDbDictionaryVar
  3
AutoCAD 2000
 90
    32768
280
     0
281
     0
  0
CLASS
  1
HATCH
  2
AcDbHatch
  3
AutoCAD 2000
 90
    32768
280
     0
281
     1
  0
CLASS
  1
ACDBDICTIONARYWDFLT
  2
AcDbDictionaryWithDefault
  3
AutoCAD 2000
 90
    32768
280
     0
281
     0
  0
CLASS
  1
ACDBPLACEHOLDER
  2
AcDbPlaceHolder
  3
AutoCAD 2000
 90
    32768
280
     0
281
     0
  0
CLASS
  1
LAYOUT
  2
AcDbLayout
  3
AutoCAD 2000
 90
    32768
280
     0
281
     0
  0
CLASS
  1
LONG_TRANSACTION
  2
AcDbLongTransaction
  3
AutoCAD 2000
 90
    32768
280
     0
281
     0
  0
CLASS
  1
LWPOLYLINE
  2
AcDbPolyline
  3
AutoCAD 2000
 90
    32768
280
     0
281
     1
  0
CLASS
  1
HATCH
  2
AcDbHatch
  3
AutoCAD 2000
 90
    32768
280
     0
281
     1
  0
CLASS
  1
XRECORD
  2
AcDbXrecord
  3
AutoCAD 2000
 90
    32768
280
     0
281
     0
  0
ENDSEC
  0
SECTION
  2
TABLES
  0
TABLE
  2
VPORT
  5
19
330
0
100
AcDbSymbolTable
 70
     3
  0
VPORT
  5
281
330
19
100
AcDbSymbolTableRecord
100
AcDbViewportTableRecord
  2
*ACTIVE
 70
     0
 10
0.0
 20
0.0
 11
1.0
 21
1.0
 12
375.2632870302053
 22
226.882019488146
 13
0.0
 23
0.0
 14
1.0
 24
1.0
 15
0.0
 25
0.0
 16
0.0
 26
0.0
 36
1.0
 17
0.0
 27
0.0
 37
0.0
 40
935.3777880073762
 41
1.45224171539961
 42
50.0
 43
0.0
 44
0.0
 50
0.0
 51
0.0
 71
     0
 72
   100
 73
     1
 74
     0
 75
     0
 76
     0
 77
     0
 78
     2
  0
ENDTAB
  0
TABLE
  2
LTYPE
  5
14
330
0
100
AcDbSymbolTable
 70
     1
  0
LTYPE
  5
15
330
14
100
AcDbSymbolTableRecord
100
AcDbLinetypeTableRecord
  2
BYBLOCK
 70
     0
  3

 72
    65
 73
     0
 40
0.0
  0
LTYPE
  5
16
330
14
100
AcDbSymbolTableRecord
100
AcDbLinetypeTableRecord
  2
BYLAYER
 70
     0
  3

 72
    65
 73
     0
 40
0.0
  0
LTYPE
  5
8
330
14
100
AcDbSymbolTableRecord
100
AcDbLinetypeTableRecord
  2
CONTINUOUS
 70
     0
  3
Solid line
 72
    65
 73
     0
 40
0.0
  0
ENDTAB
  0
TABLE
  2
LAYER
  5
10
330
0
100
AcDbSymbolTable
 70
     2
  0
LAYER
  5
4
330
10
100
AcDbSymbolTableRecord
100
AcDbLayerTableRecord
  2
0
 70
     0
 62
     1
  6
CONTINUOUS
  0
LAYER
  5
25
330
10
100
AcDbSymbolTableRecord
100
AcDbLayerTableRecord
  2
L-ZISSEN
 70
     0
 62
     7
  6
CONTINUOUS
  0
ENDTAB
  0
TABLE
  2
STYLE
  5
11
330
0
100
AcDbSymbolTable
 70
     2
  0
STYLE
  5
12
330
11
100
AcDbSymbolTableRecord
100
AcDbTextStyleTableRecord
  2
STANDARD
 70
     0
 40
0.0
 41
1.0
 50
0.0
 71
     0
 42
2.799999999999999
  3
txt.shx
  4
BIGFONT.shx
  0
STYLE
  5
96
330
11
100
AcDbSymbolTableRecord
100
AcDbTextStyleTableRecord
  2
FONT1
 70
     0
 40
0.0
 41
1.0
 50
0.0
 71
     0
 42
0.2
  3
MONOTXT
  4

  0
ENDTAB
  0
TABLE
  2
VIEW
  5
17
330
0
100
AcDbSymbolTable
 70
     0
  0
ENDTAB
  0
TABLE
  2
UCS
  5
18
330
0
100
AcDbSymbolTable
 70
     0
  0
ENDTAB
  0
TABLE
  2
APPID
  5
1B
330
0
100
AcDbSymbolTable
 70
     1
  0
APPID
  5
1C
330
1B
100
AcDbSymbolTableRecord
100
AcDbRegAppTableRecord
  2
ACAD
 70
     0
  0
ENDTAB
  0
TABLE
  2
DIMSTYLE
  5
1D
330
0
100
AcDbSymbolTable
 70
     1
  0
DIMSTYLE
105
1E
330
1D
100
AcDbSymbolTableRecord
100
AcDbDimStyleTableRecord
  2
STANDARD
 70
     0
  3

  4

  5

  6

  7

 40
1.0
 41
0.18
 42
0.0625
 43
0.38
 44
0.18
 45
0.0
 46
0.0
 47
0.0
 48
0.0
140
0.18
141
0.09
142
0.0
143
25.4
144
1.0
145
0.0
146
1.0
147
0.09
 71
     0
 72
     0
 73
     1
 74
     1
 75
     0
 76
     0
 77
     0
 78
     0
170
     0
171
     2
172
     0
173
     0
174
     0
175
     0
176
     0
177
     0
178
     0
270
     2
271
     4
272
     4
273
     2
274
     2
340
12
275
     0
280
     0
281
     0
282
     0
283
     1
284
     0
285
     0
286
     0
287
     3
288
     0
  0
ENDTAB
  0
TABLE
  2
BLOCK_RECORD
  5
1
330
0
100
AcDbSymbolTable
 70
     0
  0
BLOCK_RECORD
  5
2
102
{ACAD_XDICTIONARY
360
282
102
}
330
1
100
AcDbSymbolTableRecord
100
AcDbBlockTableRecord
  2
*MODEL_SPACE
  0
BLOCK_RECORD
  5
C
102
{ACAD_XDICTIONARY
360
284
102
}
330
1
100
AcDbSymbolTableRecord
100
AcDbBlockTableRecord
  2
*PAPER_SPACE
  0
ENDTAB
  0
ENDSEC
  0
SECTION
  2
BLOCKS
  0
BLOCK
  5
3
330
2
100
AcDbEntity
  8
0
100
AcDbBlockBegin
  2
*MODEL_SPACE
 70
     0
 10
0.0
 20
0.0
 30
0.0
  3
*MODEL_SPACE
  1

  0
ENDBLK
  5
9
330
2
100
AcDbEntity
  8
0
100
AcDbBlockEnd
  0
BLOCK
  5
D
330
C
100
AcDbEntity
 67
     1
  8
0
100
AcDbBlockBegin
  2
*PAPER_SPACE
 70
     0
 10
0.0
 20
0.0
 30
0.0
  3
*PAPER_SPACE
  1

  0
ENDBLK
  5
E
330
C
100
AcDbEntity
 67
     1
  8
0
100
AcDbBlockEnd
  0
ENDSEC
  0
SECTION
  2
ENTITIES
  0
POLYLINE
  5
24
330
2
100
AcDbEntity
  8
L-ZISSEN
100
AcDb2dPolyline
 66
     1
 10
0.0
 20
0.0
 30
0.0
  0
VERTEX
  5
286
330
24
100
AcDbEntity
  8
L-ZISSEN
100
AcDbVertex
100
AcDb2dVertex
 10
168.3724314750505
 20
251.8735324217314
 30
0.0
  0
VERTEX
  5
287
330
24
100
AcDbEntity
  8
L-ZISSEN
100
AcDbVertex
100
AcDb2dVertex
 10
174.8724314750505
 20
255.626309171464
 30
0.0
  0
VERTEX
  5
288
330
24
100
AcDbEntity
  8
L-ZISSEN
100
AcDbVertex
100
AcDb2dVertex
 10
176.6141012258525
 20
254.6207556719989
 30
0.0
  0
SEQEND
  5
289
330
24
100
AcDbEntity
  8
L-ZISSEN
  0
POLYLINE
  5
26
330
2
100
AcDbEntity
  8
L-ZISSEN
100
AcDb2dPolyline
 66
     1
 10
0.0
 20
0.0
 30
0.0
  0
VERTEX
  5
28A
330
26
100
AcDbEntity
  8
L-ZISSEN
100
AcDbVertex
100
AcDb2dVertex
 10
176.6141012258525
 20
241.6207556719986
 30
0.0
  0
VERTEX
  5
28B
330
26
100
AcDbEntity
  8
L-ZISSEN
100
AcDbVertex
100
AcDb2dVertex
 10
174.8724314750505
 20
240.6152021725337
 30
0.0
  0
VERTEX
  5
28C
330
26
100
AcDbEntity
  8
L-ZISSEN
100
AcDbVertex
100
AcDb2dVertex
 10
168.3724314750505
 20
244.3679789222663
 30
0.0
  0
VERTEX
  5
28D
330
26
100
AcDbEntity
  8
L-ZISSEN
100
AcDbVertex
100
AcDb2dVertex
 10
168.3724314750505
 20
251.8735324217314
 30
0.0
  0
SEQEND
  5
28E
330
26
100
AcDbEntity
  8
L-ZISSEN
  0
POLYLINE
  5
27
330
2
100
AcDbEntity
  8
L-ZISSEN
100
AcDb2dPolyline
 66
     1
 10
0.0
 20
0.0
 30
0.0
  0
VERTEX
  5
28F
330
27
100
AcDbEntity
  8
L-ZISSEN
100
AcDbVertex
100
AcDb2dVertex
 10
313.9852837478211
 20
137.24200722184
 30
0.0
  0
VERTEX
  5
290
330
27
100
AcDbEntity
  8
L-ZISSEN
100
AcDbVertex
100
AcDb2dVertex
 10
306.768405382951
 20
124.7420072218401
 30
0.0
  0
VERTEX
  5
291
330
27
100
AcDbEntity
  8
L-ZISSEN
100
AcDbVertex
100
AcDb2dVertex
 10
309.4336511668519
 20
120.1256661094648
 30
0.0
  0
SEQEND
  5
292
330
27
100
AcDbEntity
  8
L-ZISSEN
  0
POLYLINE
  5
28
330
2
100
AcDbEntity
  8
L-ZISSEN
100
AcDb2dPolyline
 66
     1
 10
0.0
 20
0.0
 30
0.0
 70
     1
  0
VERTEX
  5
293
330
28
100
AcDbEntity
  8
L-ZISSEN
100
AcDbVertex
100
AcDb2dVertex
 10
315.7173345553902
 20
134.24200722184
 30
0.0
  0
VERTEX
  5
294
330
28
100
AcDbEntity
  8
L-ZISSEN
100
AcDbVertex
100
AcDb2dVertex
 10
310.2325069980886
 20
124.7420072218401
 30
0.0
  0
VERTEX
  5
295
330
28
100
AcDbEntity
  8
L-ZISSEN
100
AcDbVertex
100
AcDb2dVertex
 10
315.7173345553902
 20
115.2420072218401
 30
0.0
  0
VERTEX
  5
296
330
28
100
AcDbEntity
  8
L-ZISSEN
100
AcDbVertex
100
AcDb2dVertex
 10
326.686989669993
 20
115.2420072218401
 30
0.0
  0
VERTEX
  5
297
330
28
100
AcDbEntity
  8
L-ZISSEN
100
AcDbVertex
100
AcDb2dVertex
 10
332.1718172272945
 20
124.7420072218401
 30
0.0
  0
VERTEX
  5
298
330
28
100
AcDbEntity
  8
L-ZISSEN
100
AcDbVertex
100
AcDb2dVertex
 10
326.686989669993
 20
134.24200722184
 30
0.0
  0
SEQEND
  5
299
330
28
100
AcDbEntity
  8
L-ZISSEN
  0
POLYLINE
  5
29
330
2
100
AcDbEntity
  8
L-ZISSEN
100
AcDb2dPolyline
 66
     1
 10
0.0
 20
0.0
 30
0.0
  0
VERTEX
  5
29A
330
29
100
AcDbEntity
  8
L-ZISSEN
100
AcDbVertex
100
AcDb2dVertex
 10
332.9706730585312
 20
120.1256661094648
 30
0.0
  0
VERTEX
  5
29B
330
29
100
AcDbEntity
  8
L-ZISSEN
100
AcDbVertex
100
AcDb2dVertex
 10
335.6359188424322
 20
124.7420072218401
 30
0.0
  0
VERTEX
  5
29C
330
29
100
AcDbEntity
  8
L-ZISSEN
100
AcDbVertex
100
AcDb2dVertex
 10
328.4190404775618
 20
137.24200722184
 30
0.0
  0
VERTEX
  5
29D
330
29
100
AcDbEntity
  8
L-ZISSEN
100
AcDbVertex
100
AcDb2dVertex
 10
313.9852837478211
 20
137.24200722184
 30
0.0
  0
SEQEND
  5
29E
330
29
100
AcDbEntity
  8
L-ZISSEN
  0
POLYLINE
  5
2A
330
2
100
AcDbEntity
  8
L-ZISSEN
 62
     7
100
AcDb2dPolyline
 66
     1
 10
0.0
 20
0.0
 30
0.0
  0
VERTEX
  5
29F
330
2A
100
AcDbEntity
  8
L-ZISSEN
 62
     7
100
AcDbVertex
100
AcDb2dVertex
 10
323.1351621126915
 20
97.39400722184008
 30
0.0
  0
VERTEX
  5
2A0
330
2A
100
AcDbEntity
  8
L-ZISSEN
 62
     7
100
AcDbVertex
100
AcDb2dVertex
 10
322.2691621126915
 20
96.89400722184009
 30
0.0
  0
VERTEX
  5
2A1
330
2A
100
AcDbEntity
  8
L-ZISSEN
 62
     7
100
AcDbVertex
100
AcDb2dVertex
 10
321.2021621126915
 20
99.7420072218401
 30
0.0
  0
VERTEX
  5
2A2
330
2A
100
AcDbEntity
  8
L-ZISSEN
 62
     7
100
AcDbVertex
100
AcDb2dVertex
 10
323.1351621126915
 20
97.39400722184008
 30
0.0
  0
SEQEND
  5
2A3
330
2A
100
AcDbEntity
  8
L-ZISSEN
 62
     7
  0
POLYLINE
  5
2B
330
2
100
AcDbEntity
  8
L-ZISSEN
 62
     7
100
AcDb2dPolyline
 66
     1
 10
0.0
 20
0.0
 30
0.0
  0
VERTEX
  5
2A4
330
2B
100
AcDbEntity
  8
L-ZISSEN
 62
     7
100
AcDbVertex
100
AcDb2dVertex
 10
597.4572735717721
 20
97.39400722184008
 30
0.0
  0
VERTEX
  5
2A5
330
2B
100
AcDbEntity
  8
L-ZISSEN
 62
     7
100
AcDbVertex
100
AcDb2dVertex
 10
596.5912735717721
 20
96.89400722184009
 30
0.0
  0
VERTEX
  5
2A6
330
2B
100
AcDbEntity
  8
L-ZISSEN
 62
     7
100
AcDbVertex
100
AcDb2dVertex
 10
595.5242735717721
 20
99.7420072218401
 30
0.0
  0
VERTEX
  5
2A7
330
2B
100
AcDbEntity
  8
L-ZISSEN
 62
     7
100
AcDbVertex
100
AcDb2dVertex
 10
597.4572735717721
 20
97.39400722184008
 30
0.0
  0
SEQEND
  5
2A8
330
2B
100
AcDbEntity
  8
L-ZISSEN
 62
     7
  0
POLYLINE
  5
2C
330
2
100
AcDbEntity
  8
L-ZISSEN
 62
     7
100
AcDb2dPolyline
 66
     1
 10
0.0
 20
0.0
 30
0.0
  0
VERTEX
  5
2A9
330
2C
100
AcDbEntity
  8
L-ZISSEN
 62
     7
100
AcDbVertex
100
AcDb2dVertex
 10
445.135250053434
 20
97.39400722183995
 30
0.0
  0
VERTEX
  5
2AA
330
2C
100
AcDbEntity
  8
L-ZISSEN
 62
     7
100
AcDbVertex
100
AcDb2dVertex
 10
444.2692500534341
 20
96.89400722183997
 30
0.0
  0
VERTEX
  5
2AB
330
2C
100
AcDbEntity
  8
L-ZISSEN
 62
     7
100
AcDbVertex
100
AcDb2dVertex
 10
443.202250053434
 20
99.74200722183997
 30
0.0
  0
VERTEX
  5
2AC
330
2C
100
AcDbEntity
  8
L-ZISSEN
 62
     7
100
AcDbVertex
100
AcDb2dVertex
 10
445.135250053434
 20
97.39400722183995
 30
0.0
  0
SEQEND
  5
2AD
330
2C
100
AcDbEntity
  8
L-ZISSEN
 62
     7
  0
POLYLINE
  5
2D
330
2
100
AcDbEntity
  8
L-ZISSEN
 62
     7
100
AcDb2dPolyline
 66
     1
 10
0.0
 20
0.0
 30
0.0
  0
VERTEX
  5
2AE
330
2D
100
AcDbEntity
  8
L-ZISSEN
 62
     7
100
AcDbVertex
100
AcDb2dVertex
 10
170.8131385943534
 20
97.39400722183995
 30
0.0
  0
VERTEX
  5
2AF
330
2D
100
AcDbEntity
  8
L-ZISSEN
 62
     7
100
AcDbVertex
100
AcDb2dVertex
 10
169.9471385943534
 20
96.89400722183997
 30
0.0
  0
VERTEX
  5
2B0
330
2D
100
AcDbEntity
  8
L-ZISSEN
 62
     7
100
AcDbVertex
100
AcDb2dVertex
 10
168.8801385943534
 20
99.74200722183997
 30
0.0
  0
VERTEX
  5
2B1
330
2D
100
AcDbEntity
  8
L-ZISSEN
 62
     7
100
AcDbVertex
100
AcDb2dVertex
 10
170.8131385943534
 20
97.39400722183995
 30
0.0
  0
SEQEND
  5
2B2
330
2D
100
AcDbEntity
  8
L-ZISSEN
 62
     7
  0
POLYLINE
  5
2E
330
2
100
AcDbEntity
  8
L-ZISSEN
 62
     7
100
AcDb2dPolyline
 66
     1
 10
0.0
 20
0.0
 30
0.0
  0
VERTEX
  5
2B3
330
2E
100
AcDbEntity
  8
L-ZISSEN
 62
     7
100
AcDbVertex
100
AcDb2dVertex
 10
451.1275429341308
 20
245.7727556719988
 30
0.0
  0
VERTEX
  5
2B4
330
2E
100
AcDbEntity
  8
L-ZISSEN
 62
     7
100
AcDbVertex
100
AcDb2dVertex
 10
450.2615429341308
 20
245.2727556719988
 30
0.0
  0
VERTEX
  5
2B5
330
2E
100
AcDbEntity
  8
L-ZISSEN
 62
     7
100
AcDbVertex
100
AcDb2dVertex
 10
449.1945429341308
 20
248.1207556719989
 30
0.0
  0
VERTEX
  5
2B6
330
2E
100
AcDbEntity
  8
L-ZISSEN
 62
     7
100
AcDbVertex
100
AcDb2dVertex
 10
451.1275429341308
 20
245.7727556719988
 30
0.0
  0
SEQEND
  5
2B7
330
2E
100
AcDbEntity
  8
L-ZISSEN
 62
     7
  0
POLYLINE
  5
2F
330
2
100
AcDbEntity
  8
L-ZISSEN
 62
     7
100
AcDb2dPolyline
 66
     1
 10
0.0
 20
0.0
 30
0.0
  0
VERTEX
  5
2B8
330
2F
100
AcDbEntity
  8
L-ZISSEN
 62
     7
100
AcDbVertex
100
AcDb2dVertex
 10
176.8054314750502
 20
245.7727556719988
 30
0.0
  0
VERTEX
  5
2B9
330
2F
100
AcDbEntity
  8
L-ZISSEN
 62
     7
100
AcDbVertex
100
AcDb2dVertex
 10
175.9394314750503
 20
245.2727556719988
 30
0.0
  0
VERTEX
  5
2BA
330
2F
100
AcDbEntity
  8
L-ZISSEN
 62
     7
100
AcDbVertex
100
AcDb2dVertex
 10
174.8724314750502
 20
248.1207556719989
 30
0.0
  0
VERTEX
  5
2BB
330
2F
100
AcDbEntity
  8
L-ZISSEN
 62
     7
100
AcDbVertex
100
AcDb2dVertex
 10
176.8054314750502
 20
245.7727556719988
 30
0.0
  0
SEQEND
  5
2BC
330
2F
100
AcDbEntity
  8
L-ZISSEN
 62
     7
  0
POLYLINE
  5
30
330
2
100
AcDbEntity
  8
L-ZISSEN
 62
     7
100
AcDb2dPolyline
 66
     1
 10
0.0
 20
0.0
 30
0.0
  0
VERTEX
  5
2BD
330
30
100
AcDbEntity
  8
L-ZISSEN
 62
     7
100
AcDbVertex
100
AcDb2dVertex
 10
237.4131385943536
 20
127.0900216358467
 30
0.0
  0
VERTEX
  5
2BE
330
30
100
AcDbEntity
  8
L-ZISSEN
 62
     7
100
AcDbVertex
100
AcDb2dVertex
 10
236.5471385943536
 20
127.5900216358467
 30
0.0
  0
VERTEX
  5
2BF
330
30
100
AcDbEntity
  8
L-ZISSEN
 62
     7
100
AcDbVertex
100
AcDb2dVertex
 10
235.4801385943535
 20
124.7420216358467
 30
0.0
  0
VERTEX
  5
2C0
330
30
100
AcDbEntity
  8
L-ZISSEN
 62
     7
100
AcDbVertex
100
AcDb2dVertex
 10
237.4131385943536
 20
127.0900216358467
 30
0.0
  0
SEQEND
  5
2C1
330
30
100
AcDbEntity
  8
L-ZISSEN
 62
     7
  0
POLYLINE
  5
31
330
2
100
AcDbEntity
  8
L-ZISSEN
 62
     7
100
AcDb2dPolyline
 66
     1
 10
0.0
 20
0.0
 30
0.0
  0
VERTEX
  5
2C2
330
31
100
AcDbEntity
  8
L-ZISSEN
 62
     7
100
AcDbVertex
100
AcDb2dVertex
 10
197.1281385943536
 20
162.5770216358468
 30
0.0
  0
VERTEX
  5
2C3
330
31
100
AcDbEntity
  8
L-ZISSEN
 62
     7
100
AcDbVertex
100
AcDb2dVertex
 10
196.2621385943537
 20
163.0770216358468
 30
0.0
  0
VERTEX
  5
2C4
330
31
100
AcDbEntity
  8
L-ZISSEN
 62
     7
100
AcDbVertex
100
AcDb2dVertex
 10
195.1951385943536
 20
160.2290216358468
 30
0.0
  0
VERTEX
  5
2C5
330
31
100
AcDbEntity
  8
L-ZISSEN
 62
     7
100
AcDbVertex
100
AcDb2dVertex
 10
197.1281385943536
 20
162.5770216358468
 30
0.0
  0
SEQEND
  5
2C6
330
31
100
AcDbEntity
  8
L-ZISSEN
 62
     7
  0
LINE
  5
32
330
2
100
AcDbEntity
  8
0
100
AcDbLine
 10
329.7090140015805
 20
160.3531183329517
 30
0.0
 11
312.6953102238024
 21
160.3531183329517
 31
0.0
  0
LINE
  5
33
330
2
100
AcDbEntity
  8
0
100
AcDbLine
 10
304.4590043061926
 20
124.7420072218401
 30
0.0
 11
337.9453199191908
 21
124.7420072218401
 31
0.0
  0
LINE
  5
34
330
2
100
AcDbEntity
  8
L-ZISSEN
 62
     7
100
AcDbLine
 10
314.1135835015802
 20
139.4086738885068
 30
0.0
 11
328.2907407238027
 21
139.4086738885068
 31
0.0
  0
LINE
  5
35
330
2
100
AcDbEntity
  8
L-ZISSEN
  6
CONTINUOUS
 62
     7
100
AcDbLine
 10
328.2907407238027
 20
143.019784999618
 30
0.0
 11
314.1135835015802
 21
143.019784999618
 31
0.0
  0
LINE
  5
36
330
2
100
AcDbEntity
  8
L-ZISSEN
100
AcDbLine
 10
304.3599275149267
 20
292.4668416877387
 30
0.0
 11
316.3841507527949
 21
292.4668416877387
 31
0.0
  0
TEXT
  5
37
330
2
100
AcDbEntity
  8
L-ZISSEN
100
AcDbText
 10
304.7827257323199
 20
293.5848168406735
 30
0.0
 40
4.199999999999999
  1
Ｎ１１－２００－
 41
0.8
100
AcDbText
  0
LINE
  5
38
330
2
100
AcDbEntity
  8
L-ZISSEN
100
AcDbLine
 10
304.1674216606415
 20
258.0139669308324
 30
0.0
 11
354.1486515964149
 21
258.0139669308325
 31
0.0
  0
LINE
  5
39
330
2
100
AcDbEntity
  8
L-ZISSEN
100
AcDbLine
 10
304.1674216606415
 20
253.0110125854837
 30
0.0
 11
354.1486515964149
 21
253.0110125854838
 31
0.0
  0
LINE
  5
3A
330
2
100
AcDbEntity
  8
L-ZISSEN
100
AcDbLine
 10
304.1674216606415
 20
246.0080582401351
 30
0.0
 11
354.1486515964149
 21
246.0080582401352
 31
0.0
  0
LINE
  5
3B
330
2
100
AcDbEntity
  8
L-ZISSEN
100
AcDbLine
 10
304.1674216606415
 20
275.0228299668786
 30
0.0
 11
354.1486515964149
 21
275.0228299668786
 31
0.0
  0
LINE
  5
3C
330
2
100
AcDbEntity
  8
L-ZISSEN
100
AcDbLine
 10
304.1674216606415
 20
270.0198756215298
 30
0.0
 11
354.1486515964149
 21
270.01987562153
 31
0.0
  0
LINE
  5
3D
330
2
100
AcDbEntity
  8
L-ZISSEN
100
AcDbLine
 10
304.1674216606415
 20
265.0169212761811
 30
0.0
 11
354.1486515964149
 21
265.0169212761812
 31
0.0
  0
LINE
  5
3E
330
2
100
AcDbEntity
  8
L-ZISSEN
100
AcDbLine
 10
304.1674216606415
 20
263.0169212761811
 30
0.0
 11
354.1486515964149
 21
263.0169212761812
 31
0.0
  0
LINE
  5
3F
330
2
100
AcDbEntity
  8
L-ZISSEN
100
AcDbLine
 10
304.1674216606415
 20
248.008058240135
 30
0.0
 11
354.1486515964149
 21
248.008058240135
 31
0.0
  0
LINE
  5
40
330
2
100
AcDbEntity
  8
L-ZISSEN
100
AcDbLine
 10
304.1674216606418
 20
209.0021495494377
 30
0.0
 11
354.1486515964151
 21
209.0021495494378
 31
0.0
  0
LINE
  5
41
330
2
100
AcDbEntity
  8
L-ZISSEN
100
AcDbLine
 10
304.1674216606418
 20
203.999195204089
 30
0.0
 11
354.1486515964151
 21
203.9991952040891
 31
0.0
  0
LINE
  5
42
330
2
100
AcDbEntity
  8
L-ZISSEN
100
AcDbLine
 10
304.1674216606418
 20
214.0051038947864
 30
0.0
 11
354.1486515964151
 21
214.0051038947865
 31
0.0
  0
LINE
  5
43
330
2
100
AcDbEntity
  8
L-ZISSEN
100
AcDbLine
 10
304.1674216606419
 20
202.0139669308326
 30
0.0
 11
354.1486515964152
 21
202.0139669308327
 31
0.0
  0
LINE
  5
44
330
2
100
AcDbEntity
  8
L-ZISSEN
100
AcDbLine
 10
304.1674216606419
 20
197.0110125854839
 30
0.0
 11
354.1486515964152
 21
197.011012585484
 31
0.0
  0
LINE
  5
45
330
2
100
AcDbEntity
  8
L-ZISSEN
100
AcDbLine
 10
304.1674216606415
 20
225.9962408587402
 30
0.0
 11
354.1486515964149
 21
225.9962408587404
 31
0.0
  0
LINE
  5
46
330
2
100
AcDbEntity
  8
L-ZISSEN
100
AcDbLine
 10
304.1674216606415
 20
220.9932865133915
 30
0.0
 11
354.1486515964149
 21
220.9932865133915
 31
0.0
  0
LINE
  5
47
330
2
100
AcDbEntity
  8
L-ZISSEN
100
AcDbLine
 10
304.1674216606415
 20
215.9903321680428
 30
0.0
 11
354.1486515964149
 21
215.9903321680428
 31
0.0
  0
LINE
  5
48
330
2
100
AcDbEntity
  8
L-ZISSEN
100
AcDbLine
 10
304.1674216606415
 20
236.0021495494377
 30
0.0
 11
354.1486515964149
 21
236.0021495494378
 31
0.0
  0
LINE
  5
49
330
2
100
AcDbEntity
  8
L-ZISSEN
100
AcDbLine
 10
304.1674216606415
 20
241.0051038947864
 30
0.0
 11
354.1486515964149
 21
241.0051038947865
 31
0.0
  0
LINE
  5
4A
330
2
100
AcDbEntity
  8
L-ZISSEN
100
AcDbLine
 10
304.1674216606415
 20
230.999195204089
 30
0.0
 11
354.1486515964149
 21
230.999195204089
 31
0.0
  0
LINE
  5
4B
330
2
100
AcDbEntity
  8
L-ZISSEN
100
AcDbLine
 10
304.1674216606419
 20
192.0080582401352
 30
0.0
 11
354.1486515964152
 21
192.0080582401352
 31
0.0
  0
TEXT
  5
4C
330
2
100
AcDbEntity
  8
L-ZISSEN
100
AcDbText
 10
294.7780540646526
 20
181.7853434090362
 30
0.0
 40
3.359999999999999
  1
(注) 左図形式は、N11-200-B511です。
 41
0.8
100
AcDbText
  0
ARC
  5
4D
330
2
100
AcDbEntity
  8
L-ZISSEN
100
AcDbCircle
 10
321.2021621126915
 20
124.7420072218401
 30
0.0
 40
11.50000000000001
100
AcDbArc
 50
344.4702073099486
 51
195.5297926900519
  0
CIRCLE
  5
4E
330
2
100
AcDbEntity
  8
L-ZISSEN
100
AcDbCircle
 10
321.2021621126915
 20
124.7420072218401
 30
0.0
 40
9.5
  0
LINE
  5
4F
330
2
100
AcDbEntity
  8
L-ZISSEN
100
AcDbLine
 10
301.2021621126915
 20
99.7420072218401
 30
0.0
 11
341.2021621126914
 21
99.7420072218401
 31
0.0
  0
LINE
  5
50
330
2
100
AcDbEntity
  8
0
100
AcDbLine
 10
174.8724314750502
 20
156.7292036892692
 30
0.0
 11
174.8724314750502
 21
127.7999809873261
 31
0.0
  0
ARC
  5
51
330
2
100
AcDbEntity
  8
L-ZISSEN
  6
CONTINUOUS
 62
     7
100
AcDbCircle
 10
194.3724314750507
 20
155.1736481337134
 30
0.0
 40
0.722222222222238
100
AcDbArc
 50
270.0
 51
0.0
  0
LINE
  5
52
330
2
100
AcDbEntity
  8
L-ZISSEN
  6
CONTINUOUS
 62
     7
100
AcDbLine
 10
194.0113203639396
 20
166.006981467047
 30
0.0
 11
194.0113203639396
 21
154.4514259114913
 31
0.0
  0
LINE
  5
53
330
2
100
AcDbEntity
  8
L-ZISSEN
  6
CONTINUOUS
 62
     7
100
AcDbLine
 10
191.8446536972727
 20
154.4514259114913
 30
0.0
 11
191.8446536972729
 21
166.006981467047
 31
0.0
  0
LINE
  5
54
330
2
100
AcDbEntity
  8
L-ZISSEN
  6
CONTINUOUS
 62
     7
100
AcDbLine
 10
168.37243147505
 20
160.2292036892692
 30
0.0
 11
168.37243147505
 21
142.8958703559355
 31
0.0
  0
LINE
  5
55
330
2
100
AcDbEntity
  8
0
 48
2.0
100
AcDbLine
 10
242.3434317707505
 20
124.7418770520053
 30
0.0
 11
28.23276728753796
 21
124.7463875605308
 31
0.0
  0
LINE
  5
56
330
2
100
AcDbEntity
  8
L-ZISSEN
100
AcDbLine
 10
126.6311566879475
 20
132.7730436568178
 30
0.0
 11
117.7591528710255
 21
129.9713582409477
 31
0.0
  0
LINE
  5
57
330
2
100
AcDbEntity
  8
L-ZISSEN
100
AcDbLine
 10
117.1311566879482
 20
119.773043656818
 30
0.0
 11
122.2757127849462
 21
118.1484469946079
 31
0.0
  0
LINE
  5
58
330
2
100
AcDbEntity
  8
L-ZISSEN
100
AcDbLine
 10
112.5452119259666
 20
138.9749893117147
 30
0.0
 11
129.8657200016554
 21
108.9749893117146
 31
0.0
  0
LINE
  5
59
330
2
100
AcDbEntity
  8
L-ZISSEN
100
AcDbLine
 10
110.235810849208
 20
138.9749893117147
 30
0.0
 11
127.556318924897
 21
108.9749893117146
 31
0.0
  0
ARC
  5
5A
330
2
100
AcDbEntity
  8
L-ZISSEN
100
AcDbCircle
 10
65.43988681351646
 20
124.7660418910048
 30
0.0
 40
6.25
100
AcDbArc
 50
53.13010235415602
 51
72.7436186224709
  0
ARC
  5
5B
330
2
100
AcDbEntity
  8
L-ZISSEN
100
AcDbCircle
 10
65.43988681351646
 20
124.7660418910048
 30
0.0
 40
6.25
100
AcDbArc
 50
287.2563813775252
 51
306.8698976458439
  0
LINE
  5
5C
330
2
100
AcDbEntity
  8
L-ZISSEN
100
AcDbLine
 10
65.29393643529073
 20
132.7660418910048
 30
0.0
 11
54.29393643529073
 21
129.2660418910048
 31
0.0
  0
LINE
  5
5D
330
2
100
AcDbEntity
  8
L-ZISSEN
100
AcDbLine
 10
67.29393643529113
 20
130.7660418910046
 30
0.0
 11
67.29393643529073
 21
118.7660418910047
 31
0.0
  0
LINE
  5
5E
330
2
100
AcDbEntity
  8
L-ZISSEN
100
AcDbLine
 10
37.29393643529073
 20
127.7660418910048
 30
0.0
 11
54.29393643529073
 21
129.2660418910048
 31
0.0
  0
LINE
  5
5F
330
2
100
AcDbEntity
  8
L-ZISSEN
100
AcDbLine
 10
37.29393643529073
 20
121.7660418910048
 30
0.0
 11
54.29393643529073
 21
120.2660418910048
 31
0.0
  0
LINE
  5
60
330
2
100
AcDbEntity
  8
L-ZISSEN
100
AcDbLine
 10
37.29393643529073
 20
127.7660418910048
 30
0.0
 11
37.29393643529073
 21
121.7660418910048
 31
0.0
  0
LINE
  5
61
330
2
100
AcDbEntity
  8
L-ZISSEN
100
AcDbLine
 10
32.79328392794525
 20
125.6333909260898
 30
0.0
 11
32.79328392794525
 21
123.8333909260898
 31
0.0
  0
LINE
  5
62
330
2
100
AcDbEntity
  8
L-ZISSEN
100
AcDbLine
 10
32.79328392794525
 20
123.8333909260898
 30
0.0
 11
37.29653548432054
 21
123.8333909260898
 31
0.0
  0
LINE
  5
63
330
2
100
AcDbEntity
  8
L-ZISSEN
100
AcDbLine
 10
37.29653548432054
 20
124.2961966208351
 30
0.0
 11
32.79328392794531
 21
124.2962914874528
 31
0.0
  0
LINE
  5
64
330
2
100
AcDbEntity
  8
L-ZISSEN
100
AcDbLine
 10
32.79328392794525
 20
125.6333909260898
 30
0.0
 11
37.29653548432054
 21
125.6333909260898
 31
0.0
  0
LINE
  5
65
330
2
100
AcDbEntity
  8
L-ZISSEN
100
AcDbLine
 10
37.29653548432054
 20
125.1961966210349
 30
0.0
 11
32.79328392794525
 21
125.1962914876525
 31
0.0
  0
ARC
  5
66
330
2
100
AcDbEntity
  8
L-ZISSEN
100
AcDbCircle
 10
65.29393643529073
 20
118.7660418910048
 30
0.0
 40
2.0
100
AcDbArc
 50
270.0
 51
0.0
  0
LINE
  5
67
330
2
100
AcDbEntity
  8
L-ZISSEN
100
AcDbLine
 10
54.29393643529073
 20
120.2660418910048
 30
0.0
 11
65.29393643529073
 21
116.7660418910048
 31
0.0
  0
ARC
  5
68
330
2
100
AcDbEntity
  8
L-ZISSEN
100
AcDbCircle
 10
65.29393643529073
 20
130.7660418910046
 30
0.0
 40
2.0
100
AcDbArc
 50
0.0
 51
90.00000000000733
  0
ARC
  5
69
330
2
100
AcDbEntity
  8
L-ZISSEN
100
AcDbCircle
 10
111.3811566879481
 20
124.773043656818
 30
0.0
 40
6.25
100
AcDbArc
 50
53.13010235415602
 51
72.03756900829663
  0
ARC
  5
6A
330
2
100
AcDbEntity
  8
L-ZISSEN
100
AcDbCircle
 10
96.05861492220846
 20
124.7730436568179
 30
0.0
 40
6.25
100
AcDbArc
 50
53.13010235415602
 51
72.74339755752513
  0
LINE
  5
6B
330
2
100
AcDbEntity
  8
L-ZISSEN
100
AcDbLine
 10
111.3086149222078
 20
132.7730436568177
 30
0.0
 11
101.8086149222084
 21
129.7730436568179
 31
0.0
  0
LINE
  5
6C
330
2
100
AcDbEntity
  8
L-ZISSEN
100
AcDbLine
 10
97.91266454398318
 20
130.7730436568178
 30
0.0
 11
97.92147813681504
 21
118.7790685617706
 31
0.0
  0
LINE
  5
6D
330
2
100
AcDbEntity
  8
L-ZISSEN
100
AcDbLine
 10
113.3086149222081
 20
130.7730436568177
 30
0.0
 11
113.3086149222081
 21
118.7730436568179
 31
0.0
  0
ARC
  5
6E
330
2
100
AcDbEntity
  8
L-ZISSEN
100
AcDbCircle
 10
80.73607315646894
 20
124.7790685617707
 30
0.0
 40
6.25
100
AcDbArc
 50
53.13010235415602
 51
71.78339702011218
  0
LINE
  5
6F
330
2
100
AcDbEntity
  8
L-ZISSEN
100
AcDbLine
 10
80.68988681351584
 20
132.7660418910045
 30
0.0
 11
71.18988681351646
 21
129.7660418910048
 31
0.0
  0
LINE
  5
70
330
2
100
AcDbEntity
  8
L-ZISSEN
100
AcDbLine
 10
82.68988681351613
 20
130.7660418910046
 30
0.0
 11
82.68988681351613
 21
118.7660418910047
 31
0.0
  0
LINE
  5
71
330
2
100
AcDbEntity
  8
L-ZISSEN
100
AcDbLine
 10
94.30861492220799
 20
132.2493449088462
 30
0.0
 11
86.48607315646893
 21
129.7790685617707
 31
0.0
  0
LINE
  5
72
330
2
100
AcDbEntity
  8
L-ZISSEN
100
AcDbLine
 10
86.48607315646893
 20
119.7790685617707
 30
0.0
 11
94.30861492220799
 21
117.308792214695
 31
0.0
  0
ARC
  5
73
330
2
100
AcDbEntity
  8
L-ZISSEN
100
AcDbCircle
 10
80.68988681351612
 20
118.7660418910047
 30
0.0
 40
2.0
100
AcDbArc
 50
270.0
 51
0.0
  0
LINE
  5
74
330
2
100
AcDbEntity
  8
L-ZISSEN
100
AcDbLine
 10
71.18988681351646
 20
119.7660418910048
 30
0.0
 11
80.68988681351612
 21
116.7660418910047
 31
0.0
  0
LINE
  5
75
330
2
100
AcDbEntity
  8
L-ZISSEN
100
AcDbLine
 10
69.18988681351646
 20
119.7660418910048
 30
0.0
 11
71.18988681351646
 21
119.7660418910048
 31
0.0
  0
LINE
  5
76
330
2
100
AcDbEntity
  8
L-ZISSEN
100
AcDbLine
 10
69.18988681351646
 20
129.7660418910048
 30
0.0
 11
71.18988681351646
 21
129.7660418910048
 31
0.0
  0
LINE
  5
77
330
2
100
AcDbEntity
  8
L-ZISSEN
100
AcDbLine
 10
84.48607315646894
 20
119.7790685617707
 30
0.0
 11
86.48607315646893
 21
119.7790685617707
 31
0.0
  0
ARC
  5
78
330
2
100
AcDbEntity
  8
L-ZISSEN
100
AcDbCircle
 10
80.73607315646894
 20
124.7790685617707
 30
0.0
 40
6.25
100
AcDbArc
 50
288.2166029798877
 51
306.8698976458439
  0
LINE
  5
79
330
2
100
AcDbEntity
  8
L-ZISSEN
100
AcDbLine
 10
84.48607315646894
 20
129.7790685617707
 30
0.0
 11
86.48607315646893
 21
129.7790685617708
 31
0.0
  0
ARC
  5
7A
330
2
100
AcDbEntity
  8
L-ZISSEN
100
AcDbCircle
 10
111.3086149222081
 20
118.7730436568179
 30
0.0
 40
2.0
100
AcDbArc
 50
270.0
 51
0.0
  0
ARC
  5
7B
330
2
100
AcDbEntity
  8
L-ZISSEN
100
AcDbCircle
 10
95.92147813681505
 20
118.7790685617706
 30
0.0
 40
2.0
100
AcDbArc
 50
270.0
 51
0.0
  0
LINE
  5
7C
330
2
100
AcDbEntity
  8
L-ZISSEN
100
AcDbLine
 10
101.8086149222084
 20
119.7730436568179
 30
0.0
 11
111.3086149222081
 21
116.7730436568179
 31
0.0
  0
LINE
  5
7D
330
2
100
AcDbEntity
  8
L-ZISSEN
100
AcDbLine
 10
94.30861492220799
 20
117.288393787436
 30
0.0
 11
95.92147813681505
 21
116.7790685617706
 31
0.0
  0
ARC
  5
7E
330
2
100
AcDbEntity
  8
L-ZISSEN
100
AcDbCircle
 10
96.05861492220846
 20
124.7730436568179
 30
0.0
 40
6.25
100
AcDbArc
 50
287.3408083169609
 51
306.8698976458439
  0
LINE
  5
7F
330
2
100
AcDbEntity
  8
L-ZISSEN
100
AcDbLine
 10
99.80861492220846
 20
119.7730436568179
 30
0.0
 11
101.8086149222084
 21
119.7730436568179
 31
0.0
  0
LINE
  5
80
330
2
100
AcDbEntity
  8
L-ZISSEN
100
AcDbLine
 10
99.80861492220846
 20
129.7730436568179
 30
0.0
 11
101.8086149222084
 21
129.7730436568179
 31
0.0
  0
LINE
  5
81
330
2
100
AcDbEntity
  8
L-ZISSEN
100
AcDbLine
 10
115.1311566879481
 20
119.773043656818
 30
0.0
 11
117.1311566879482
 21
119.773043656818
 31
0.0
  0
ARC
  5
82
330
2
100
AcDbEntity
  8
L-ZISSEN
100
AcDbCircle
 10
111.3811566879481
 20
124.773043656818
 30
0.0
 40
6.25
100
AcDbArc
 50
287.9624309917033
 51
306.8698976458439
  0
LINE
  5
83
330
2
100
AcDbEntity
  8
L-ZISSEN
100
AcDbLine
 10
115.1311566879481
 20
129.773043656818
 30
0.0
 11
115.5642487727983
 21
129.773043656818
 31
0.0
  0
ARC
  5
84
330
2
100
AcDbEntity
  8
L-ZISSEN
100
AcDbCircle
 10
80.68988681351612
 20
130.7660418910046
 30
0.0
 40
2.0
100
AcDbArc
 50
0.0
 51
90.00000000000733
  0
LINE
  5
85
330
2
100
AcDbEntity
  8
L-ZISSEN
100
AcDbLine
 10
95.92147813681481
 20
132.7790685617706
 30
0.0
 11
94.30861492220799
 21
132.2697433361052
 31
0.0
  0
ARC
  5
86
330
2
100
AcDbEntity
  8
L-ZISSEN
100
AcDbCircle
 10
95.92147813681505
 20
130.7790685617706
 30
0.0
 40
2.0
100
AcDbArc
 50
0.0
 51
90.00000000000733
  0
ARC
  5
87
330
2
100
AcDbEntity
  8
L-ZISSEN
100
AcDbCircle
 10
111.3086149222081
 20
130.7730436568177
 30
0.0
 40
2.0
100
AcDbArc
 50
0.0
 51
90.00000000000733
  0
LINE
  5
88
330
2
100
AcDbEntity
  8
L-ZISSEN
100
AcDbLine
 10
210.3801385943534
 20
128.7420072218397
 30
0.0
 11
233.5411452422344
 21
128.7420072218395
 31
0.0
  0
LINE
  5
89
330
2
100
AcDbEntity
  8
L-ZISSEN
100
AcDbLine
 10
212.3801385943534
 20
124.7420072218396
 30
0.0
 11
221.3801385943533
 21
124.7420072218396
 31
0.0
  0
LINE
  5
8A
330
2
100
AcDbEntity
  8
L-ZISSEN
100
AcDbLine
 10
210.3801385943538
 20
120.7420072218396
 30
0.0
 11
233.5411452422344
 21
120.7420072218396
 31
0.0
  0
LINE
  5
8B
330
2
100
AcDbEntity
  8
L-ZISSEN
100
AcDbLine
 10
203.3801385943537
 20
115.24200722184
 30
0.0
 11
203.3801385943537
 21
99.74200722184008
 31
0.0
  0
LINE
  5
8C
330
2
100
AcDbEntity
  8
L-ZISSEN
100
AcDbLine
 10
201.3801385943537
 20
101.74200722184
 30
0.0
 11
201.3801385943537
 21
136.24200722184
 31
0.0
  0
LINE
  5
8D
330
2
100
AcDbEntity
  8
L-ZISSEN
100
AcDbLine
 10
203.3801385943537
 20
99.74200722184008
 30
0.0
 11
148.8801385943535
 21
99.74200722184008
 31
0.0
  0
LINE
  5
8E
330
2
100
AcDbEntity
  8
L-ZISSEN
100
AcDbLine
 10
148.8801385943535
 20
101.7420072218399
 30
0.0
 11
201.3801385943537
 21
101.74200722184
 31
0.0
  0
LINE
  5
8F
330
2
100
AcDbEntity
  8
L-ZISSEN
100
AcDbLine
 10
152.6301385943536
 20
101.7420072218399
 30
0.0
 11
152.6301385943535
 21
99.74200722183997
 31
0.0
  0
LINE
  5
90
330
2
100
AcDbEntity
  8
L-ZISSEN
100
AcDbLine
 10
148.8801385943535
 20
101.7420072218399
 30
0.0
 11
148.8801385943535
 21
99.74200722183997
 31
0.0
  0
LINE
  5
91
330
2
100
AcDbEntity
  8
0
100
AcDbLine
 10
154.8801385943536
 20
103.7420072218399
 30
0.0
 11
154.8801385943534
 21
97.74200722183998
 31
0.0
  0
LINE
  5
92
330
2
100
AcDbEntity
  8
L-ZISSEN
100
AcDbLine
 10
157.1301385943535
 20
101.74200722184
 30
0.0
 11
157.1301385943535
 21
99.74200722183997
 31
0.0
  0
LINE
  5
93
330
2
100
AcDbEntity
  8
L-ZISSEN
 62
     7
100
AcDbLine
 10
170.3801385943534
 20
97.14400722183995
 30
0.0
 11
183.8696385943534
 21
73.77900722183998
 31
0.0
  0
LINE
  5
94
330
2
100
AcDbEntity
  8
L-ZISSEN
 62
     7
100
AcDbLine
 10
183.8696385943534
 20
73.77900722183998
 30
0.0
 11
189.7466385943533
 21
73.77900722183998
 31
0.0
  0
TEXT
  5
95
330
2
100
AcDbEntity
  8
L-ZISSEN
 62
     7
100
AcDbText
 10
192.5919385943533
 20
72.70700722183997
 30
0.0
 40
4.5
  1
P.P
 41
0.7780000000000001
  7
FONT1
 72
     2
 11
201.9279385943533
 21
72.70700722183997
 31
0.0
100
AcDbText
  0
LINE
  5
97
330
2
100
AcDbEntity
  8
0
100
AcDbLine
 10
168.8801385943534
 20
103.7420072218399
 30
0.0
 11
168.8801385943532
 21
97.74200722183998
 31
0.0
  0
LINE
  5
98
330
2
100
AcDbEntity
  8
L-ZISSEN
100
AcDbLine
 10
201.3801385943537
 20
124.7427399949304
 30
0.0
 11
165.0093037189528
 21
124.7435061919864
 31
0.0
  0
LINE
  5
99
330
2
100
AcDbEntity
  8
L-ZISSEN
100
AcDbLine
 10
200.3801385943536
 20
137.24200722184
 30
0.0
 11
165.0093037189526
 21
137.24200722184
 31
0.0
  0
LINE
  5
9A
330
2
100
AcDbEntity
  8
L-ZISSEN
100
AcDbLine
 10
200.3801385943536
 20
112.24200722184
 30
0.0
 11
165.0093037189531
 21
112.24200722184
 31
0.0
  0
LINE
  5
9B
330
2
100
AcDbEntity
  8
L-ZISSEN
100
AcDbLine
 10
154.8801385943534
 20
131.7359823168872
 30
0.0
 11
154.8801385943534
 21
129.8247572218396
 31
0.0
  0
ARC
  5
9C
330
2
100
AcDbEntity
  8
L-ZISSEN
100
AcDbCircle
 10
142.1275395453235
 20
124.7397029242584
 30
0.0
 40
6.25
100
AcDbArc
 50
53.13010235415602
 51
72.03756900829417
  0
LINE
  5
9D
330
2
100
AcDbEntity
  8
L-ZISSEN
100
AcDbLine
 10
142.0549977795834
 20
132.7397029242582
 30
0.0
 11
132.5549977795841
 21
129.7397029242584
 31
0.0
  0
ARC
  5
9E
330
2
100
AcDbEntity
  8
L-ZISSEN
100
AcDbCircle
 10
142.0549977795836
 20
130.7397029242582
 30
0.0
 40
2.0
100
AcDbArc
 50
0.0
 51
90.00000000000733
  0
ARC
  5
9F
330
2
100
AcDbEntity
  8
L-ZISSEN
100
AcDbCircle
 10
126.8049977795841
 20
124.7397029242584
 30
0.0
 40
6.25
100
AcDbArc
 50
53.13010235415602
 51
73.362666869088
  0
LINE
  5
A0
330
2
100
AcDbEntity
  8
L-ZISSEN
100
AcDbLine
 10
165.0093037189526
 20
137.24200722184
 30
0.0
 11
165.0093037189531
 21
112.24200722184
 31
0.0
  0
LINE
  5
A1
330
2
100
AcDbEntity
  8
L-ZISSEN
100
AcDbLine
 10
128.6311566879482
 20
130.8276753120315
 30
0.0
 11
128.6311566879482
 21
118.8276753120316
 31
0.0
  0
LINE
  5
A2
330
2
100
AcDbEntity
  8
L-ZISSEN
100
AcDbLine
 10
154.8801385943534
 20
131.7359823168872
 30
0.0
 11
154.8801385943534
 21
117.7359823168872
 31
0.0
  0
LINE
  5
A3
330
2
100
AcDbEntity
  8
L-ZISSEN
100
AcDbLine
 10
159.3801385943541
 20
115.49200722184
 30
0.0
 11
159.3801385943541
 21
133.99200722184
 31
0.0
  0
LINE
  5
A4
330
2
100
AcDbEntity
  8
L-ZISSEN
100
AcDbLine
 10
147.8801385943533
 20
131.7359823168872
 30
0.0
 11
147.8801385943533
 21
117.7359823168872
 31
0.0
  0
ARC
  5
A5
330
2
100
AcDbEntity
  8
L-ZISSEN
100
AcDbCircle
 10
142.0549977795836
 20
118.7397029242583
 30
0.0
 40
2.0
100
AcDbArc
 50
270.0
 51
0.0
  0
LINE
  5
A6
330
2
100
AcDbEntity
  8
L-ZISSEN
100
AcDbLine
 10
132.5549977795841
 20
119.7397029242584
 30
0.0
 11
142.0549977795836
 21
116.7397029242583
 31
0.0
  0
ARC
  5
A7
330
2
100
AcDbEntity
  8
L-ZISSEN
100
AcDbCircle
 10
126.6311566879477
 20
118.7730436568179
 30
0.0
 40
2.0
100
AcDbArc
 50
270.0
 51
0.0
  0
LINE
  5
A8
330
2
100
AcDbEntity
  8
L-ZISSEN
100
AcDbLine
 10
125.1000502884128
 20
117.2565509408817
 30
0.0
 11
126.6311566879477
 21
116.7730436568179
 31
0.0
  0
ARC
  5
A9
330
2
100
AcDbEntity
  8
L-ZISSEN
100
AcDbCircle
 10
126.8049977795841
 20
124.7397029242584
 30
0.0
 40
6.25
100
AcDbArc
 50
287.3393687748436
 51
306.8698976458439
  0
LINE
  5
AA
330
2
100
AcDbEntity
  8
L-ZISSEN
100
AcDbLine
 10
130.5549977795841
 20
119.7397029242584
 30
0.0
 11
132.5549977795841
 21
119.7397029242584
 31
0.0
  0
LINE
  5
AB
330
2
100
AcDbEntity
  8
L-ZISSEN
100
AcDbLine
 10
130.5549977795841
 20
129.7397029242584
 30
0.0
 11
132.5549977795841
 21
129.7397029242584
 31
0.0
  0
LINE
  5
AC
330
2
100
AcDbEntity
  8
L-ZISSEN
100
AcDbLine
 10
147.8801385943533
 20
117.7359823168872
 30
0.0
 11
154.8801385943534
 21
117.7359823168872
 31
0.0
  0
LINE
  5
AD
330
2
100
AcDbEntity
  8
L-ZISSEN
100
AcDbLine
 10
159.3801385943541
 20
115.49200722184
 30
0.0
 11
165.0093037189529
 21
112.24200722184
 31
0.0
  0
LINE
  5
AE
330
2
100
AcDbEntity
  8
L-ZISSEN
100
AcDbLine
 10
144.0549977795836
 20
130.7397029242584
 30
0.0
 11
144.0549977795836
 21
118.7397029242583
 31
0.0
  0
ARC
  5
AF
330
2
100
AcDbEntity
  8
L-ZISSEN
100
AcDbCircle
 10
142.1275395453235
 20
124.7397029242584
 30
0.0
 40
6.25
100
AcDbArc
 50
287.9624309917058
 51
306.8698976458439
  0
LINE
  5
B0
330
2
100
AcDbEntity
  8
L-ZISSEN
100
AcDbLine
 10
145.8775395453235
 20
119.7397029242584
 30
0.0
 11
147.8775395453235
 21
119.7397029242584
 31
0.0
  0
LINE
  5
B1
330
2
100
AcDbEntity
  8
L-ZISSEN
100
AcDbLine
 10
145.8775395453235
 20
129.7397029242584
 30
0.0
 11
147.8775395453235
 21
129.7397029242584
 31
0.0
  0
LINE
  5
B2
330
2
100
AcDbEntity
  8
L-ZISSEN
100
AcDbLine
 10
159.3801385943541
 20
119.8032310514892
 30
0.0
 11
154.8801385943534
 21
119.6626060514892
 31
0.0
  0
LINE
  5
B3
330
2
100
AcDbEntity
  8
L-ZISSEN
100
AcDbLine
 10
159.3801385943541
 20
129.6841322218396
 30
0.0
 11
154.8801385943534
 21
129.8247572218396
 31
0.0
  0
ARC
  5
B4
330
2
100
AcDbEntity
  8
L-ZISSEN
100
AcDbCircle
 10
126.6311566879477
 20
130.7730436568178
 30
0.0
 40
2.0
100
AcDbArc
 50
0.0
 51
90.00000000000733
  0
LINE
  5
B5
330
2
100
AcDbEntity
  8
L-ZISSEN
100
AcDbLine
 10
147.8801385943533
 20
131.7359823168872
 30
0.0
 11
154.8801385943534
 21
131.7359823168872
 31
0.0
  0
LINE
  5
B6
330
2
100
AcDbEntity
  8
L-ZISSEN
100
AcDbLine
 10
147.8801385943534
 20
131.7359823168872
 30
0.0
 11
154.8801385943534
 21
131.7359823168872
 31
0.0
  0
LINE
  5
B7
330
2
100
AcDbEntity
  8
L-ZISSEN
100
AcDbLine
 10
159.3801385943541
 20
133.99200722184
 30
0.0
 11
165.0093037189526
 21
137.24200722184
 31
0.0
  0
LINE
  5
B8
330
2
100
AcDbEntity
  8
L-ZISSEN
100
AcDbLine
 10
203.3801385943537
 20
135.69200722184
 30
0.0
 11
203.3801385943537
 21
115.24200722184
 31
0.0
  0
LINE
  5
B9
330
2
100
AcDbEntity
  8
L-ZISSEN
100
AcDbLine
 10
210.3801385943537
 20
115.24200722184
 30
0.0
 11
210.3801385943538
 21
134.24200722184
 31
0.0
  0
LINE
  5
BA
330
2
100
AcDbEntity
  8
L-ZISSEN
100
AcDbLine
 10
210.3801385943537
 20
115.24200722184
 30
0.0
 11
203.380138594354
 21
115.24200722184
 31
0.0
  0
LINE
  5
BB
330
2
100
AcDbEntity
  8
L-ZISSEN
100
AcDbLine
 10
201.3801385943537
 20
113.24200722184
 30
0.0
 11
200.3801385943536
 21
112.24200722184
 31
0.0
  0
LINE
  5
BC
330
2
100
AcDbEntity
  8
L-ZISSEN
100
AcDbLine
 10
203.3801385943537
 20
118.4925503986913
 30
0.0
 11
203.3801385943537
 21
115.2425503986913
 31
0.0
  0
LINE
  5
BD
330
2
100
AcDbEntity
  8
L-ZISSEN
100
AcDbLine
 10
203.5061816180273
 20
124.7420072218399
 30
0.0
 11
210.3801385943538
 21
124.74200722184
 31
0.0
  0
LINE
  5
BE
330
2
100
AcDbEntity
  8
L-ZISSEN
100
AcDbLine
 10
203.5061816180273
 20
124.7420072218399
 30
0.0
 11
210.3801385943538
 21
124.7425503986913
 31
0.0
  0
LINE
  5
BF
330
2
100
AcDbEntity
  8
L-ZISSEN
100
AcDbLine
 10
212.3801385943534
 20
120.7420072218396
 30
0.0
 11
212.3801385943534
 21
128.7420072218396
 31
0.0
  0
ARC
  5
C0
330
2
100
AcDbEntity
  8
L-ZISSEN
  6
CONTINUOUS
 62
     7
100
AcDbCircle
 10
191.1224314750505
 20
154.4514259114913
 30
0.0
 40
0.722222222222238
100
AcDbArc
 50
270.0
 51
0.0
  0
LINE
  5
C1
330
2
100
AcDbEntity
  8
L-ZISSEN
  6
CONTINUOUS
 62
     7
100
AcDbLine
 10
181.9610100861612
 20
142.8958703559355
 30
0.0
 11
181.9610100861612
 21
139.2847592448243
 31
0.0
  0
LINE
  5
C2
330
2
100
AcDbEntity
  8
L-ZISSEN
  6
CONTINUOUS
 62
     7
100
AcDbLine
 10
167.7838528639388
 20
142.8958703559355
 30
0.0
 11
167.7838528639389
 21
139.2847592448243
 31
0.0
  0
LINE
  5
C3
330
2
100
AcDbEntity
  8
L-ZISSEN
100
AcDbLine
 10
167.7838528639389
 20
139.2847592448243
 30
0.0
 11
181.9610100861612
 21
139.2847592448243
 31
0.0
  0
LINE
  5
C4
330
2
100
AcDbEntity
  8
L-ZISSEN
100
AcDbLine
 10
169.9264341424357
 20
137.24200722184
 30
0.0
 11
169.8625981417174
 21
139.2847592448243
 31
0.0
  0
LINE
  5
C5
330
2
100
AcDbEntity
  8
L-ZISSEN
100
AcDbLine
 10
179.8184288076648
 20
137.24200722184
 30
0.0
 11
179.8822648083831
 21
139.2847592448243
 31
0.0
  0
LINE
  5
C6
330
2
100
AcDbEntity
  8
L-ZISSEN
  6
CONTINUOUS
 62
     7
100
AcDbLine
 10
181.9610100861612
 20
142.8958703559355
 30
0.0
 11
167.7838528639388
 21
142.8958703559355
 31
0.0
  0
LINE
  5
C7
330
2
100
AcDbEntity
  8
L-ZISSEN
  6
CONTINUOUS
 62
     7
100
AcDbLine
 10
181.3724314750505
 20
153.0069814670468
 30
0.0
 11
181.3724314750505
 21
142.8958703559355
 31
0.0
  0
LINE
  5
C8
330
2
100
AcDbEntity
  8
L-ZISSEN
  6
CONTINUOUS
 62
     7
100
AcDbLine
 10
182.0946536972726
 20
153.729203689269
 30
0.0
 11
191.1224314750505
 21
153.729203689269
 31
0.0
  0
ARC
  5
C9
330
2
100
AcDbEntity
  8
L-ZISSEN
  6
CONTINUOUS
 62
     7
100
AcDbCircle
 10
182.0946536972726
 20
153.0069814670468
 30
0.0
 40
0.722222222222238
100
AcDbArc
 50
90.0
 51
180.0
  0
LINE
  5
CA
330
2
100
AcDbEntity
  8
L-ZISSEN
100
AcDbLine
 10
210.3801385943538
 20
134.24200722184
 30
0.0
 11
203.380138594354
 21
134.24200722184
 31
0.0
  0
LINE
  5
CB
330
2
100
AcDbEntity
  8
L-ZISSEN
100
AcDbLine
 10
200.3801385943536
 20
137.24200722184
 30
0.0
 11
201.3801385943537
 21
136.24200722184
 31
0.0
  0
LINE
  5
CC
330
2
100
AcDbEntity
  8
L-ZISSEN
100
AcDbLine
 10
203.3801385943537
 20
135.69200722184
 30
0.0
 11
201.3801385943534
 21
135.69200722184
 31
0.0
  0
LINE
  5
CD
330
2
100
AcDbEntity
  8
L-ZISSEN
  6
CONTINUOUS
 62
     7
100
AcDbLine
 10
194.3724314750507
 20
154.4514259114913
 30
0.0
 11
194.0113203639396
 21
154.4514259114913
 31
0.0
  0
LINE
  5
CE
330
2
100
AcDbEntity
  8
L-ZISSEN
100
AcDbLine
 10
310.9467454313171
 20
123.5049099667701
 30
0.0
 11
301.2021621126915
 21
101.7420072218401
 31
0.0
  0
LINE
  5
CF
330
2
100
AcDbEntity
  8
L-ZISSEN
100
AcDbLine
 10
301.2021621126915
 20
99.7420072218401
 30
0.0
 11
301.2021621126915
 21
101.7420072218399
 31
0.0
  0
LINE
  5
D0
330
2
100
AcDbEntity
  8
L-ZISSEN
 62
     7
100
AcDbLine
 10
242.9701385943536
 20
137.7140216358467
 30
0.0
 11
287.9701385943535
 21
137.7140216358467
 31
0.0
  0
TEXT
  5
D1
330
2
100
AcDbEntity
  8
L-ZISSEN
 62
     7
100
AcDbText
 10
243.8697385943536
 20
139.0190216358467
 30
0.0
 40
4.5
  1
O.D.%%c4 TUBE
 41
0.8789089
  7
FONT1
100
AcDbText
  0
TEXT
  5
D2
330
2
100
AcDbEntity
  8
L-ZISSEN
 62
     7
100
AcDbText
 10
243.8698385943536
 20
145.5530216358468
 30
0.0
 40
4.5
  1
OIL IN
 41
0.8888889
  7
FONT1
100
AcDbText
  0
LINE
  5
D3
330
2
100
AcDbEntity
  8
L-ZISSEN
 62
     7
100
AcDbLine
 10
236.9801385943536
 20
127.3400216358467
 30
0.0
 11
242.9701385943536
 21
137.7140216358467
 31
0.0
  0
LINE
  5
D4
330
2
100
AcDbEntity
  8
L-ZISSEN
100
AcDbLine
 10
221.3801385943534
 20
120.7420072218396
 30
0.0
 11
221.3801385943533
 21
128.7420072218396
 31
0.0
  0
LINE
  5
D5
330
2
100
AcDbEntity
  8
L-ZISSEN
100
AcDbLine
 10
235.4801385943537
 20
128.1435208784472
 30
0.0
 11
235.4801385943537
 21
121.3404935652327
 31
0.0
  0
LINE
  5
D6
330
2
100
AcDbEntity
  8
L-ZISSEN
  6
CONTINUOUS
 62
     7
100
AcDbLine
 10
234.3968052610202
 20
128.8657431006693
 30
0.0
 11
234.3968052610202
 21
120.6182713430106
 31
0.0
  0
LINE
  5
D7
330
2
100
AcDbEntity
  8
L-ZISSEN
100
AcDbLine
 10
233.5411452422344
 20
128.7420072218395
 30
0.0
 11
233.5411452422344
 21
120.7420072218396
 31
0.0
  0
LINE
  5
D8
330
2
100
AcDbEntity
  8
L-ZISSEN
  6
CONTINUOUS
 62
     7
100
AcDbLine
 10
234.7579163721313
 20
120.6182713430106
 30
0.0
 11
234.3968052610202
 21
120.6182713430106
 31
0.0
  0
LINE
  5
D9
330
2
100
AcDbEntity
  8
L-ZISSEN
  6
CONTINUOUS
 62
     7
100
AcDbLine
 10
233.5411452422344
 20
121.3404935652328
 30
0.0
 11
234.3968052610202
 21
121.3404935652327
 31
0.0
  0
ARC
  5
DA
330
2
100
AcDbEntity
  8
L-ZISSEN
  6
CONTINUOUS
 62
     7
100
AcDbCircle
 10
234.7579163721313
 20
121.3404935652327
 30
0.0
 40
0.722222222222238
100
AcDbArc
 50
270.0
 51
0.0
  0
LINE
  5
DB
330
2
100
AcDbEntity
  8
L-ZISSEN
  6
CONTINUOUS
 62
     7
100
AcDbLine
 10
234.7579163721313
 20
128.8657431006693
 30
0.0
 11
234.3968052610202
 21
128.8657431006693
 31
0.0
  0
LINE
  5
DC
330
2
100
AcDbEntity
  8
L-ZISSEN
  6
CONTINUOUS
 62
     7
100
AcDbLine
 10
233.5411452422344
 20
128.1435208784472
 30
0.0
 11
234.3968052610202
 21
128.1435208784472
 31
0.0
  0
ARC
  5
DD
330
2
100
AcDbEntity
  8
L-ZISSEN
  6
CONTINUOUS
 62
     7
100
AcDbCircle
 10
234.7579163721313
 20
128.1435208784472
 30
0.0
 40
0.722222222222238
100
AcDbArc
 50
0.0
 51
90.0
  0
LINE
  5
DE
330
2
100
AcDbEntity
  8
L-ZISSEN
  6
CONTINUOUS
 62
     7
100
AcDbLine
 10
314.1135835015802
 20
143.019784999618
 30
0.0
 11
314.1135835015802
 21
139.4086738885068
 31
0.0
  0
LINE
  5
DF
330
2
100
AcDbEntity
  8
0
 48
2.0
100
AcDbLine
 10
242.6612664799399
 20
248.1207556719989
 30
0.0
 11
28.23276728753796
 21
248.1207556719989
 31
0.0
  0
LINE
  5
E0
330
2
100
AcDbEntity
  8
L-ZISSEN
100
AcDbLine
 10
126.6337557369778
 20
256.1480714996054
 30
0.0
 11
117.7617519200559
 21
253.3463860837353
 31
0.0
  0
LINE
  5
E1
330
2
100
AcDbEntity
  8
L-ZISSEN
100
AcDbLine
 10
117.1337557369785
 20
243.1480714996057
 30
0.0
 11
122.2783118339765
 21
241.5234748373955
 31
0.0
  0
TEXT
  5
E2
330
2
100
AcDbEntity
  8
L-ZISSEN
 62
     7
100
AcDbText
 10
30.01027568353538
 20
295.2925049154858
 30
0.0
 40
4.5
  1
MODEL No. :N11-200-B*11
 41
0.9097777999999999
  7
FONT1
100
AcDbText
  0
LINE
  5
E3
330
2
100
AcDbEntity
  8
L-ZISSEN
100
AcDbLine
 10
112.5452119259672
 20
262.3816983932119
 30
0.0
 11
129.8657200016559
 21
232.3816983932119
 31
0.0
  0
LINE
  5
E4
330
2
100
AcDbEntity
  8
L-ZISSEN
100
AcDbLine
 10
110.2358108492084
 20
262.3816983932119
 30
0.0
 11
127.5563189248975
 21
232.3816983932119
 31
0.0
  0
LINE
  5
E5
330
2
100
AcDbEntity
  8
L-ZISSEN
100
AcDbLine
 10
113.3112139712384
 20
254.1480714996053
 30
0.0
 11
113.3112139712384
 21
242.1480714996055
 31
0.0
  0
LINE
  5
E6
330
2
100
AcDbEntity
  8
L-ZISSEN
100
AcDbLine
 10
97.91526359301355
 20
254.1480714996054
 30
0.0
 11
97.92407718584541
 21
242.1540964045582
 31
0.0
  0
LINE
  5
E7
330
2
100
AcDbEntity
  8
L-ZISSEN
100
AcDbLine
 10
82.69248586254651
 20
254.1410697337922
 30
0.0
 11
82.69248586254651
 21
242.1410697337923
 31
0.0
  0
LINE
  5
E8
330
2
100
AcDbEntity
  8
L-ZISSEN
100
AcDbLine
 10
67.29653548432151
 20
254.1410697337922
 30
0.0
 11
67.29653548432111
 21
242.1410697337923
 31
0.0
  0
LINE
  5
E9
330
2
100
AcDbEntity
  8
L-ZISSEN
100
AcDbLine
 10
37.29653548432111
 20
251.1410697337924
 30
0.0
 11
54.29653548432111
 21
252.6410697337924
 31
0.0
  0
ARC
  5
EA
330
2
100
AcDbEntity
  8
L-ZISSEN
100
AcDbCircle
 10
65.44248586254685
 20
248.1410697337924
 30
0.0
 40
6.25
100
AcDbArc
 50
287.2563813775252
 51
306.8698976458439
  0
LINE
  5
EB
330
2
100
AcDbEntity
  8
L-ZISSEN
100
AcDbLine
 10
37.29653548432111
 20
245.1410697337924
 30
0.0
 11
54.29653548432111
 21
243.6410697337924
 31
0.0
  0
LINE
  5
EC
330
2
100
AcDbEntity
  8
L-ZISSEN
100
AcDbLine
 10
37.29653548432111
 20
251.1410697337924
 30
0.0
 11
37.29653548432111
 21
245.1410697337924
 31
0.0
  0
LINE
  5
ED
330
2
100
AcDbEntity
  8
L-ZISSEN
100
AcDbLine
 10
32.79328392794582
 20
249.0410697337923
 30
0.0
 11
32.79328392794582
 21
247.2410697337923
 31
0.0
  0
LINE
  5
EE
330
2
100
AcDbEntity
  8
L-ZISSEN
100
AcDbLine
 10
32.79328392794582
 20
247.2410697337923
 30
0.0
 11
37.29653548432111
 21
247.2410697337923
 31
0.0
  0
LINE
  5
EF
330
2
100
AcDbEntity
  8
L-ZISSEN
100
AcDbLine
 10
32.79328392794582
 20
249.0410697337923
 30
0.0
 11
37.29653548432111
 21
249.0410697337924
 31
0.0
  0
LINE
  5
F0
330
2
100
AcDbEntity
  8
L-ZISSEN
100
AcDbLine
 10
54.29653548432111
 20
243.6410697337924
 30
0.0
 11
65.29653548432111
 21
240.1410697337924
 31
0.0
  0
ARC
  5
F1
330
2
100
AcDbEntity
  8
L-ZISSEN
100
AcDbCircle
 10
65.29653548432111
 20
242.1410697337924
 30
0.0
 40
2.0
100
AcDbArc
 50
270.0
 51
0.0
  0
LINE
  5
F2
330
2
100
AcDbEntity
  8
L-ZISSEN
100
AcDbLine
 10
86.48867220549931
 20
243.1540964045584
 30
0.0
 11
94.31121397123837
 21
240.6838200574827
 31
0.0
  0
ARC
  5
F3
330
2
100
AcDbEntity
  8
L-ZISSEN
100
AcDbCircle
 10
80.6924858625465
 20
242.1410697337923
 30
0.0
 40
2.0
100
AcDbArc
 50
270.0
 51
0.0
  0
LINE
  5
F4
330
2
100
AcDbEntity
  8
L-ZISSEN
100
AcDbLine
 10
71.19248586254684
 20
243.1410697337924
 30
0.0
 11
80.6924858625465
 21
240.1410697337923
 31
0.0
  0
LINE
  5
F5
330
2
100
AcDbEntity
  8
L-ZISSEN
100
AcDbLine
 10
69.19248586254685
 20
243.1410697337924
 30
0.0
 11
71.19248586254684
 21
243.1410697337924
 31
0.0
  0
LINE
  5
F6
330
2
100
AcDbEntity
  8
L-ZISSEN
100
AcDbLine
 10
84.48867220549932
 20
243.1540964045584
 30
0.0
 11
86.48867220549931
 21
243.1540964045584
 31
0.0
  0
ARC
  5
F7
330
2
100
AcDbEntity
  8
L-ZISSEN
100
AcDbCircle
 10
80.73867220549932
 20
248.1540964045584
 30
0.0
 40
6.25
100
AcDbArc
 50
288.2166029798877
 51
306.8698976458439
  0
LINE
  5
F8
330
2
100
AcDbEntity
  8
L-ZISSEN
100
AcDbLine
 10
101.8112139712388
 20
243.1480714996055
 30
0.0
 11
111.3112139712384
 21
240.1480714996055
 31
0.0
  0
ARC
  5
F9
330
2
100
AcDbEntity
  8
L-ZISSEN
100
AcDbCircle
 10
96.06121397123883
 20
248.1480714996056
 30
0.0
 40
6.25
100
AcDbArc
 50
287.3408083169609
 51
306.8698976458439
  0
LINE
  5
FA
330
2
100
AcDbEntity
  8
L-ZISSEN
100
AcDbLine
 10
94.31121397123837
 20
240.6634216302236
 30
0.0
 11
95.92407718584542
 21
240.1540964045583
 31
0.0
  0
ARC
  5
FB
330
2
100
AcDbEntity
  8
L-ZISSEN
100
AcDbCircle
 10
95.92407718584542
 20
242.1540964045582
 30
0.0
 40
2.0
100
AcDbArc
 50
270.0
 51
0.0
  0
LINE
  5
FC
330
2
100
AcDbEntity
  8
L-ZISSEN
100
AcDbLine
 10
99.81121397123883
 20
243.1480714996055
 30
0.0
 11
101.8112139712388
 21
243.1480714996055
 31
0.0
  0
ARC
  5
FD
330
2
100
AcDbEntity
  8
L-ZISSEN
100
AcDbCircle
 10
111.3112139712384
 20
242.1480714996055
 30
0.0
 40
2.0
100
AcDbArc
 50
270.0
 51
0.0
  0
ARC
  5
FE
330
2
100
AcDbEntity
  8
L-ZISSEN
100
AcDbCircle
 10
111.3837557369785
 20
248.1480714996056
 30
0.0
 40
6.25
100
AcDbArc
 50
287.9624309917033
 51
306.8698976458439
  0
LINE
  5
FF
330
2
100
AcDbEntity
  8
L-ZISSEN
100
AcDbLine
 10
115.1337557369785
 20
243.1480714996057
 30
0.0
 11
117.1337557369785
 21
243.1480714996057
 31
0.0
  0
ARC
  5
100
330
2
100
AcDbEntity
  8
L-ZISSEN
100
AcDbCircle
 10
65.44248586254685
 20
248.1410697337924
 30
0.0
 40
6.25
100
AcDbArc
 50
53.13010235415602
 51
72.7436186224709
  0
LINE
  5
101
330
2
100
AcDbEntity
  8
L-ZISSEN
100
AcDbLine
 10
65.29653548432111
 20
256.1410697337924
 30
0.0
 11
54.29653548432111
 21
252.6410697337924
 31
0.0
  0
ARC
  5
102
330
2
100
AcDbEntity
  8
L-ZISSEN
100
AcDbCircle
 10
65.29653548432111
 20
254.1410697337922
 30
0.0
 40
2.0
100
AcDbArc
 50
0.0
 51
90.00000000000733
  0
LINE
  5
103
330
2
100
AcDbEntity
  8
L-ZISSEN
100
AcDbLine
 10
94.31121397123837
 20
255.6243727516338
 30
0.0
 11
86.48867220549931
 21
253.1540964045583
 31
0.0
  0
ARC
  5
104
330
2
100
AcDbEntity
  8
L-ZISSEN
100
AcDbCircle
 10
80.6924858625465
 20
254.1410697337922
 30
0.0
 40
2.0
100
AcDbArc
 50
0.0
 51
90.00000000000733
  0
LINE
  5
105
330
2
100
AcDbEntity
  8
L-ZISSEN
100
AcDbLine
 10
80.69248586254621
 20
256.1410697337922
 30
0.0
 11
71.19248586254684
 21
253.1410697337924
 31
0.0
  0
LINE
  5
106
330
2
100
AcDbEntity
  8
L-ZISSEN
100
AcDbLine
 10
69.19248586254685
 20
253.1410697337924
 30
0.0
 11
71.19248586254684
 21
253.1410697337924
 31
0.0
  0
LINE
  5
107
330
2
100
AcDbEntity
  8
L-ZISSEN
100
AcDbLine
 10
84.48867220549932
 20
253.1540964045583
 30
0.0
 11
86.48867220549931
 21
253.1540964045585
 31
0.0
  0
ARC
  5
108
330
2
100
AcDbEntity
  8
L-ZISSEN
100
AcDbCircle
 10
80.73867220549932
 20
248.1540964045584
 30
0.0
 40
6.25
100
AcDbArc
 50
53.13010235415602
 51
71.78339702011218
  0
LINE
  5
109
330
2
100
AcDbEntity
  8
L-ZISSEN
100
AcDbLine
 10
111.3112139712382
 20
256.1480714996053
 30
0.0
 11
101.8112139712388
 21
253.1480714996055
 31
0.0
  0
ARC
  5
10A
330
2
100
AcDbEntity
  8
L-ZISSEN
100
AcDbCircle
 10
96.06121397123883
 20
248.1480714996056
 30
0.0
 40
6.25
100
AcDbArc
 50
53.13010235415602
 51
72.74339755752513
  0
LINE
  5
10B
330
2
100
AcDbEntity
  8
L-ZISSEN
100
AcDbLine
 10
95.92407718584519
 20
256.1540964045582
 30
0.0
 11
94.31121397123837
 21
255.6447711788929
 31
0.0
  0
ARC
  5
10C
330
2
100
AcDbEntity
  8
L-ZISSEN
100
AcDbCircle
 10
95.92407718584542
 20
254.1540964045582
 30
0.0
 40
2.0
100
AcDbArc
 50
0.0
 51
90.00000000000733
  0
LINE
  5
10D
330
2
100
AcDbEntity
  8
L-ZISSEN
100
AcDbLine
 10
99.81121397123883
 20
253.1480714996055
 30
0.0
 11
101.8112139712388
 21
253.1480714996055
 31
0.0
  0
ARC
  5
10E
330
2
100
AcDbEntity
  8
L-ZISSEN
100
AcDbCircle
 10
111.3112139712384
 20
254.1480714996053
 30
0.0
 40
2.0
100
AcDbArc
 50
0.0
 51
90.00000000000733
  0
LINE
  5
10F
330
2
100
AcDbEntity
  8
L-ZISSEN
100
AcDbLine
 10
115.1337557369785
 20
253.1480714996056
 30
0.0
 11
115.5668478218287
 21
253.1480714996056
 31
0.0
  0
ARC
  5
110
330
2
100
AcDbEntity
  8
L-ZISSEN
100
AcDbCircle
 10
111.3837557369785
 20
248.1480714996056
 30
0.0
 40
6.25
100
AcDbArc
 50
53.13010235415602
 51
72.03756900829663
  0
LINE
  5
111
330
2
100
AcDbEntity
  8
0
100
AcDbLine
 10
174.8724314750502
 20
257.9357102482226
 30
0.0
 11
174.8724314750505
 21
238.3058010957753
 31
0.0
  0
LINE
  5
112
330
2
100
AcDbEntity
  8
L-ZISSEN
100
AcDbLine
 10
304.1674216606415
 20
263.0169212761812
 30
0.0
 11
304.1674216606417
 21
248.008058240135
 31
0.0
  0
LINE
  5
113
330
2
100
AcDbEntity
  8
L-ZISSEN
100
AcDbLine
 10
233.5411452422349
 20
252.1207556719983
 30
0.0
 11
233.5411452422349
 21
244.1207556719985
 31
0.0
  0
LINE
  5
114
330
2
100
AcDbEntity
  8
L-ZISSEN
100
AcDbLine
 10
212.3801385943539
 20
243.5019535184819
 30
0.0
 11
212.3801385943539
 21
252.739557825516
 31
0.0
  0
LINE
  5
115
330
2
100
AcDbEntity
  8
L-ZISSEN
100
AcDbLine
 10
221.3801385943539
 20
243.5019535184817
 30
0.0
 11
221.3801385943538
 21
252.739557825516
 31
0.0
  0
LINE
  5
116
330
2
100
AcDbEntity
  8
L-ZISSEN
100
AcDbLine
 10
235.4801385943541
 20
253.0207556719988
 30
0.0
 11
235.4801385943541
 21
243.2207556719989
 31
0.0
  0
LINE
  5
117
330
2
100
AcDbEntity
  8
L-ZISSEN
  6
CONTINUOUS
 62
     7
100
AcDbLine
 10
234.3968052610207
 20
253.0207556719988
 30
0.0
 11
234.3968052610207
 21
243.2207556719989
 31
0.0
  0
LINE
  5
118
330
2
100
AcDbEntity
  8
L-ZISSEN
100
AcDbLine
 10
210.3801385943539
 20
248.1207556719989
 30
0.0
 11
210.3801385943539
 21
257.6207556719988
 31
0.0
  0
LINE
  5
119
330
2
100
AcDbEntity
  8
L-ZISSEN
  6
CONTINUOUS
 62
     7
100
AcDbLine
 10
195.0946536972726
 20
243.0652001164431
 30
0.0
 11
195.0946536972726
 21
253.1763112275545
 31
0.0
  0
LINE
  5
11A
330
2
100
AcDbEntity
  8
L-ZISSEN
  6
CONTINUOUS
 62
     7
100
AcDbLine
 10
194.0113203639394
 20
253.8985334497767
 30
0.0
 11
194.0113203639394
 21
242.3429778942209
 31
0.0
  0
LINE
  5
11B
330
2
100
AcDbEntity
  8
L-ZISSEN
  6
CONTINUOUS
 62
     7
100
AcDbLine
 10
191.8446536972727
 20
242.3407556719987
 30
0.0
 11
191.8446536972727
 21
253.9007556719989
 31
0.0
  0
ARC
  5
11C
330
2
100
AcDbEntity
  8
L-ZISSEN
  6
CONTINUOUS
 62
     7
100
AcDbCircle
 10
174.8724314750505
 20
248.1207556719989
 30
0.0
 40
6.500000000000142
100
AcDbArc
 50
90.0
 51
270.0
  0
LINE
  5
11D
330
2
100
AcDbEntity
  8
L-ZISSEN
100
AcDbLine
 10
144.057596828614
 20
254.114730767046
 30
0.0
 11
144.057596828614
 21
242.1147307670459
 31
0.0
  0
LINE
  5
11E
330
2
100
AcDbEntity
  8
L-ZISSEN
100
AcDbLine
 10
128.6337557369785
 20
254.2027031548191
 30
0.0
 11
128.6337557369785
 21
242.2027031548192
 31
0.0
  0
LINE
  5
11F
330
2
100
AcDbEntity
  8
L-ZISSEN
 62
     7
100
AcDbLine
 10
164.8801385943542
 20
235.695755671999
 30
0.0
 11
164.8801385943542
 21
260.545755671999
 31
0.0
  0
LINE
  5
120
330
2
100
AcDbEntity
  8
L-ZISSEN
100
AcDbLine
 10
200.3801385943539
 20
233.6869989422581
 30
0.0
 11
200.3801385943539
 21
262.5545124017394
 31
0.0
  0
LINE
  5
121
330
2
100
AcDbEntity
  8
L-ZISSEN
100
AcDbLine
 10
208.9301385943538
 20
259.0707556719988
 30
0.0
 11
208.9301385943538
 21
237.1707556719988
 31
0.0
  0
LINE
  5
122
330
2
100
AcDbEntity
  8
L-ZISSEN
100
AcDbLine
 10
147.880138594354
 20
241.114730767046
 30
0.0
 11
147.880138594354
 21
255.114730767046
 31
0.0
  0
LINE
  5
123
330
2
100
AcDbEntity
  8
L-ZISSEN
100
AcDbLine
 10
154.880138594354
 20
255.114730767046
 30
0.0
 11
154.880138594354
 21
241.114730767046
 31
0.0
  0
LINE
  5
124
330
2
100
AcDbEntity
  8
L-ZISSEN
100
AcDbLine
 10
159.3801385943543
 20
238.8707556719988
 30
0.0
 11
159.3801385943543
 21
257.3707556719988
 31
0.0
  0
LINE
  5
125
330
2
100
AcDbEntity
  8
L-ZISSEN
100
AcDbLine
 10
203.3801385943539
 20
268.1207556719988
 30
0.0
 11
203.3801385943539
 21
228.1207556719988
 31
0.0
  0
LINE
  5
126
330
2
100
AcDbEntity
  8
L-ZISSEN
100
AcDbLine
 10
201.3801385943539
 20
228.1207556719988
 30
0.0
 11
201.3801385943539
 21
268.1207556719988
 31
0.0
  0
LINE
  5
127
330
2
100
AcDbEntity
  8
L-ZISSEN
100
AcDbLine
 10
221.3801385943538
 20
250.4301567487572
 30
0.0
 11
212.3801385943539
 21
250.4301567487572
 31
0.0
  0
LINE
  5
128
330
2
100
AcDbEntity
  8
L-ZISSEN
100
AcDbLine
 10
221.3801385943538
 20
245.8113545952405
 30
0.0
 11
212.3801385943539
 21
245.8113545952405
 31
0.0
  0
LINE
  5
129
330
2
100
AcDbEntity
  8
L-ZISSEN
100
AcDbLine
 10
221.3801385943539
 20
243.5019535184817
 30
0.0
 11
212.3801385943539
 21
243.5019535184819
 31
0.0
  0
TEXT
  5
12A
330
2
100
AcDbEntity
  8
L-ZISSEN
 62
     7
100
AcDbText
 10
203.6428385943537
 20
180.7370216358468
 30
0.0
 40
4.5
  1
AIR IN
 41
0.8888889
  7
FONT1
100
AcDbText
  0
TEXT
  5
12B
330
2
100
AcDbEntity
  8
L-ZISSEN
 62
     7
100
AcDbText
 10
203.6427385943536
 20
174.2030216358468
 30
0.0
 40
4.5
  1
O.D.%%c6 TUBE
 41
0.8789089
  7
FONT1
100
AcDbText
  0
LINE
  5
12C
330
2
100
AcDbEntity
  8
L-ZISSEN
 62
     7
100
AcDbLine
 10
202.6841385943537
 20
173.2010216358468
 30
0.0
 11
247.6841385943537
 21
173.2010216358468
 31
0.0
  0
LINE
  5
12D
330
2
100
AcDbEntity
  8
0
100
AcDbLine
 10
178.3724314750502
 20
160.2292036892692
 30
0.0
 11
201.7782783874748
 21
160.2292036892694
 31
0.0
  0
ARC
  5
12E
330
2
100
AcDbEntity
  8
L-ZISSEN
  6
CONTINUOUS
 62
     7
100
AcDbCircle
 10
191.1224314750505
 20
166.006981467047
 30
0.0
 40
0.722222222222238
100
AcDbArc
 50
0.0
 51
90.0
  0
ARC
  5
12F
330
2
100
AcDbEntity
  8
L-ZISSEN
  6
CONTINUOUS
 62
     7
100
AcDbCircle
 10
174.8724314750502
 20
160.2292036892692
 30
0.0
 40
6.500000000000142
100
AcDbArc
 50
90.0
 51
180.0
  0
LINE
  5
130
330
2
100
AcDbEntity
  8
L-ZISSEN
  6
CONTINUOUS
 62
     7
100
AcDbLine
 10
174.8724314750502
 20
166.7292036892693
 30
0.0
 11
191.1224314750505
 21
166.7292036892693
 31
0.0
  0
ARC
  5
131
330
2
100
AcDbEntity
  8
0
100
AcDbCircle
 10
178.3724314750502
 20
156.7292036892692
 30
0.0
 40
3.5
100
AcDbArc
 50
90.0
 51
180.0
  0
LINE
  5
132
330
2
100
AcDbEntity
  8
L-ZISSEN
 62
     7
100
AcDbLine
 10
196.6951385943536
 20
162.8270216358468
 30
0.0
 11
202.6841385943537
 21
173.2010216358468
 31
0.0
  0
LINE
  5
133
330
2
100
AcDbEntity
  8
L-ZISSEN
  6
CONTINUOUS
 62
     7
100
AcDbLine
 10
195.0946536972729
 20
155.1736481337134
 30
0.0
 11
195.0946536972729
 21
165.2847592448249
 31
0.0
  0
LINE
  5
134
330
2
100
AcDbEntity
  8
L-ZISSEN
  6
CONTINUOUS
 62
     7
100
AcDbLine
 10
191.8446536972729
 20
155.1736481337134
 30
0.0
 11
194.0113203639396
 21
155.1736481337134
 31
0.0
  0
LINE
  5
135
330
2
100
AcDbEntity
  8
L-ZISSEN
  6
CONTINUOUS
 62
     7
100
AcDbLine
 10
194.3724314750507
 20
166.006981467047
 30
0.0
 11
194.0113203639396
 21
166.006981467047
 31
0.0
  0
LINE
  5
136
330
2
100
AcDbEntity
  8
L-ZISSEN
  6
CONTINUOUS
 62
     7
100
AcDbLine
 10
191.8446536972729
 20
165.2847592448249
 30
0.0
 11
194.0113203639396
 21
165.2847592448249
 31
0.0
  0
ARC
  5
137
330
2
100
AcDbEntity
  8
L-ZISSEN
  6
CONTINUOUS
 62
     7
100
AcDbCircle
 10
194.3724314750507
 20
165.2847592448249
 30
0.0
 40
0.722222222222238
100
AcDbArc
 50
0.0
 51
90.0
  0
LINE
  5
138
330
2
100
AcDbEntity
  8
0
100
AcDbLine
 10
164.3501245943532
 20
248.1207556719989
 30
0.0
 11
194.102360816576
 21
248.1207556719989
 31
0.0
  0
LINE
  5
139
330
2
100
AcDbEntity
  8
L-ZISSEN
 62
     7
100
AcDbLine
 10
200.3801385943542
 20
240.9037556719989
 30
0.0
 11
164.8801385943542
 21
240.9037556719989
 31
0.0
  0
LINE
  5
13A
330
2
100
AcDbEntity
  8
L-ZISSEN
100
AcDbLine
 10
159.3801385943541
 20
238.870755671999
 30
0.0
 11
168.3586686243425
 21
233.6869989422581
 31
0.0
  0
LINE
  5
13B
330
2
100
AcDbEntity
  8
L-ZISSEN
100
AcDbLine
 10
203.3801385943539
 20
228.1207556719988
 30
0.0
 11
153.8801385943538
 21
228.1207556719988
 31
0.0
  0
ARC
  5
13C
330
2
100
AcDbEntity
  8
L-ZISSEN
100
AcDbCircle
 10
142.057596828614
 20
242.1147307670459
 30
0.0
 40
2.0
100
AcDbArc
 50
270.0
 51
0.0
  0
ARC
  5
13D
330
2
100
AcDbEntity
  8
L-ZISSEN
100
AcDbCircle
 10
126.8075968286145
 20
248.114730767046
 30
0.0
 40
6.25
100
AcDbArc
 50
287.3393687748436
 51
306.8698976458439
  0
LINE
  5
13E
330
2
100
AcDbEntity
  8
L-ZISSEN
100
AcDbLine
 10
125.1026493374432
 20
240.6315787836693
 30
0.0
 11
126.6337557369781
 21
240.1480714996055
 31
0.0
  0
ARC
  5
13F
330
2
100
AcDbEntity
  8
L-ZISSEN
100
AcDbCircle
 10
126.6337557369781
 20
242.1480714996055
 30
0.0
 40
2.0
100
AcDbArc
 50
270.0
 51
0.0
  0
LINE
  5
140
330
2
100
AcDbEntity
  8
L-ZISSEN
100
AcDbLine
 10
132.5575968286145
 20
243.114730767046
 30
0.0
 11
142.057596828614
 21
240.1147307670459
 31
0.0
  0
LINE
  5
141
330
2
100
AcDbEntity
  8
L-ZISSEN
100
AcDbLine
 10
130.5575968286145
 20
243.114730767046
 30
0.0
 11
132.5575968286145
 21
243.114730767046
 31
0.0
  0
LINE
  5
142
330
2
100
AcDbEntity
  8
0
100
AcDbLine
 10
154.8801385943538
 20
231.3707556719989
 30
0.0
 11
154.8801385943538
 21
239.8707556719989
 31
0.0
  0
LINE
  5
143
330
2
100
AcDbEntity
  8
L-ZISSEN
100
AcDbLine
 10
148.8801385943536
 20
241.1925524417263
 30
0.0
 11
148.8801385943538
 21
233.1207556719988
 31
0.0
  0
LINE
  5
144
330
2
100
AcDbEntity
  8
0
100
AcDbLine
 10
159.1301385943539
 20
235.6207556719989
 30
0.0
 11
150.6301385943538
 21
235.6207556719989
 31
0.0
  0
CIRCLE
  5
145
330
2
100
AcDbEntity
  8
L-ZISSEN
100
AcDbCircle
 10
154.8801385943538
 20
235.6207556719989
 30
0.0
 40
2.25
  0
LINE
  5
146
330
2
100
AcDbEntity
  8
L-ZISSEN
100
AcDbLine
 10
148.8801385943538
 20
233.1207556719988
 30
0.0
 11
153.8801385943538
 21
228.1207556719988
 31
0.0
  0
LINE
  5
147
330
2
100
AcDbEntity
  8
L-ZISSEN
100
AcDbLine
 10
147.880138594354
 20
241.114730767046
 30
0.0
 11
154.880138594354
 21
241.114730767046
 31
0.0
  0
ARC
  5
148
330
2
100
AcDbEntity
  8
L-ZISSEN
100
AcDbCircle
 10
142.1301385943539
 20
248.114730767046
 30
0.0
 40
6.25
100
AcDbArc
 50
287.9624309917058
 51
306.8698976458439
  0
LINE
  5
149
330
2
100
AcDbEntity
  8
L-ZISSEN
100
AcDbLine
 10
145.8801385943539
 20
243.114730767046
 30
0.0
 11
147.8801385943539
 21
243.114730767046
 31
0.0
  0
LINE
  5
14A
330
2
100
AcDbEntity
  8
L-ZISSEN
100
AcDbLine
 10
159.3801385943542
 20
243.1786306719994
 30
0.0
 11
154.880138594354
 21
243.0380056719993
 31
0.0
  0
LINE
  5
14B
330
2
100
AcDbEntity
  8
L-ZISSEN
 62
     7
100
AcDbLine
 10
176.3724314750502
 20
245.5227556719989
 30
0.0
 11
189.8619314750503
 21
222.1577556719989
 31
0.0
  0
LINE
  5
14C
330
2
100
AcDbEntity
  8
L-ZISSEN
 62
     7
100
AcDbLine
 10
189.8619314750503
 20
222.1577556719989
 30
0.0
 11
195.7389314750502
 21
222.1577556719989
 31
0.0
  0
TEXT
  5
14D
330
2
100
AcDbEntity
  8
L-ZISSEN
 62
     7
100
AcDbText
 10
198.5842314750502
 20
221.0857556719989
 30
0.0
 40
4.5
  1
P.P
 41
0.7780000000000001
  7
FONT1
 72
     2
 11
207.9202314750502
 21
221.0857556719989
 31
0.0
100
AcDbText
  0
ARC
  5
14E
330
2
100
AcDbEntity
  8
L-ZISSEN
  6
CONTINUOUS
 62
     7
100
AcDbCircle
 10
191.1246536972728
 20
242.3407556719987
 30
0.0
 40
0.72
100
AcDbArc
 50
270.0
 51
0.0
  0
LINE
  5
14F
330
2
100
AcDbEntity
  8
L-ZISSEN
100
AcDbLine
 10
200.3801385943539
 20
233.6869989422581
 30
0.0
 11
168.3586686243423
 21
233.6869989422581
 31
0.0
  0
LINE
  5
150
330
2
100
AcDbEntity
  8
L-ZISSEN
  6
CONTINUOUS
 62
     7
100
AcDbLine
 10
174.8724314750505
 20
241.6207556719987
 30
0.0
 11
191.1246536972728
 21
241.6207556719987
 31
0.0
  0
LINE
  5
151
330
2
100
AcDbEntity
  8
L-ZISSEN
100
AcDbLine
 10
210.3801385943539
 20
248.1207556719989
 30
0.0
 11
210.3801385943539
 21
238.6207556719988
 31
0.0
  0
LINE
  5
152
330
2
100
AcDbEntity
  8
L-ZISSEN
100
AcDbLine
 10
208.9301385943538
 20
237.1707556719988
 30
0.0
 11
203.3801385943539
 21
237.1707556719988
 31
0.0
  0
LINE
  5
153
330
2
100
AcDbEntity
  8
L-ZISSEN
100
AcDbLine
 10
200.3801385943539
 20
233.6869989422581
 30
0.0
 11
201.3801385943539
 21
235.1369989422582
 31
0.0
  0
LINE
  5
154
330
2
100
AcDbEntity
  8
L-ZISSEN
100
AcDbLine
 10
208.9301385943538
 20
237.1707556719988
 30
0.0
 11
210.3801385943539
 21
238.6207556719988
 31
0.0
  0
LINE
  5
155
330
2
100
AcDbEntity
  8
L-ZISSEN
100
AcDbLine
 10
208.9301385943538
 20
242.6359281146973
 30
0.0
 11
203.3801385943539
 21
242.6359281146973
 31
0.0
  0
ARC
  5
156
330
2
100
AcDbEntity
  8
L-ZISSEN
  6
CONTINUOUS
 62
     7
100
AcDbCircle
 10
194.3724314750505
 20
243.0652001164431
 30
0.0
 40
0.722222222222238
100
AcDbArc
 50
270.0
 51
0.0
  0
LINE
  5
157
330
2
100
AcDbEntity
  8
L-ZISSEN
  6
CONTINUOUS
 62
     7
100
AcDbLine
 10
191.8446536972727
 20
243.0652001164431
 30
0.0
 11
194.0113203639394
 21
243.0652001164431
 31
0.0
  0
LINE
  5
158
330
2
100
AcDbEntity
  8
L-ZISSEN
  6
CONTINUOUS
 62
     7
100
AcDbLine
 10
194.3724314750505
 20
242.3429778942209
 30
0.0
 11
194.0113203639394
 21
242.3429778942209
 31
0.0
  0
LINE
  5
159
330
2
100
AcDbEntity
  8
L-ZISSEN
100
AcDbLine
 10
201.3801385943539
 20
243.1207556719988
 30
0.0
 11
203.3801385943539
 21
243.1207556719988
 31
0.0
  0
LINE
  5
15A
330
2
100
AcDbEntity
  8
L-ZISSEN
100
AcDbLine
 10
210.3801385943542
 20
244.1207556719985
 30
0.0
 11
212.3801385943539
 21
244.1207556719985
 31
0.0
  0
CIRCLE
  5
15B
330
2
100
AcDbEntity
  8
L-ZISSEN
100
AcDbCircle
 10
307.8222535107261
 20
199.503093055017
 30
0.0
 40
2.350148809657002
  0
LINE
  5
15C
330
2
100
AcDbEntity
  8
L-ZISSEN
100
AcDbLine
 10
304.1674216606419
 20
202.0139669308326
 30
0.0
 11
304.1674216606419
 21
192.0080582401352
 31
0.0
  0
TEXT
  5
15D
330
2
100
AcDbEntity
  8
L-ZISSEN
100
AcDbText
 10
308.8699532178318
 20
192.936876716341
 30
0.0
 40
2.799999999999999
  1
1
 41
0.8
100
AcDbText
  0
TEXT
  5
15E
330
2
100
AcDbEntity
  8
L-ZISSEN
100
AcDbText
 10
306.2633422708093
 20
198.0695888433883
 30
0.0
 40
2.799999999999999
  1
10
 41
0.8
100
AcDbText
  0
LINE
  5
15F
330
2
100
AcDbEntity
  8
L-ZISSEN
100
AcDbLine
 10
221.3801385943538
 20
244.1207556719984
 30
0.0
 11
233.5411452422349
 21
244.1207556719985
 31
0.0
  0
LINE
  5
160
330
2
100
AcDbEntity
  8
L-ZISSEN
100
AcDbLine
 10
235.4801385943541
 20
243.2207556719989
 30
0.0
 11
234.3968052610207
 21
243.2207556719989
 31
0.0
  0
LINE
  5
161
330
2
100
AcDbEntity
  8
L-ZISSEN
  6
CONTINUOUS
 62
     7
100
AcDbLine
 10
233.5411452422349
 20
244.7192420153916
 30
0.0
 11
234.3968052610207
 21
244.7192420153916
 31
0.0
  0
LINE
  5
162
330
2
100
AcDbEntity
  8
L-ZISSEN
  6
CONTINUOUS
 62
     7
100
AcDbLine
 10
233.5411452422349
 20
251.522269328606
 30
0.0
 11
234.3968052610207
 21
251.522269328606
 31
0.0
  0
TEXT
  5
163
330
2
100
AcDbEntity
  8
L-ZISSEN
100
AcDbText
 10
308.6596401964815
 20
226.9250593349461
 30
0.0
 40
2.799999999999999
  1
6
 41
0.8
100
AcDbText
  0
LINE
  5
164
330
2
100
AcDbEntity
  8
L-ZISSEN
100
AcDbLine
 10
304.1674216606415
 20
246.0080582401351
 30
0.0
 11
304.1674216606417
 21
215.9903321680428
 31
0.0
  0
CIRCLE
  5
165
330
2
100
AcDbEntity
  8
L-ZISSEN
100
AcDbCircle
 10
307.8222535107261
 20
211.4942300189708
 30
0.0
 40
2.350148809657002
  0
LINE
  5
166
330
2
100
AcDbEntity
  8
L-ZISSEN
100
AcDbLine
 10
304.1674216606418
 20
214.0051038947865
 30
0.0
 11
304.1674216606419
 21
203.999195204089
 31
0.0
  0
TEXT
  5
167
330
2
100
AcDbEntity
  8
L-ZISSEN
100
AcDbText
 10
308.8699532178318
 20
204.9280136802948
 30
0.0
 40
2.799999999999999
  1
1
 41
0.8
100
AcDbText
  0
TEXT
  5
168
330
2
100
AcDbEntity
  8
L-ZISSEN
100
AcDbText
 10
307.13302197513
 20
210.0607258073421
 30
0.0
 40
2.799999999999999
  1
9
 41
0.8
100
AcDbText
  0
TEXT
  5
169
330
2
100
AcDbEntity
  8
L-ZISSEN
100
AcDbText
 10
308.6596401964815
 20
216.9191506442486
 30
0.0
 40
2.799999999999999
  1
9
 41
0.8
100
AcDbText
  0
TEXT
  5
16A
330
2
100
AcDbEntity
  8
L-ZISSEN
100
AcDbText
 10
308.6596401964815
 20
221.9221049895973
 30
0.0
 40
2.799999999999999
  1
8
 41
0.8
100
AcDbText
  0
TEXT
  5
16B
330
2
100
AcDbEntity
  8
L-ZISSEN
100
AcDbText
 10
308.7264578294579
 20
236.9309680256435
 30
0.0
 40
2.799999999999999
  1
3
 41
0.8
100
AcDbText
  0
TEXT
  5
16C
330
2
100
AcDbEntity
  8
L-ZISSEN
100
AcDbText
 10
308.6596401964815
 20
231.9280136802948
 30
0.0
 40
2.799999999999999
  1
5
 41
0.8
100
AcDbText
  0
CIRCLE
  5
16D
330
2
100
AcDbEntity
  8
L-ZISSEN
100
AcDbCircle
 10
307.8222535107258
 20
243.4971843643195
 30
0.0
 40
2.350148809657002
  0
TEXT
  5
16E
330
2
100
AcDbEntity
  8
L-ZISSEN
100
AcDbText
 10
307.1330219751298
 20
242.0636801526908
 30
0.0
 40
2.799999999999999
  1
8
 41
0.8
100
AcDbText
  0
TEXT
  5
16F
330
2
100
AcDbEntity
  8
L-ZISSEN
100
AcDbText
 10
308.7313878906683
 20
248.9368767163408
 30
0.0
 40
2.799999999999999
  1
M
 41
0.8
100
AcDbText
  0
LINE
  5
170
330
2
100
AcDbEntity
  8
L-ZISSEN
100
AcDbLine
 10
221.3801385943538
 20
252.739557825516
 30
0.0
 11
212.3801385943539
 21
252.739557825516
 31
0.0
  0
LINE
  5
171
330
2
100
AcDbEntity
  8
L-ZISSEN
 62
     7
100
AcDbLine
 10
200.3801385943542
 20
255.337755671999
 30
0.0
 11
164.8801385943542
 21
255.337755671999
 31
0.0
  0
LINE
  5
172
330
2
100
AcDbEntity
  8
L-ZISSEN
100
AcDbLine
 10
159.3801385943541
 20
257.3707556719986
 30
0.0
 11
168.3586686243425
 21
262.5545124017394
 31
0.0
  0
LINE
  5
173
330
2
100
AcDbEntity
  8
L-ZISSEN
100
AcDbLine
 10
203.3801385943539
 20
268.1207556719988
 30
0.0
 11
153.8801385943538
 21
268.1207556719988
 31
0.0
  0
ARC
  5
174
330
2
100
AcDbEntity
  8
L-ZISSEN
100
AcDbCircle
 10
142.057596828614
 20
254.1147307670458
 30
0.0
 40
2.0
100
AcDbArc
 50
0.0
 51
90.00000000000733
  0
ARC
  5
175
330
2
100
AcDbEntity
  8
L-ZISSEN
100
AcDbCircle
 10
126.8075968286145
 20
248.114730767046
 30
0.0
 40
6.25
100
AcDbArc
 50
53.13010235415602
 51
73.362666869088
  0
ARC
  5
176
330
2
100
AcDbEntity
  8
L-ZISSEN
100
AcDbCircle
 10
126.6337557369781
 20
254.1480714996054
 30
0.0
 40
2.0
100
AcDbArc
 50
0.0
 51
90.00000000000733
  0
LINE
  5
177
330
2
100
AcDbEntity
  8
L-ZISSEN
100
AcDbLine
 10
142.0575968286138
 20
256.1147307670458
 30
0.0
 11
132.5575968286145
 21
253.114730767046
 31
0.0
  0
LINE
  5
178
330
2
100
AcDbEntity
  8
L-ZISSEN
100
AcDbLine
 10
130.5575968286145
 20
253.114730767046
 30
0.0
 11
132.5575968286145
 21
253.114730767046
 31
0.0
  0
LINE
  5
179
330
2
100
AcDbEntity
  8
0
100
AcDbLine
 10
154.8801385943538
 20
256.3707556719989
 30
0.0
 11
154.8801385943538
 21
264.8707556719989
 31
0.0
  0
LINE
  5
17A
330
2
100
AcDbEntity
  8
L-ZISSEN
100
AcDbLine
 10
153.8801385943538
 20
268.1207556719988
 30
0.0
 11
148.8801385943538
 21
263.1207556719989
 31
0.0
  0
LINE
  5
17B
330
2
100
AcDbEntity
  8
0
100
AcDbLine
 10
159.1301385943539
 20
260.6207556719989
 30
0.0
 11
150.6301385943538
 21
260.6207556719989
 31
0.0
  0
LINE
  5
17C
330
2
100
AcDbEntity
  8
L-ZISSEN
100
AcDbLine
 10
147.880138594354
 20
255.114730767046
 30
0.0
 11
154.880138594354
 21
255.114730767046
 31
0.0
  0
LINE
  5
17D
330
2
100
AcDbEntity
  8
L-ZISSEN
100
AcDbLine
 10
147.880138594354
 20
255.114730767046
 30
0.0
 11
154.880138594354
 21
255.114730767046
 31
0.0
  0
CIRCLE
  5
17E
330
2
100
AcDbEntity
  8
L-ZISSEN
100
AcDbCircle
 10
154.8801385943538
 20
260.6207556719989
 30
0.0
 40
2.25
  0
LINE
  5
17F
330
2
100
AcDbEntity
  8
L-ZISSEN
100
AcDbLine
 10
148.8801385943538
 20
263.1207556719989
 30
0.0
 11
148.8801385943538
 21
255.0489589022761
 31
0.0
  0
ARC
  5
180
330
2
100
AcDbEntity
  8
L-ZISSEN
100
AcDbCircle
 10
142.1301385943539
 20
248.114730767046
 30
0.0
 40
6.25
100
AcDbArc
 50
53.13010235415602
 51
72.03756900829417
  0
LINE
  5
181
330
2
100
AcDbEntity
  8
L-ZISSEN
100
AcDbLine
 10
145.8801385943539
 20
253.114730767046
 30
0.0
 11
147.8801385943539
 21
253.114730767046
 31
0.0
  0
LINE
  5
182
330
2
100
AcDbEntity
  8
L-ZISSEN
100
AcDbLine
 10
154.880138594354
 20
255.114730767046
 30
0.0
 11
154.880138594354
 21
253.2035056719984
 31
0.0
  0
LINE
  5
183
330
2
100
AcDbEntity
  8
L-ZISSEN
100
AcDbLine
 10
159.3801385943544
 20
253.0628806719984
 30
0.0
 11
154.880138594354
 21
253.2035056719984
 31
0.0
  0
ARC
  5
184
330
2
100
AcDbEntity
  8
L-ZISSEN
  6
CONTINUOUS
 62
     7
100
AcDbCircle
 10
191.1246536972728
 20
253.9007556719989
 30
0.0
 40
0.72
100
AcDbArc
 50
0.0
 51
90.0
  0
LINE
  5
185
330
2
100
AcDbEntity
  8
L-ZISSEN
100
AcDbLine
 10
200.3801385943539
 20
262.5545124017394
 30
0.0
 11
168.3586686243425
 21
262.5545124017394
 31
0.0
  0
LINE
  5
186
330
2
100
AcDbEntity
  8
L-ZISSEN
  6
CONTINUOUS
 62
     7
100
AcDbLine
 10
174.8724314750505
 20
254.6207556719989
 30
0.0
 11
191.1246536972728
 21
254.6207556719989
 31
0.0
  0
LINE
  5
187
330
2
100
AcDbEntity
  8
L-ZISSEN
100
AcDbLine
 10
208.9301385943538
 20
259.0707556719988
 30
0.0
 11
203.3801385943539
 21
259.0707556719988
 31
0.0
  0
LINE
  5
188
330
2
100
AcDbEntity
  8
L-ZISSEN
100
AcDbLine
 10
208.9301385943538
 20
253.6055832293003
 30
0.0
 11
203.3801385943539
 21
253.6055832293003
 31
0.0
  0
ARC
  5
189
330
2
100
AcDbEntity
  8
L-ZISSEN
  6
CONTINUOUS
 62
     7
100
AcDbCircle
 10
194.3724314750505
 20
253.1763112275545
 30
0.0
 40
0.722222222222238
100
AcDbArc
 50
0.0
 51
90.0
  0
LINE
  5
18A
330
2
100
AcDbEntity
  8
L-ZISSEN
  6
CONTINUOUS
 62
     7
100
AcDbLine
 10
191.8446536972727
 20
253.1763112275545
 30
0.0
 11
194.0113203639394
 21
253.1763112275545
 31
0.0
  0
LINE
  5
18B
330
2
100
AcDbEntity
  8
L-ZISSEN
  6
CONTINUOUS
 62
     7
100
AcDbLine
 10
194.3724314750505
 20
253.8985334497767
 30
0.0
 11
194.0113203639394
 21
253.8985334497767
 31
0.0
  0
LINE
  5
18C
330
2
100
AcDbEntity
  8
L-ZISSEN
100
AcDbLine
 10
201.3801385943539
 20
253.1207556719988
 30
0.0
 11
203.3801385943539
 21
253.1207556719988
 31
0.0
  0
LINE
  5
18D
330
2
100
AcDbEntity
  8
L-ZISSEN
100
AcDbLine
 10
200.3801385943539
 20
262.5545124017394
 30
0.0
 11
201.3801385943539
 21
261.1045124017394
 31
0.0
  0
LINE
  5
18E
330
2
100
AcDbEntity
  8
L-ZISSEN
100
AcDbLine
 10
208.9301385943538
 20
259.0707556719988
 30
0.0
 11
210.3801385943539
 21
257.6207556719988
 31
0.0
  0
LINE
  5
18F
330
2
100
AcDbEntity
  8
L-ZISSEN
100
AcDbLine
 10
210.3801385943539
 20
252.1207556719985
 30
0.0
 11
212.380138594354
 21
252.1207556719985
 31
0.0
  0
LINE
  5
190
330
2
100
AcDbEntity
  8
L-ZISSEN
100
AcDbLine
 10
221.3801385943538
 20
252.1207556719984
 30
0.0
 11
233.5411452422349
 21
252.1207556719983
 31
0.0
  0
LINE
  5
191
330
2
100
AcDbEntity
  8
L-ZISSEN
100
AcDbLine
 10
235.4801385943541
 20
253.0207556719988
 30
0.0
 11
234.3968052610207
 21
253.0207556719988
 31
0.0
  0
TEXT
  5
192
330
2
100
AcDbEntity
  8
L-ZISSEN
100
AcDbText
 10
308.7313878906683
 20
253.9398310616895
 30
0.0
 40
2.799999999999999
  1
B
 41
0.8
100
AcDbText
  0
TEXT
  5
193
330
2
100
AcDbEntity
  8
L-ZISSEN
100
AcDbText
 10
307.1330219751298
 20
258.9579188386437
 30
0.0
 40
2.799999999999999
  1
7
 41
0.8
100
AcDbText
  0
CIRCLE
  5
194
330
2
100
AcDbEntity
  8
L-ZISSEN
100
AcDbCircle
 10
307.8222535107258
 20
260.5060474003655
 30
0.0
 40
2.350148809657002
  0
LINE
  5
195
330
2
100
AcDbEntity
  8
L-ZISSEN
100
AcDbLine
 10
304.1674216606415
 20
275.0228299668786
 30
0.0
 11
304.1674216606415
 21
265.0169212761811
 31
0.0
  0
TEXT
  5
196
330
2
100
AcDbEntity
  8
L-ZISSEN
100
AcDbText
 10
306.652905630887
 20
265.945739752387
 30
0.0
 40
2.799999999999999
  1
N11
 41
0.8
100
AcDbText
  0
CIRCLE
  5
197
330
2
100
AcDbEntity
  8
L-ZISSEN
100
AcDbCircle
 10
307.8222535107258
 20
272.5119560910629
 30
0.0
 40
2.350148809657002
  0
TEXT
  5
198
330
2
100
AcDbEntity
  8
L-ZISSEN
100
AcDbText
 10
307.361168831845
 20
271.1347653358849
 30
0.0
 40
2.799999999999999
  1
1
 41
0.8
100
AcDbText
  0
LINE
  5
199
330
2
100
AcDbEntity
  8
L-ZISSEN
100
AcDbLine
 10
310.3720391338608
 20
292.4668416877387
 30
0.0
 11
310.3720391338608
 21
287.1668416877387
 31
0.0
  0
TEXT
  5
19A
330
2
100
AcDbEntity
  8
L-ZISSEN
100
AcDbText
 10
309.7971643347538
 20
283.4483619441054
 30
0.0
 40
2.799999999999999
  1
1
 41
0.8
100
AcDbText
  0
CIRCLE
  5
19B
330
2
100
AcDbEntity
  8
L-ZISSEN
100
AcDbCircle
 10
310.3720391338608
 20
284.9668416877388
 30
0.0
 40
2.2
  0
LINE
  5
19C
330
2
100
AcDbEntity
  8
0
100
AcDbLine
 10
370.8788193769848
 20
309.9276391196938
 30
0.0
 11
370.8788193769847
 21
64.00285903962049
 31
0.0
  0
LINE
  5
19D
330
2
100
AcDbEntity
  8
0
100
AcDbLine
 10
321.2021621126915
 20
137.24200722184
 30
0.0
 11
321.2021621126915
 21
168.5058538329622
 31
0.0
  0
LINE
  5
19E
330
2
100
AcDbEntity
  8
L-ZISSEN
  6
CONTINUOUS
 62
     7
100
AcDbLine
 10
327.7021621126916
 20
160.3531183329517
 30
0.0
 11
327.7021621126916
 21
143.019784999618
 31
0.0
  0
LINE
  5
19F
330
2
100
AcDbEntity
  8
L-ZISSEN
  6
CONTINUOUS
 62
     7
100
AcDbLine
 10
314.7021621126912
 20
160.3531183329517
 30
0.0
 11
314.7021621126912
 21
143.019784999618
 31
0.0
  0
CIRCLE
  5
1A0
330
2
100
AcDbEntity
  8
L-ZISSEN
100
AcDbCircle
 10
321.2021621126915
 20
160.3531183329517
 30
0.0
 40
6.500000000000142
  0
LINE
  5
1A1
330
2
100
AcDbEntity
  8
0
100
AcDbLine
 10
321.2021621126917
 20
97.7420072218401
 30
0.0
 11
321.2021621126915
 21
150.8560354607658
 31
0.0
  0
LINE
  5
1A2
330
2
100
AcDbEntity
  8
L-ZISSEN
100
AcDbLine
 10
331.4575787940662
 20
123.5049099667701
 30
0.0
 11
341.2021621126914
 21
101.7420072218401
 31
0.0
  0
LINE
  5
1A3
330
2
100
AcDbEntity
  8
L-ZISSEN
 62
     7
100
AcDbLine
 10
322.7021621126915
 20
97.14400722184009
 30
0.0
 11
336.1916621126916
 21
73.7790072218401
 31
0.0
  0
LINE
  5
1A4
330
2
100
AcDbEntity
  8
L-ZISSEN
 62
     7
100
AcDbLine
 10
336.1916621126916
 20
73.7790072218401
 30
0.0
 11
342.0686621126916
 21
73.7790072218401
 31
0.0
  0
TEXT
  5
1A5
330
2
100
AcDbEntity
  8
L-ZISSEN
 62
     7
100
AcDbText
 10
344.9139621126915
 20
72.7070072218401
 30
0.0
 40
4.5
  1
P.P
 41
0.7780000000000001
  7
FONT1
 72
     2
 11
354.2499621126915
 21
72.7070072218401
 31
0.0
100
AcDbText
  0
LINE
  5
1A6
330
2
100
AcDbEntity
  8
L-ZISSEN
100
AcDbLine
 10
321.2021621126915
 20
99.7420072218401
 30
0.0
 11
341.2021621126914
 21
99.7420072218401
 31
0.0
  0
LINE
  5
1A7
330
2
100
AcDbEntity
  8
L-ZISSEN
100
AcDbLine
 10
341.2021621126914
 20
99.7420072218401
 30
0.0
 11
341.2021621126914
 21
101.7420072218399
 31
0.0
  0
CIRCLE
  5
1A8
330
2
100
AcDbEntity
  8
L-ZISSEN
100
AcDbCircle
 10
321.2021621126917
 20
124.7420072218401
 30
0.0
 40
2.0
  0
ARC
  5
1A9
330
2
100
AcDbEntity
  8
L-ZISSEN
100
AcDbCircle
 10
320.5711241261446
 20
124.7420072218399
 30
0.0
 40
4.268962013452831
100
AcDbArc
 50
113.996398224668
 51
246.0036017753316
  0
ARC
  5
1AA
330
2
100
AcDbEntity
  8
L-ZISSEN
100
AcDbCircle
 10
321.8332000992393
 20
124.7420072218401
 30
0.0
 40
4.26896201345258
100
AcDbArc
 50
293.9963982246595
 51
66.00360177534128
  0
LINE
  5
1AB
330
2
100
AcDbEntity
  8
L-ZISSEN
100
AcDbLine
 10
323.5692982163691
 20
120.8420072218401
 30
0.0
 11
318.835026009014
 21
120.8420072218401
 31
0.0
  0
LINE
  5
1AC
330
2
100
AcDbEntity
  8
L-ZISSEN
100
AcDbLine
 10
323.5692982163693
 20
128.6420072218399
 30
0.0
 11
318.8350260090143
 21
128.6420072218399
 31
0.0
  0
LINE
  5
1AD
330
2
100
AcDbEntity
  8
L-ZISSEN
  6
CONTINUOUS
 62
     7
100
AcDbLine
 10
328.2907407238027
 20
143.019784999618
 30
0.0
 11
328.2907407238027
 21
139.4086738885068
 31
0.0
  0
LINE
  5
1AE
330
2
100
AcDbEntity
  8
L-ZISSEN
  6
CONTINUOUS
 62
     7
100
AcDbLine
 10
324.7464510571359
 20
143.019784999618
 30
0.0
 11
324.7464510571359
 21
139.4086738885068
 31
0.0
  0
LINE
  5
1AF
330
2
100
AcDbEntity
  8
L-ZISSEN
  6
CONTINUOUS
 62
     7
100
AcDbLine
 10
317.6578731682468
 20
143.019784999618
 30
0.0
 11
317.6578731682468
 21
139.4086738885068
 31
0.0
  0
LINE
  5
1B0
330
2
100
AcDbEntity
  8
L-ZISSEN
100
AcDbLine
 10
326.2021621126915
 20
135.24200722184
 30
0.0
 11
326.6499233067214
 21
134.24200722184
 31
0.0
  0
LINE
  5
1B1
330
2
100
AcDbEntity
  8
L-ZISSEN
100
AcDbLine
 10
321.2021621126915
 20
135.24200722184
 30
0.0
 11
316.2021621126914
 21
135.24200722184
 31
0.0
  0
LINE
  5
1B2
330
2
100
AcDbEntity
  8
L-ZISSEN
100
AcDbLine
 10
316.2021621126914
 20
135.24200722184
 30
0.0
 11
315.7544009186618
 21
134.24200722184
 31
0.0
  0
LINE
  5
1B3
330
2
100
AcDbEntity
  8
L-ZISSEN
100
AcDbLine
 10
321.2021621126915
 20
135.24200722184
 30
0.0
 11
326.2021621126915
 21
135.24200722184
 31
0.0
  0
LINE
  5
1B4
330
2
100
AcDbEntity
  8
L-ZISSEN
100
AcDbLine
 10
325.9982167238025
 20
137.24200722184
 30
0.0
 11
316.4061082238025
 21
137.24200722184
 31
0.0
  0
LINE
  5
1B5
330
2
100
AcDbEntity
  8
L-ZISSEN
 62
     7
100
AcDbLine
 10
316.4061082238025
 20
137.24200722184
 30
0.0
 11
316.3383962793579
 21
139.4086738885068
 31
0.0
  0
LINE
  5
1B6
330
2
100
AcDbEntity
  8
L-ZISSEN
 62
     7
100
AcDbLine
 10
325.9982167238025
 20
137.24200722184
 30
0.0
 11
326.065928668247
 21
139.4086738885068
 31
0.0
  0
LINE
  5
1B7
330
2
100
AcDbEntity
  8
0
100
AcDbLine
 10
443.2022500534341
 20
84.06039599410263
 30
0.0
 11
443.2022500534341
 21
110.7352434836622
 31
0.0
  0
LINE
  5
1B8
330
2
100
AcDbEntity
  8
L-ZISSEN
100
AcDbLine
 10
447.4522500534341
 20
109.0420072218401
 30
0.0
 11
447.4522500534341
 21
104.34200722184
 31
0.0
  0
LINE
  5
1B9
330
2
100
AcDbEntity
  8
L-ZISSEN
100
AcDbLine
 10
438.9522500534341
 20
109.0420072218402
 30
0.0
 11
438.9522500534341
 21
104.34200722184
 31
0.0
  0
LINE
  5
1BA
330
2
100
AcDbEntity
  8
L-ZISSEN
 62
     7
100
AcDbLine
 10
458.191750053434
 20
73.77900722183998
 30
0.0
 11
464.0687500534339
 21
73.77900722183998
 31
0.0
  0
LINE
  5
1BB
330
2
100
AcDbEntity
  8
L-ZISSEN
100
AcDbLine
 10
421.2022500534342
 20
99.74200722183997
 30
0.0
 11
465.2022500534341
 21
99.74200722183997
 31
0.0
  0
LINE
  5
1BC
330
2
100
AcDbEntity
  8
L-ZISSEN
100
AcDbLine
 10
419.2022500534341
 20
89.74200722183997
 30
0.0
 11
467.2022500534342
 21
89.74200722183997
 31
0.0
  0
LINE
  5
1BD
330
2
100
AcDbEntity
  8
L-ZISSEN
 62
     7
100
AcDbLine
 10
444.702250053434
 20
97.14400722183995
 30
0.0
 11
458.191750053434
 21
73.77900722183998
 31
0.0
  0
LINE
  5
1BE
330
2
100
AcDbEntity
  8
L-ZISSEN
100
AcDbLine
 10
417.2022500534342
 20
91.74200722183996
 30
0.0
 11
417.2022500534342
 21
95.74200722184007
 31
0.0
  0
ARC
  5
1BF
330
2
100
AcDbEntity
  8
L-ZISSEN
100
AcDbCircle
 10
419.2022500534341
 20
91.74200722183996
 30
0.0
 40
2.0
100
AcDbArc
 50
180.0
 51
270.0
  0
ARC
  5
1C0
330
2
100
AcDbEntity
  8
L-ZISSEN
100
AcDbCircle
 10
421.2022500534342
 20
95.74200722183997
 30
0.0
 40
4.0
100
AcDbArc
 50
90.0
 51
179.9999999999994
  0
LINE
  5
1C1
330
2
100
AcDbEntity
  8
L-ZISSEN
100
AcDbLine
 10
447.4522500534341
 20
104.34200722184
 30
0.0
 11
438.9522500534341
 21
104.34200722184
 31
0.0
  0
LINE
  5
1C2
330
2
100
AcDbEntity
  8
L-ZISSEN
100
AcDbLine
 10
438.6022500534341
 20
104.34200722184
 30
0.0
 11
447.8022500534341
 21
104.34200722184
 31
0.0
  0
LINE
  5
1C3
330
2
100
AcDbEntity
  8
L-ZISSEN
100
AcDbLine
 10
438.6022500534341
 20
103.04200722184
 30
0.0
 11
447.8022500534341
 21
103.04200722184
 31
0.0
  0
LINE
  5
1C4
330
2
100
AcDbEntity
  8
L-ZISSEN
100
AcDbLine
 10
438.6022500534341
 20
103.04200722184
 30
0.0
 11
438.6022500534341
 21
104.34200722184
 31
0.0
  0
LINE
  5
1C5
330
2
100
AcDbEntity
  8
L-ZISSEN
100
AcDbLine
 10
438.6022500534341
 20
101.74200722184
 30
0.0
 11
438.6022500534341
 21
103.04200722184
 31
0.0
  0
LINE
  5
1C6
330
2
100
AcDbEntity
  8
L-ZISSEN
100
AcDbLine
 10
447.8022500534341
 20
103.04200722184
 30
0.0
 11
447.8022500534341
 21
104.34200722184
 31
0.0
  0
LINE
  5
1C7
330
2
100
AcDbEntity
  8
L-ZISSEN
100
AcDbLine
 10
447.8022500534342
 20
101.74200722184
 30
0.0
 11
447.8022500534341
 21
103.04200722184
 31
0.0
  0
TEXT
  5
1C8
330
2
100
AcDbEntity
  8
L-ZISSEN
 62
     7
100
AcDbText
 10
466.9140500534339
 20
72.70700722183997
 30
0.0
 40
4.5
  1
P.P
 41
0.7780000000000001
  7
FONT1
 72
     2
 11
476.250050053434
 21
72.70700722183997
 31
0.0
100
AcDbText
  0
LINE
  5
1C9
330
2
100
AcDbEntity
  8
L-ZISSEN
100
AcDbLine
 10
469.2022500534341
 20
91.74200722183996
 30
0.0
 11
469.2022500534341
 21
95.74200722183997
 31
0.0
  0
ARC
  5
1CA
330
2
100
AcDbEntity
  8
L-ZISSEN
100
AcDbCircle
 10
467.2022500534342
 20
91.74200722183996
 30
0.0
 40
2.0
100
AcDbArc
 50
270.0
 51
0.0
  0
ARC
  5
1CB
330
2
100
AcDbEntity
  8
L-ZISSEN
100
AcDbCircle
 10
465.2022500534341
 20
95.74200722183997
 30
0.0
 40
4.0
100
AcDbArc
 50
0.0
 51
90.0
  0
LINE
  5
1CC
330
2
100
AcDbEntity
  8
L-ZISSEN
100
AcDbLine
 10
446.9326348111636
 20
109.3420072218401
 30
0.0
 11
439.4718652957045
 21
109.34200722184
 31
0.0
  0
LINE
  5
1CD
330
2
100
AcDbEntity
  8
L-ZISSEN
100
AcDbLine
 10
439.4718652957047
 20
109.3420072218401
 30
0.0
 11
438.9522500534341
 21
109.0420072218402
 31
0.0
  0
LINE
  5
1CE
330
2
100
AcDbEntity
  8
L-ZISSEN
100
AcDbLine
 10
446.9326348111636
 20
109.3420072218401
 30
0.0
 11
447.4522500534341
 21
109.0420072218402
 31
0.0
  0
LINE
  5
1CF
330
2
100
AcDbEntity
  8
L-ZISSEN
 62
     7
100
AcDbLine
 10
597.0242735717721
 20
97.14400722184008
 30
0.0
 11
610.5137735717721
 21
73.77900722184012
 31
0.0
  0
LINE
  5
1D0
330
2
100
AcDbEntity
  8
L-ZISSEN
100
AcDbLine
 10
573.5242735717722
 20
99.74200722184008
 30
0.0
 11
617.5242735717723
 21
99.74200722184008
 31
0.0
  0
LINE
  5
1D1
330
2
100
AcDbEntity
  8
L-ZISSEN
100
AcDbLine
 10
571.5242735717722
 20
89.74200722184008
 30
0.0
 11
619.5242735717722
 21
89.74200722184008
 31
0.0
  0
LINE
  5
1D2
330
2
100
AcDbEntity
  8
L-ZISSEN
100
AcDbLine
 10
569.5242735717722
 20
91.74200722184009
 30
0.0
 11
569.5242735717722
 21
95.74200722184007
 31
0.0
  0
ARC
  5
1D3
330
2
100
AcDbEntity
  8
L-ZISSEN
100
AcDbCircle
 10
571.5242735717722
 20
91.74200722184009
 30
0.0
 40
2.0
100
AcDbArc
 50
180.0
 51
270.0
  0
ARC
  5
1D4
330
2
100
AcDbEntity
  8
L-ZISSEN
100
AcDbCircle
 10
573.5242735717722
 20
95.74200722184007
 30
0.0
 40
4.0
100
AcDbArc
 50
90.00000000000003
 51
179.9999999999994
  0
TEXT
  5
1D5
330
2
100
AcDbEntity
  8
L-ZISSEN
 62
     7
100
AcDbText
 10
619.236073571772
 20
72.70700722184011
 30
0.0
 40
4.5
  1
P.P
 41
0.7780000000000001
  7
FONT1
 72
     2
 11
628.572073571772
 21
72.70700722184011
 31
0.0
100
AcDbText
  0
LINE
  5
1D6
330
2
100
AcDbEntity
  8
L-ZISSEN
 62
     7
100
AcDbLine
 10
610.5137735717721
 20
73.77900722184012
 30
0.0
 11
616.3907735717721
 21
73.77900722184012
 31
0.0
  0
LINE
  5
1D7
330
2
100
AcDbEntity
  8
L-ZISSEN
100
AcDbLine
 10
621.5242735717723
 20
91.74200722184009
 30
0.0
 11
621.5242735717723
 21
95.74200722184007
 31
0.0
  0
ARC
  5
1D8
330
2
100
AcDbEntity
  8
L-ZISSEN
100
AcDbCircle
 10
619.5242735717722
 20
91.74200722184009
 30
0.0
 40
2.0
100
AcDbArc
 50
270.0
 51
0.0
  0
ARC
  5
1D9
330
2
100
AcDbEntity
  8
L-ZISSEN
100
AcDbCircle
 10
617.5242735717723
 20
95.74200722184007
 30
0.0
 40
4.0
100
AcDbArc
 50
0.0
 51
90.0
  0
LINE
  5
1DA
330
2
100
AcDbEntity
  8
L-ZISSEN
100
AcDbLine
 10
354.1486515964149
 20
263.0169212761813
 30
0.0
 11
354.1486515964149
 21
248.0080582401351
 31
0.0
  0
LINE
  5
1DB
330
2
100
AcDbEntity
  8
L-ZISSEN
100
AcDbLine
 10
314.3462143869787
 20
258.0139669308325
 30
0.0
 11
314.3462143869786
 21
248.008058240135
 31
0.0
  0
CIRCLE
  5
1DC
330
2
100
AcDbEntity
  8
L-ZISSEN
100
AcDbCircle
 10
321.2021621126915
 20
160.3531183329517
 30
0.0
 40
3.611111111111189
  0
TEXT
  5
1DD
330
2
100
AcDbEntity
  8
L-ZISSEN
100
AcDbText
 10
317.3120502740892
 20
192.936876716341
 30
0.0
 40
2.799999999999999
  1
オイルチューブ内径φ0.9
 41
0.8
100
AcDbText
  0
TEXT
  5
1DE
330
2
100
AcDbEntity
  8
L-ZISSEN
100
AcDbText
 10
317.3120502740892
 20
197.9398310616897
 30
0.0
 40
2.799999999999999
  1
ノズル径
 41
0.8
100
AcDbText
  0
LINE
  5
1DF
330
2
100
AcDbEntity
  8
L-ZISSEN
100
AcDbLine
 10
314.346214386979
 20
197.0110125854839
 30
0.0
 11
314.346214386979
 21
192.0080582401352
 31
0.0
  0
LINE
  5
1E0
330
2
100
AcDbEntity
  8
L-ZISSEN
100
AcDbLine
 10
354.1486515964152
 20
202.0139669308326
 30
0.0
 11
354.1486515964152
 21
192.0080582401352
 31
0.0
  0
TEXT
  5
1E1
330
2
100
AcDbEntity
  8
L-ZISSEN
100
AcDbText
 10
317.3120502740889
 20
226.9250593349461
 30
0.0
 40
2.799999999999999
  1
630mm
 41
0.8
100
AcDbText
  0
LINE
  5
1E2
330
2
100
AcDbEntity
  8
L-ZISSEN
100
AcDbLine
 10
314.3462143869787
 20
241.0051038947864
 30
0.0
 11
314.3462143869787
 21
215.9903321680428
 31
0.0
  0
LINE
  5
1E3
330
2
100
AcDbEntity
  8
L-ZISSEN
100
AcDbLine
 10
354.1486515964149
 20
246.0080582401352
 30
0.0
 11
354.1486515964149
 21
215.9903321680428
 31
0.0
  0
TEXT
  5
1E4
330
2
100
AcDbEntity
  8
L-ZISSEN
100
AcDbText
 10
317.3120502740891
 20
204.9280136802948
 30
0.0
 40
2.799999999999999
  1
ストレート形/プラスチック
 41
0.8
100
AcDbText
  0
TEXT
  5
1E5
330
2
100
AcDbEntity
  8
L-ZISSEN
100
AcDbText
 10
317.3120502740891
 20
209.9309680256435
 30
0.0
 40
2.799999999999999
  1
ノズル形状
 41
0.8
100
AcDbText
  0
LINE
  5
1E6
330
2
100
AcDbEntity
  8
L-ZISSEN
100
AcDbLine
 10
314.346214386979
 20
209.0021495494377
 30
0.0
 11
314.346214386979
 21
203.999195204089
 31
0.0
  0
TEXT
  5
1E7
330
2
100
AcDbEntity
  8
L-ZISSEN
100
AcDbText
 10
317.3120502740889
 20
221.9221049895973
 30
0.0
 40
2.799999999999999
  1
780mm
 41
0.8
100
AcDbText
  0
TEXT
  5
1E8
330
2
100
AcDbEntity
  8
L-ZISSEN
100
AcDbText
 10
317.3120502740889
 20
216.9191506442485
 30
0.0
 40
2.799999999999999
  1
930mm
 41
0.8
100
AcDbText
  0
LINE
  5
1E9
330
2
100
AcDbEntity
  8
L-ZISSEN
100
AcDbLine
 10
354.1486515964152
 20
214.0051038947865
 30
0.0
 11
354.1486515964152
 21
203.9991952040891
 31
0.0
  0
TEXT
  5
1EA
330
2
100
AcDbEntity
  8
L-ZISSEN
100
AcDbText
 10
317.3120502740889
 20
236.9309680256435
 30
0.0
 40
2.799999999999999
  1
330mm
 41
0.8
100
AcDbText
  0
TEXT
  5
1EB
330
2
100
AcDbEntity
  8
L-ZISSEN
100
AcDbText
 10
317.3120502740889
 20
231.9280136802948
 30
0.0
 40
2.799999999999999
  1
480mm
 41
0.8
100
AcDbText
  0
TEXT
  5
1EC
330
2
100
AcDbEntity
  8
L-ZISSEN
100
AcDbText
 10
317.3120502740888
 20
248.9368767163408
 30
0.0
 40
2.799999999999999
  1
マグネット
 41
0.8
100
AcDbText
  0
TEXT
  5
1ED
330
2
100
AcDbEntity
  8
L-ZISSEN
100
AcDbText
 10
317.3120502740889
 20
241.9339223709922
 30
0.0
 40
2.799999999999999
  1
チューブ長さ
 41
0.8
100
AcDbText
  0
LINE
  5
1EE
330
2
100
AcDbEntity
  8
L-ZISSEN
 62
     7
100
AcDbLine
 10
450.6945429341309
 20
245.5227556719989
 30
0.0
 11
464.1840429341309
 21
222.1577556719988
 31
0.0
  0
ARC
  5
1EF
330
2
100
AcDbEntity
  8
L-ZISSEN
100
AcDbCircle
 10
444.2022500534341
 20
248.1207556719989
 30
0.0
 40
26.0
100
AcDbArc
 50
192.8375985660541
 51
309.7151372318261
  0
TEXT
  5
1F0
330
2
100
AcDbEntity
  8
L-ZISSEN
 62
     7
100
AcDbText
 10
472.9063429341308
 20
221.0857556719988
 30
0.0
 40
4.5
  1
P.P
 41
0.7780000000000001
  7
FONT1
 72
     2
 11
482.2423429341307
 21
221.0857556719988
 31
0.0
100
AcDbText
  0
LINE
  5
1F1
330
2
100
AcDbEntity
  8
L-ZISSEN
 62
     7
100
AcDbLine
 10
464.1840429341309
 20
222.1577556719988
 30
0.0
 11
470.0610429341308
 21
222.1577556719988
 31
0.0
  0
TEXT
  5
1F2
330
2
100
AcDbEntity
  8
L-ZISSEN
 62
     7
100
AcDbText
 10
379.7554499251209
 20
295.2925049154858
 30
0.0
 40
4.5
  1
MODEL No. :N11-200-M*11
 41
0.9097777999999999
  7
FONT1
100
AcDbText
  0
TEXT
  5
1F3
330
2
100
AcDbEntity
  8
L-ZISSEN
100
AcDbText
 10
317.3120502740889
 20
265.945739752387
 30
0.0
 40
2.799999999999999
  1
セミドライルブ用ノズル
 41
0.8
100
AcDbText
  0
TEXT
  5
1F4
330
2
100
AcDbEntity
  8
L-ZISSEN
100
AcDbText
 10
317.3120502740889
 20
258.9427854070383
 30
0.0
 40
2.799999999999999
  1
取付方法
 41
0.8
100
AcDbText
  0
TEXT
  5
1F5
330
2
100
AcDbEntity
  8
L-ZISSEN
100
AcDbText
 10
317.3120502740889
 20
253.9398310616895
 30
0.0
 40
2.799999999999999
  1
ブラケット
 41
0.8
100
AcDbText
  0
TEXT
  5
1F6
330
2
100
AcDbEntity
  8
L-ZISSEN
100
AcDbText
 10
317.3120502740889
 20
270.9486940977356
 30
0.0
 40
2.799999999999999
  1
シリーズ名
 41
0.8
100
AcDbText
  0
LINE
  5
1F7
330
2
100
AcDbEntity
  8
L-ZISSEN
100
AcDbLine
 10
314.3462143869787
 20
270.0198756215299
 30
0.0
 11
314.3462143869787
 21
265.0169212761811
 31
0.0
  0
LINE
  5
1F8
330
2
100
AcDbEntity
  8
L-ZISSEN
100
AcDbLine
 10
354.1486515964149
 20
275.0228299668786
 30
0.0
 11
354.1486515964149
 21
265.0169212761813
 31
0.0
  0
TEXT
  5
1F9
330
2
100
AcDbEntity
  8
L-ZISSEN
100
AcDbText
 10
337.2329602935535
 20
293.714976582425
 30
0.0
 40
4.199999999999999
  1
＊
 41
0.8
100
AcDbText
  0
LINE
  5
1FA
330
2
100
AcDbEntity
  8
L-ZISSEN
100
AcDbLine
 10
336.8535996492604
 20
292.4668416877387
 30
0.0
 11
340.3934238339716
 21
292.4668416877387
 31
0.0
  0
TEXT
  5
1FB
330
2
100
AcDbEntity
  8
L-ZISSEN
100
AcDbText
 10
337.9501200776278
 20
283.4483619441054
 30
0.0
 40
2.799999999999999
  1
7
 41
0.8
100
AcDbText
  0
CIRCLE
  5
1FC
330
2
100
AcDbEntity
  8
L-ZISSEN
100
AcDbCircle
 10
338.623511741616
 20
284.9668416877388
 30
0.0
 40
2.2
  0
LINE
  5
1FD
330
2
100
AcDbEntity
  8
L-ZISSEN
100
AcDbLine
 10
338.623511741616
 20
292.4668416877387
 30
0.0
 11
338.623511741616
 21
287.1668416877387
 31
0.0
  0
LINE
  5
1FE
330
2
100
AcDbEntity
  8
L-ZISSEN
100
AcDbLine
 10
349.703504351217
 20
292.4668416877387
 30
0.0
 11
349.703504351217
 21
287.1668416877387
 31
0.0
  0
LINE
  5
1FF
330
2
100
AcDbEntity
  8
L-ZISSEN
100
AcDbLine
 10
355.1751615718448
 20
292.4668416877387
 30
0.0
 11
355.1751615718448
 21
287.1668416877387
 31
0.0
  0
LINE
  5
200
330
2
100
AcDbEntity
  8
L-ZISSEN
100
AcDbLine
 10
344.1934835265223
 20
292.4668416877387
 30
0.0
 11
344.1934835265223
 21
287.1668416877387
 31
0.0
  0
CIRCLE
  5
201
330
2
100
AcDbEntity
  8
L-ZISSEN
100
AcDbCircle
 10
349.703504351217
 20
284.9668416877388
 30
0.0
 40
2.2
  0
CIRCLE
  5
202
330
2
100
AcDbEntity
  8
L-ZISSEN
100
AcDbCircle
 10
344.1934835265223
 20
284.9668416877388
 30
0.0
 40
2.2
  0
TEXT
  5
203
330
2
100
AcDbEntity
  8
L-ZISSEN
100
AcDbText
 10
343.3723171532955
 20
283.4483619441054
 30
0.0
 40
2.799999999999999
  1
8
 41
0.8
100
AcDbText
  0
TEXT
  5
204
330
2
100
AcDbEntity
  8
L-ZISSEN
100
AcDbText
 10
348.9810571434742
 20
283.4483619441054
 30
0.0
 40
2.799999999999999
  1
9
 41
0.8
100
AcDbText
  0
CIRCLE
  5
205
330
2
100
AcDbEntity
  8
L-ZISSEN
100
AcDbCircle
 10
355.1751615718448
 20
284.9668416877388
 30
0.0
 40
2.2
  0
TEXT
  5
206
330
2
100
AcDbEntity
  8
L-ZISSEN
100
AcDbText
 10
353.6008453459582
 20
283.4483619441054
 30
0.0
 40
2.799999999999999
  1
10
 41
0.8
100
AcDbText
  0
LINE
  5
207
330
2
100
AcDbEntity
  8
L-ZISSEN
100
AcDbLine
 10
347.9935432190732
 20
292.4668416877387
 30
0.0
 11
351.4134654833609
 21
292.4668416877387
 31
0.0
  0
TEXT
  5
208
330
2
100
AcDbEntity
  8
L-ZISSEN
100
AcDbText
 10
348.0986849349193
 20
293.714976582425
 30
0.0
 40
4.199999999999999
  1
１
 41
0.8
100
AcDbText
  0
TEXT
  5
209
330
2
100
AcDbEntity
  8
L-ZISSEN
100
AcDbText
 10
342.8029320784598
 20
293.714976582425
 30
0.0
 40
4.199999999999999
  1
＊
 41
0.8
100
AcDbText
  0
LINE
  5
20A
330
2
100
AcDbEntity
  8
L-ZISSEN
100
AcDbLine
 10
342.6331442727804
 20
292.4668416877387
 30
0.0
 11
345.7538227802642
 21
292.4668416877387
 31
0.0
  0
TEXT
  5
20B
330
2
100
AcDbEntity
  8
L-ZISSEN
100
AcDbText
 10
353.7891549565599
 20
293.714976582425
 30
0.0
 40
4.199999999999999
  1
１
 41
0.8
100
AcDbText
  0
LINE
  5
20C
330
2
100
AcDbEntity
  8
L-ZISSEN
100
AcDbLine
 10
353.6531859221699
 20
292.4668416877387
 30
0.0
 11
356.6971372215195
 21
292.4668416877387
 31
0.0
  0
TEXT
  5
20D
330
2
100
AcDbEntity
  8
L-ZISSEN
 62
     7
100
AcDbText
 10
379.7554499251209
 20
303.551222899632
 30
0.0
 40
4.5
  1
MAGNET
 41
0.9097777999999999
  7
FONT1
100
AcDbText
  0
ARC
  5
20E
330
2
100
AcDbEntity
  8
L-ZISSEN
100
AcDbCircle
 10
444.2022500534341
 20
248.1207556719989
 30
0.0
 40
26.0
100
AcDbArc
 50
50.28486276817375
 51
167.1872808300066
  0
ENDSEC
  0
SECTION
  2
OBJECTS
  0
DICTIONARY
  5
7
330
0
100
AcDbDictionary
  3
ACAD_GROUP
350
20
  3
ACAD_LAYOUT
350
B
  3
ACAD_MLINESTYLE
350
21
  3
ACAD_PLOTSETTINGS
350
22
1001
ACAD
1000
TREAT_AS_HARD
1070
     0
  0
DICTIONARY
  5
282
330
2
100
AcDbDictionary
  3
ACAD_LAYOUTSELFREF
350
283
  0
DICTIONARY
  5
284
330
C
100
AcDbDictionary
  3
ACAD_LAYOUTSELFREF
350
285
  0
DICTIONARY
  5
20
102
{ACAD_REACTORS
330
7
102
}
330
7
100
AcDbDictionary
1001
ACAD
1000
TREAT_AS_HARD
1070
     0
  0
DICTIONARY
  5
B
102
{ACAD_REACTORS
330
7
102
}
330
7
100
AcDbDictionary
1001
ACAD
1000
TREAT_AS_HARD
1070
     0
  0
DICTIONARY
  5
21
102
{ACAD_REACTORS
330
7
102
}
330
7
100
AcDbDictionary
  3
STANDARD
350
23
1001
ACAD
1000
TREAT_AS_HARD
1070
     0
  0
DICTIONARY
  5
22
102
{ACAD_REACTORS
330
7
102
}
330
7
100
AcDbDictionary
1001
ACAD
1000
TREAT_AS_HARD
1070
     0
  0
XRECORD
  5
283
102
{ACAD_REACTORS
330
282
102
}
330
282
100
AcDbXrecord
340
2
  0
XRECORD
  5
285
102
{ACAD_REACTORS
330
284
102
}
330
284
100
AcDbXrecord
340
C
  0
MLINESTYLE
  5
23
102
{ACAD_REACTORS
330
21
102
}
330
21
100
AcDbMlineStyle
  2
STANDARD
 70
     0
  3

 62
     0
 51
90.0
 52
90.0
 71
     2
 49
0.5
 62
   256
  6
BYLAYER
 49
-0.5
 62
   256
  6
BYLAYER
  0
ENDSEC
  0
EOF
