  0
SECTION
  2
HEADER
  9
$ACADVER
  1
AC1012
  9
$DWGCODEPAGE
  3
dos932
  9
$INSBASE
 10
37.88138193795828
 20
75.42874098352967
 30
0.0
  9
$EXTMIN
 10
122.17000445465
 20
-21.06524308788471
 30
0.0
  9
$EXTMAX
 10
521.3787641171863
 20
269.6019770070282
 30
0.0
  9
$LIMMIN
 10
0.0
 20
0.0
  9
$LIMMAX
 10
12.0
 20
9.0
  9
$ORTHOMODE
 70
     0
  9
$REGENMODE
 70
     1
  9
$FILLMODE
 70
     1
  9
$QTEXTMODE
 70
     0
  9
$MIRRTEXT
 70
     1
  9
$DRAGMODE
 70
     2
  9
$LTSCALE
 40
20.0
  9
$OSMODE
 70
    37
  9
$ATTMODE
 70
     1
  9
$TEXTSIZE
 40
2.799999999999999
  9
$TRACEWID
 40
0.05
  9
$TEXTSTYLE
  7
STANDARD
  9
$CLAYER
  8
L-ZISSEN
  9
$CELTYPE
  6
BYLAYER
  9
$CECOLOR
 62
   256
  9
$CELTSCALE
 40
1.0
  9
$DELOBJ
 70
     1
  9
$DISPSILH
 70
     0
  9
$DIMSCALE
 40
1.0
  9
$DIMASZ
 40
2.0
  9
$DIMEXO
 40
1.0
  9
$DIMDLI
 40
0.38
  9
$DIMRND
 40
0.0
  9
$DIMDLE
 40
0.0
  9
$DIMEXE
 40
1.0
  9
$DIMTP
 40
0.0
  9
$DIMTM
 40
0.0
  9
$DIMTXT
 40
2.799999999999999
  9
$DIMCEN
 40
0.09
  9
$DIMTSZ
 40
0.0
  9
$DIMTOL
 70
     0
  9
$DIMLIM
 70
     0
  9
$DIMTIH
 70
     0
  9
$DIMTOH
 70
     0
  9
$DIMSE1
 70
     0
  9
$DIMSE2
 70
     0
  9
$DIMTAD
 70
     1
  9
$DIMZIN
 70
     8
  9
$DIMBLK
  1

  9
$DIMASO
 70
     1
  9
$DIMSHO
 70
     0
  9
$DIMPOST
  1

  9
$DIMAPOST
  1

  9
$DIMALT
 70
     0
  9
$DIMALTD
 70
     2
  9
$DIMALTF
 40
25.4
  9
$DIMLFAC
 40
1.0
  9
$DIMTOFL
 70
     1
  9
$DIMTVP
 40
0.0
  9
$DIMTIX
 70
     1
  9
$DIMSOXD
 70
     0
  9
$DIMSAH
 70
     0
  9
$DIMBLK1
  1

  9
$DIMBLK2
  1

  9
$DIMSTYLE
  2
STANDARD
  9
$DIMCLRD
 70
     0
  9
$DIMCLRE
 70
     0
  9
$DIMCLRT
 70
     0
  9
$DIMTFAC
 40
1.0
  9
$DIMGAP
 40
0.8
  9
$DIMJUST
 70
     0
  9
$DIMSD1
 70
     0
  9
$DIMSD2
 70
     0
  9
$DIMTOLJ
 70
     1
  9
$DIMTZIN
 70
     0
  9
$DIMALTZ
 70
     0
  9
$DIMALTTZ
 70
     0
  9
$DIMFIT
 70
     3
  9
$DIMUPT
 70
     0
  9
$DIMUNIT
 70
     2
  9
$DIMDEC
 70
     3
  9
$DIMTDEC
 70
     4
  9
$DIMALTU
 70
     2
  9
$DIMALTTD
 70
     2
  9
$DIMTXSTY
  7
STANDARD
  9
$DIMAUNIT
 70
     0
  9
$LUNITS
 70
     2
  9
$LUPREC
 70
     4
  9
$SKETCHINC
 40
0.1
  9
$FILLETRAD
 40
1.0
  9
$AUNITS
 70
     0
  9
$AUPREC
 70
     0
  9
$MENU
  1
acad
  9
$ELEVATION
 40
0.0
  9
$PELEVATION
 40
0.0
  9
$THICKNESS
 40
0.0
  9
$LIMCHECK
 70
     0
  9
$BLIPMODE
 70
     0
  9
$CHAMFERA
 40
0.0
  9
$CHAMFERB
 40
0.0
  9
$CHAMFERC
 40
0.0
  9
$CHAMFERD
 40
0.0
  9
$SKPOLY
 70
     0
  9
$TDCREATE
 40
2450038.666242940
  9
$TDUPDATE
 40
2453166.663039699
  9
$TDINDWG
 40
5.5017151620
  9
$TDUSRTIMER
 40
5.5017151620
  9
$USRTIMER
 70
     1
  9
$ANGBASE
 50
0.0
  9
$ANGDIR
 70
     0
  9
$PDMODE
 70
     0
  9
$PDSIZE
 40
0.0
  9
$PLINEWID
 40
0.0
  9
$COORDS
 70
     1
  9
$SPLFRAME
 70
     0
  9
$SPLINETYPE
 70
     6
  9
$SPLINESEGS
 70
     8
  9
$ATTDIA
 70
     0
  9
$ATTREQ
 70
     1
  9
$HANDLING
 70
-16383
  9
$HANDSEED
  5
EE80
  9
$SURFTAB1
 70
     6
  9
$SURFTAB2
 70
     6
  9
$SURFTYPE
 70
     6
  9
$SURFU
 70
     6
  9
$SURFV
 70
     6
  9
$UCSNAME
  2

  9
$UCSORG
 10
0.0
 20
0.0
 30
0.0
  9
$UCSXDIR
 10
1.0
 20
0.0
 30
0.0
  9
$UCSYDIR
 10
0.0
 20
1.0
 30
0.0
  9
$PUCSNAME
  2

  9
$PUCSORG
 10
0.0
 20
0.0
 30
0.0
  9
$PUCSXDIR
 10
1.0
 20
0.0
 30
0.0
  9
$PUCSYDIR
 10
0.0
 20
1.0
 30
0.0
  9
$USERI1
 70
     0
  9
$USERI2
 70
     0
  9
$USERI3
 70
     0
  9
$USERI4
 70
     0
  9
$USERI5
 70
     0
  9
$USERR1
 40
0.0
  9
$USERR2
 40
0.0
  9
$USERR3
 40
0.0
  9
$USERR4
 40
0.0
  9
$USERR5
 40
0.0
  9
$WORLDVIEW
 70
     1
  9
$SHADEDGE
 70
     3
  9
$SHADEDIF
 70
    70
  9
$TILEMODE
 70
     1
  9
$MAXACTVP
 70
    16
  9
$PINSBASE
 10
0.0
 20
0.0
 30
0.0
  9
$PLIMCHECK
 70
     0
  9
$PEXTMIN
 10
0.9598916571909988
 20
0.8043799099959727
 30
0.0
  9
$PEXTMAX
 10
8.639024914718985
 20
7.239419189963752
 30
0.0
  9
$PLIMMIN
 10
-0.7005418191744587
 20
-0.2281003861915408
  9
$PLIMMAX
 10
10.29945794052965
 20
8.271899373512567
  9
$UNITMODE
 70
     0
  9
$VISRETAIN
 70
     0
  9
$PLINEGEN
 70
     0
  9
$PSLTSCALE
 70
     0
  9
$TREEDEPTH
 70
  3020
  9
$PICKSTYLE
 70
     3
  9
$CMLSTYLE
  2
STANDARD
  9
$CMLJUST
 70
     0
  9
$CMLSCALE
 40
1.0
  9
$SAVEIMAGES
 70
     1
  0
ENDSEC
  0
SECTION
  2
CLASSES
  0
CLASS
  1
OLE2FRAME
  2
AcDbOle2Frame
  3
AutoCAD 2000
 90
    32768
280
     0
281
     1
  0
CLASS
  1
ACDBDICTIONARYWDFLT
  2
AcDbDictionaryWithDefault
  3
AutoCAD 2000
 90
    32768
280
     0
281
     0
  0
CLASS
  1
ACDBPLACEHOLDER
  2
AcDbPlaceHolder
  3
AutoCAD 2000
 90
    32768
280
     0
281
     0
  0
CLASS
  1
LAYOUT
  2
AcDbLayout
  3
AutoCAD 2000
 90
    32768
280
     0
281
     0
  0
CLASS
  1
LONG_TRANSACTION
  2
AcDbLongTransaction
  3
AutoCAD 2000
 90
    32768
280
     0
281
     0
  0
CLASS
  1
LWPOLYLINE
  2
AcDbPolyline
  3
AutoCAD 2000
 90
    32768
280
     0
281
     1
  0
CLASS
  1
HATCH
  2
AcDbHatch
  3
AutoCAD 2000
 90
    32768
280
     0
281
     1
  0
CLASS
  1
XRECORD
  2
AcDbXrecord
  3
AutoCAD 2000
 90
    32768
280
     0
281
     0
  0
CLASS
  1
LONG_TRANSACTION
  2
AcDbLongTransaction
  3
AutoCAD 2000
 90
    32768
280
     0
281
     0
  0
CLASS
  1
LWPOLYLINE
  2
AcDbPolyline
  3
AutoCAD 2000
 90
    32768
280
     0
281
     1
  0
CLASS
  1
HATCH
  2
AcDbHatch
  3
AutoCAD 2000
 90
    32768
280
     0
281
     1
  0
CLASS
  1
XRECORD
  2
AcDbXrecord
  3
AutoCAD 2000
 90
    32768
280
     0
281
     0
  0
CLASS
  1
LONG_TRANSACTION
  2
AcDbLongTransaction
  3
AutoCAD 2000
 90
    32768
280
     0
281
     0
  0
CLASS
  1
LWPOLYLINE
  2
AcDbPolyline
  3
AutoCAD 2000
 90
    32768
280
     0
281
     1
  0
CLASS
  1
HATCH
  2
AcDbHatch
  3
AutoCAD 2000
 90
    32768
280
     0
281
     1
  0
CLASS
  1
XRECORD
  2
AcDbXrecord
  3
AutoCAD 2000
 90
    32768
280
     0
281
     0
  0
CLASS
  1
LONG_TRANSACTION
  2
AcDbLongTransaction
  3
AutoCAD 2000
 90
    32768
280
     0
281
     0
  0
CLASS
  1
LWPOLYLINE
  2
AcDbPolyline
  3
AutoCAD 2000
 90
    32768
280
     0
281
     1
  0
CLASS
  1
HATCH
  2
AcDbHatch
  3
AutoCAD 2000
 90
    32768
280
     0
281
     1
  0
CLASS
  1
XRECORD
  2
AcDbXrecord
  3
AutoCAD 2000
 90
    32768
280
     0
281
     0
  0
CLASS
  1
LONG_TRANSACTION
  2
AcDbLongTransaction
  3
AutoCAD 2000
 90
    32768
280
     0
281
     0
  0
CLASS
  1
LWPOLYLINE
  2
AcDbPolyline
  3
AutoCAD 2000
 90
    32768
280
     0
281
     1
  0
CLASS
  1
HATCH
  2
AcDbHatch
  3
AutoCAD 2000
 90
    32768
280
     0
281
     1
  0
CLASS
  1
XRECORD
  2
AcDbXrecord
  3
AutoCAD 2000
 90
    32768
280
     0
281
     0
  0
CLASS
  1
LONG_TRANSACTION
  2
AcDbLongTransaction
  3
AutoCAD 2000
 90
    32768
280
     0
281
     0
  0
CLASS
  1
LWPOLYLINE
  2
AcDbPolyline
  3
AutoCAD 2000
 90
    32768
280
     0
281
     1
  0
CLASS
  1
HATCH
  2
AcDbHatch
  3
AutoCAD 2000
 90
    32768
280
     0
281
     1
  0
CLASS
  1
XRECORD
  2
AcDbXrecord
  3
AutoCAD 2000
 90
    32768
280
     0
281
     0
  0
ENDSEC
  0
SECTION
  2
TABLES
  0
TABLE
  2
VPORT
  5
13
330
0
100
AcDbSymbolTable
 70
     2
  0
VPORT
  5
EE73
330
13
100
AcDbSymbolTableRecord
100
AcDbViewportTableRecord
  2
*ACTIVE
 70
     0
 10
0.0
 20
0.0
 11
1.0
 21
1.0
 12
260.7039099691373
 22
142.7573442448612
 13
0.0
 23
0.0
 14
1.0
 24
1.0
 15
0.0
 25
0.0
 16
0.0
 26
0.0
 36
1.0
 17
0.0
 27
0.0
 37
0.0
 40
332.3531770406296
 41
1.667838312829525
 42
50.0
 43
0.0
 44
0.0
 50
0.0
 51
0.0
 71
     0
 72
   100
 73
     1
 74
     0
 75
     0
 76
     0
 77
     0
 78
     0
  0
ENDTAB
  0
TABLE
  2
LTYPE
  5
F
330
0
100
AcDbSymbolTable
 70
     2
  0
LTYPE
  5
10
330
F
100
AcDbSymbolTableRecord
100
AcDbLinetypeTableRecord
  2
BYBLOCK
 70
     0
  3

 72
    65
 73
     0
 40
0.0
  0
LTYPE
  5
6
330
F
100
AcDbSymbolTableRecord
100
AcDbLinetypeTableRecord
  2
BYLAYER
 70
     0
  3

 72
    65
 73
     0
 40
0.0
  0
LTYPE
  5
5
330
F
100
AcDbSymbolTableRecord
100
AcDbLinetypeTableRecord
  2
CONTINUOUS
 70
     0
  3
Solid line
 72
    65
 73
     0
 40
0.0
  0
LTYPE
  5
25
330
F
100
AcDbSymbolTableRecord
100
AcDbLinetypeTableRecord
  2
CENTER2
 70
     0
  3
___ _ ___ _ ___ _ ___ _ ___ _ ___ _ ___ _ ___ _
 72
    65
 73
     4
 40
1.125
 49
0.75
 74
     0
 49
-0.125
 74
     0
 49
0.125
 74
     0
 49
-0.125
 74
     0
  0
ENDTAB
  0
TABLE
  2
LAYER
  5
B
330
0
100
AcDbSymbolTable
 70
     4
  0
LAYER
  5
C
330
B
100
AcDbSymbolTableRecord
100
AcDbLayerTableRecord
  2
0
 70
     0
 62
     7
  6
CONTINUOUS
  0
LAYER
  5
4
330
B
100
AcDbSymbolTableRecord
100
AcDbLayerTableRecord
  2
L-ZISSEN
 70
     0
 62
     7
  6
CONTINUOUS
  0
LAYER
  5
24
330
B
100
AcDbSymbolTableRecord
100
AcDbLayerTableRecord
  2
L-TYUSIN
 70
     0
 62
     1
  6
CENTER2
  0
LAYER
  5
1C
330
B
100
AcDbSymbolTableRecord
100
AcDbLayerTableRecord
  2
SUNPOU
 70
     0
 62
     3
  6
CONTINUOUS
  0
ENDTAB
  0
TABLE
  2
STYLE
  5
D
330
0
100
AcDbSymbolTable
 70
     1
  0
STYLE
  5
E
330
D
100
AcDbSymbolTableRecord
100
AcDbTextStyleTableRecord
  2
STANDARD
 70
     0
 40
0.0
 41
0.8
 50
0.0
 71
     0
 42
2.799999999999999
  3
simplex
  4
bigfont.shx
  0
ENDTAB
  0
TABLE
  2
VIEW
  5
11
330
0
100
AcDbSymbolTable
 70
     0
  0
ENDTAB
  0
TABLE
  2
UCS
  5
12
330
0
100
AcDbSymbolTable
 70
     0
  0
ENDTAB
  0
TABLE
  2
APPID
  5
15
330
0
100
AcDbSymbolTable
 70
     1
  0
APPID
  5
16
330
15
100
AcDbSymbolTableRecord
100
AcDbRegAppTableRecord
  2
ACAD
 70
     0
  0
ENDTAB
  0
TABLE
  2
DIMSTYLE
  5
17
330
0
100
AcDbSymbolTable
 70
     1
  0
DIMSTYLE
105
1E
330
17
100
AcDbSymbolTableRecord
100
AcDbDimStyleTableRecord
  2
STANDARD
 70
     0
  3

  4

  5

  6

  7

 40
1.0
 41
0.18
 42
0.0625
 43
0.38
 44
0.18
 45
0.0
 46
0.0
 47
0.0
 48
0.0
140
0.18
141
0.09
142
0.0
143
25.4
144
1.0
145
0.0
146
1.0
147
0.09
 71
     0
 72
     0
 73
     1
 74
     1
 75
     0
 76
     0
 77
     0
 78
     0
170
     0
171
     2
172
     0
173
     0
174
     0
175
     0
176
     0
177
     0
178
     0
270
     2
271
     4
272
     4
273
     2
274
     2
340
E
275
     0
280
     0
281
     0
282
     0
283
     1
284
     0
285
     0
286
     0
287
     3
288
     0
  0
ENDTAB
  0
TABLE
  2
BLOCK_RECORD
  5
1
330
0
100
AcDbSymbolTable
 70
     0
  0
BLOCK_RECORD
  5
2
102
{ACAD_XDICTIONARY
360
CEA6
102
}
330
1
100
AcDbSymbolTableRecord
100
AcDbBlockTableRecord
  2
*MODEL_SPACE
  0
BLOCK_RECORD
  5
8
102
{ACAD_XDICTIONARY
360
CEA8
102
}
330
1
100
AcDbSymbolTableRecord
100
AcDbBlockTableRecord
  2
*PAPER_SPACE
  0
ENDTAB
  0
ENDSEC
  0
SECTION
  2
BLOCKS
  0
BLOCK
  5
3
330
2
100
AcDbEntity
  8
0
100
AcDbBlockBegin
  2
*MODEL_SPACE
 70
     0
 10
0.0
 20
0.0
 30
0.0
  3
*MODEL_SPACE
  1

  0
ENDBLK
  5
7
330
2
100
AcDbEntity
  8
0
100
AcDbBlockEnd
  0
BLOCK
  5
9
330
8
100
AcDbEntity
 67
     1
  8
0
100
AcDbBlockBegin
  2
*PAPER_SPACE
 70
     0
 10
0.0
 20
0.0
 30
0.0
  3
*PAPER_SPACE
  1

  0
ENDBLK
  5
A
330
8
100
AcDbEntity
 67
     1
  8
0
100
AcDbBlockEnd
  0
ENDSEC
  0
SECTION
  2
ENTITIES
  0
LINE
  5
CB52
330
2
100
AcDbEntity
  8
L-ZISSEN
100
AcDbLine
 10
141.63933015368
 20
-16.49673280550939
 30
0.0
 11
141.63933015368
 21
33.5032671944906
 31
0.0
  0
LINE
  5
CB53
330
2
100
AcDbEntity
  8
L-ZISSEN
100
AcDbLine
 10
191.63933015368
 20
33.5032671944906
 30
0.0
 11
191.63933015368
 21
-16.49673280550939
 31
0.0
  0
LINE
  5
CB57
330
2
100
AcDbEntity
  8
L-TYUSIN
100
AcDbLine
 10
166.63933015368
 20
36.67018532807037
 30
0.0
 11
166.63933015368
 21
-21.06524308788471
 31
0.0
  0
LINE
  5
CB5A
330
2
100
AcDbEntity
  8
L-TYUSIN
100
AcDbLine
 10
152.5618282736579
 20
-11.49673280550939
 30
0.0
 11
140.716832033702
 21
-11.49673280550939
 31
0.0
  0
LINE
  5
CB5B
330
2
100
AcDbEntity
  8
L-TYUSIN
100
AcDbLine
 10
138.4724120201003
 20
8.503267194490604
 30
0.0
 11
194.8062482872599
 21
8.503267194490604
 31
0.0
  0
LINE
  5
CB5C
330
2
100
AcDbEntity
  8
L-TYUSIN
100
AcDbLine
 10
146.63933015368
 20
-5.574234685533383
 30
0.0
 11
146.63933015368
 21
-17.4192309254854
 31
0.0
  0
CIRCLE
  5
CB5D
330
2
100
AcDbEntity
  8
L-ZISSEN
100
AcDbCircle
 10
146.63933015368
 20
-11.49673280550939
 30
0.0
 40
4.5
  0
CIRCLE
  5
CB5F
330
2
100
AcDbEntity
  8
L-ZISSEN
100
AcDbCircle
 10
166.63933015368
 20
8.503267194490604
 30
0.0
 40
9.3
  0
CIRCLE
  5
CB60
330
2
100
AcDbEntity
  8
L-ZISSEN
 62
     6
100
AcDbCircle
 10
166.63933015368
 20
8.503267194490604
 30
0.0
 40
10.5
  0
LINE
  5
CB62
330
2
100
AcDbEntity
  8
L-ZISSEN
100
AcDbLine
 10
141.63933015368
 20
33.5032671944906
 30
0.0
 11
191.63933015368
 21
33.5032671944906
 31
0.0
  0
CIRCLE
  5
CB65
330
2
100
AcDbEntity
  8
L-ZISSEN
100
AcDbCircle
 10
186.63933015368
 20
28.50326719449049
 30
0.0
 40
4.5
  0
LINE
  5
CB66
330
2
100
AcDbEntity
  8
L-TYUSIN
100
AcDbLine
 10
180.716832033702
 20
28.50326719449049
 30
0.0
 11
192.5618282736579
 21
28.50326719449049
 31
0.0
  0
LINE
  5
CB67
330
2
100
AcDbEntity
  8
L-TYUSIN
100
AcDbLine
 10
186.63933015368
 20
22.58076907451447
 30
0.0
 11
186.63933015368
 21
34.4257653144665
 31
0.0
  0
CIRCLE
  5
CB85
330
2
100
AcDbEntity
  8
L-ZISSEN
100
AcDbCircle
 10
252.0207764449951
 20
153.10156350229
 30
0.0
 40
7.474999999999999
  0
CIRCLE
  5
CB86
330
2
100
AcDbEntity
  8
L-ZISSEN
 62
     6
100
AcDbCircle
 10
252.0207764449951
 20
153.10156350229
 30
0.0
 40
8.33
  0
LINE
  5
CB87
330
2
100
AcDbEntity
  8
L-TYUSIN
100
AcDbLine
 10
252.0207764449951
 20
179.8119293293147
 30
0.0
 11
252.0207764449951
 21
69.93063402785089
 31
0.0
  0
LINE
  5
CB88
330
2
100
AcDbEntity
  8
L-ZISSEN
100
AcDbLine
 10
277.0207764449951
 20
77.10156350228988
 30
0.0
 11
277.0207764449951
 21
173.10156350229
 31
0.0
  0
LINE
  5
CB89
330
2
100
AcDbEntity
  8
L-ZISSEN
100
AcDbLine
 10
227.0207764449951
 20
77.10156350228999
 30
0.0
 11
227.0207764449952
 21
173.10156350229
 31
0.0
  0
LINE
  5
CB93
330
2
100
AcDbEntity
  8
L-TYUSIN
100
AcDbLine
 10
166.63933015368
 20
179.8119293293147
 30
0.0
 11
166.63933015368
 21
46.30272584500107
 31
0.0
  0
LINE
  5
CB94
330
2
100
AcDbEntity
  8
L-ZISSEN
100
AcDbLine
 10
191.63933015368
 20
77.10156350228988
 30
0.0
 11
191.63933015368
 21
173.10156350229
 31
0.0
  0
LINE
  5
CB95
330
2
100
AcDbEntity
  8
L-ZISSEN
100
AcDbLine
 10
141.63933015368
 20
77.10156350228999
 30
0.0
 11
141.6393301536801
 21
173.10156350229
 31
0.0
  0
LEADER
  5
CB96
330
2
100
AcDbEntity
  8
L-ZISSEN
100
AcDbLeader
  3
STANDARD
 40
2.799999999999999
 41
1.173333333333333
 76
     2
 10
244.9637016156454
 20
148.3082752719456
 30
0.0
 10
220.9593468815471
 20
130.3286878043275
 30
0.0
213
0.0
223
-1.399999999999999
233
0.0
1001
ACAD
1000
DSTYLE
1002
{
1070
     5
1000

1070
    41
1040
2.0
1070
    42
1040
1.0
1070
    44
1040
1.0
1070
    73
1070
     0
1070
    74
1070
     0
1070
    77
1070
     0
1070
    78
1070
     8
1070
   140
1040
2.799999999999999
1070
   147
1040
0.8
1070
   172
1070
     1
1070
   174
1070
     1
1070
   271
1070
     3
1070
   342
1005
0
1002
}
1000
LEANOF
1010
0.0
1020
-1.399999999999999
1030
0.0
  0
LINE
  5
CB97
330
2
100
AcDbEntity
  8
L-ZISSEN
100
AcDbLine
 10
277.0207764449951
 20
96.10156350228999
 30
0.0
 11
227.0207764449951
 21
96.10156350228988
 31
0.0
  0
LINE
  5
CB98
330
2
100
AcDbEntity
  8
L-ZISSEN
100
AcDbLine
 10
228.0207764449951
 20
76.10156350228994
 30
0.0
 11
276.0207764449951
 21
76.10156350228987
 31
0.0
  0
LINE
  5
CB99
330
2
100
AcDbEntity
  8
L-ZISSEN
100
AcDbLine
 10
236.5207764449951
 20
68.80156350228988
 30
0.0
 11
227.5207764449951
 21
68.80156350228988
 31
0.0
  0
LINE
  5
CBDA
330
2
100
AcDbEntity
  8
L-ZISSEN
100
AcDbLine
 10
141.63933015368
 20
76.10156350228994
 30
0.0
 11
191.63933015368
 21
76.10156350228987
 31
0.0
  0
LINE
  5
CBDB
330
2
100
AcDbEntity
  8
L-ZISSEN
100
AcDbLine
 10
151.13933015368
 20
68.80156350228988
 30
0.0
 11
142.13933015368
 21
68.80156350228988
 31
0.0
  0
LINE
  5
CBDC
330
2
100
AcDbEntity
  8
L-ZISSEN
100
AcDbLine
 10
142.63933015368
 20
76.10156350228994
 30
0.0
 11
190.63933015368
 21
76.10156350228987
 31
0.0
  0
LINE
  5
CBDD
330
2
100
AcDbEntity
  8
L-ZISSEN
100
AcDbLine
 10
191.63933015368
 20
96.10156350228999
 30
0.0
 11
141.63933015368
 21
96.10156350228988
 31
0.0
  0
LINE
  5
CBE2
330
2
100
AcDbEntity
  8
L-TYUSIN
100
AcDbLine
 10
146.63933015368
 20
65.9899179111062
 30
0.0
 11
146.63933015368
 21
77.83491415105823
 31
0.0
  0
LINE
  5
CBE3
330
2
100
AcDbEntity
  8
L-ZISSEN
100
AcDbLine
 10
142.13933015368
 20
68.80156350228988
 30
0.0
 11
142.13933015368
 21
76.10156350228983
 31
0.0
  0
LINE
  5
CBE4
330
2
100
AcDbEntity
  8
L-ZISSEN
100
AcDbLine
 10
141.63933015368
 20
77.10156350228988
 30
0.0
 11
142.63933015368
 21
76.10156350228987
 31
0.0
  0
LINE
  5
CBF3
330
2
100
AcDbEntity
  8
L-ZISSEN
100
AcDbLine
 10
182.13933015368
 20
68.80156350228988
 30
0.0
 11
191.13933015368
 21
68.80156350228988
 31
0.0
  0
LINE
  5
CBF4
330
2
100
AcDbEntity
  8
L-TYUSIN
100
AcDbLine
 10
186.63933015368
 20
65.9899179111062
 30
0.0
 11
186.63933015368
 21
77.83491415105823
 31
0.0
  0
LINE
  5
CBF5
330
2
100
AcDbEntity
  8
L-ZISSEN
100
AcDbLine
 10
182.13933015368
 20
68.80156350228988
 30
0.0
 11
182.13933015368
 21
76.10156350228989
 31
0.0
  0
LINE
  5
CBF6
330
2
100
AcDbEntity
  8
L-ZISSEN
100
AcDbLine
 10
151.13933015368
 20
68.80156350228988
 30
0.0
 11
151.13933015368
 21
76.10156350228989
 31
0.0
  0
LINE
  5
CBF8
330
2
100
AcDbEntity
  8
L-ZISSEN
100
AcDbLine
 10
227.5207764449951
 20
68.80156350228988
 30
0.0
 11
227.5207764449951
 21
76.10156350228983
 31
0.0
  0
LINE
  5
CBF9
330
2
100
AcDbEntity
  8
L-ZISSEN
100
AcDbLine
 10
191.13933015368
 20
68.80156350228988
 30
0.0
 11
191.13933015368
 21
76.10156350228983
 31
0.0
  0
LINE
  5
CBFA
330
2
100
AcDbEntity
  8
L-ZISSEN
100
AcDbLine
 10
191.63933015368
 20
77.10156350228988
 30
0.0
 11
190.63933015368
 21
76.10156350228987
 31
0.0
  0
LINE
  5
CBFB
330
2
100
AcDbEntity
  8
L-ZISSEN
100
AcDbLine
 10
227.0207764449951
 20
77.10156350228988
 30
0.0
 11
228.0207764449951
 21
76.10156350228987
 31
0.0
  0
LINE
  5
CC0D
330
2
100
AcDbEntity
  8
L-ZISSEN
100
AcDbLine
 10
202.4637734076275
 20
130.3286878043275
 30
0.0
 11
220.9593468815471
 21
130.3286878043275
 31
0.0
  0
TEXT
  5
CC0E
330
2
100
AcDbEntity
  8
L-ZISSEN
100
AcDbText
 10
202.9702491510861
 20
126.3858019500992
 30
0.0
 40
3.0
  1
2-Rc3/8
 41
0.8
100
AcDbText
  0
TEXT
  5
CC0F
330
2
100
AcDbEntity
  8
L-ZISSEN
100
AcDbText
 10
202.976121305151
 20
130.7618519458717
 30
0.0
 40
3.0
  1
OUT PORT
 41
0.8
100
AcDbText
  0
LINE
  5
CC1C
330
2
100
AcDbEntity
  8
L-ZISSEN
100
AcDbLine
 10
267.5207764449951
 20
68.80156350228988
 30
0.0
 11
276.5207764449951
 21
68.80156350228988
 31
0.0
  0
LINE
  5
CC1D
330
2
100
AcDbEntity
  8
L-ZISSEN
100
AcDbLine
 10
267.5207764449951
 20
68.80156350228988
 30
0.0
 11
267.5207764449951
 21
76.10156350228989
 31
0.0
  0
LINE
  5
CC1E
330
2
100
AcDbEntity
  8
L-ZISSEN
100
AcDbLine
 10
236.5207764449951
 20
68.80156350228988
 30
0.0
 11
236.5207764449951
 21
76.10156350228989
 31
0.0
  0
LINE
  5
CC1F
330
2
100
AcDbEntity
  8
L-TYUSIN
100
AcDbLine
 10
232.0207764449951
 20
65.9899179111062
 30
0.0
 11
232.0207764449951
 21
77.83491415105823
 31
0.0
  0
LINE
  5
CC26
330
2
100
AcDbEntity
  8
L-TYUSIN
100
AcDbLine
 10
272.0207764449951
 20
65.9899179111062
 30
0.0
 11
272.0207764449951
 21
77.83491415105823
 31
0.0
  0
LINE
  5
CC27
330
2
100
AcDbEntity
  8
L-ZISSEN
100
AcDbLine
 10
276.5207764449951
 20
68.80156350228988
 30
0.0
 11
276.5207764449951
 21
76.10156350228983
 31
0.0
  0
LINE
  5
CC2B
330
2
100
AcDbEntity
  8
L-ZISSEN
100
AcDbLine
 10
277.0207764449951
 20
77.10156350228988
 30
0.0
 11
276.0207764449951
 21
76.10156350228987
 31
0.0
  0
LINE
  5
CC2C
330
2
100
AcDbEntity
  8
L-ZISSEN
100
AcDbLine
 10
227.0207764449952
 20
173.10156350229
 30
0.0
 11
277.0207764449951
 21
173.10156350229
 31
0.0
  0
LINE
  5
CC2D
330
2
100
AcDbEntity
  8
L-ZISSEN
100
AcDbLine
 10
276.0207764449951
 20
174.10156350229
 30
0.0
 11
228.0207764449952
 21
174.10156350229
 31
0.0
  0
LINE
  5
CC2E
330
2
100
AcDbEntity
  8
L-TYUSIN
100
AcDbLine
 10
235.077467490022
 20
153.10156350229
 30
0.0
 11
268.9640853999683
 21
153.10156350229
 31
0.0
  0
POLYLINE
  5
CC30
330
2
100
AcDbEntity
  8
L-ZISSEN
100
AcDb2dPolyline
 66
     1
 10
0.0
 20
0.0
 30
0.0
 70
     1
  0
VERTEX
  5
EE76
330
CC30
100
AcDbEntity
  8
L-ZISSEN
100
AcDbVertex
100
AcDb2dVertex
 10
141.6393301536802
 20
251.6804200507139
 30
0.0
  0
VERTEX
  5
EE77
330
CC30
100
AcDbEntity
  8
L-ZISSEN
100
AcDbVertex
100
AcDb2dVertex
 10
141.6393301536801
 20
201.680420050714
 30
0.0
  0
VERTEX
  5
EE78
330
CC30
100
AcDbEntity
  8
L-ZISSEN
100
AcDbVertex
100
AcDb2dVertex
 10
191.6393301536802
 20
201.680420050714
 30
0.0
  0
VERTEX
  5
EE79
330
CC30
100
AcDbEntity
  8
L-ZISSEN
100
AcDbVertex
100
AcDb2dVertex
 10
191.6393301536802
 20
251.6804200507139
 30
0.0
  0
SEQEND
  5
EE7A
330
CC30
100
AcDbEntity
  8
L-ZISSEN
  0
POLYLINE
  5
CC31
330
2
100
AcDbEntity
  8
L-ZISSEN
100
AcDb2dPolyline
 66
     1
 10
0.0
 20
0.0
 30
0.0
 70
     1
  0
VERTEX
  5
EE7B
330
CC31
100
AcDbEntity
  8
L-ZISSEN
100
AcDbVertex
100
AcDb2dVertex
 10
142.6393301536802
 20
250.6804200507139
 30
0.0
  0
VERTEX
  5
EE7C
330
CC31
100
AcDbEntity
  8
L-ZISSEN
100
AcDbVertex
100
AcDb2dVertex
 10
142.6393301536801
 20
202.680420050714
 30
0.0
  0
VERTEX
  5
EE7D
330
CC31
100
AcDbEntity
  8
L-ZISSEN
100
AcDbVertex
100
AcDb2dVertex
 10
190.6393301536802
 20
202.680420050714
 30
0.0
  0
VERTEX
  5
EE7E
330
CC31
100
AcDbEntity
  8
L-ZISSEN
100
AcDbVertex
100
AcDb2dVertex
 10
190.6393301536802
 20
250.6804200507139
 30
0.0
  0
SEQEND
  5
EE7F
330
CC31
100
AcDbEntity
  8
L-ZISSEN
  0
LINE
  5
CC33
330
2
100
AcDbEntity
  8
L-TYUSIN
100
AcDbLine
 10
186.63933015368
 20
240.7579219307378
 30
0.0
 11
186.63933015368
 21
252.6029181706898
 31
0.0
  0
LINE
  5
CC34
330
2
100
AcDbEntity
  8
L-TYUSIN
100
AcDbLine
 10
166.63933015368
 20
254.8473381842938
 30
0.0
 11
166.63933015368
 21
198.5135019171342
 31
0.0
  0
LINE
  5
CC43
330
2
100
AcDbEntity
  8
L-ZISSEN
100
AcDbLine
 10
141.6393301536801
 20
173.10156350229
 30
0.0
 11
191.63933015368
 21
173.10156350229
 31
0.0
  0
LINE
  5
CC47
330
2
100
AcDbEntity
  8
L-ZISSEN
100
AcDbLine
 10
190.63933015368
 20
174.10156350229
 30
0.0
 11
142.6393301536801
 21
174.10156350229
 31
0.0
  0
LINE
  5
CC4C
330
2
100
AcDbEntity
  8
L-ZISSEN
100
AcDbLine
 10
142.6393301536801
 20
174.10156350229
 30
0.0
 11
141.6393301536801
 21
173.10156350229
 31
0.0
  0
LINE
  5
CC53
330
2
100
AcDbEntity
  8
L-ZISSEN
100
AcDbLine
 10
191.63933015368
 20
173.10156350229
 30
0.0
 11
190.63933015368
 21
174.10156350229
 31
0.0
  0
LINE
  5
CC54
330
2
100
AcDbEntity
  8
L-ZISSEN
100
AcDbLine
 10
228.0207764449952
 20
174.10156350229
 30
0.0
 11
227.0207764449952
 21
173.10156350229
 31
0.0
  0
LINE
  5
CC55
330
2
100
AcDbEntity
  8
L-TYUSIN
100
AcDbLine
 10
138.4724120201003
 20
226.6804200507139
 30
0.0
 11
194.8062482872599
 21
226.6804200507139
 31
0.0
  0
LINE
  5
CC56
330
2
100
AcDbEntity
  8
L-TYUSIN
100
AcDbLine
 10
152.5618282736579
 20
206.680420050714
 30
0.0
 11
140.716832033702
 21
206.680420050714
 31
0.0
  0
CIRCLE
  5
CC57
330
2
100
AcDbEntity
  8
L-ZISSEN
100
AcDbCircle
 10
146.63933015368
 20
206.680420050714
 30
0.0
 40
2.0
  0
LINE
  5
CC59
330
2
100
AcDbEntity
  8
L-TYUSIN
100
AcDbLine
 10
146.63933015368
 20
212.60291817069
 30
0.0
 11
146.63933015368
 21
200.757921930738
 31
0.0
  0
LINE
  5
CC5F
330
2
100
AcDbEntity
  8
L-TYUSIN
100
AcDbLine
 10
180.716832033702
 20
246.6804200507139
 30
0.0
 11
192.5618282736579
 21
246.6804200507139
 31
0.0
  0
CIRCLE
  5
CC61
330
2
100
AcDbEntity
  8
L-ZISSEN
100
AcDbCircle
 10
186.63933015368
 20
246.6804200507139
 30
0.0
 40
2.0
  0
LINE
  5
CC7B
330
2
100
AcDbEntity
  8
L-ZISSEN
100
AcDbLine
 10
277.0207764449951
 20
173.10156350229
 30
0.0
 11
276.0207764449951
 21
174.10156350229
 31
0.0
  0
LINE
  5
CD79
330
2
100
AcDbEntity
  8
L-ZISSEN
100
AcDbLine
 10
141.63933015368
 20
-16.49673280550939
 30
0.0
 11
191.63933015368
 21
-16.49673280550939
 31
0.0
  0
TEXT
  5
EDB4
330
2
100
AcDbEntity
  8
L-ZISSEN
100
AcDbText
 10
331.5142990957431
 20
42.30072623842674
 30
0.0
 40
3.199999998017279
  1
3J-8503  B電子カタログ
 41
0.8
 72
     4
 11
351.8602038450415
 21
43.90072623743537
 31
0.0
100
AcDbText
  0
TEXT
  5
EDB5
330
2
100
AcDbEntity
  8
L-ZISSEN
100
AcDbText
 10
343.2049657551662
 20
51.30072623285037
 30
0.0
 40
3.199999998017279
  1
PB4-320
 41
0.8
 72
     4
 11
351.8602038450415
 21
52.900726231859
 31
0.0
100
AcDbText
  0
LINE
  5
EDC2
330
2
100
AcDbEntity
  8
L-ZISSEN
 48
0.8
100
AcDbLine
 10
422.3057162625143
 20
130.6859623278627
 30
0.0
 11
422.3057162625143
 21
106.6859623278627
 31
0.0
  0
CIRCLE
  5
EDC3
330
2
100
AcDbEntity
  8
L-ZISSEN
 48
0.8
100
AcDbCircle
 10
414.8057162625143
 20
112.6859623278627
 30
0.0
 40
3.25
  0
LINE
  5
EDC4
330
2
100
AcDbEntity
  8
L-TYUSIN
100
AcDbLine
 10
414.8057162625143
 20
116.659760176915
 30
0.0
 11
414.8057162625143
 21
108.7121644788104
 31
0.0
  0
LINE
  5
EDC5
330
2
100
AcDbEntity
  8
L-ZISSEN
 48
0.8
100
AcDbLine
 10
372.3057162625143
 20
130.6859623278628
 30
0.0
 11
372.3057162625143
 21
106.6859623278628
 31
0.0
  0
LINE
  5
EDC6
330
2
100
AcDbEntity
  8
L-TYUSIN
100
AcDbLine
 10
379.8057162625143
 20
116.659760176915
 30
0.0
 11
379.8057162625143
 21
108.7121644788105
 31
0.0
  0
CIRCLE
  5
EDC7
330
2
100
AcDbEntity
  8
L-ZISSEN
 48
0.8
100
AcDbCircle
 10
379.8057162625143
 20
112.6859623278627
 30
0.0
 40
3.25
  0
LINE
  5
EDC8
330
2
100
AcDbEntity
  8
L-ZISSEN
 48
0.8
100
AcDbLine
 10
373.3057162625143
 20
105.6859623278628
 30
0.0
 11
421.3057162625143
 21
105.6859623278627
 31
0.0
  0
LINE
  5
EDC9
330
2
100
AcDbEntity
  8
L-ZISSEN
100
AcDbLine
 10
372.3057162625143
 20
106.6859623278628
 30
0.0
 11
373.3057162625143
 21
105.6859623278628
 31
0.0
  0
LINE
  5
EDCB
330
2
100
AcDbEntity
  8
L-ZISSEN
100
AcDbLine
 10
421.3057162625143
 20
105.6859623278627
 30
0.0
 11
422.3057162625143
 21
106.6859623278627
 31
0.0
  0
LINE
  5
EDCD
330
2
100
AcDbEntity
  8
L-ZISSEN
100
AcDbLine
 10
373.3057162625143
 20
130.6859623278628
 30
0.0
 11
421.3057162625143
 21
130.6859623278627
 31
0.0
  0
LINE
  5
EDCE
330
2
100
AcDbEntity
  8
L-ZISSEN
100
AcDbLine
 10
381.8057162625143
 20
121.7859623278628
 30
0.0
 11
372.8057162625143
 21
121.7859623278628
 31
0.0
  0
LINE
  5
EDCF
330
2
100
AcDbEntity
  8
L-ZISSEN
100
AcDbLine
 10
372.3057162625143
 20
130.6859623278628
 30
0.0
 11
422.3057162625143
 21
130.6859623278627
 31
0.0
  0
LINE
  5
EDD0
330
2
100
AcDbEntity
  8
L-ZISSEN
 48
0.8
100
AcDbLine
 10
372.3057162625143
 20
129.0859623278627
 30
0.0
 11
422.3057162625143
 21
129.0859623278627
 31
0.0
  0
LINE
  5
EDD1
330
2
100
AcDbEntity
  8
L-ZISSEN
100
AcDbLine
 10
372.8057162625143
 20
121.7859623278628
 30
0.0
 11
372.8057162625143
 21
129.0859623278627
 31
0.0
  0
LINE
  5
EDD3
330
2
100
AcDbEntity
  8
L-ZISSEN
100
AcDbLine
 10
381.8057162625143
 20
121.7859623278628
 30
0.0
 11
381.8057162625143
 21
129.0859623278628
 31
0.0
  0
LINE
  5
EDD4
330
2
100
AcDbEntity
  8
L-TYUSIN
100
AcDbLine
 10
377.3057162625143
 20
120.574316736679
 30
0.0
 11
377.3057162625143
 21
132.419312976631
 31
0.0
  0
LINE
  5
EDD5
330
2
100
AcDbEntity
  8
L-TYUSIN
100
AcDbLine
 10
384.0173136272358
 20
112.6859623278628
 30
0.0
 11
375.5941188977928
 21
112.6859623278628
 31
0.0
  0
LINE
  5
EDD7
330
2
100
AcDbEntity
  8
L-ZISSEN
100
AcDbLine
 10
421.8057162625143
 20
121.7859623278628
 30
0.0
 11
421.8057162625143
 21
129.0859623278627
 31
0.0
  0
LINE
  5
EDD8
330
2
100
AcDbEntity
  8
L-ZISSEN
100
AcDbLine
 10
412.8057162625143
 20
121.7859623278628
 30
0.0
 11
412.8057162625143
 21
129.0859623278628
 31
0.0
  0
LINE
  5
EDD9
330
2
100
AcDbEntity
  8
L-TYUSIN
100
AcDbLine
 10
417.3057162625143
 20
120.574316736679
 30
0.0
 11
417.3057162625143
 21
132.419312976631
 31
0.0
  0
LINE
  5
EDDA
330
2
100
AcDbEntity
  8
L-TYUSIN
100
AcDbLine
 10
410.5941188977928
 20
112.6859623278627
 30
0.0
 11
419.0173136272358
 21
112.6859623278627
 31
0.0
  0
LINE
  5
EDDB
330
2
100
AcDbEntity
  8
L-ZISSEN
100
AcDbLine
 10
412.8057162625143
 20
121.7859623278628
 30
0.0
 11
421.8057162625143
 21
121.7859623278628
 31
0.0
  0
LINE
  5
EDEA
330
2
100
AcDbEntity
  8
L-ZISSEN
 48
0.8
100
AcDbLine
 10
422.3057162625143
 20
178.6191340254479
 30
0.0
 11
372.3057162625143
 21
178.6191340254478
 31
0.0
  0
LINE
  5
EDEB
330
2
100
AcDbEntity
  8
L-ZISSEN
 48
0.8
100
AcDbLine
 10
372.3057162625143
 20
178.6191340254478
 30
0.0
 11
372.3057162625146
 21
168.6191340254478
 31
0.0
  0
LINE
  5
EDED
330
2
100
AcDbEntity
  8
L-ZISSEN
 48
0.8
100
AcDbLine
 10
422.3057162625143
 20
178.6191340254479
 30
0.0
 11
422.3057162625143
 21
168.6191340254478
 31
0.0
  0
LINE
  5
EDF6
330
2
100
AcDbEntity
  8
L-ZISSEN
 48
0.8
100
AcDbLine
 10
517.6871625538296
 20
105.6859623278628
 30
0.0
 11
517.6871625538296
 21
130.6859623278627
 31
0.0
  0
LINE
  5
EDF7
330
2
100
AcDbEntity
  8
L-ZISSEN
 48
0.8
100
AcDbLine
 10
516.0871625538296
 20
105.6859623278628
 30
0.0
 11
516.0871625538296
 21
129.0859623278627
 31
0.0
  0
LINE
  5
EDF9
330
2
100
AcDbEntity
  8
L-ZISSEN
100
AcDbLine
 10
516.0871625538296
 20
105.6859623278628
 30
0.0
 11
517.6871625538296
 21
105.6859623278628
 31
0.0
  0
LINE
  5
EDFA
330
2
100
AcDbEntity
  8
L-ZISSEN
100
AcDbLine
 10
498.1871625538294
 20
121.7859623278628
 30
0.0
 11
507.1871625538294
 21
121.7859623278628
 31
0.0
  0
LINE
  5
EDFB
330
2
100
AcDbEntity
  8
L-ZISSEN
 48
0.8
100
AcDbLine
 10
457.6871625538293
 20
130.6859623278628
 30
0.0
 11
517.6871625538295
 21
130.6859623278628
 31
0.0
  0
LINE
  5
EDFC
330
2
100
AcDbEntity
  8
L-ZISSEN
 48
0.8
100
AcDbLine
 10
457.6871625538293
 20
129.0859623278627
 30
0.0
 11
516.0871625538294
 21
129.0859623278626
 31
0.0
  0
LINE
  5
EDFF
330
2
100
AcDbEntity
  8
L-TYUSIN
100
AcDbLine
 10
462.6871625538294
 20
120.574316736679
 30
0.0
 11
462.6871625538294
 21
132.419312976631
 31
0.0
  0
LINE
  5
EE00
330
2
100
AcDbEntity
  8
L-ZISSEN
100
AcDbLine
 10
467.1871625538294
 20
121.7859623278628
 30
0.0
 11
467.1871625538294
 21
129.0859623278628
 31
0.0
  0
LINE
  5
EE01
330
2
100
AcDbEntity
  8
L-ZISSEN
100
AcDbLine
 10
458.1871625538294
 20
121.7859623278628
 30
0.0
 11
458.1871625538294
 21
129.0859623278627
 31
0.0
  0
LINE
  5
EE02
330
2
100
AcDbEntity
  8
L-ZISSEN
100
AcDbLine
 10
467.1871625538294
 20
121.7859623278628
 30
0.0
 11
458.1871625538294
 21
121.7859623278628
 31
0.0
  0
LINE
  5
EE03
330
2
100
AcDbEntity
  8
L-ZISSEN
100
AcDbLine
 10
457.6871625538294
 20
130.6859623278628
 30
0.0
 11
457.6871625538294
 21
129.0859623278628
 31
0.0
  0
LINE
  5
EE0B
330
2
100
AcDbEntity
  8
L-TYUSIN
100
AcDbLine
 10
502.6871625538294
 20
120.574316736679
 30
0.0
 11
502.6871625538294
 21
132.419312976631
 31
0.0
  0
LINE
  5
EE0C
330
2
100
AcDbEntity
  8
L-ZISSEN
100
AcDbLine
 10
498.1871625538294
 20
121.7859623278628
 30
0.0
 11
498.1871625538294
 21
129.0859623278628
 31
0.0
  0
LINE
  5
EE11
330
2
100
AcDbEntity
  8
L-ZISSEN
100
AcDbLine
 10
507.1871625538294
 20
121.7859623278628
 30
0.0
 11
507.1871625538294
 21
129.0859623278627
 31
0.0
  0
LINE
  5
EE12
330
2
100
AcDbEntity
  8
L-TYUSIN
100
AcDbLine
 10
512.9555693877434
 20
112.6859623278627
 30
0.0
 11
521.3787641171863
 21
112.6859623278627
 31
0.0
  0
LINE
  5
EE48
330
2
100
AcDbEntity
  8
L-TYUSIN
100
AcDbLine
 10
138.6828703779743
 20
153.2087183850073
 30
0.0
 11
194.5957899293857
 21
153.2087183850073
 31
0.0
  0
SOLID
  5
EE49
330
2
100
AcDbEntity
  8
L-ZISSEN
100
AcDbTrace
 10
164.8476263566943
 20
75.15240144290375
 30
0.0
 11
165.2523115541701
 21
74.62261437682116
 31
0.0
 12
166.63933015368
 22
76.1015635022899
 32
0.0
 13
166.63933015368
 23
76.1015635022899
 33
0.0
  0
LINE
  5
EE4A
330
2
100
AcDbEntity
  8
L-ZISSEN
100
AcDbLine
 10
165.0499689554322
 20
74.88750790986244
 30
0.0
 11
128.2766711213166
 21
46.79771438984459
 31
0.0
  0
LINE
  5
EE4B
330
2
100
AcDbEntity
  8
L-ZISSEN
100
AcDbLine
 10
128.2766711213166
 20
46.7977143898446
 30
0.0
 11
126.2766711213167
 21
46.7977143898446
 31
0.0
  0
LINE
  5
EE4C
330
2
100
AcDbEntity
  8
L-ZISSEN
100
AcDbLine
 10
126.2766711213167
 20
46.7977143898446
 30
0.0
 11
122.17000445465
 21
46.7977143898446
 31
0.0
  0
MTEXT
  5
EE4D
330
2
100
AcDbEntity
  8
L-ZISSEN
100
AcDbMText
 10
125.4766711213167
 20
49.46438105651127
 30
0.0
 40
2.799999999999999
 41
0.0
 71
     6
 72
     1
  1
\A1;pp
1001
ACAD
1000
MTEXTBEGIN
1070
    73
1070
     1
1070
    44
1040
1.0
1070
    74
1070
     0
1000
MTEXTEND
  0
SOLID
  5
EE4E
330
2
100
AcDbEntity
  8
L-ZISSEN
100
AcDbTrace
 10
253.0823939016644
 20
74.37411466460869
 30
0.0
 11
253.5852628513626
 21
74.81179864178148
 31
0.0
 12
252.0207764449951
 22
76.1015635022899
 32
0.0
 13
252.0207764449951
 23
76.1015635022899
 33
0.0
  0
LINE
  5
EE4F
330
2
100
AcDbEntity
  8
L-ZISSEN
100
AcDbLine
 10
253.3338283765135
 20
74.59295665319507
 30
0.0
 11
286.6086512088811
 21
36.36246140592978
 31
0.0
  0
LINE
  5
EE50
330
2
100
AcDbEntity
  8
L-ZISSEN
100
AcDbLine
 10
286.6086512088811
 20
36.36246140592983
 30
0.0
 11
288.6086512088811
 21
36.36246140592983
 31
0.0
  0
LINE
  5
EE51
330
2
100
AcDbEntity
  8
L-ZISSEN
100
AcDbLine
 10
288.6086512088811
 20
36.36246140592983
 30
0.0
 11
292.7153178755478
 21
36.36246140592983
 31
0.0
  0
MTEXT
  5
EE52
330
2
100
AcDbEntity
  8
L-ZISSEN
100
AcDbMText
 10
289.4086512088811
 20
39.02912807259649
 30
0.0
 40
2.799999999999999
 41
0.0
 71
     4
 72
     1
  1
\A1;pp
1001
ACAD
1000
MTEXTBEGIN
1070
    73
1070
     1
1070
    44
1040
1.0
1070
    74
1070
     0
1000
MTEXTEND
  0
SOLID
  5
EE53
330
2
100
AcDbEntity
  8
L-ZISSEN
100
AcDbTrace
 10
168.1199451791103
 20
253.0656601950864
 30
0.0
 11
167.5906448606419
 21
253.4709818171517
 31
0.0
 12
166.63933015368
 22
251.6804200507139
 32
0.0
 13
166.63933015368
 23
251.6804200507139
 33
0.0
  0
LINE
  5
EE54
330
2
100
AcDbEntity
  8
L-ZISSEN
100
AcDbLine
 10
167.8552950198761
 20
253.2683210061191
 30
0.0
 11
177.6063303490174
 21
266.0019770070281
 31
0.0
  0
LINE
  5
EE55
330
2
100
AcDbEntity
  8
L-ZISSEN
100
AcDbLine
 10
177.6063303490174
 20
266.0019770070281
 30
0.0
 11
179.6063303490174
 21
266.0019770070281
 31
0.0
  0
LINE
  5
EE56
330
2
100
AcDbEntity
  8
L-ZISSEN
100
AcDbLine
 10
179.6063303490174
 20
266.0019770070281
 30
0.0
 11
183.7129970156841
 21
266.0019770070281
 31
0.0
  0
MTEXT
  5
EE57
330
2
100
AcDbEntity
  8
L-ZISSEN
100
AcDbMText
 10
180.4063303490175
 20
268.6686436736948
 30
0.0
 40
2.799999999999999
 41
0.0
 71
     4
 72
     1
  1
\A1;pp
1001
ACAD
1000
MTEXTBEGIN
1070
    73
1070
     1
1070
    44
1040
1.0
1070
    74
1070
     0
1000
MTEXTEND
  0
SOLID
  5
EE58
330
2
100
AcDbEntity
  8
L-ZISSEN
100
AcDbTrace
 10
398.5955237628219
 20
170.1835852785272
 30
0.0
 11
398.0184148428877
 21
170.517336291974
 31
0.0
 12
397.3057162625146
 22
168.6191340254478
 32
0.0
 13
397.3057162625146
 23
168.6191340254478
 33
0.0
  0
LINE
  5
EE59
330
2
100
AcDbEntity
  8
L-ZISSEN
100
AcDbLine
 10
398.3069693028549
 20
170.3504607852506
 30
0.0
 11
408.1514359593147
 21
187.3731192657914
 31
0.0
  0
LINE
  5
EE5A
330
2
100
AcDbEntity
  8
L-ZISSEN
100
AcDbLine
 10
408.1514359593147
 20
187.3731192657914
 30
0.0
 11
410.1514359593148
 21
187.3731192657914
 31
0.0
  0
LINE
  5
EE5B
330
2
100
AcDbEntity
  8
L-ZISSEN
100
AcDbLine
 10
410.1514359593148
 20
187.3731192657914
 30
0.0
 11
414.2581026259814
 21
187.3731192657914
 31
0.0
  0
MTEXT
  5
EE5C
330
2
100
AcDbEntity
  8
L-ZISSEN
100
AcDbMText
 10
410.9514359593148
 20
190.0397859324581
 30
0.0
 40
2.799999999999999
 41
0.0
 71
     4
 72
     1
  1
\A1;pp
1001
ACAD
1000
MTEXTBEGIN
1070
    73
1070
     1
1070
    44
1040
1.0
1070
    74
1070
     0
1000
MTEXTEND
  0
SOLID
  5
EE5D
330
2
100
AcDbEntity
  8
L-ZISSEN
100
AcDbTrace
 10
484.6323513473949
 20
131.2581088724633
 30
0.0
 11
484.3416449657101
 21
131.858054073371
 31
0.0
 12
482.6871625538294
 22
130.6859623278628
 32
0.0
 13
482.6871625538294
 23
130.6859623278628
 33
0.0
  0
LINE
  5
EE5E
330
2
100
AcDbEntity
  8
L-ZISSEN
100
AcDbLine
 10
484.4869981565525
 20
131.5580814729171
 30
0.0
 11
514.2629796316764
 21
145.9861789435708
 31
0.0
  0
LINE
  5
EE5F
330
2
100
AcDbEntity
  8
L-ZISSEN
100
AcDbLine
 10
514.2629796316764
 20
145.9861789435708
 30
0.0
 11
516.2629796316764
 21
145.9861789435708
 31
0.0
  0
LINE
  5
EE60
330
2
100
AcDbEntity
  8
L-ZISSEN
100
AcDbLine
 10
516.2629796316764
 20
145.9861789435708
 30
0.0
 11
520.3696462983431
 21
145.9861789435708
 31
0.0
  0
MTEXT
  5
EE61
330
2
100
AcDbEntity
  8
L-ZISSEN
100
AcDbMText
 10
517.0629796316764
 20
148.6528456102375
 30
0.0
 40
2.799999999999999
 41
0.0
 71
     4
 72
     1
  1
\A1;pp
1001
ACAD
1000
MTEXTBEGIN
1070
    73
1070
     1
1070
    44
1040
1.0
1070
    74
1070
     0
1000
MTEXTEND
  0
SOLID
  5
EE62
330
2
100
AcDbEntity
  8
L-ZISSEN
100
AcDbTrace
 10
399.2015760732107
 20
131.4048689207502
 30
0.0
 11
398.8659382695339
 21
131.9808825570362
 31
0.0
 12
397.3057162625143
 22
130.6859623278627
 32
0.0
 13
397.3057162625143
 23
130.6859623278627
 33
0.0
  0
LINE
  5
EE63
330
2
100
AcDbEntity
  8
L-ZISSEN
100
AcDbLine
 10
399.0337571713723
 20
131.6928757388932
 30
0.0
 11
429.0181776357792
 21
149.1645194556735
 31
0.0
  0
LINE
  5
EE64
330
2
100
AcDbEntity
  8
L-ZISSEN
100
AcDbLine
 10
429.0181776357792
 20
149.1645194556735
 30
0.0
 11
431.0181776357792
 21
149.1645194556735
 31
0.0
  0
LINE
  5
EE65
330
2
100
AcDbEntity
  8
L-ZISSEN
100
AcDbLine
 10
431.0181776357792
 20
149.1645194556735
 30
0.0
 11
435.1248443024458
 21
149.1645194556735
 31
0.0
  0
MTEXT
  5
EE66
330
2
100
AcDbEntity
  8
L-ZISSEN
100
AcDbMText
 10
431.8181776357792
 20
151.8311861223402
 30
0.0
 40
2.799999999999999
 41
0.0
 71
     4
 72
     1
  1
\A1;pp
1001
ACAD
1000
MTEXTBEGIN
1070
    73
1070
     1
1070
    44
1040
1.0
1070
    74
1070
     0
1000
MTEXTEND
  0
SOLID
  5
EE6A
330
2
100
AcDbEntity
  8
L-ZISSEN
100
AcDbTrace
 10
168.4360606474563
 20
6.862859155585527
 30
0.0
 11
168.643679095741
 21
7.496372394891769
 31
0.0
 12
166.63933015368
 22
7.802471120092825
 32
0.0
 13
166.63933015368
 23
7.802471120092825
 33
0.0
  0
LINE
  5
EE6B
330
2
100
AcDbEntity
  8
L-ZISSEN
100
AcDbLine
 10
168.5398698715987
 20
7.179615775238652
 30
0.0
 11
210.09631008696
 21
-6.439489712120476
 31
0.0
  0
LINE
  5
EE6C
330
2
100
AcDbEntity
  8
L-ZISSEN
100
AcDbLine
 10
210.09631008696
 20
-6.439489712120469
 30
0.0
 11
212.09631008696
 21
-6.439489712120469
 31
0.0
  0
LINE
  5
EE6D
330
2
100
AcDbEntity
  8
L-ZISSEN
100
AcDbLine
 10
212.09631008696
 20
-6.439489712120469
 30
0.0
 11
225.7603100869601
 21
-6.439489712120469
 31
0.0
  0
MTEXT
  5
EE6E
330
2
100
AcDbEntity
  8
L-ZISSEN
100
AcDbMText
 10
212.89631008696
 20
-4.239489712120469
 30
0.0
 40
2.799999999999999
 41
0.0
 71
     4
 72
     1
  1
\A1;IN PORT
1001
ACAD
1000
MTEXTBEGIN
1070
    73
1070
     1
1070
    44
1040
1.0
1070
    74
1070
     0
1000
MTEXTEND
  0
VIEWPORT
  5
48AA
330
8
100
AcDbEntity
 67
     1
  8
0
100
AcDbViewport
 10
4.799458060677594
 20
4.021899493660513
 30
0.0
 40
15.74604568031888
 41
8.992999745766947
 68
     1
 69
     1
1001
ACAD
1000
MVIEW
1002
{
1070
    16
1010
0.0
1020
0.0
1030
0.0
1010
0.0
1020
0.0
1030
1.0
1040
0.0
1040
8.992999745766947
1040
4.799458060677594
1040
4.021899493660513
1040
50.0
1040
0.0
1040
0.0
1070
     0
1070
   100
1070
     1
1070
     0
1070
     0
1070
     0
1070
     0
1070
     0
1040
0.0
1040
0.0
1040
0.0
1040
10.0
1040
10.0
1040
10.0
1040
10.0
1070
     0
1002
{
1002
}
1002
}
  0
VIEWPORT
  5
AA9B
330
8
100
AcDbEntity
 67
     1
  8
SUNPOU
100
AcDbViewport
 10
4.799458285954992
 20
4.021899549979862
 30
0.0
 40
7.679133257527987
 41
6.43503927996778
 68
     2
 69
     2
1001
ACAD
1000
MVIEW
1002
{
1070
    16
1010
0.0
1020
0.0
1030
0.0
1010
0.0
1020
0.0
1030
1.0
1040
0.0
1040
504.5931345178956
1040
297.2134547386036
1040
210.0000000000086
1040
50.0
1040
0.0
1040
0.0
1070
     0
1070
   100
1070
     1
1070
     0
1070
     0
1070
     0
1070
     0
1070
     0
1040
0.0
1040
0.0
1040
0.0
1040
1.0
1040
1.0
1040
0.0
1040
0.0
1070
     0
1002
{
1002
}
1002
}
  0
ENDSEC
  0
SECTION
  2
OBJECTS
  0
DICTIONARY
  5
1B
330
0
100
AcDbDictionary
  3
ACAD_GROUP
350
19
  3
ACAD_LAYOUT
350
AA93
  3
ACAD_MLINESTYLE
350
1A
  3
ACAD_PLOTSETTINGS
350
AA94
  3
ACADDIM
350
C591
  3
DWGPROPS
350
AAF1
1001
ACAD
1000
TREAT_AS_HARD
1070
     0
1000
TREAT_AS_HARD
1070
     0
  0
DICTIONARY
  5
CEA6
330
2
100
AcDbDictionary
  3
ACAD_LAYOUTSELFREF
350
EE74
1001
ACAD
1000
TREAT_AS_HARD
1070
     1
1000
TREAT_AS_HARD
1070
     1
  0
DICTIONARY
  5
CEA8
330
8
100
AcDbDictionary
  3
ACAD_LAYOUTSELFREF
350
EE75
1001
ACAD
1000
TREAT_AS_HARD
1070
     1
1000
TREAT_AS_HARD
1070
     1
  0
DICTIONARY
  5
19
102
{ACAD_REACTORS
330
1B
102
}
330
1B
100
AcDbDictionary
1001
ACAD
1000
TREAT_AS_HARD
1070
     0
1000
TREAT_AS_HARD
1070
     0
  0
DICTIONARY
  5
AA93
102
{ACAD_REACTORS
330
1B
102
}
330
1B
100
AcDbDictionary
1001
ACAD
1000
TREAT_AS_HARD
1070
     0
1000
TREAT_AS_HARD
1070
     0
  0
DICTIONARY
  5
1A
102
{ACAD_REACTORS
330
1B
102
}
330
1B
100
AcDbDictionary
  3
STANDARD
350
1D
1001
ACAD
1000
TREAT_AS_HARD
1070
     0
1000
TREAT_AS_HARD
1070
     0
  0
DICTIONARY
  5
AA94
102
{ACAD_REACTORS
330
1B
102
}
330
1B
100
AcDbDictionary
1001
ACAD
1000
TREAT_AS_HARD
1070
     0
1000
TREAT_AS_HARD
1070
     0
  0
XRECORD
  5
C591
102
{ACAD_REACTORS
330
1B
102
}
330
1B
100
AcDbXrecord
 90
   990106
  3

 60
     0
 61
     0
 62
     1
 63
     3
 64
     0
 65
     0
 66
     0
 67
     3
 68
     1
 69
     0
 70
     0
 71
     0
 72
     0
 40
0.0
170
     0
340
0
  0
XRECORD
  5
AAF1
102
{ACAD_REACTORS
330
1B
102
}
330
1B
100
AcDbXrecord
  1
DWGPROPS COOKIE
  2

  3

  4

  6

  7

  8

  9

300
=
301
=
302
=
303
=
304
=
305
=
306
=
307
=
308
=
309
=
 40
4.525300462962962
 41
2450038.66624294
 42
2452012.41774074
  1

 90
        0
  0
XRECORD
  5
EE74
102
{ACAD_REACTORS
330
CEA6
102
}
330
CEA6
100
AcDbXrecord
340
2
  0
XRECORD
  5
EE75
102
{ACAD_REACTORS
330
CEA8
102
}
330
CEA8
100
AcDbXrecord
340
8
  0
MLINESTYLE
  5
1D
102
{ACAD_REACTORS
330
1A
102
}
330
1A
100
AcDbMlineStyle
  2
STANDARD
 70
     0
  3

 62
     0
 51
90.0
 52
90.0
 71
     2
 49
0.5
 62
   256
  6
BYLAYER
 49
-0.5
 62
   256
  6
BYLAYER
  0
ENDSEC
  0
EOF
