  0
SECTION
  2
HEADER
  9
$ACADVER
  1
AC1006
  9
$INSBASE
 10
0.0
 20
0.0
 30
0.0
  9
$EXTMIN
 10
0.000000
 20
0.000000
  9
$EXTMAX
 10
10.000000
 20
10.000000
  9
$LIMMIN
 10
0.0
 20
0.0
  9
$LIMMAX
 10
12.0
 20
9.0
  9
$ORTHOMODE
 70
     0
  9
$REGENMODE
 70
     1
  9
$FILLMODE
 70
     1
  9
$QTEXTMODE
 70
     0
  9
$MIRRTEXT
 70
     1
  9
$DRAGMODE
 70
     2
  9
$LTSCALE
 40
10.000000
  9
$OSMODE
 70
     0
  9
$ATTMODE
 70
     1
  9
$TEXTSIZE
 40
0.2
  9
$TRACEWID
 40
0.05
  9
$TEXTSTYLE
  7
STANDARD
  9
$CLAYER
  8
0
  9
$CELTYPE
  6
BYLAYER
  9
$CECOLOR
 62
   256
  9
$DIMSCALE
 40
1.0
  9
$DIMASZ
 40
0.18
  9
$DIMEXO
 40
0.0625
  9
$DIMDLI
 40
0.38
  9
$DIMRND
 40
0.0
  9
$DIMDLE
 40
0.0
  9
$DIMEXE
 40
0.18
  9
$DIMTP
 40
0.0
  9
$DIMTM
 40
0.0
  9
$DIMTXT
 40
0.18
  9
$DIMCEN
 40
0.09
  9
$DIMTSZ
 40
0.0
  9
$DIMTOL
 70
     0
  9
$DIMLIM
 70
     0
  9
$DIMTIH
 70
     1
  9
$DIMTOH
 70
     1
  9
$DIMSE1
 70
     0
  9
$DIMSE2
 70
     0
  9
$DIMTAD
 70
     0
  9
$DIMZIN
 70
     0
  9
$DIMBLK
  1

  9
$DIMASO
 70
     1
  9
$DIMSHO
 70
     0
  9
$DIMPOST
  1

  9
$DIMAPOST
  1

  9
$DIMALT
 70
     0
  9
$DIMALTD
 70
     2
  9
$DIMALTF
 40
25.4
  9
$DIMLFAC
 40
1.0
  9
$DIMTOFL
 70
     0
  9
$DIMTVP
 40
0.0
  9
$DIMTIX
 70
     0
  9
$DIMSOXD
 70
     0
  9
$DIMSAH
 70
     0
  9
$DIMBLK1
  1

  9
$DIMBLK2
  1

  9
$LUNITS
 70
     2
  9
$LUPREC
 70
     4
  9
$AXISMODE
 70
     0
  9
$AXISUNIT
 10
0.0
 20
0.0
  9
$SKETCHINC
 40
0.1
  9
$FILLETRAD
 40
0.0
  9
$AUNITS
 70
     0
  9
$AUPREC
 70
     0
  9
$MENU
  1
acad
  9
$ELEVATION
 40
0.0
  9
$THICKNESS
 40
0.0
  9
$LIMCHECK
 70
     0
  9
$BLIPMODE
 70
     1
  9
$CHAMFERA
 40
0.0
  9
$CHAMFERB
 40
0.0
  9
$SKPOLY
 70
     0
  9
$TDCREATE
 40
2448751.5905787037
  9
$TDUPDATE
 40
2448751.5905787037
  9
$TDINDWG
 40
0.0000000000
  9
$TDUSRTIMER
 40
0.0000000000
  9
$USRTIMER
 70
     1
  9
$ANGBASE
 50
0.0
  9
$ANGDIR
 70
     0
  9
$PDMODE
 70
     0
  9
$PDSIZE
 40
0.0
  9
$PLINEWID
 40
0.0
  9
$COORDS
 70
     0
  9
$SPLFRAME
 70
     0
  9
$SPLINETYPE
 70
     6
  9
$SPLINESEGS
 70
     8
  9
$ATTDIA
 70
     0
  9
$ATTREQ
 70
     1
  9
$HANDLING
 70
     0
  9
$HANDSEED
  5
0
  9
$SURFTAB1
 70
     6
  9
$SURFTAB2
 70
     6
  9
$SURFTYPE
 70
     6
  9
$SURFU
 70
     6
  9
$SURFV
 70
     6
  9
$FLATLAND
 70
     0
  9
$UCSNAME
  2

  9
$UCSORG
 10
0.0
 20
0.0
 30
0.0
  9
$UCSXDIR
 10
1.0
 20
0.0
 30
0.0
  9
$UCSYDIR
 10
0.0
 20
1.0
 30
0.0
  9
$USERI1
 70
     0
  9
$USERI2
 70
     0
  9
$USERI3
 70
     0
  9
$USERI4
 70
     0
  9
$USERI5
 70
     0
  9
$USERR1
 40
0.0
  9
$USERR2
 40
0.0
  9
$USERR3
 40
0.0
  9
$USERR4
 40
0.0
  9
$USERR5
 40
0.0
  9
$WORLDVIEW
 70
     1
  0
ENDSEC
  0
SECTION
  2
TABLES
  0
TABLE
  2
VPORT
 70
     2
  0
VPORT
  2
*ACTIVE
 70
     0
 10
0.0
 20
0.0
 11
1.0
 21
1.0
 12
7.914286
 22
4.5
 13
0.0
 23
0.0
 14
1.0
 24
1.0
 15
0.0
 25
0.0
 16
0.0
 26
0.0
 36
1.0
 17
0.0
 27
0.0
 37
0.0
 40
9.0
 41
1.75873
 42
50.0
 43
0.0
 44
0.0
 50
0.0
 51
0.0
 71
     0
 72
   100
 73
     1
 74
     1
 75
     0
 76
     0
 77
     0
 78
     0
  0
ENDTAB
  0
TABLE
  2
LTYPE
 70
     9
  0
LTYPE
  2
CONTINUOUS
 70
    64
  3
実線
 72
    65
 73
     0
 40
0.0
  0
LTYPE
  2
DASHED
 70
    64
  3
__ __ __ __ __ __ __ __ __ __ __ __ __ __ __
 72
    65
 73
     2
 40
0.75
 49
0.5
 49
-0.25
  0
LTYPE
  2
HIDDEN
 70
    64
  3
_ _ _ _ _ _ _ _ _ _ _ _ _ _ _ _ _ _ _ _ _ _ _
 72
    65
 73
     2
 40
0.375
 49
0.25
 49
-0.125
  0
LTYPE
  2
CENTER
 70
    64
  3
____ _ ____ _ ____ _ ____ _ ____ _ ____ _ ____
 72
    65
 73
     4
 40
2.0
 49
1.25
 49
-0.25
 49
0.25
 49
-0.25
  0
LTYPE
  2
PHANTOM
 70
    64
  3
_____ _ _ _____ _ _ _____ _ _ _____ _ _ ____
 72
    65
 73
     6
 40
2.5
 49
1.25
 49
-0.25
 49
0.25
 49
-0.25
 49
0.25
 49
-0.25
  0
LTYPE
  2
DOT
 70
    64
  3
...............................................
 72
    65
 73
     2
 40
0.25
 49
0.0
 49
-0.25
  0
LTYPE
  2
DASHDOT
 70
    64
  3
__ . __ . __ . __ . __ . __ . __ . __ . __ . __
 72
    65
 73
     4
 40
1.0
 49
0.5
 49
-0.25
 49
0.0
 49
-0.25
  0
LTYPE
  2
DIVIDE
 70
    64
  3
__ . . __ . . __ . . __ . . __ . . __ . . __
 72
    65
 73
     6
 40
1.25
 49
0.5
 49
-0.25
 49
0.0
 49
-0.25
 49
0.0
 49
-0.25
  0
LTYPE
  2
BORDER
 70
    64
  3
__ __ . __ __ . __ __ . __ __ . __ __ . __ __
 72
    65
 73
     6
 40
1.75
 49
0.5
 49
-0.25
 49
0.5
 49
-0.25
 49
0.0
 49
-0.25
  0
ENDTAB
  0
TABLE
  2
LAYER
 70
     2
  0
LAYER
  2
0
 70
     0
 62
     7
  6
CONTINUOUS
  0
LAYER
  2
PV
 70
     0
 62
     7
  6
CONTINUOUS
  0
ENDTAB
  0
TABLE
  2
STYLE
 70
     3
  0
STYLE
  2
STANDARD
 70
     0
 40
0.0
 41
1.0
 50
0.0
 71
     0
 42
0.2
  3
txt
  4

  0
STYLE
  2
FONT1
 70
     0
 40
0.0
 41
1.0
 50
0.0
 71
     0
 42
0.2
  3
MONOTXT
  4

  0
STYLE
  2
FONT2
 70
     0
 40
0.0
 41
1.0
 50
0.0
 71
     0
 42
0.2
  3
MONOTXT
  4
BIGFONT
  0
ENDTAB
  0
TABLE
  2
VIEW
 70
     0
  0
ENDTAB
  0
TABLE
  2
UCS
 70
     0
  0
ENDTAB
  0
TABLE
  2
DWGMGR
 70
     0
  0
ENDTAB
  0
ENDSEC
  0
SECTION
  2
BLOCKS
  0
BLOCK
  8
0
  2
01
 70
    64
 10
0.0
 20
0.0
 30
0.0
  0
ENDBLK
  8
0
  0
BLOCK
  8
0
  2
02
 70
    64
 10
0.0
 20
0.0
 30
0.0
  0
ENDBLK
  8
0
  0
ENDSEC
  0
SECTION
  2
ENTITIES
  0
LINE
  8
PV
 62
     7
 10
3.656520E+001
 20
4.716630E+001
 30
0.000000E+000
 11
8.656520E+001
 21
4.716630E+001
 31
0.000000E+000
  0
LINE
  8
PV
 62
     7
 10
3.656520E+001
 20
-2.833730E+000
 30
0.000000E+000
 11
3.656520E+001
 21
4.716630E+001
 31
0.000000E+000
  0
LINE
  8
PV
 62
     7
 10
8.656520E+001
 20
-2.833730E+000
 30
0.000000E+000
 11
3.656520E+001
 21
-2.833730E+000
 31
0.000000E+000
  0
LINE
  8
PV
 62
     7
 10
8.656520E+001
 20
4.716630E+001
 30
0.000000E+000
 11
8.656520E+001
 21
-2.833730E+000
 31
0.000000E+000
  0
TEXT
  8
PV
 62
     7
 10
-9.543545E+000
 20
1.888780E+002
 30
0.000000E+000
 40
4.000000E+000
  1
MODEL NO:PB4-261
 41
7.500325E-001
  7
FONT1
  0
TEXT
  8
PV
 62
     7
 10
1.036397E+002
 20
1.498020E+002
 30
0.000000E+000
 40
3.000000E+000
  1
OUT PORT 6-Rc1/4
 41
7.833333E-001
  7
FONT1
  0
CIRCLE
  8
PV
 62
     7
 10
6.156520E+001
 20
1.584550E+002
 30
0.000000E+000
 40
5.750000E+000
  0
LINE
  8
PV
 62
     7
 10
8.656520E+001
 20
7.845510E+001
 30
0.000000E+000
 11
8.556520E+001
 21
7.745510E+001
 31
0.000000E+000
  0
POLYLINE
  8
PV
 62
     7
 66
     1
 10
0.0
 20
0.0
 30
0.0
  0
VERTEX
  8
PV
 62
     7
 10
6.888970E+001
 20
1.396780E+002
 30
0.000000E+000
  0
VERTEX
  8
PV
 62
     7
 10
6.867760E+001
 20
1.403100E+002
 30
0.000000E+000
  0
VERTEX
  8
PV
 62
     7
 10
6.688760E+001
 20
1.393580E+002
 30
0.000000E+000
  0
VERTEX
  8
PV
 62
     7
 10
6.888970E+001
 20
1.396780E+002
 30
0.000000E+000
  0
SEQEND
  8
PV
 62
     7
  0
CIRCLE
  8
PV
 62
     7
 10
6.156520E+001
 20
1.354550E+002
 30
0.000000E+000
 40
5.750000E+000
  0
LINE
  8
PV
 62
     7
 10
8.656520E+001
 20
7.845510E+001
 30
0.000000E+000
 11
8.656520E+001
 21
1.754550E+002
 31
0.000000E+000
  0
LINE
  8
PV
 62
     7
 10
6.878370E+001
 20
1.399940E+002
 30
0.000000E+000
 11
1.031060E+002
 21
1.515170E+002
 31
0.000000E+000
  0
TEXT
  8
PV
 62
     7
 10
1.015310E+002
 20
4.103790E+001
 30
0.000000E+000
 40
3.000000E+000
  1
IN PORT Rc1/2
 41
7.589733E-001
  7
FONT1
  0
LINE
  8
PV
 62
     7
 10
7.706520E+001
 20
6.995510E+001
 30
0.000000E+000
 11
8.606520E+001
 21
6.995510E+001
 31
0.000000E+000
  0
LINE
  8
PV
 62
     1
 10
7.564270E+001
 20
4.216630E+001
 30
0.000000E+000
 11
8.748770E+001
 21
4.216630E+001
 31
0.000000E+000
  0
LINE
  8
PV
 62
     1
 10
8.156520E+001
 20
3.624380E+001
 30
0.000000E+000
 11
8.156520E+001
 21
4.808880E+001
 31
0.000000E+000
  0
CIRCLE
  8
PV
 62
     7
 10
8.156520E+001
 20
4.216630E+001
 30
0.000000E+000
 40
4.500000E+000
  0
POLYLINE
  8
PV
 62
     7
 66
     1
 10
0.0
 20
0.0
 30
0.0
  0
VERTEX
  8
PV
 62
     7
 10
7.277300E+001
 20
2.770670E+001
 30
0.000000E+000
  0
VERTEX
  8
PV
 62
     7
 10
7.246530E+001
 20
2.829800E+001
 30
0.000000E+000
  0
VERTEX
  8
PV
 62
     7
 10
7.084500E+001
 20
2.707900E+001
 30
0.000000E+000
  0
VERTEX
  8
PV
 62
     7
 10
7.277300E+001
 20
2.770670E+001
 30
0.000000E+000
  0
SEQEND
  8
PV
 62
     7
  0
LINE
  8
PV
 62
     1
 10
6.156520E+001
 20
5.033320E+001
 30
0.000000E+000
 11
6.156520E+001
 21
-6.000640E+000
 31
0.000000E+000
  0
LINE
  8
PV
 62
     7
 10
7.261910E+001
 20
2.800240E+001
 30
0.000000E+000
 11
1.004230E+002
 21
4.247260E+001
 31
0.000000E+000
  0
LINE
  8
PV
 62
     1
 10
6.156520E+001
 20
1.811650E+002
 30
0.000000E+000
 11
6.156520E+001
 21
7.128420E+001
 31
0.000000E+000
  0
LINE
  8
PV
 62
     7
 10
7.706520E+001
 20
6.995510E+001
 30
0.000000E+000
 11
7.706520E+001
 21
7.745510E+001
 31
0.000000E+000
  0
LINE
  8
PV
 62
     1
 10
8.156520E+001
 20
6.734340E+001
 30
0.000000E+000
 11
8.156520E+001
 21
7.918840E+001
 31
0.000000E+000
  0
LINE
  8
PV
 62
     7
 10
8.606520E+001
 20
6.995510E+001
 30
0.000000E+000
 11
8.606520E+001
 21
7.745510E+001
 31
0.000000E+000
  0
LINE
  8
PV
 62
     7
 10
3.656520E+001
 20
7.845510E+001
 30
0.000000E+000
 11
3.756520E+001
 21
7.745510E+001
 31
0.000000E+000
  0
LINE
  8
PV
 62
     7
 10
3.656520E+001
 20
7.845510E+001
 30
0.000000E+000
 11
3.656520E+001
 21
1.754550E+002
 31
0.000000E+000
  0
LINE
  8
PV
 62
     7
 10
4.606520E+001
 20
6.995510E+001
 30
0.000000E+000
 11
3.706520E+001
 21
6.995510E+001
 31
0.000000E+000
  0
LINE
  8
PV
 62
     1
 10
4.156520E+001
 20
8.088770E+000
 30
0.000000E+000
 11
4.156520E+001
 21
-3.756220E+000
 31
0.000000E+000
  0
CIRCLE
  8
PV
 62
     7
 10
4.156520E+001
 20
2.166280E+000
 30
0.000000E+000
 40
4.500000E+000
  0
LINE
  8
PV
 62
     1
 10
4.748770E+001
 20
2.166280E+000
 30
0.000000E+000
 11
3.564270E+001
 21
2.166280E+000
 31
0.000000E+000
  0
LINE
  8
PV
 62
     7
 10
3.706520E+001
 20
6.995510E+001
 30
0.000000E+000
 11
3.706520E+001
 21
7.745510E+001
 31
0.000000E+000
  0
LINE
  8
PV
 62
     1
 10
4.156520E+001
 20
6.734340E+001
 30
0.000000E+000
 11
4.156520E+001
 21
7.918840E+001
 31
0.000000E+000
  0
LINE
  8
PV
 62
     7
 10
4.606520E+001
 20
6.995510E+001
 30
0.000000E+000
 11
4.606520E+001
 21
7.745510E+001
 31
0.000000E+000
  0
LINE
  8
PV
 62
     1
 10
3.339830E+001
 20
2.216630E+001
 30
0.000000E+000
 11
8.973210E+001
 21
2.216630E+001
 31
0.000000E+000
  0
CIRCLE
  8
PV
 62
     7
 10
6.156520E+001
 20
2.216630E+001
 30
0.000000E+000
 40
9.300000E+000
  0
LINE
  8
PV
 62
     7
 10
8.656520E+001
 20
9.745510E+001
 30
0.000000E+000
 11
3.656520E+001
 21
9.745510E+001
 31
0.000000E+000
  0
LINE
  8
PV
 62
     7
 10
3.706520E+001
 20
7.745510E+001
 30
0.000000E+000
 11
8.606520E+001
 21
7.745510E+001
 31
0.000000E+000
  0
LINE
  8
PV
 62
     1
 10
2.932640E+001
 20
1.584550E+002
 30
0.000000E+000
 11
9.380410E+001
 21
1.584550E+002
 31
0.000000E+000
  0
LINE
  8
PV
 62
     1
 10
2.932640E+001
 20
1.354550E+002
 30
0.000000E+000
 11
9.380410E+001
 21
1.354550E+002
 31
0.000000E+000
  0
LINE
  8
PV
 62
     7
 10
8.656520E+001
 20
1.754550E+002
 30
0.000000E+000
 11
3.656520E+001
 21
1.754550E+002
 31
0.000000E+000
  0
ENDSEC
  0
EOF
