  0
SECTION
  2
HEADER
  9
$ACADVER
  1
AC1006
  9
$INSBASE
 10
0.0
 20
0.0
 30
0.0
  9
$EXTMIN
 10
0.000000
 20
0.000000
  9
$EXTMAX
 10
10.000000
 20
10.000000
  9
$LIMMIN
 10
0.0
 20
0.0
  9
$LIMMAX
 10
12.0
 20
9.0
  9
$ORTHOMODE
 70
     0
  9
$REGENMODE
 70
     1
  9
$FILLMODE
 70
     1
  9
$QTEXTMODE
 70
     0
  9
$MIRRTEXT
 70
     1
  9
$DRAGMODE
 70
     2
  9
$LTSCALE
 40
10.000000
  9
$OSMODE
 70
     0
  9
$ATTMODE
 70
     1
  9
$TEXTSIZE
 40
0.2
  9
$TRACEWID
 40
0.05
  9
$TEXTSTYLE
  7
STANDARD
  9
$CLAYER
  8
0
  9
$CELTYPE
  6
BYLAYER
  9
$CECOLOR
 62
   256
  9
$DIMSCALE
 40
1.0
  9
$DIMASZ
 40
0.18
  9
$DIMEXO
 40
0.0625
  9
$DIMDLI
 40
0.38
  9
$DIMRND
 40
0.0
  9
$DIMDLE
 40
0.0
  9
$DIMEXE
 40
0.18
  9
$DIMTP
 40
0.0
  9
$DIMTM
 40
0.0
  9
$DIMTXT
 40
0.18
  9
$DIMCEN
 40
0.09
  9
$DIMTSZ
 40
0.0
  9
$DIMTOL
 70
     0
  9
$DIMLIM
 70
     0
  9
$DIMTIH
 70
     1
  9
$DIMTOH
 70
     1
  9
$DIMSE1
 70
     0
  9
$DIMSE2
 70
     0
  9
$DIMTAD
 70
     0
  9
$DIMZIN
 70
     0
  9
$DIMBLK
  1

  9
$DIMASO
 70
     1
  9
$DIMSHO
 70
     0
  9
$DIMPOST
  1

  9
$DIMAPOST
  1

  9
$DIMALT
 70
     0
  9
$DIMALTD
 70
     2
  9
$DIMALTF
 40
25.4
  9
$DIMLFAC
 40
1.0
  9
$DIMTOFL
 70
     0
  9
$DIMTVP
 40
0.0
  9
$DIMTIX
 70
     0
  9
$DIMSOXD
 70
     0
  9
$DIMSAH
 70
     0
  9
$DIMBLK1
  1

  9
$DIMBLK2
  1

  9
$LUNITS
 70
     2
  9
$LUPREC
 70
     4
  9
$AXISMODE
 70
     0
  9
$AXISUNIT
 10
0.0
 20
0.0
  9
$SKETCHINC
 40
0.1
  9
$FILLETRAD
 40
0.0
  9
$AUNITS
 70
     0
  9
$AUPREC
 70
     0
  9
$MENU
  1
acad
  9
$ELEVATION
 40
0.0
  9
$THICKNESS
 40
0.0
  9
$LIMCHECK
 70
     0
  9
$BLIPMODE
 70
     1
  9
$CHAMFERA
 40
0.0
  9
$CHAMFERB
 40
0.0
  9
$SKPOLY
 70
     0
  9
$TDCREATE
 40
2448751.5905787037
  9
$TDUPDATE
 40
2448751.5905787037
  9
$TDINDWG
 40
0.0000000000
  9
$TDUSRTIMER
 40
0.0000000000
  9
$USRTIMER
 70
     1
  9
$ANGBASE
 50
0.0
  9
$ANGDIR
 70
     0
  9
$PDMODE
 70
     0
  9
$PDSIZE
 40
0.0
  9
$PLINEWID
 40
0.0
  9
$COORDS
 70
     0
  9
$SPLFRAME
 70
     0
  9
$SPLINETYPE
 70
     6
  9
$SPLINESEGS
 70
     8
  9
$ATTDIA
 70
     0
  9
$ATTREQ
 70
     1
  9
$HANDLING
 70
     0
  9
$HANDSEED
  5
0
  9
$SURFTAB1
 70
     6
  9
$SURFTAB2
 70
     6
  9
$SURFTYPE
 70
     6
  9
$SURFU
 70
     6
  9
$SURFV
 70
     6
  9
$FLATLAND
 70
     0
  9
$UCSNAME
  2

  9
$UCSORG
 10
0.0
 20
0.0
 30
0.0
  9
$UCSXDIR
 10
1.0
 20
0.0
 30
0.0
  9
$UCSYDIR
 10
0.0
 20
1.0
 30
0.0
  9
$USERI1
 70
     0
  9
$USERI2
 70
     0
  9
$USERI3
 70
     0
  9
$USERI4
 70
     0
  9
$USERI5
 70
     0
  9
$USERR1
 40
0.0
  9
$USERR2
 40
0.0
  9
$USERR3
 40
0.0
  9
$USERR4
 40
0.0
  9
$USERR5
 40
0.0
  9
$WORLDVIEW
 70
     1
  0
ENDSEC
  0
SECTION
  2
TABLES
  0
TABLE
  2
VPORT
 70
     2
  0
VPORT
  2
*ACTIVE
 70
     0
 10
0.0
 20
0.0
 11
1.0
 21
1.0
 12
7.914286
 22
4.5
 13
0.0
 23
0.0
 14
1.0
 24
1.0
 15
0.0
 25
0.0
 16
0.0
 26
0.0
 36
1.0
 17
0.0
 27
0.0
 37
0.0
 40
9.0
 41
1.75873
 42
50.0
 43
0.0
 44
0.0
 50
0.0
 51
0.0
 71
     0
 72
   100
 73
     1
 74
     1
 75
     0
 76
     0
 77
     0
 78
     0
  0
ENDTAB
  0
TABLE
  2
LTYPE
 70
     9
  0
LTYPE
  2
CONTINUOUS
 70
    64
  3
実線
 72
    65
 73
     0
 40
0.0
  0
LTYPE
  2
DASHED
 70
    64
  3
__ __ __ __ __ __ __ __ __ __ __ __ __ __ __
 72
    65
 73
     2
 40
0.75
 49
0.5
 49
-0.25
  0
LTYPE
  2
HIDDEN
 70
    64
  3
_ _ _ _ _ _ _ _ _ _ _ _ _ _ _ _ _ _ _ _ _ _ _
 72
    65
 73
     2
 40
0.375
 49
0.25
 49
-0.125
  0
LTYPE
  2
CENTER
 70
    64
  3
____ _ ____ _ ____ _ ____ _ ____ _ ____ _ ____
 72
    65
 73
     4
 40
2.0
 49
1.25
 49
-0.25
 49
0.25
 49
-0.25
  0
LTYPE
  2
PHANTOM
 70
    64
  3
_____ _ _ _____ _ _ _____ _ _ _____ _ _ ____
 72
    65
 73
     6
 40
2.5
 49
1.25
 49
-0.25
 49
0.25
 49
-0.25
 49
0.25
 49
-0.25
  0
LTYPE
  2
DOT
 70
    64
  3
...............................................
 72
    65
 73
     2
 40
0.25
 49
0.0
 49
-0.25
  0
LTYPE
  2
DASHDOT
 70
    64
  3
__ . __ . __ . __ . __ . __ . __ . __ . __ . __
 72
    65
 73
     4
 40
1.0
 49
0.5
 49
-0.25
 49
0.0
 49
-0.25
  0
LTYPE
  2
DIVIDE
 70
    64
  3
__ . . __ . . __ . . __ . . __ . . __ . . __
 72
    65
 73
     6
 40
1.25
 49
0.5
 49
-0.25
 49
0.0
 49
-0.25
 49
0.0
 49
-0.25
  0
LTYPE
  2
BORDER
 70
    64
  3
__ __ . __ __ . __ __ . __ __ . __ __ . __ __
 72
    65
 73
     6
 40
1.75
 49
0.5
 49
-0.25
 49
0.5
 49
-0.25
 49
0.0
 49
-0.25
  0
ENDTAB
  0
TABLE
  2
LAYER
 70
     2
  0
LAYER
  2
0
 70
     0
 62
     7
  6
CONTINUOUS
  0
LAYER
  2
PV
 70
     0
 62
     7
  6
CONTINUOUS
  0
ENDTAB
  0
TABLE
  2
STYLE
 70
     3
  0
STYLE
  2
STANDARD
 70
     0
 40
0.0
 41
1.0
 50
0.0
 71
     0
 42
0.2
  3
txt
  4

  0
STYLE
  2
FONT1
 70
     0
 40
0.0
 41
1.0
 50
0.0
 71
     0
 42
0.2
  3
MONOTXT
  4

  0
STYLE
  2
FONT2
 70
     0
 40
0.0
 41
1.0
 50
0.0
 71
     0
 42
0.2
  3
MONOTXT
  4
BIGFONT
  0
ENDTAB
  0
TABLE
  2
VIEW
 70
     0
  0
ENDTAB
  0
TABLE
  2
UCS
 70
     0
  0
ENDTAB
  0
TABLE
  2
DWGMGR
 70
     0
  0
ENDTAB
  0
ENDSEC
  0
SECTION
  2
BLOCKS
  0
BLOCK
  8
0
  2
01
 70
    64
 10
0.0
 20
0.0
 30
0.0
  0
ENDBLK
  8
0
  0
BLOCK
  8
0
  2
02
 70
    64
 10
0.0
 20
0.0
 30
0.0
  0
ENDBLK
  8
0
  0
ENDSEC
  0
SECTION
  2
ENTITIES
  0
TEXT
  8
PV
 62
     7
 10
1.309212E+001
 20
1.737390E+002
 30
0.000000E+000
 40
2.500000E+000
  1
MODEL NO: Y90FD801S
 41
9.298600E-001
  7
FONT1
  0
LINE
  8
PV
  6
CENTER
 62
     1
 10
1.661820E+002
 20
5.267130E+001
 30
0.000000E+000
 11
1.661820E+002
 21
-1.328670E+000
 31
0.000000E+000
  0
LINE
  8
PV
  6
CENTER
 62
     1
 10
3.054570E+002
 20
1.420200E+002
 30
0.000000E+000
 11
3.054570E+002
 21
1.300200E+002
 31
0.000000E+000
  0
LINE
  8
PV
  6
CENTER
 62
     1
 10
2.994570E+002
 20
1.360200E+002
 30
0.000000E+000
 11
3.114570E+002
 21
1.360200E+002
 31
0.000000E+000
  0
LINE
  8
PV
  6
CENTER
 62
     1
 10
1.574460E+001
 20
1.420200E+002
 30
0.000000E+000
 11
1.574460E+001
 21
1.300200E+002
 31
0.000000E+000
  0
LINE
  8
PV
  6
CENTER
 62
     1
 10
9.744620E+000
 20
1.360200E+002
 30
0.000000E+000
 11
2.174460E+001
 21
1.360200E+002
 31
0.000000E+000
  0
LINE
  8
PV
  6
CENTER
 62
     1
 10
2.334320E+002
 20
1.167130E+001
 30
0.000000E+000
 11
2.454320E+002
 21
1.167130E+001
 31
0.000000E+000
  0
LINE
  8
PV
 62
     7
 10
2.954570E+002
 20
1.450200E+002
 30
0.000000E+000
 11
3.004570E+002
 21
1.450200E+002
 31
0.000000E+000
  0
LINE
  8
PV
 62
     7
 10
3.004570E+002
 20
1.610200E+002
 30
0.000000E+000
 11
3.004570E+002
 21
1.450200E+002
 31
0.000000E+000
  0
LINE
  8
PV
 62
     7
 10
3.004570E+002
 20
1.525200E+002
 30
0.000000E+000
 11
3.154570E+002
 21
1.525200E+002
 31
0.000000E+000
  0
LINE
  8
PV
 62
     7
 10
3.004570E+002
 20
1.470200E+002
 30
0.000000E+000
 11
3.154570E+002
 21
1.470200E+002
 31
0.000000E+000
  0
LINE
  8
PV
 62
     7
 10
3.004570E+002
 20
1.580200E+002
 30
0.000000E+000
 11
3.154570E+002
 21
1.580200E+002
 31
0.000000E+000
  0
CIRCLE
  8
PV
 62
     7
 10
2.919570E+002
 20
1.290200E+002
 30
0.000000E+000
 40
2.000000E+000
  0
CIRCLE
  8
PV
 62
     7
 10
3.054570E+002
 20
1.360200E+002
 30
0.000000E+000
 40
7.500000E+000
  0
CIRCLE
  8
PV
 62
     7
 10
3.054570E+002
 20
1.360200E+002
 30
0.000000E+000
 40
6.750000E+000
  0
LINE
  8
PV
 62
     7
 10
2.954570E+002
 20
1.250200E+002
 30
0.000000E+000
 11
3.154570E+002
 21
1.250200E+002
 31
0.000000E+000
  0
CIRCLE
  8
PV
 62
     7
 10
3.054570E+002
 20
1.360200E+002
 30
0.000000E+000
 40
4.000000E+000
  0
ARC
  8
PV
 62
     7
 10
3.014570E+002
 20
1.167700E+002
 30
0.000000E+000
 40
2.750000E+000
 50
9.000000E+001
 51
2.700000E+002
  0
LINE
  8
PV
 62
     7
 10
3.014570E+002
 20
1.195200E+002
 30
0.000000E+000
 11
3.014570E+002
 21
1.140200E+002
 31
0.000000E+000
  0
LINE
  8
PV
 62
     7
 10
3.014570E+002
 20
1.140200E+002
 30
0.000000E+000
 11
3.154570E+002
 21
1.140200E+002
 31
0.000000E+000
  0
LINE
  8
PV
 62
     7
 10
3.014570E+002
 20
1.195200E+002
 30
0.000000E+000
 11
3.154570E+002
 21
1.195200E+002
 31
0.000000E+000
  0
LINE
  8
PV
 62
     7
 10
2.949570E+002
 20
1.460200E+002
 30
0.000000E+000
 11
2.949570E+002
 21
1.260200E+002
 31
0.000000E+000
  0
LINE
  8
PV
 62
     7
 10
2.954570E+002
 20
1.450200E+002
 30
0.000000E+000
 11
2.954570E+002
 21
1.110200E+002
 31
0.000000E+000
  0
LINE
  8
PV
 62
     7
 10
3.154570E+002
 20
1.610200E+002
 30
0.000000E+000
 11
3.154570E+002
 21
1.110200E+002
 31
0.000000E+000
  0
CIRCLE
  8
PV
 62
     7
 10
2.919570E+002
 20
1.430200E+002
 30
0.000000E+000
 40
2.000000E+000
  0
LINE
  8
PV
 62
     7
 10
2.764570E+002
 20
1.635200E+002
 30
0.000000E+000
 11
2.764570E+002
 21
1.460200E+002
 31
0.000000E+000
  0
LINE
  8
PV
 62
     7
 10
2.724570E+002
 20
1.620200E+002
 30
0.000000E+000
 11
2.704570E+002
 21
1.620200E+002
 31
0.000000E+000
  0
ARC
  8
PV
 62
     7
 10
2.704570E+002
 20
1.590200E+002
 30
0.000000E+000
 40
3.000000E+000
 50
9.000000E+001
 51
1.800000E+002
  0
LINE
  8
PV
 62
     7
 10
2.704570E+002
 20
1.550200E+002
 30
0.000000E+000
 11
2.674570E+002
 21
1.550200E+002
 31
0.000000E+000
  0
LINE
  8
PV
 62
     7
 10
2.704570E+002
 20
1.620200E+002
 30
0.000000E+000
 11
2.704570E+002
 21
1.550200E+002
 31
0.000000E+000
  0
LINE
  8
PV
 62
     7
 10
2.764570E+002
 20
1.635200E+002
 30
0.000000E+000
 11
2.724570E+002
 21
1.635200E+002
 31
0.000000E+000
  0
CIRCLE
  8
PV
 62
     7
 10
2.779570E+002
 20
1.290200E+002
 30
0.000000E+000
 40
2.000000E+000
  0
CIRCLE
  8
PV
 62
     7
 10
2.849570E+002
 20
1.360200E+002
 30
0.000000E+000
 40
4.250000E+000
  0
LINE
  8
PV
 62
     7
 10
2.704570E+002
 20
1.170200E+002
 30
0.000000E+000
 11
2.674570E+002
 21
1.170200E+002
 31
0.000000E+000
  0
LINE
  8
PV
 62
     7
 10
2.724570E+002
 20
1.100200E+002
 30
0.000000E+000
 11
2.704570E+002
 21
1.100200E+002
 31
0.000000E+000
  0
ARC
  8
PV
 62
     7
 10
2.704570E+002
 20
1.130200E+002
 30
0.000000E+000
 40
3.000000E+000
 50
1.800000E+002
 51
2.700000E+002
  0
LINE
  8
PV
 62
     7
 10
2.704570E+002
 20
1.170200E+002
 30
0.000000E+000
 11
2.704570E+002
 21
1.100200E+002
 31
0.000000E+000
  0
LINE
  8
PV
 62
     7
 10
2.764570E+002
 20
1.085200E+002
 30
0.000000E+000
 11
2.724570E+002
 21
1.085200E+002
 31
0.000000E+000
  0
LINE
  8
PV
 62
     7
 10
2.764570E+002
 20
1.260200E+002
 30
0.000000E+000
 11
2.764570E+002
 21
1.085200E+002
 31
0.000000E+000
  0
LINE
  8
PV
 62
     7
 10
2.389320E+002
 20
1.427700E+002
 30
0.000000E+000
 11
2.404320E+002
 21
1.427700E+002
 31
0.000000E+000
  0
LINE
  8
PV
 62
     7
 10
2.384320E+002
 20
1.405200E+002
 30
0.000000E+000
 11
2.389320E+002
 21
1.405200E+002
 31
0.000000E+000
  0
LINE
  8
PV
 62
     7
 10
2.384320E+002
 20
1.435200E+002
 30
0.000000E+000
 11
2.241820E+002
 21
1.435200E+002
 31
0.000000E+000
  0
LINE
  8
PV
 62
     7
 10
2.404320E+002
 20
1.292700E+002
 30
0.000000E+000
 11
2.389320E+002
 21
1.292700E+002
 31
0.000000E+000
  0
LINE
  8
PV
 62
     7
 10
2.389320E+002
 20
1.292700E+002
 30
0.000000E+000
 11
2.404320E+002
 21
1.292700E+002
 31
0.000000E+000
  0
LINE
  8
PV
 62
     7
 10
2.384320E+002
 20
1.315200E+002
 30
0.000000E+000
 11
2.389320E+002
 21
1.315200E+002
 31
0.000000E+000
  0
LINE
  8
PV
 62
     7
 10
2.384320E+002
 20
1.285200E+002
 30
0.000000E+000
 11
2.241820E+002
 21
1.285200E+002
 31
0.000000E+000
  0
LINE
  8
PV
 62
     7
 10
2.389320E+002
 20
1.427700E+002
 30
0.000000E+000
 11
2.389320E+002
 21
1.292700E+002
 31
0.000000E+000
  0
LINE
  8
PV
 62
     7
 10
2.404320E+002
 20
1.427700E+002
 30
0.000000E+000
 11
2.404320E+002
 21
1.292700E+002
 31
0.000000E+000
  0
LINE
  8
PV
 62
     7
 10
2.384320E+002
 20
1.435200E+002
 30
0.000000E+000
 11
2.384320E+002
 21
1.285200E+002
 31
0.000000E+000
  0
LINE
  8
PV
 62
     7
 10
2.241820E+002
 20
1.475200E+002
 30
0.000000E+000
 11
2.241820E+002
 21
1.245200E+002
 31
0.000000E+000
  0
LINE
  8
PV
 62
     7
 10
2.749570E+002
 20
1.460200E+002
 30
0.000000E+000
 11
2.749570E+002
 21
1.260200E+002
 31
0.000000E+000
  0
LINE
  8
PV
 62
     7
 10
2.724570E+002
 20
1.635200E+002
 30
0.000000E+000
 11
2.724570E+002
 21
1.085200E+002
 31
0.000000E+000
  0
LINE
  8
PV
 62
     7
 10
2.674570E+002
 20
1.590200E+002
 30
0.000000E+000
 11
2.674570E+002
 21
1.130200E+002
 31
0.000000E+000
  0
CIRCLE
  8
PV
 62
     7
 10
2.779570E+002
 20
1.430200E+002
 30
0.000000E+000
 40
2.000000E+000
  0
ARC
  8
PV
 62
     7
 10
2.091820E+002
 20
1.520200E+002
 30
0.000000E+000
 40
6.500000E+000
 50
2.000110E+001
 51
8.581320E+001
  0
LINE
  8
PV
 62
     7
 10
2.096560E+002
 20
1.585030E+002
 30
0.000000E+000
 11
2.152890E+002
 21
1.542430E+002
 31
0.000000E+000
  0
LINE
  8
PV
 62
     7
 10
2.001820E+002
 20
1.595450E+002
 30
0.000000E+000
 11
2.016820E+002
 21
1.595450E+002
 31
0.000000E+000
  0
LINE
  8
PV
 62
     7
 10
2.001820E+002
 20
1.594950E+002
 30
0.000000E+000
 11
2.016820E+002
 21
1.594950E+002
 31
0.000000E+000
  0
LINE
  8
PV
 62
     7
 10
2.001820E+002
 20
1.595400E+002
 30
0.000000E+000
 11
2.016820E+002
 21
1.595400E+002
 31
0.000000E+000
  0
LINE
  8
PV
 62
     7
 10
2.001820E+002
 20
1.595350E+002
 30
0.000000E+000
 11
2.016820E+002
 21
1.595350E+002
 31
0.000000E+000
  0
LINE
  8
PV
 62
     7
 10
2.001820E+002
 20
1.595300E+002
 30
0.000000E+000
 11
2.016820E+002
 21
1.595300E+002
 31
0.000000E+000
  0
LINE
  8
PV
 62
     7
 10
2.001820E+002
 20
1.595250E+002
 30
0.000000E+000
 11
2.016820E+002
 21
1.595250E+002
 31
0.000000E+000
  0
LINE
  8
PV
 62
     7
 10
2.001820E+002
 20
1.595200E+002
 30
0.000000E+000
 11
2.016820E+002
 21
1.595200E+002
 31
0.000000E+000
  0
LINE
  8
PV
 62
     7
 10
2.001820E+002
 20
1.595150E+002
 30
0.000000E+000
 11
2.016820E+002
 21
1.595150E+002
 31
0.000000E+000
  0
LINE
  8
PV
 62
     7
 10
2.001820E+002
 20
1.595100E+002
 30
0.000000E+000
 11
2.016820E+002
 21
1.595100E+002
 31
0.000000E+000
  0
LINE
  8
PV
 62
     7
 10
2.001820E+002
 20
1.595050E+002
 30
0.000000E+000
 11
2.016820E+002
 21
1.595050E+002
 31
0.000000E+000
  0
LINE
  8
PV
 62
     7
 10
2.001820E+002
 20
1.595000E+002
 30
0.000000E+000
 11
2.016820E+002
 21
1.595000E+002
 31
0.000000E+000
  0
LINE
  8
PV
 62
     7
 10
2.001570E+002
 20
1.595200E+002
 30
0.000000E+000
 11
2.001570E+002
 21
1.610200E+002
 31
0.000000E+000
  0
LINE
  8
PV
 62
     7
 10
2.002070E+002
 20
1.595200E+002
 30
0.000000E+000
 11
2.002070E+002
 21
1.610200E+002
 31
0.000000E+000
  0
LINE
  8
PV
 62
     7
 10
2.001620E+002
 20
1.595200E+002
 30
0.000000E+000
 11
2.001620E+002
 21
1.610200E+002
 31
0.000000E+000
  0
LINE
  8
PV
 62
     7
 10
2.001670E+002
 20
1.595200E+002
 30
0.000000E+000
 11
2.001670E+002
 21
1.610200E+002
 31
0.000000E+000
  0
LINE
  8
PV
 62
     7
 10
2.001720E+002
 20
1.595200E+002
 30
0.000000E+000
 11
2.001720E+002
 21
1.610200E+002
 31
0.000000E+000
  0
LINE
  8
PV
 62
     7
 10
2.001770E+002
 20
1.595200E+002
 30
0.000000E+000
 11
2.001770E+002
 21
1.610200E+002
 31
0.000000E+000
  0
LINE
  8
PV
 62
     7
 10
2.001820E+002
 20
1.595200E+002
 30
0.000000E+000
 11
2.001820E+002
 21
1.610200E+002
 31
0.000000E+000
  0
LINE
  8
PV
 62
     7
 10
2.001870E+002
 20
1.595200E+002
 30
0.000000E+000
 11
2.001870E+002
 21
1.610200E+002
 31
0.000000E+000
  0
LINE
  8
PV
 62
     7
 10
2.001920E+002
 20
1.595200E+002
 30
0.000000E+000
 11
2.001920E+002
 21
1.610200E+002
 31
0.000000E+000
  0
LINE
  8
PV
 62
     7
 10
2.001970E+002
 20
1.595200E+002
 30
0.000000E+000
 11
2.001970E+002
 21
1.610200E+002
 31
0.000000E+000
  0
LINE
  8
PV
 62
     7
 10
2.002020E+002
 20
1.595200E+002
 30
0.000000E+000
 11
2.002020E+002
 21
1.610200E+002
 31
0.000000E+000
  0
LINE
  8
PV
 62
     7
 10
2.002070E+002
 20
1.595200E+002
 30
0.000000E+000
 11
2.002070E+002
 21
1.580200E+002
 31
0.000000E+000
  0
LINE
  8
PV
 62
     7
 10
2.001570E+002
 20
1.595200E+002
 30
0.000000E+000
 11
2.001570E+002
 21
1.580200E+002
 31
0.000000E+000
  0
LINE
  8
PV
 62
     7
 10
2.002020E+002
 20
1.595200E+002
 30
0.000000E+000
 11
2.002020E+002
 21
1.580200E+002
 31
0.000000E+000
  0
LINE
  8
PV
 62
     7
 10
2.001970E+002
 20
1.595200E+002
 30
0.000000E+000
 11
2.001970E+002
 21
1.580200E+002
 31
0.000000E+000
  0
LINE
  8
PV
 62
     7
 10
2.001920E+002
 20
1.595200E+002
 30
0.000000E+000
 11
2.001920E+002
 21
1.580200E+002
 31
0.000000E+000
  0
LINE
  8
PV
 62
     7
 10
2.001870E+002
 20
1.595200E+002
 30
0.000000E+000
 11
2.001870E+002
 21
1.580200E+002
 31
0.000000E+000
  0
LINE
  8
PV
 62
     7
 10
2.001820E+002
 20
1.595200E+002
 30
0.000000E+000
 11
2.001820E+002
 21
1.580200E+002
 31
0.000000E+000
  0
LINE
  8
PV
 62
     7
 10
2.001770E+002
 20
1.595200E+002
 30
0.000000E+000
 11
2.001770E+002
 21
1.580200E+002
 31
0.000000E+000
  0
LINE
  8
PV
 62
     7
 10
2.001720E+002
 20
1.595200E+002
 30
0.000000E+000
 11
2.001720E+002
 21
1.580200E+002
 31
0.000000E+000
  0
LINE
  8
PV
 62
     7
 10
2.001670E+002
 20
1.595200E+002
 30
0.000000E+000
 11
2.001670E+002
 21
1.580200E+002
 31
0.000000E+000
  0
LINE
  8
PV
 62
     7
 10
2.001620E+002
 20
1.595200E+002
 30
0.000000E+000
 11
2.001620E+002
 21
1.580200E+002
 31
0.000000E+000
  0
ARC
  8
PV
 62
     7
 10
2.003270E+002
 20
1.530200E+002
 30
0.000000E+000
 40
1.000000E+001
 50
5.290720E+001
 51
9.000000E+001
  0
LINE
  8
PV
 62
     7
 10
1.966820E+002
 20
1.630200E+002
 30
0.000000E+000
 11
1.966820E+002
 21
1.560200E+002
 31
0.000000E+000
  0
CIRCLE
  8
PV
 62
     7
 10
2.001820E+002
 20
1.595200E+002
 30
0.000000E+000
 40
2.800000E+000
  0
LINE
  8
PV
 62
     7
 10
2.001820E+002
 20
1.595400E+002
 30
0.000000E+000
 11
1.986820E+002
 21
1.595400E+002
 31
0.000000E+000
  0
LINE
  8
PV
 62
     7
 10
2.001820E+002
 20
1.595350E+002
 30
0.000000E+000
 11
1.986820E+002
 21
1.595350E+002
 31
0.000000E+000
  0
LINE
  8
PV
 62
     7
 10
2.001820E+002
 20
1.595300E+002
 30
0.000000E+000
 11
1.986820E+002
 21
1.595300E+002
 31
0.000000E+000
  0
LINE
  8
PV
 62
     7
 10
2.001820E+002
 20
1.595250E+002
 30
0.000000E+000
 11
1.986820E+002
 21
1.595250E+002
 31
0.000000E+000
  0
LINE
  8
PV
 62
     7
 10
2.001820E+002
 20
1.595200E+002
 30
0.000000E+000
 11
1.986820E+002
 21
1.595200E+002
 31
0.000000E+000
  0
LINE
  8
PV
 62
     7
 10
2.001820E+002
 20
1.595150E+002
 30
0.000000E+000
 11
1.986820E+002
 21
1.595150E+002
 31
0.000000E+000
  0
LINE
  8
PV
 62
     7
 10
2.001820E+002
 20
1.595100E+002
 30
0.000000E+000
 11
1.986820E+002
 21
1.595100E+002
 31
0.000000E+000
  0
LINE
  8
PV
 62
     7
 10
2.001820E+002
 20
1.595050E+002
 30
0.000000E+000
 11
1.986820E+002
 21
1.595050E+002
 31
0.000000E+000
  0
LINE
  8
PV
 62
     7
 10
2.001820E+002
 20
1.595000E+002
 30
0.000000E+000
 11
1.986820E+002
 21
1.595000E+002
 31
0.000000E+000
  0
LINE
  8
PV
 62
     7
 10
2.001820E+002
 20
1.595450E+002
 30
0.000000E+000
 11
1.986820E+002
 21
1.595450E+002
 31
0.000000E+000
  0
LINE
  8
PV
 62
     7
 10
2.001820E+002
 20
1.594950E+002
 30
0.000000E+000
 11
1.986820E+002
 21
1.594950E+002
 31
0.000000E+000
  0
LINE
  8
PV
 62
     7
 10
1.966820E+002
 20
1.560200E+002
 30
0.000000E+000
 11
2.036820E+002
 21
1.560200E+002
 31
0.000000E+000
  0
LINE
  8
PV
 62
     7
 10
2.036820E+002
 20
1.460200E+002
 30
0.000000E+000
 11
2.041820E+002
 21
1.460200E+002
 31
0.000000E+000
  0
LINE
  8
PV
 62
     7
 10
2.063580E+002
 20
1.609970E+002
 30
0.000000E+000
 11
2.096560E+002
 21
1.585030E+002
 31
0.000000E+000
  0
LINE
  8
PV
 62
     7
 10
2.141820E+002
 20
1.420200E+002
 30
0.000000E+000
 11
2.141820E+002
 21
1.300200E+002
 31
0.000000E+000
  0
LINE
  8
PV
 62
     7
 10
2.036820E+002
 20
1.260200E+002
 30
0.000000E+000
 11
2.041820E+002
 21
1.260200E+002
 31
0.000000E+000
  0
LINE
  8
PV
 62
     7
 10
2.041820E+002
 20
1.420200E+002
 30
0.000000E+000
 11
2.141820E+002
 21
1.420200E+002
 31
0.000000E+000
  0
LINE
  8
PV
 62
     7
 10
2.041820E+002
 20
1.300200E+002
 30
0.000000E+000
 11
2.141820E+002
 21
1.300200E+002
 31
0.000000E+000
  0
LINE
  8
PV
 62
     7
 10
2.152890E+002
 20
1.177970E+002
 30
0.000000E+000
 11
2.096560E+002
 21
1.135370E+002
 31
0.000000E+000
  0
ARC
  8
PV
 62
     7
 10
2.091820E+002
 20
1.200200E+002
 30
0.000000E+000
 40
6.500000E+000
 50
2.741870E+002
 51
3.399990E+002
  0
LINE
  8
PV
 62
     7
 10
2.001820E+002
 20
1.124950E+002
 30
0.000000E+000
 11
2.016820E+002
 21
1.124950E+002
 31
0.000000E+000
  0
LINE
  8
PV
 62
     7
 10
2.001820E+002
 20
1.125450E+002
 30
0.000000E+000
 11
2.016820E+002
 21
1.125450E+002
 31
0.000000E+000
  0
LINE
  8
PV
 62
     7
 10
2.001820E+002
 20
1.125000E+002
 30
0.000000E+000
 11
2.016820E+002
 21
1.125000E+002
 31
0.000000E+000
  0
LINE
  8
PV
 62
     7
 10
2.001820E+002
 20
1.125050E+002
 30
0.000000E+000
 11
2.016820E+002
 21
1.125050E+002
 31
0.000000E+000
  0
LINE
  8
PV
 62
     7
 10
2.001820E+002
 20
1.125100E+002
 30
0.000000E+000
 11
2.016820E+002
 21
1.125100E+002
 31
0.000000E+000
  0
LINE
  8
PV
 62
     7
 10
2.001820E+002
 20
1.125150E+002
 30
0.000000E+000
 11
2.016820E+002
 21
1.125150E+002
 31
0.000000E+000
  0
LINE
  8
PV
 62
     7
 10
2.001820E+002
 20
1.125200E+002
 30
0.000000E+000
 11
2.016820E+002
 21
1.125200E+002
 31
0.000000E+000
  0
LINE
  8
PV
 62
     7
 10
2.001820E+002
 20
1.125250E+002
 30
0.000000E+000
 11
2.016820E+002
 21
1.125250E+002
 31
0.000000E+000
  0
LINE
  8
PV
 62
     7
 10
2.001820E+002
 20
1.125300E+002
 30
0.000000E+000
 11
2.016820E+002
 21
1.125300E+002
 31
0.000000E+000
  0
LINE
  8
PV
 62
     7
 10
2.001820E+002
 20
1.125350E+002
 30
0.000000E+000
 11
2.016820E+002
 21
1.125350E+002
 31
0.000000E+000
  0
LINE
  8
PV
 62
     7
 10
2.001820E+002
 20
1.125400E+002
 30
0.000000E+000
 11
2.016820E+002
 21
1.125400E+002
 31
0.000000E+000
  0
LINE
  8
PV
 62
     7
 10
2.001570E+002
 20
1.125200E+002
 30
0.000000E+000
 11
2.001570E+002
 21
1.110200E+002
 31
0.000000E+000
  0
LINE
  8
PV
 62
     7
 10
2.002070E+002
 20
1.125200E+002
 30
0.000000E+000
 11
2.002070E+002
 21
1.110200E+002
 31
0.000000E+000
  0
LINE
  8
PV
 62
     7
 10
2.001620E+002
 20
1.125200E+002
 30
0.000000E+000
 11
2.001620E+002
 21
1.110200E+002
 31
0.000000E+000
  0
LINE
  8
PV
 62
     7
 10
2.001670E+002
 20
1.125200E+002
 30
0.000000E+000
 11
2.001670E+002
 21
1.110200E+002
 31
0.000000E+000
  0
LINE
  8
PV
 62
     7
 10
2.001720E+002
 20
1.125200E+002
 30
0.000000E+000
 11
2.001720E+002
 21
1.110200E+002
 31
0.000000E+000
  0
LINE
  8
PV
 62
     7
 10
2.001770E+002
 20
1.125200E+002
 30
0.000000E+000
 11
2.001770E+002
 21
1.110200E+002
 31
0.000000E+000
  0
LINE
  8
PV
 62
     7
 10
2.001820E+002
 20
1.125200E+002
 30
0.000000E+000
 11
2.001820E+002
 21
1.110200E+002
 31
0.000000E+000
  0
LINE
  8
PV
 62
     7
 10
2.001870E+002
 20
1.125200E+002
 30
0.000000E+000
 11
2.001870E+002
 21
1.110200E+002
 31
0.000000E+000
  0
LINE
  8
PV
 62
     7
 10
2.001920E+002
 20
1.125200E+002
 30
0.000000E+000
 11
2.001920E+002
 21
1.110200E+002
 31
0.000000E+000
  0
LINE
  8
PV
 62
     7
 10
2.001970E+002
 20
1.125200E+002
 30
0.000000E+000
 11
2.001970E+002
 21
1.110200E+002
 31
0.000000E+000
  0
LINE
  8
PV
 62
     7
 10
2.002020E+002
 20
1.125200E+002
 30
0.000000E+000
 11
2.002020E+002
 21
1.110200E+002
 31
0.000000E+000
  0
LINE
  8
PV
 62
     7
 10
2.002070E+002
 20
1.125200E+002
 30
0.000000E+000
 11
2.002070E+002
 21
1.140200E+002
 31
0.000000E+000
  0
LINE
  8
PV
 62
     7
 10
2.001570E+002
 20
1.125200E+002
 30
0.000000E+000
 11
2.001570E+002
 21
1.140200E+002
 31
0.000000E+000
  0
LINE
  8
PV
 62
     7
 10
2.002020E+002
 20
1.125200E+002
 30
0.000000E+000
 11
2.002020E+002
 21
1.140200E+002
 31
0.000000E+000
  0
LINE
  8
PV
 62
     7
 10
2.001970E+002
 20
1.125200E+002
 30
0.000000E+000
 11
2.001970E+002
 21
1.140200E+002
 31
0.000000E+000
  0
LINE
  8
PV
 62
     7
 10
2.001920E+002
 20
1.125200E+002
 30
0.000000E+000
 11
2.001920E+002
 21
1.140200E+002
 31
0.000000E+000
  0
LINE
  8
PV
 62
     7
 10
2.001870E+002
 20
1.125200E+002
 30
0.000000E+000
 11
2.001870E+002
 21
1.140200E+002
 31
0.000000E+000
  0
LINE
  8
PV
 62
     7
 10
2.001820E+002
 20
1.125200E+002
 30
0.000000E+000
 11
2.001820E+002
 21
1.140200E+002
 31
0.000000E+000
  0
LINE
  8
PV
 62
     7
 10
2.001770E+002
 20
1.125200E+002
 30
0.000000E+000
 11
2.001770E+002
 21
1.140200E+002
 31
0.000000E+000
  0
LINE
  8
PV
 62
     7
 10
2.001720E+002
 20
1.125200E+002
 30
0.000000E+000
 11
2.001720E+002
 21
1.140200E+002
 31
0.000000E+000
  0
LINE
  8
PV
 62
     7
 10
2.001670E+002
 20
1.125200E+002
 30
0.000000E+000
 11
2.001670E+002
 21
1.140200E+002
 31
0.000000E+000
  0
LINE
  8
PV
 62
     7
 10
2.001620E+002
 20
1.125200E+002
 30
0.000000E+000
 11
2.001620E+002
 21
1.140200E+002
 31
0.000000E+000
  0
CIRCLE
  8
PV
 62
     7
 10
2.001820E+002
 20
1.125200E+002
 30
0.000000E+000
 40
2.800000E+000
  0
LINE
  8
PV
 62
     7
 10
2.001820E+002
 20
1.125000E+002
 30
0.000000E+000
 11
1.986820E+002
 21
1.125000E+002
 31
0.000000E+000
  0
LINE
  8
PV
 62
     7
 10
2.001820E+002
 20
1.125050E+002
 30
0.000000E+000
 11
1.986820E+002
 21
1.125050E+002
 31
0.000000E+000
  0
LINE
  8
PV
 62
     7
 10
2.001820E+002
 20
1.125100E+002
 30
0.000000E+000
 11
1.986820E+002
 21
1.125100E+002
 31
0.000000E+000
  0
LINE
  8
PV
 62
     7
 10
2.001820E+002
 20
1.125150E+002
 30
0.000000E+000
 11
1.986820E+002
 21
1.125150E+002
 31
0.000000E+000
  0
LINE
  8
PV
 62
     7
 10
2.001820E+002
 20
1.125200E+002
 30
0.000000E+000
 11
1.986820E+002
 21
1.125200E+002
 31
0.000000E+000
  0
LINE
  8
PV
 62
     7
 10
2.001820E+002
 20
1.125250E+002
 30
0.000000E+000
 11
1.986820E+002
 21
1.125250E+002
 31
0.000000E+000
  0
LINE
  8
PV
 62
     7
 10
2.001820E+002
 20
1.125300E+002
 30
0.000000E+000
 11
1.986820E+002
 21
1.125300E+002
 31
0.000000E+000
  0
LINE
  8
PV
 62
     7
 10
2.001820E+002
 20
1.125350E+002
 30
0.000000E+000
 11
1.986820E+002
 21
1.125350E+002
 31
0.000000E+000
  0
LINE
  8
PV
 62
     7
 10
2.001820E+002
 20
1.125400E+002
 30
0.000000E+000
 11
1.986820E+002
 21
1.125400E+002
 31
0.000000E+000
  0
LINE
  8
PV
 62
     7
 10
2.001820E+002
 20
1.124950E+002
 30
0.000000E+000
 11
1.986820E+002
 21
1.124950E+002
 31
0.000000E+000
  0
LINE
  8
PV
 62
     7
 10
2.001820E+002
 20
1.125450E+002
 30
0.000000E+000
 11
1.986820E+002
 21
1.125450E+002
 31
0.000000E+000
  0
LINE
  8
PV
 62
     7
 10
1.966820E+002
 20
1.160200E+002
 30
0.000000E+000
 11
2.036820E+002
 21
1.160200E+002
 31
0.000000E+000
  0
ARC
  8
PV
 62
     7
 10
2.003270E+002
 20
1.190200E+002
 30
0.000000E+000
 40
1.000000E+001
 50
2.700000E+002
 51
3.070930E+002
  0
LINE
  8
PV
 62
     7
 10
1.966820E+002
 20
1.160200E+002
 30
0.000000E+000
 11
1.966820E+002
 21
1.090200E+002
 31
0.000000E+000
  0
LINE
  8
PV
  6
CENTER
 62
     1
 10
2.054320E+002
 20
1.200200E+002
 30
0.000000E+000
 11
2.129320E+002
 21
1.200200E+002
 31
0.000000E+000
  0
LINE
  8
PV
 62
     7
 10
2.063580E+002
 20
1.110440E+002
 30
0.000000E+000
 11
2.096560E+002
 21
1.135370E+002
 31
0.000000E+000
  0
LINE
  8
PV
  6
CENTER
 62
     1
 10
2.091820E+002
 20
1.237700E+002
 30
0.000000E+000
 11
2.091820E+002
 21
1.162700E+002
 31
0.000000E+000
  0
LINE
  8
PV
 62
     7
 10
1.944320E+002
 20
1.420200E+002
 30
0.000000E+000
 11
1.944320E+002
 21
1.155200E+002
 31
0.000000E+000
  0
CIRCLE
  8
PV
 62
     7
 10
2.091820E+002
 20
1.200200E+002
 30
0.000000E+000
 40
3.250000E+000
  0
LINE
  8
PV
  6
CENTER
 62
     1
 10
1.661820E+002
 20
1.660200E+002
 30
0.000000E+000
 11
1.661820E+002
 21
1.060200E+002
 31
0.000000E+000
  0
LINE
  8
PV
 62
     7
 10
2.036820E+002
 20
1.624410E+002
 30
0.000000E+000
 11
2.036820E+002
 21
1.096000E+002
 31
0.000000E+000
  0
LINE
  8
PV
 62
     7
 10
1.944320E+002
 20
1.565200E+002
 30
0.000000E+000
 11
1.944320E+002
 21
1.435200E+002
 31
0.000000E+000
  0
LINE
  8
PV
 62
     7
 10
2.041820E+002
 20
1.460200E+002
 30
0.000000E+000
 11
2.041820E+002
 21
1.260200E+002
 31
0.000000E+000
  0
LINE
  8
PV
 62
     7
 10
2.152890E+002
 20
1.542430E+002
 30
0.000000E+000
 11
2.241820E+002
 21
1.475200E+002
 31
0.000000E+000
  0
LINE
  8
PV
 62
     7
 10
2.152890E+002
 20
1.177970E+002
 30
0.000000E+000
 11
2.241820E+002
 21
1.245200E+002
 31
0.000000E+000
  0
CIRCLE
  8
PV
 62
     7
 10
2.849570E+002
 20
1.360200E+002
 30
0.000000E+000
 40
6.000000E+000
  0
LINE
  8
PV
 62
     7
 10
2.749570E+002
 20
1.260200E+002
 30
0.000000E+000
 11
2.949570E+002
 21
1.260200E+002
 31
0.000000E+000
  0
LINE
  8
PV
 62
     7
 10
3.154570E+002
 20
1.110200E+002
 30
0.000000E+000
 11
2.764570E+002
 21
1.110200E+002
 31
0.000000E+000
  0
LINE
  8
PV
 62
     7
 10
2.749570E+002
 20
1.460200E+002
 30
0.000000E+000
 11
2.949570E+002
 21
1.460200E+002
 31
0.000000E+000
  0
LINE
  8
PV
 62
     7
 10
3.154570E+002
 20
1.610200E+002
 30
0.000000E+000
 11
2.764570E+002
 21
1.610200E+002
 31
0.000000E+000
  0
LINE
  8
PV
 62
     7
 10
2.389320E+002
 20
1.842130E+001
 30
0.000000E+000
 11
2.404320E+002
 21
1.842130E+001
 31
0.000000E+000
  0
LINE
  8
PV
 62
     7
 10
2.384320E+002
 20
1.917130E+001
 30
0.000000E+000
 11
2.241820E+002
 21
1.917130E+001
 31
0.000000E+000
  0
LINE
  8
PV
 62
     7
 10
2.384320E+002
 20
1.617130E+001
 30
0.000000E+000
 11
2.389320E+002
 21
1.617130E+001
 31
0.000000E+000
  0
LINE
  8
PV
 62
     7
 10
2.404320E+002
 20
4.921330E+000
 30
0.000000E+000
 11
2.389320E+002
 21
4.921330E+000
 31
0.000000E+000
  0
LINE
  8
PV
 62
     7
 10
2.389320E+002
 20
4.921330E+000
 30
0.000000E+000
 11
2.404320E+002
 21
4.921330E+000
 31
0.000000E+000
  0
LINE
  8
PV
 62
     7
 10
2.384320E+002
 20
7.171330E+000
 30
0.000000E+000
 11
2.389320E+002
 21
7.171330E+000
 31
0.000000E+000
  0
LINE
  8
PV
 62
     7
 10
2.389320E+002
 20
1.842130E+001
 30
0.000000E+000
 11
2.389320E+002
 21
4.921330E+000
 31
0.000000E+000
  0
LINE
  8
PV
 62
     7
 10
2.404320E+002
 20
1.842130E+001
 30
0.000000E+000
 11
2.404320E+002
 21
4.921330E+000
 31
0.000000E+000
  0
ARC
  8
PV
 62
     7
 10
2.006820E+002
 20
4.667130E+001
 30
0.000000E+000
 40
3.000000E+000
 50
0.000000E+000
 51
9.000000E+001
  0
LINE
  8
PV
 62
     7
 10
2.036820E+002
 20
4.242900E+001
 30
0.000000E+000
 11
2.041820E+002
 21
4.242900E+001
 31
0.000000E+000
  0
LINE
  8
PV
 62
     7
 10
2.036820E+002
 20
4.667130E+001
 30
0.000000E+000
 11
2.036820E+002
 21
4.067130E+001
 31
0.000000E+000
  0
LINE
  8
PV
 62
     7
 10
1.966820E+002
 20
4.967130E+001
 30
0.000000E+000
 11
1.966820E+002
 21
4.667130E+001
 31
0.000000E+000
  0
LINE
  8
PV
 62
     7
 10
1.966820E+002
 20
4.667130E+001
 30
0.000000E+000
 11
2.036820E+002
 21
4.667130E+001
 31
0.000000E+000
  0
LINE
  8
PV
 62
     7
 10
2.041820E+002
 20
3.842900E+001
 30
0.000000E+000
 11
2.141820E+002
 21
3.842900E+001
 31
0.000000E+000
  0
LINE
  8
PV
 62
     7
 10
2.016820E+002
 20
2.242900E+001
 30
0.000000E+000
 11
2.041820E+002
 21
2.242900E+001
 31
0.000000E+000
  0
LINE
  8
PV
 62
     7
 10
2.041820E+002
 20
2.642900E+001
 30
0.000000E+000
 11
2.141820E+002
 21
2.642900E+001
 31
0.000000E+000
  0
LINE
  8
PV
 62
     7
 10
2.041820E+002
 20
4.242900E+001
 30
0.000000E+000
 11
2.041820E+002
 21
2.242900E+001
 31
0.000000E+000
  0
LINE
  8
PV
 62
     7
 10
2.141820E+002
 20
3.842900E+001
 30
0.000000E+000
 11
2.141820E+002
 21
2.642900E+001
 31
0.000000E+000
  0
LINE
  8
PV
 62
     7
 10
2.126310E+002
 20
3.842900E+001
 30
0.000000E+000
 11
2.126310E+002
 21
2.642900E+001
 31
0.000000E+000
  0
LINE
  8
PV
 62
     7
 10
2.116310E+002
 20
3.842900E+001
 30
0.000000E+000
 11
2.116310E+002
 21
2.642900E+001
 31
0.000000E+000
  0
LINE
  8
PV
 62
     7
 10
2.106310E+002
 20
3.842900E+001
 30
0.000000E+000
 11
2.106310E+002
 21
2.642900E+001
 31
0.000000E+000
  0
LINE
  8
PV
 62
     7
 10
2.096310E+002
 20
3.842900E+001
 30
0.000000E+000
 11
2.096310E+002
 21
2.642900E+001
 31
0.000000E+000
  0
LINE
  8
PV
 62
     7
 10
2.086310E+002
 20
3.842900E+001
 30
0.000000E+000
 11
2.086310E+002
 21
2.642900E+001
 31
0.000000E+000
  0
LINE
  8
PV
 62
     7
 10
2.076310E+002
 20
3.842900E+001
 30
0.000000E+000
 11
2.076310E+002
 21
2.642900E+001
 31
0.000000E+000
  0
LINE
  8
PV
 62
     7
 10
2.066310E+002
 20
3.842900E+001
 30
0.000000E+000
 11
2.066310E+002
 21
2.642900E+001
 31
0.000000E+000
  0
LINE
  8
PV
 62
     7
 10
2.016820E+002
 20
2.167130E+001
 30
0.000000E+000
 11
2.241820E+002
 21
2.167130E+001
 31
0.000000E+000
  0
LINE
  8
PV
 62
     7
 10
2.016820E+002
 20
1.667130E+001
 30
0.000000E+000
 11
2.241820E+002
 21
1.667130E+001
 31
0.000000E+000
  0
LINE
  8
PV
 62
     7
 10
2.384320E+002
 20
4.171330E+000
 30
0.000000E+000
 11
2.241820E+002
 21
4.171330E+000
 31
0.000000E+000
  0
LINE
  8
PV
 62
     7
 10
2.384320E+002
 20
1.917130E+001
 30
0.000000E+000
 11
2.384320E+002
 21
4.171330E+000
 31
0.000000E+000
  0
LINE
  8
PV
 62
     7
 10
2.241820E+002
 20
2.167130E+001
 30
0.000000E+000
 11
2.241820E+002
 21
1.671330E+000
 31
0.000000E+000
  0
LINE
  8
PV
 62
     7
 10
2.096560E+002
 20
1.667130E+001
 30
0.000000E+000
 11
2.096560E+002
 21
1.671330E+000
 31
0.000000E+000
  0
LINE
  8
PV
 62
     7
 10
2.152890E+002
 20
1.667130E+001
 30
0.000000E+000
 11
2.152890E+002
 21
1.671330E+000
 31
0.000000E+000
  0
LINE
  8
PV
 62
     7
 10
2.016820E+002
 20
4.067130E+001
 30
0.000000E+000
 11
2.016820E+002
 21
1.671330E+000
 31
0.000000E+000
  0
LINE
  8
PV
 62
     7
 10
1.356820E+002
 20
1.630200E+002
 30
0.000000E+000
 11
1.356820E+002
 21
1.560200E+002
 31
0.000000E+000
  0
LINE
  8
PV
 62
     7
 10
1.321820E+002
 20
1.595450E+002
 30
0.000000E+000
 11
1.306820E+002
 21
1.595450E+002
 31
0.000000E+000
  0
LINE
  8
PV
 62
     7
 10
1.321820E+002
 20
1.594950E+002
 30
0.000000E+000
 11
1.306820E+002
 21
1.594950E+002
 31
0.000000E+000
  0
LINE
  8
PV
 62
     7
 10
1.321820E+002
 20
1.595400E+002
 30
0.000000E+000
 11
1.306820E+002
 21
1.595400E+002
 31
0.000000E+000
  0
LINE
  8
PV
 62
     7
 10
1.321820E+002
 20
1.595350E+002
 30
0.000000E+000
 11
1.306820E+002
 21
1.595350E+002
 31
0.000000E+000
  0
LINE
  8
PV
 62
     7
 10
1.321820E+002
 20
1.595300E+002
 30
0.000000E+000
 11
1.306820E+002
 21
1.595300E+002
 31
0.000000E+000
  0
LINE
  8
PV
 62
     7
 10
1.321820E+002
 20
1.595250E+002
 30
0.000000E+000
 11
1.306820E+002
 21
1.595250E+002
 31
0.000000E+000
  0
LINE
  8
PV
 62
     7
 10
1.321820E+002
 20
1.595200E+002
 30
0.000000E+000
 11
1.306820E+002
 21
1.595200E+002
 31
0.000000E+000
  0
LINE
  8
PV
 62
     7
 10
1.321820E+002
 20
1.595150E+002
 30
0.000000E+000
 11
1.306820E+002
 21
1.595150E+002
 31
0.000000E+000
  0
LINE
  8
PV
 62
     7
 10
1.321820E+002
 20
1.595100E+002
 30
0.000000E+000
 11
1.306820E+002
 21
1.595100E+002
 31
0.000000E+000
  0
LINE
  8
PV
 62
     7
 10
1.321820E+002
 20
1.595050E+002
 30
0.000000E+000
 11
1.306820E+002
 21
1.595050E+002
 31
0.000000E+000
  0
LINE
  8
PV
 62
     7
 10
1.321820E+002
 20
1.595000E+002
 30
0.000000E+000
 11
1.306820E+002
 21
1.595000E+002
 31
0.000000E+000
  0
LINE
  8
PV
 62
     7
 10
1.322070E+002
 20
1.595200E+002
 30
0.000000E+000
 11
1.322070E+002
 21
1.610200E+002
 31
0.000000E+000
  0
LINE
  8
PV
 62
     7
 10
1.321570E+002
 20
1.595200E+002
 30
0.000000E+000
 11
1.321570E+002
 21
1.610200E+002
 31
0.000000E+000
  0
LINE
  8
PV
 62
     7
 10
1.322020E+002
 20
1.595200E+002
 30
0.000000E+000
 11
1.322020E+002
 21
1.610200E+002
 31
0.000000E+000
  0
LINE
  8
PV
 62
     7
 10
1.321970E+002
 20
1.595200E+002
 30
0.000000E+000
 11
1.321970E+002
 21
1.610200E+002
 31
0.000000E+000
  0
LINE
  8
PV
 62
     7
 10
1.321920E+002
 20
1.595200E+002
 30
0.000000E+000
 11
1.321920E+002
 21
1.610200E+002
 31
0.000000E+000
  0
LINE
  8
PV
 62
     7
 10
1.321870E+002
 20
1.595200E+002
 30
0.000000E+000
 11
1.321870E+002
 21
1.610200E+002
 31
0.000000E+000
  0
LINE
  8
PV
 62
     7
 10
1.321820E+002
 20
1.595200E+002
 30
0.000000E+000
 11
1.321820E+002
 21
1.610200E+002
 31
0.000000E+000
  0
LINE
  8
PV
 62
     7
 10
1.321770E+002
 20
1.595200E+002
 30
0.000000E+000
 11
1.321770E+002
 21
1.610200E+002
 31
0.000000E+000
  0
LINE
  8
PV
 62
     7
 10
1.321720E+002
 20
1.595200E+002
 30
0.000000E+000
 11
1.321720E+002
 21
1.610200E+002
 31
0.000000E+000
  0
LINE
  8
PV
 62
     7
 10
1.321670E+002
 20
1.595200E+002
 30
0.000000E+000
 11
1.321670E+002
 21
1.610200E+002
 31
0.000000E+000
  0
LINE
  8
PV
 62
     7
 10
1.321620E+002
 20
1.595200E+002
 30
0.000000E+000
 11
1.321620E+002
 21
1.610200E+002
 31
0.000000E+000
  0
LINE
  8
PV
 62
     7
 10
1.321570E+002
 20
1.595200E+002
 30
0.000000E+000
 11
1.321570E+002
 21
1.580200E+002
 31
0.000000E+000
  0
LINE
  8
PV
 62
     7
 10
1.322070E+002
 20
1.595200E+002
 30
0.000000E+000
 11
1.322070E+002
 21
1.580200E+002
 31
0.000000E+000
  0
LINE
  8
PV
 62
     7
 10
1.321620E+002
 20
1.595200E+002
 30
0.000000E+000
 11
1.321620E+002
 21
1.580200E+002
 31
0.000000E+000
  0
LINE
  8
PV
 62
     7
 10
1.321670E+002
 20
1.595200E+002
 30
0.000000E+000
 11
1.321670E+002
 21
1.580200E+002
 31
0.000000E+000
  0
LINE
  8
PV
 62
     7
 10
1.321720E+002
 20
1.595200E+002
 30
0.000000E+000
 11
1.321720E+002
 21
1.580200E+002
 31
0.000000E+000
  0
LINE
  8
PV
 62
     7
 10
1.321770E+002
 20
1.595200E+002
 30
0.000000E+000
 11
1.321770E+002
 21
1.580200E+002
 31
0.000000E+000
  0
LINE
  8
PV
 62
     7
 10
1.321820E+002
 20
1.595200E+002
 30
0.000000E+000
 11
1.321820E+002
 21
1.580200E+002
 31
0.000000E+000
  0
LINE
  8
PV
 62
     7
 10
1.321870E+002
 20
1.595200E+002
 30
0.000000E+000
 11
1.321870E+002
 21
1.580200E+002
 31
0.000000E+000
  0
LINE
  8
PV
 62
     7
 10
1.321920E+002
 20
1.595200E+002
 30
0.000000E+000
 11
1.321920E+002
 21
1.580200E+002
 31
0.000000E+000
  0
LINE
  8
PV
 62
     7
 10
1.321970E+002
 20
1.595200E+002
 30
0.000000E+000
 11
1.321970E+002
 21
1.580200E+002
 31
0.000000E+000
  0
LINE
  8
PV
 62
     7
 10
1.322020E+002
 20
1.595200E+002
 30
0.000000E+000
 11
1.322020E+002
 21
1.580200E+002
 31
0.000000E+000
  0
LINE
  8
PV
 62
     7
 10
1.321820E+002
 20
1.595400E+002
 30
0.000000E+000
 11
1.336820E+002
 21
1.595400E+002
 31
0.000000E+000
  0
LINE
  8
PV
 62
     7
 10
1.321820E+002
 20
1.595350E+002
 30
0.000000E+000
 11
1.336820E+002
 21
1.595350E+002
 31
0.000000E+000
  0
LINE
  8
PV
 62
     7
 10
1.321820E+002
 20
1.595300E+002
 30
0.000000E+000
 11
1.336820E+002
 21
1.595300E+002
 31
0.000000E+000
  0
LINE
  8
PV
 62
     7
 10
1.321820E+002
 20
1.595250E+002
 30
0.000000E+000
 11
1.336820E+002
 21
1.595250E+002
 31
0.000000E+000
  0
LINE
  8
PV
 62
     7
 10
1.321820E+002
 20
1.595200E+002
 30
0.000000E+000
 11
1.336820E+002
 21
1.595200E+002
 31
0.000000E+000
  0
LINE
  8
PV
 62
     7
 10
1.321820E+002
 20
1.595150E+002
 30
0.000000E+000
 11
1.336820E+002
 21
1.595150E+002
 31
0.000000E+000
  0
LINE
  8
PV
 62
     7
 10
1.321820E+002
 20
1.595100E+002
 30
0.000000E+000
 11
1.336820E+002
 21
1.595100E+002
 31
0.000000E+000
  0
LINE
  8
PV
 62
     7
 10
1.321820E+002
 20
1.595050E+002
 30
0.000000E+000
 11
1.336820E+002
 21
1.595050E+002
 31
0.000000E+000
  0
LINE
  8
PV
 62
     7
 10
1.321820E+002
 20
1.595000E+002
 30
0.000000E+000
 11
1.336820E+002
 21
1.595000E+002
 31
0.000000E+000
  0
LINE
  8
PV
 62
     7
 10
1.321820E+002
 20
1.595450E+002
 30
0.000000E+000
 11
1.336820E+002
 21
1.595450E+002
 31
0.000000E+000
  0
LINE
  8
PV
 62
     7
 10
1.321820E+002
 20
1.594950E+002
 30
0.000000E+000
 11
1.336820E+002
 21
1.594950E+002
 31
0.000000E+000
  0
ARC
  8
PV
 62
     7
 10
1.320360E+002
 20
1.530200E+002
 30
0.000000E+000
 40
1.000000E+001
 50
9.000000E+001
 51
1.270930E+002
  0
LINE
  8
PV
 62
     7
 10
1.286820E+002
 20
1.560200E+002
 30
0.000000E+000
 11
1.356820E+002
 21
1.560200E+002
 31
0.000000E+000
  0
CIRCLE
  8
PV
 62
     7
 10
1.321820E+002
 20
1.595200E+002
 30
0.000000E+000
 40
2.800000E+000
  0
LINE
  8
PV
  6
CENTER
 62
     1
 10
1.231820E+002
 20
1.557700E+002
 30
0.000000E+000
 11
1.231820E+002
 21
1.482700E+002
 31
0.000000E+000
  0
ARC
  8
PV
 62
     7
 10
1.231820E+002
 20
1.520200E+002
 30
0.000000E+000
 40
6.500000E+000
 50
9.418680E+001
 51
1.599990E+002
  0
LINE
  8
PV
 62
     7
 10
1.170740E+002
 20
1.542430E+002
 30
0.000000E+000
 11
1.227070E+002
 21
1.585030E+002
 31
0.000000E+000
  0
LINE
  8
PV
 62
     7
 10
1.081820E+002
 20
1.475200E+002
 30
0.000000E+000
 11
1.170740E+002
 21
1.542430E+002
 31
0.000000E+000
  0
LINE
  8
PV
  6
CENTER
 62
     1
 10
1.194320E+002
 20
1.520200E+002
 30
0.000000E+000
 11
1.269320E+002
 21
1.520200E+002
 31
0.000000E+000
  0
LINE
  8
PV
 62
     7
 10
1.081820E+002
 20
1.460200E+002
 30
0.000000E+000
 11
1.286820E+002
 21
1.460200E+002
 31
0.000000E+000
  0
LINE
  8
PV
 62
     7
 10
1.227070E+002
 20
1.585030E+002
 30
0.000000E+000
 11
1.260050E+002
 21
1.609970E+002
 31
0.000000E+000
  0
CIRCLE
  8
PV
 62
     7
 10
1.231820E+002
 20
1.520200E+002
 30
0.000000E+000
 40
3.250000E+000
  0
LINE
  8
PV
 62
     7
 10
1.321820E+002
 20
1.125450E+002
 30
0.000000E+000
 11
1.336820E+002
 21
1.125450E+002
 31
0.000000E+000
  0
LINE
  8
PV
 62
     7
 10
1.321820E+002
 20
1.124950E+002
 30
0.000000E+000
 11
1.336820E+002
 21
1.124950E+002
 31
0.000000E+000
  0
LINE
  8
PV
 62
     7
 10
1.321820E+002
 20
1.125400E+002
 30
0.000000E+000
 11
1.336820E+002
 21
1.125400E+002
 31
0.000000E+000
  0
LINE
  8
PV
 62
     7
 10
1.321820E+002
 20
1.125350E+002
 30
0.000000E+000
 11
1.336820E+002
 21
1.125350E+002
 31
0.000000E+000
  0
LINE
  8
PV
 62
     7
 10
1.321820E+002
 20
1.125300E+002
 30
0.000000E+000
 11
1.336820E+002
 21
1.125300E+002
 31
0.000000E+000
  0
LINE
  8
PV
 62
     7
 10
1.321820E+002
 20
1.125250E+002
 30
0.000000E+000
 11
1.336820E+002
 21
1.125250E+002
 31
0.000000E+000
  0
LINE
  8
PV
 62
     7
 10
1.321820E+002
 20
1.125200E+002
 30
0.000000E+000
 11
1.336820E+002
 21
1.125200E+002
 31
0.000000E+000
  0
LINE
  8
PV
 62
     7
 10
1.321820E+002
 20
1.125150E+002
 30
0.000000E+000
 11
1.336820E+002
 21
1.125150E+002
 31
0.000000E+000
  0
LINE
  8
PV
 62
     7
 10
1.321820E+002
 20
1.125100E+002
 30
0.000000E+000
 11
1.336820E+002
 21
1.125100E+002
 31
0.000000E+000
  0
LINE
  8
PV
 62
     7
 10
1.321820E+002
 20
1.125050E+002
 30
0.000000E+000
 11
1.336820E+002
 21
1.125050E+002
 31
0.000000E+000
  0
LINE
  8
PV
 62
     7
 10
1.321820E+002
 20
1.125000E+002
 30
0.000000E+000
 11
1.336820E+002
 21
1.125000E+002
 31
0.000000E+000
  0
LINE
  8
PV
 62
     7
 10
1.322020E+002
 20
1.125200E+002
 30
0.000000E+000
 11
1.322020E+002
 21
1.140200E+002
 31
0.000000E+000
  0
LINE
  8
PV
 62
     7
 10
1.321970E+002
 20
1.125200E+002
 30
0.000000E+000
 11
1.321970E+002
 21
1.140200E+002
 31
0.000000E+000
  0
LINE
  8
PV
 62
     7
 10
1.321920E+002
 20
1.125200E+002
 30
0.000000E+000
 11
1.321920E+002
 21
1.140200E+002
 31
0.000000E+000
  0
LINE
  8
PV
 62
     7
 10
1.321870E+002
 20
1.125200E+002
 30
0.000000E+000
 11
1.321870E+002
 21
1.140200E+002
 31
0.000000E+000
  0
LINE
  8
PV
 62
     7
 10
1.321820E+002
 20
1.125200E+002
 30
0.000000E+000
 11
1.321820E+002
 21
1.140200E+002
 31
0.000000E+000
  0
LINE
  8
PV
 62
     7
 10
1.321770E+002
 20
1.125200E+002
 30
0.000000E+000
 11
1.321770E+002
 21
1.140200E+002
 31
0.000000E+000
  0
LINE
  8
PV
 62
     7
 10
1.321720E+002
 20
1.125200E+002
 30
0.000000E+000
 11
1.321720E+002
 21
1.140200E+002
 31
0.000000E+000
  0
LINE
  8
PV
 62
     7
 10
1.321670E+002
 20
1.125200E+002
 30
0.000000E+000
 11
1.321670E+002
 21
1.140200E+002
 31
0.000000E+000
  0
LINE
  8
PV
 62
     7
 10
1.321620E+002
 20
1.125200E+002
 30
0.000000E+000
 11
1.321620E+002
 21
1.140200E+002
 31
0.000000E+000
  0
LINE
  8
PV
 62
     7
 10
1.322070E+002
 20
1.125200E+002
 30
0.000000E+000
 11
1.322070E+002
 21
1.140200E+002
 31
0.000000E+000
  0
LINE
  8
PV
 62
     7
 10
1.321570E+002
 20
1.125200E+002
 30
0.000000E+000
 11
1.321570E+002
 21
1.140200E+002
 31
0.000000E+000
  0
LINE
  8
PV
 62
     7
 10
1.321820E+002
 20
1.125400E+002
 30
0.000000E+000
 11
1.306820E+002
 21
1.125400E+002
 31
0.000000E+000
  0
LINE
  8
PV
 62
     7
 10
1.321820E+002
 20
1.125350E+002
 30
0.000000E+000
 11
1.306820E+002
 21
1.125350E+002
 31
0.000000E+000
  0
LINE
  8
PV
 62
     7
 10
1.321820E+002
 20
1.125300E+002
 30
0.000000E+000
 11
1.306820E+002
 21
1.125300E+002
 31
0.000000E+000
  0
LINE
  8
PV
 62
     7
 10
1.321820E+002
 20
1.125250E+002
 30
0.000000E+000
 11
1.306820E+002
 21
1.125250E+002
 31
0.000000E+000
  0
LINE
  8
PV
 62
     7
 10
1.321820E+002
 20
1.125200E+002
 30
0.000000E+000
 11
1.306820E+002
 21
1.125200E+002
 31
0.000000E+000
  0
LINE
  8
PV
 62
     7
 10
1.321820E+002
 20
1.125150E+002
 30
0.000000E+000
 11
1.306820E+002
 21
1.125150E+002
 31
0.000000E+000
  0
LINE
  8
PV
 62
     7
 10
1.321820E+002
 20
1.125100E+002
 30
0.000000E+000
 11
1.306820E+002
 21
1.125100E+002
 31
0.000000E+000
  0
LINE
  8
PV
 62
     7
 10
1.321820E+002
 20
1.125050E+002
 30
0.000000E+000
 11
1.306820E+002
 21
1.125050E+002
 31
0.000000E+000
  0
LINE
  8
PV
 62
     7
 10
1.321820E+002
 20
1.125000E+002
 30
0.000000E+000
 11
1.306820E+002
 21
1.125000E+002
 31
0.000000E+000
  0
LINE
  8
PV
 62
     7
 10
1.321820E+002
 20
1.125450E+002
 30
0.000000E+000
 11
1.306820E+002
 21
1.125450E+002
 31
0.000000E+000
  0
LINE
  8
PV
 62
     7
 10
1.321820E+002
 20
1.124950E+002
 30
0.000000E+000
 11
1.306820E+002
 21
1.124950E+002
 31
0.000000E+000
  0
LINE
  8
PV
 62
     7
 10
1.321620E+002
 20
1.125200E+002
 30
0.000000E+000
 11
1.321620E+002
 21
1.110200E+002
 31
0.000000E+000
  0
LINE
  8
PV
 62
     7
 10
1.321670E+002
 20
1.125200E+002
 30
0.000000E+000
 11
1.321670E+002
 21
1.110200E+002
 31
0.000000E+000
  0
LINE
  8
PV
 62
     7
 10
1.321720E+002
 20
1.125200E+002
 30
0.000000E+000
 11
1.321720E+002
 21
1.110200E+002
 31
0.000000E+000
  0
LINE
  8
PV
 62
     7
 10
1.321770E+002
 20
1.125200E+002
 30
0.000000E+000
 11
1.321770E+002
 21
1.110200E+002
 31
0.000000E+000
  0
LINE
  8
PV
 62
     7
 10
1.321820E+002
 20
1.125200E+002
 30
0.000000E+000
 11
1.321820E+002
 21
1.110200E+002
 31
0.000000E+000
  0
LINE
  8
PV
 62
     7
 10
1.321870E+002
 20
1.125200E+002
 30
0.000000E+000
 11
1.321870E+002
 21
1.110200E+002
 31
0.000000E+000
  0
LINE
  8
PV
 62
     7
 10
1.321920E+002
 20
1.125200E+002
 30
0.000000E+000
 11
1.321920E+002
 21
1.110200E+002
 31
0.000000E+000
  0
LINE
  8
PV
 62
     7
 10
1.321970E+002
 20
1.125200E+002
 30
0.000000E+000
 11
1.321970E+002
 21
1.110200E+002
 31
0.000000E+000
  0
LINE
  8
PV
 62
     7
 10
1.322020E+002
 20
1.125200E+002
 30
0.000000E+000
 11
1.322020E+002
 21
1.110200E+002
 31
0.000000E+000
  0
LINE
  8
PV
 62
     7
 10
1.321570E+002
 20
1.125200E+002
 30
0.000000E+000
 11
1.321570E+002
 21
1.110200E+002
 31
0.000000E+000
  0
LINE
  8
PV
 62
     7
 10
1.322070E+002
 20
1.125200E+002
 30
0.000000E+000
 11
1.322070E+002
 21
1.110200E+002
 31
0.000000E+000
  0
LINE
  8
PV
 62
     7
 10
1.286820E+002
 20
1.160200E+002
 30
0.000000E+000
 11
1.356820E+002
 21
1.160200E+002
 31
0.000000E+000
  0
CIRCLE
  8
PV
 62
     7
 10
1.321820E+002
 20
1.125200E+002
 30
0.000000E+000
 40
2.800000E+000
  0
ARC
  8
PV
 62
     7
 10
1.320360E+002
 20
1.190200E+002
 30
0.000000E+000
 40
1.000000E+001
 50
2.329070E+002
 51
2.700000E+002
  0
LINE
  8
PV
 62
     7
 10
1.356820E+002
 20
1.160200E+002
 30
0.000000E+000
 11
1.356820E+002
 21
1.090200E+002
 31
0.000000E+000
  0
LINE
  8
PV
 62
     7
 10
1.379320E+002
 20
1.420200E+002
 30
0.000000E+000
 11
1.379320E+002
 21
1.155200E+002
 31
0.000000E+000
  0
LINE
  8
PV
 62
     7
 10
9.393150E+001
 20
1.405200E+002
 30
0.000000E+000
 11
9.343150E+001
 21
1.405200E+002
 31
0.000000E+000
  0
LINE
  8
PV
 62
     7
 10
9.393150E+001
 20
1.435200E+002
 30
0.000000E+000
 11
1.081820E+002
 21
1.435200E+002
 31
0.000000E+000
  0
LINE
  8
PV
 62
     7
 10
9.393150E+001
 20
1.315200E+002
 30
0.000000E+000
 11
9.343150E+001
 21
1.315200E+002
 31
0.000000E+000
  0
LINE
  8
PV
 62
     7
 10
9.393150E+001
 20
1.285200E+002
 30
0.000000E+000
 11
1.081820E+002
 21
1.285200E+002
 31
0.000000E+000
  0
LINE
  8
PV
 62
     7
 10
9.393150E+001
 20
1.435200E+002
 30
0.000000E+000
 11
9.393150E+001
 21
1.285200E+002
 31
0.000000E+000
  0
LINE
  8
PV
 62
     7
 10
9.343150E+001
 20
1.427700E+002
 30
0.000000E+000
 11
9.343150E+001
 21
1.292700E+002
 31
0.000000E+000
  0
ARC
  8
PV
 62
     7
 10
1.231820E+002
 20
1.200200E+002
 30
0.000000E+000
 40
6.500000E+000
 50
2.000010E+002
 51
2.658130E+002
  0
LINE
  8
PV
 62
     7
 10
1.170740E+002
 20
1.177970E+002
 30
0.000000E+000
 11
1.227070E+002
 21
1.135370E+002
 31
0.000000E+000
  0
LINE
  8
PV
 62
     7
 10
1.170740E+002
 20
1.177970E+002
 30
0.000000E+000
 11
1.081820E+002
 21
1.245200E+002
 31
0.000000E+000
  0
LINE
  8
PV
 62
     7
 10
1.260050E+002
 20
1.110440E+002
 30
0.000000E+000
 11
1.227070E+002
 21
1.135370E+002
 31
0.000000E+000
  0
LINE
  8
PV
 62
     7
 10
1.286820E+002
 20
1.624410E+002
 30
0.000000E+000
 11
1.286820E+002
 21
1.096000E+002
 31
0.000000E+000
  0
LINE
  8
PV
 62
     7
 10
1.081820E+002
 20
1.475200E+002
 30
0.000000E+000
 11
1.081820E+002
 21
1.245200E+002
 31
0.000000E+000
  0
LINE
  8
PV
 62
     7
 10
1.379320E+002
 20
1.565200E+002
 30
0.000000E+000
 11
1.379320E+002
 21
1.435200E+002
 31
0.000000E+000
  0
LINE
  8
PV
 62
     7
 10
4.874460E+001
 20
1.620200E+002
 30
0.000000E+000
 11
5.074460E+001
 21
1.620200E+002
 31
0.000000E+000
  0
LINE
  8
PV
 62
     7
 10
4.474460E+001
 20
1.635200E+002
 30
0.000000E+000
 11
4.874460E+001
 21
1.635200E+002
 31
0.000000E+000
  0
ARC
  8
PV
 62
     7
 10
5.074460E+001
 20
1.590200E+002
 30
0.000000E+000
 40
3.000000E+000
 50
0.000000E+000
 51
9.000000E+001
  0
LINE
  8
PV
 62
     7
 10
5.074460E+001
 20
1.550200E+002
 30
0.000000E+000
 11
5.374460E+001
 21
1.550200E+002
 31
0.000000E+000
  0
LINE
  8
PV
 62
     7
 10
5.074460E+001
 20
1.620200E+002
 30
0.000000E+000
 11
5.074460E+001
 21
1.550200E+002
 31
0.000000E+000
  0
LINE
  8
PV
 62
     3
 10
4.177960E+001
 20
1.450670E+002
 30
0.000000E+000
 11
4.291140E+001
 21
1.466340E+002
 31
0.000000E+000
  0
ARC
  8
PV
 62
     3
 10
3.495650E+001
 20
1.392270E+002
 30
0.000000E+000
 40
1.086960E+001
 50
4.295860E+001
 51
1.254680E+002
  0
ARC
  8
PV
 62
     3
 10
3.325140E+001
 20
1.380160E+002
 30
0.000000E+000
 40
1.106570E+001
 50
3.958450E+001
 51
1.145750E+002
  0
TEXT
  8
PV
 62
     3
 10
3.930080E+001
 20
1.584773E+002
 30
0.000000E+000
 40
2.500000E+000
  1
FOG
 50
2.700000E+002
  7
FONT1
  0
LINE
  8
PV
 62
     7
 10
9.193150E+001
 20
1.427700E+002
 30
0.000000E+000
 11
9.193150E+001
 21
1.292700E+002
 31
0.000000E+000
  0
LINE
  8
PV
 62
     3
 10
4.249220E+001
 20
1.281910E+002
 30
0.000000E+000
 11
4.291140E+001
 21
1.277380E+002
 31
0.000000E+000
  0
LINE
  8
PV
 62
     3
 10
3.119350E+001
 20
1.256610E+002
 30
0.000000E+000
 11
3.119350E+001
 21
1.247920E+002
 31
0.000000E+000
  0
LINE
  8
PV
 62
     3
 10
2.864950E+001
 20
1.239610E+002
 30
0.000000E+000
 11
3.119350E+001
 21
1.222610E+002
 31
0.000000E+000
  0
LINE
  8
PV
 62
     3
 10
2.864950E+001
 20
1.239610E+002
 30
0.000000E+000
 11
3.119350E+001
 21
1.256610E+002
 31
0.000000E+000
  0
LINE
  8
PV
 62
     3
 10
3.119350E+001
 20
1.231460E+002
 30
0.000000E+000
 11
3.119350E+001
 21
1.222610E+002
 31
0.000000E+000
  0
ARC
  8
PV
 62
     3
 10
3.364100E+001
 20
1.371330E+002
 30
0.000000E+000
 40
1.258180E+001
 50
2.587830E+002
 51
3.147080E+002
  0
ARC
  8
PV
 62
     3
 10
3.377360E+001
 20
1.338080E+002
 30
0.000000E+000
 40
1.096970E+001
 50
2.563960E+002
 51
3.264080E+002
  0
LINE
  8
PV
 62
     7
 10
4.874460E+001
 20
1.100200E+002
 30
0.000000E+000
 11
5.074460E+001
 21
1.100200E+002
 31
0.000000E+000
  0
LINE
  8
PV
 62
     7
 10
5.074460E+001
 20
1.170200E+002
 30
0.000000E+000
 11
5.074460E+001
 21
1.100200E+002
 31
0.000000E+000
  0
LINE
  8
PV
 62
     7
 10
5.074460E+001
 20
1.170200E+002
 30
0.000000E+000
 11
5.374460E+001
 21
1.170200E+002
 31
0.000000E+000
  0
ARC
  8
PV
 62
     7
 10
5.074460E+001
 20
1.130200E+002
 30
0.000000E+000
 40
3.000000E+000
 50
2.700000E+002
 51
0.000000E+000
  0
LINE
  8
PV
 62
     7
 10
4.474460E+001
 20
1.085200E+002
 30
0.000000E+000
 11
4.874460E+001
 21
1.085200E+002
 31
0.000000E+000
  0
LINE
  8
PV
 62
     7
 10
5.374460E+001
 20
1.590200E+002
 30
0.000000E+000
 11
5.374460E+001
 21
1.130200E+002
 31
0.000000E+000
  0
LINE
  8
PV
 62
     7
 10
4.874460E+001
 20
1.635200E+002
 30
0.000000E+000
 11
4.874460E+001
 21
1.085200E+002
 31
0.000000E+000
  0
LINE
  8
PV
 62
     7
 10
4.474460E+001
 20
1.635200E+002
 30
0.000000E+000
 11
4.474460E+001
 21
1.085200E+002
 31
0.000000E+000
  0
LINE
  8
PV
 62
     7
 10
9.193150E+001
 20
1.292700E+002
 30
0.000000E+000
 11
9.343150E+001
 21
1.292700E+002
 31
0.000000E+000
  0
LINE
  8
PV
 62
     7
 10
9.343150E+001
 20
1.427700E+002
 30
0.000000E+000
 11
9.193150E+001
 21
1.427700E+002
 31
0.000000E+000
  0
LINE
  8
PV
 62
     7
 10
9.343150E+001
 20
1.292700E+002
 30
0.000000E+000
 11
9.193150E+001
 21
1.292700E+002
 31
0.000000E+000
  0
LINE
  8
PV
 62
     7
 10
2.574460E+001
 20
1.450200E+002
 30
0.000000E+000
 11
2.074460E+001
 21
1.450200E+002
 31
0.000000E+000
  0
LINE
  8
PV
 62
     7
 10
2.074460E+001
 20
1.610200E+002
 30
0.000000E+000
 11
2.074460E+001
 21
1.450200E+002
 31
0.000000E+000
  0
LINE
  8
PV
 62
     7
 10
2.074460E+001
 20
1.580200E+002
 30
0.000000E+000
 11
5.744620E+000
 21
1.580200E+002
 31
0.000000E+000
  0
LINE
  8
PV
 62
     7
 10
2.074460E+001
 20
1.525200E+002
 30
0.000000E+000
 11
5.744620E+000
 21
1.525200E+002
 31
0.000000E+000
  0
LINE
  8
PV
 62
     7
 10
2.074460E+001
 20
1.470200E+002
 30
0.000000E+000
 11
5.744620E+000
 21
1.470200E+002
 31
0.000000E+000
  0
CIRCLE
  8
PV
 62
     7
 10
1.574460E+001
 20
1.360200E+002
 30
0.000000E+000
 40
4.000000E+000
  0
LINE
  8
PV
 62
     7
 10
2.574460E+001
 20
1.250200E+002
 30
0.000000E+000
 11
5.744620E+000
 21
1.250200E+002
 31
0.000000E+000
  0
CIRCLE
  8
PV
 62
     7
 10
1.574460E+001
 20
1.360200E+002
 30
0.000000E+000
 40
6.750000E+000
  0
CIRCLE
  8
PV
 62
     7
 10
1.574460E+001
 20
1.360200E+002
 30
0.000000E+000
 40
7.500000E+000
  0
ARC
  8
PV
 62
     7
 10
1.974460E+001
 20
1.167700E+002
 30
0.000000E+000
 40
2.750000E+000
 50
2.700000E+002
 51
9.000000E+001
  0
LINE
  8
PV
 62
     7
 10
1.974460E+001
 20
1.195200E+002
 30
0.000000E+000
 11
1.974460E+001
 21
1.140200E+002
 31
0.000000E+000
  0
LINE
  8
PV
 62
     7
 10
1.974460E+001
 20
1.140200E+002
 30
0.000000E+000
 11
5.744620E+000
 21
1.140200E+002
 31
0.000000E+000
  0
LINE
  8
PV
 62
     7
 10
1.974460E+001
 20
1.195200E+002
 30
0.000000E+000
 11
5.744620E+000
 21
1.195200E+002
 31
0.000000E+000
  0
LINE
  8
PV
 62
     7
 10
5.744620E+000
 20
1.610200E+002
 30
0.000000E+000
 11
5.744620E+000
 21
1.110200E+002
 31
0.000000E+000
  0
LINE
  8
PV
 62
     7
 10
2.574460E+001
 20
1.450200E+002
 30
0.000000E+000
 11
2.574460E+001
 21
1.110200E+002
 31
0.000000E+000
  0
LINE
  8
PV
 62
     7
 10
5.744620E+000
 20
1.610200E+002
 30
0.000000E+000
 11
4.474460E+001
 21
1.610200E+002
 31
0.000000E+000
  0
LINE
  8
PV
 62
     7
 10
5.744620E+000
 20
1.110200E+002
 30
0.000000E+000
 11
4.474460E+001
 21
1.110200E+002
 31
0.000000E+000
  0
CIRCLE
  8
PV
 62
     7
 10
3.524460E+001
 20
1.360200E+002
 30
0.000000E+000
 40
9.000000E+000
  0
CIRCLE
  8
PV
 62
     7
 10
3.524460E+001
 20
1.360200E+002
 30
0.000000E+000
 40
9.500000E+000
  0
TEXT
  8
PV
 62
     3
 10
2.539990E+001
 20
1.519731E+002
 30
0.000000E+000
 40
2.000000E+000
  1
MIN.
 50
2.700000E+002
 41
7.501650E-001
  7
FONT1
  0
TEXT
  8
PV
 62
     3
 10
2.612200E+001
 20
1.268607E+002
 30
0.000000E+000
 40
2.000000E+000
  1
MAX.
 50
2.700000E+002
 41
8.335000E-001
  7
FONT1
  0
LINE
  8
PV
 62
     7
 10
1.356820E+002
 20
4.967130E+001
 30
0.000000E+000
 11
1.356820E+002
 21
4.667130E+001
 31
0.000000E+000
  0
ARC
  8
PV
 62
     7
 10
1.316820E+002
 20
4.667130E+001
 30
0.000000E+000
 40
3.000000E+000
 50
9.000000E+001
 51
1.800000E+002
  0
LINE
  8
PV
 62
     7
 10
1.286820E+002
 20
4.667130E+001
 30
0.000000E+000
 11
1.286820E+002
 21
4.067130E+001
 31
0.000000E+000
  0
LINE
  8
PV
 62
     7
 10
1.286820E+002
 20
4.667130E+001
 30
0.000000E+000
 11
1.356820E+002
 21
4.667130E+001
 31
0.000000E+000
  0
LINE
  8
PV
 62
     7
 10
1.170740E+002
 20
1.667130E+001
 30
0.000000E+000
 11
1.227070E+002
 21
1.667130E+001
 31
0.000000E+000
  0
ARC
  8
PV
 62
     7
 10
1.198900E+002
 20
1.667130E+001
 30
0.000000E+000
 40
2.816700E+000
 50
0.000000E+000
 51
1.800000E+002
  0
LINE
  8
PV
 62
     7
 10
9.393150E+001
 20
1.917130E+001
 30
0.000000E+000
 11
1.081820E+002
 21
1.917130E+001
 31
0.000000E+000
  0
LINE
  8
PV
 62
     7
 10
9.393150E+001
 20
1.617130E+001
 30
0.000000E+000
 11
9.343150E+001
 21
1.617130E+001
 31
0.000000E+000
  0
LINE
  8
PV
 62
     7
 10
9.393150E+001
 20
7.171330E+000
 30
0.000000E+000
 11
9.343150E+001
 21
7.171330E+000
 31
0.000000E+000
  0
LINE
  8
PV
 62
     7
 10
9.343150E+001
 20
1.842130E+001
 30
0.000000E+000
 11
9.343150E+001
 21
4.921330E+000
 31
0.000000E+000
  0
LINE
  8
PV
 62
     7
 10
1.081820E+002
 20
2.167130E+001
 30
0.000000E+000
 11
1.306820E+002
 21
2.167130E+001
 31
0.000000E+000
  0
LINE
  8
PV
 62
     7
 10
9.193150E+001
 20
1.842130E+001
 30
0.000000E+000
 11
9.193150E+001
 21
4.921330E+000
 31
0.000000E+000
  0
LINE
  8
PV
 62
     7
 10
9.193150E+001
 20
4.921330E+000
 30
0.000000E+000
 11
9.343150E+001
 21
4.921330E+000
 31
0.000000E+000
  0
LINE
  8
PV
 62
     7
 10
9.343150E+001
 20
4.921330E+000
 30
0.000000E+000
 11
9.193150E+001
 21
4.921330E+000
 31
0.000000E+000
  0
LINE
  8
PV
 62
     7
 10
9.343150E+001
 20
1.842130E+001
 30
0.000000E+000
 11
9.193150E+001
 21
1.842130E+001
 31
0.000000E+000
  0
LINE
  8
PV
  6
CENTER
 62
     1
 10
9.893150E+001
 20
1.167130E+001
 30
0.000000E+000
 11
8.693150E+001
 21
1.167130E+001
 31
0.000000E+000
  0
LINE
  8
PV
 62
     7
 10
9.393150E+001
 20
4.171330E+000
 30
0.000000E+000
 11
1.081820E+002
 21
4.171330E+000
 31
0.000000E+000
  0
LINE
  8
PV
 62
     7
 10
1.081820E+002
 20
2.167130E+001
 30
0.000000E+000
 11
1.081820E+002
 21
1.671330E+000
 31
0.000000E+000
  0
LINE
  8
PV
 62
     7
 10
9.393150E+001
 20
1.917130E+001
 30
0.000000E+000
 11
9.393150E+001
 21
4.171330E+000
 31
0.000000E+000
  0
LINE
  8
PV
 62
     7
 10
1.170740E+002
 20
1.667130E+001
 30
0.000000E+000
 11
1.170740E+002
 21
1.671330E+000
 31
0.000000E+000
  0
LINE
  8
PV
 62
     7
 10
1.227070E+002
 20
1.667130E+001
 30
0.000000E+000
 11
1.227070E+002
 21
1.671330E+000
 31
0.000000E+000
  0
LINE
  8
PV
 62
     7
 10
1.306820E+002
 20
4.067130E+001
 30
0.000000E+000
 11
1.306820E+002
 21
1.671330E+000
 31
0.000000E+000
  0
LINE
  8
PV
  6
CENTER
 62
     1
 10
8.893150E+001
 20
1.360200E+002
 30
0.000000E+000
 11
2.434320E+002
 21
1.360200E+002
 31
0.000000E+000
  0
LINE
  8
PV
 62
     7
 10
1.320360E+002
 20
1.630200E+002
 30
0.000000E+000
 11
2.003270E+002
 21
1.630200E+002
 31
0.000000E+000
  0
LINE
  8
PV
 62
     7
 10
1.320360E+002
 20
1.090200E+002
 30
0.000000E+000
 11
2.003270E+002
 21
1.090200E+002
 31
0.000000E+000
  0
LINE
  8
PV
 62
     7
 10
1.379320E+002
 20
1.155200E+002
 30
0.000000E+000
 11
1.944320E+002
 21
1.155200E+002
 31
0.000000E+000
  0
LINE
  8
PV
 62
     7
 10
1.379320E+002
 20
1.565200E+002
 30
0.000000E+000
 11
1.944320E+002
 21
1.565200E+002
 31
0.000000E+000
  0
LINE
  8
PV
 62
     7
 10
1.379320E+002
 20
1.435200E+002
 30
0.000000E+000
 11
1.944320E+002
 21
1.435200E+002
 31
0.000000E+000
  0
LINE
  8
PV
 62
     7
 10
1.379320E+002
 20
1.420200E+002
 30
0.000000E+000
 11
1.944320E+002
 21
1.420200E+002
 31
0.000000E+000
  0
LINE
  8
PV
 62
     7
 10
1.081820E+002
 20
1.671330E+000
 30
0.000000E+000
 11
2.241820E+002
 21
1.671330E+000
 31
0.000000E+000
  0
LINE
  8
PV
 62
     7
 10
1.316820E+002
 20
4.967130E+001
 30
0.000000E+000
 11
2.006820E+002
 21
4.967130E+001
 31
0.000000E+000
  0
LINE
  8
PV
 62
     7
 10
1.286820E+002
 20
4.067130E+001
 30
0.000000E+000
 11
2.036820E+002
 21
4.067130E+001
 31
0.000000E+000
  0
ENDSEC
  0
EOF
