  0
SECTION
  2
HEADER
  9
$ACADVER
  1
AC1006
  9
$INSBASE
 10
0.0
 20
0.0
 30
0.0
  9
$EXTMIN
 10
0.0
 20
0.0
  9
$EXTMAX
 10
420.0
 20
297.0
  9
$LIMMIN
 10
0.0
 20
0.0
  9
$LIMMAX
 10
420.0
 20
297.0
  9
$ORTHOMODE
 70
     0
  9
$REGENMODE
 70
     1
  9
$FILLMODE
 70
     1
  9
$QTEXTMODE
 70
     0
  9
$MIRRTEXT
 70
     1
  9
$DRAGMODE
 70
     2
  9
$LTSCALE
 40
1.0
  9
$OSMODE
 70
     0
  9
$ATTMODE
 70
     1
  9
$TEXTSIZE
 40
4.5
  9
$TRACEWID
 40
0.05
  9
$TEXTSTYLE
  7
STANDARD
  9
$CLAYER
  8
L-ZISSEN
  9
$CELTYPE
  6
BYLAYER
  9
$CECOLOR
 62
   256
  9
$DIMSCALE
 40
1.0
  9
$DIMASZ
 40
2.0
  9
$DIMEXO
 40
1.0
  9
$DIMDLI
 40
0.38
  9
$DIMRND
 40
0.0
  9
$DIMDLE
 40
1.0
  9
$DIMEXE
 40
1.0
  9
$DIMTP
 40
0.0
  9
$DIMTM
 40
0.0
  9
$DIMTXT
 40
4.5
  9
$DIMCEN
 40
0.09
  9
$DIMTSZ
 40
0.0
  9
$DIMTOL
 70
     0
  9
$DIMLIM
 70
     0
  9
$DIMTIH
 70
     0
  9
$DIMTOH
 70
     0
  9
$DIMSE1
 70
     0
  9
$DIMSE2
 70
     0
  9
$DIMTAD
 70
     1
  9
$DIMZIN
 70
     0
  9
$DIMBLK
  1

  9
$DIMASO
 70
     0
  9
$DIMSHO
 70
     0
  9
$DIMPOST
  1

  9
$DIMAPOST
  1

  9
$DIMALT
 70
     0
  9
$DIMALTD
 70
     2
  9
$DIMALTF
 40
25.4
  9
$DIMLFAC
 40
1.0
  9
$DIMTOFL
 70
     1
  9
$DIMTVP
 40
0.0
  9
$DIMTIX
 70
     0
  9
$DIMSOXD
 70
     0
  9
$DIMSAH
 70
     0
  9
$DIMBLK1
  1

  9
$DIMBLK2
  1

  9
$LUNITS
 70
     2
  9
$LUPREC
 70
     4
  9
$AXISMODE
 70
     0
  9
$AXISUNIT
 10
0.0
 20
0.0
  9
$SKETCHINC
 40
0.1
  9
$FILLETRAD
 40
0.0
  9
$AUNITS
 70
     0
  9
$AUPREC
 70
     0
  9
$MENU
  1
acad
  9
$ELEVATION
 40
0.0
  9
$THICKNESS
 40
0.0
  9
$LIMCHECK
 70
     0
  9
$BLIPMODE
 70
     1
  9
$CHAMFERA
 40
0.0
  9
$CHAMFERB
 40
0.0
  9
$SKPOLY
 70
     0
  9
$TDCREATE
 40
2449000.9594211807
  9
$TDUPDATE
 40
2449000.9594211807
  9
$TDINDWG
 40
0.0000000000
  9
$TDUSRTIMER
 40
0.0000000000
  9
$USRTIMER
 70
     1
  9
$ANGBASE
 50
0.0
  9
$ANGDIR
 70
     0
  9
$PDMODE
 70
     0
  9
$PDSIZE
 40
0.0
  9
$PLINEWID
 40
0.0
  9
$COORDS
 70
     2
  9
$SPLFRAME
 70
     0
  9
$SPLINETYPE
 70
     6
  9
$SPLINESEGS
 70
     8
  9
$ATTDIA
 70
     0
  9
$ATTREQ
 70
     1
  9
$HANDLING
 70
     0
  9
$HANDSEED
  5
0
  9
$SURFTAB1
 70
     6
  9
$SURFTAB2
 70
     6
  9
$SURFTYPE
 70
     6
  9
$SURFU
 70
     6
  9
$SURFV
 70
     6
  9
$FLATLAND
 70
     0
  9
$UCSNAME
  2

  9
$UCSORG
 10
0.0
 20
0.0
 30
0.0
  9
$UCSXDIR
 10
1.0
 20
0.0
 30
0.0
  9
$UCSYDIR
 10
0.0
 20
1.0
 30
0.0
  9
$USERI1
 70
     0
  9
$USERI2
 70
     0
  9
$USERI3
 70
     0
  9
$USERI4
 70
     0
  9
$USERI5
 70
     0
  9
$USERR1
 40
0.0
  9
$USERR2
 40
0.0
  9
$USERR3
 40
0.0
  9
$USERR4
 40
0.0
  9
$USERR5
 40
0.0
  9
$WORLDVIEW
 70
     1
  0
ENDSEC
  0
SECTION
  2
TABLES
  0
TABLE
  2
VPORT
 70
     2
  0
VPORT
  2
*ACTIVE
 70
     0
 10
0.0
 20
0.0
 11
1.0
 21
1.0
 12
238.227989
 22
153.824519
 13
0.0
 23
0.0
 14
5.0
 24
5.0
 15
0.0
 25
0.0
 16
0.0
 26
0.0
 36
1.0
 17
0.0
 27
0.0
 37
0.0
 40
307.649038
 41
1.5487
 42
50.0
 43
0.0
 44
0.0
 50
0.0
 51
0.0
 71
     0
 72
   100
 73
     1
 74
     0
 75
     0
 76
     0
 77
     0
 78
     0
  0
ENDTAB
  0
TABLE
  2
LTYPE
 70
     2
  0
LTYPE
  2
CONTINUOUS
 70
    64
  3
Solid line
 72
    65
 73
     0
 40
0.0
  0
LTYPE
  2
CENTER
 70
    64
  3
____ _ ____ _ ____ _ ____ _ 
 72
    65
 73
     4
 40
60.0
 49
45.0
 49
-5.0
 49
5.0
 49
-5.0
  0
ENDTAB
  0
TABLE
  2
LAYER
 70
     3
  0
LAYER
  2
0
 70
     0
 62
     7
  6
CONTINUOUS
  0
LAYER
  2
L-ZISSEN
 70
    64
 62
     7
  6
CONTINUOUS
  0
LAYER
  2
L-TYUSIN
 70
    64
 62
     1
  6
CENTER
  0
ENDTAB
  0
TABLE
  2
STYLE
 70
     1
  0
STYLE
  2
STANDARD
 70
    64
 40
0.0
 41
1.0
 50
0.0
 71
     0
 42
4.5
  3
TXT
  4

  0
ENDTAB
  0
TABLE
  2
VIEW
 70
     0
  0
ENDTAB
  0
TABLE
  2
UCS
 70
     0
  0
ENDTAB
  0
TABLE
  2
DWGMGR
 70
     0
  0
ENDTAB
  0
ENDSEC
  0
SECTION
  2
BLOCKS
  0
ENDSEC
  0
SECTION
  2
ENTITIES
  0
LINE
  8
L-TYUSIN
 10
165.0
 20
100.0
 30
0.0
 11
316.0
 21
100.0
 31
0.0
  0
LINE
  8
L-TYUSIN
 10
346.0
 20
100.0
 30
0.0
 11
414.0
 21
100.0
 31
0.0
  0
LINE
  8
L-TYUSIN
 10
380.0
 20
130.0
 30
0.0
 11
380.0
 21
70.0
 31
0.0
  0
LINE
  8
L-ZISSEN
 10
170.0
 20
125.4
 30
0.0
 11
170.0
 21
74.6
 31
0.0
  0
LINE
  8
L-ZISSEN
 10
266.0
 20
127.0
 30
0.0
 11
266.0
 21
73.0
 31
0.0
  0
LINE
  8
L-ZISSEN
 10
170.0
 20
125.4
 30
0.0
 11
266.0
 21
125.4
 31
0.0
  0
LINE
  8
L-ZISSEN
 10
170.0
 20
74.6
 30
0.0
 11
266.0
 21
74.6
 31
0.0
  0
LINE
  8
L-ZISSEN
 10
311.0
 20
112.922688
 30
0.0
 11
311.0
 21
87.077312
 31
0.0
  0
LINE
  8
L-ZISSEN
 10
364.411543
 20
127.0
 30
0.0
 11
348.823085
 21
100.0
 31
0.0
  0
LINE
  8
L-ZISSEN
 10
348.823085
 20
100.0
 30
0.0
 11
364.411543
 21
73.0
 31
0.0
  0
LINE
  8
L-ZISSEN
 10
364.411543
 20
73.0
 30
0.0
 11
395.588457
 21
73.0
 31
0.0
  0
LINE
  8
L-ZISSEN
 10
395.588457
 20
73.0
 30
0.0
 11
411.176915
 21
100.0
 31
0.0
  0
LINE
  8
L-ZISSEN
 10
411.176915
 20
100.0
 30
0.0
 11
395.588457
 21
127.0
 31
0.0
  0
LINE
  8
L-ZISSEN
 10
395.588457
 20
127.0
 30
0.0
 11
364.411543
 21
127.0
 31
0.0
  0
LINE
  8
L-ZISSEN
 10
275.0
 20
127.0
 30
0.0
 11
266.0
 21
127.0
 31
0.0
  0
LINE
  8
L-ZISSEN
 10
275.0
 20
73.0
 30
0.0
 11
266.0
 21
73.0
 31
0.0
  0
LINE
  8
L-ZISSEN
 10
275.0
 20
127.0
 30
0.0
 11
275.0
 21
73.0
 31
0.0
  0
LINE
  8
L-ZISSEN
 10
293.0
 20
116.0
 30
0.0
 11
293.0
 21
84.0
 31
0.0
  0
LINE
  8
L-ZISSEN
 10
370.762396
 20
116.0
 30
0.0
 11
361.524791
 21
100.0
 31
0.0
  0
LINE
  8
L-ZISSEN
 10
361.524791
 20
100.0
 30
0.0
 11
370.762396
 21
84.0
 31
0.0
  0
LINE
  8
L-ZISSEN
 10
370.762396
 20
84.0
 30
0.0
 11
389.237604
 21
84.0
 31
0.0
  0
LINE
  8
L-ZISSEN
 10
389.237604
 20
84.0
 30
0.0
 11
398.475209
 21
100.0
 31
0.0
  0
LINE
  8
L-ZISSEN
 10
398.475209
 20
100.0
 30
0.0
 11
389.237604
 21
116.0
 31
0.0
  0
LINE
  8
L-ZISSEN
 10
389.237604
 20
116.0
 30
0.0
 11
370.762396
 21
116.0
 31
0.0
  0
LINE
  8
L-ZISSEN
 10
293.0
 20
116.0
 30
0.0
 11
282.0
 21
116.0
 31
0.0
  0
LINE
  8
L-ZISSEN
 10
282.0
 20
116.0
 30
0.0
 11
282.0
 21
84.0
 31
0.0
  0
LINE
  8
L-ZISSEN
 10
282.0
 20
84.0
 30
0.0
 11
293.0
 21
84.0
 31
0.0
  0
LINE
  8
L-ZISSEN
 10
293.0
 20
113.485187
 30
0.0
 11
311.0
 21
112.922688
 31
0.0
  0
LINE
  8
L-ZISSEN
 10
293.0
 20
86.514813
 30
0.0
 11
311.0
 21
87.077312
 31
0.0
  0
LINE
  8
L-ZISSEN
 10
282.0
 20
113.485187
 30
0.0
 11
275.0
 21
113.266437
 31
0.0
  0
LINE
  8
L-ZISSEN
 10
282.0
 20
86.514813
 30
0.0
 11
275.0
 21
86.733563
 31
0.0
  0
CIRCLE
  8
L-ZISSEN
 10
380.0
 20
100.0
 30
0.0
 40
13.2205
  0
LINE
  8
L-ZISSEN
 10
282.0
 20
166.514813
 30
0.0
 11
275.0
 21
166.733563
 31
0.0
  0
LINE
  8
L-ZISSEN
 10
282.0
 20
193.485187
 30
0.0
 11
275.0
 21
193.266437
 31
0.0
  0
LINE
  8
L-ZISSEN
 10
293.0
 20
166.514813
 30
0.0
 11
311.0
 21
167.077312
 31
0.0
  0
LINE
  8
L-ZISSEN
 10
293.0
 20
193.485187
 30
0.0
 11
311.0
 21
192.922688
 31
0.0
  0
LINE
  8
L-ZISSEN
 10
282.0
 20
198.475209
 30
0.0
 11
282.0
 21
161.524791
 31
0.0
  0
LINE
  8
L-ZISSEN
 10
293.0
 20
198.475209
 30
0.0
 11
293.0
 21
161.524791
 31
0.0
  0
LINE
  8
L-ZISSEN
 10
275.0
 20
211.176915
 30
0.0
 11
275.0
 21
148.823085
 31
0.0
  0
LINE
  8
L-ZISSEN
 10
311.0
 20
192.922688
 30
0.0
 11
311.0
 21
167.077312
 31
0.0
  0
LINE
  8
L-ZISSEN
 10
170.0
 20
154.6
 30
0.0
 11
266.0
 21
154.6
 31
0.0
  0
LINE
  8
L-ZISSEN
 10
170.0
 20
205.4
 30
0.0
 11
266.0
 21
205.4
 31
0.0
  0
LINE
  8
L-ZISSEN
 10
266.0
 20
211.176915
 30
0.0
 11
266.0
 21
148.823085
 31
0.0
  0
LINE
  8
L-ZISSEN
 10
170.0
 20
205.4
 30
0.0
 11
170.0
 21
154.6
 31
0.0
  0
LINE
  8
L-TYUSIN
 10
165.0
 20
180.0
 30
0.0
 11
316.0
 21
180.0
 31
0.0
  0
LINE
  8
L-ZISSEN
 10
275.0
 20
211.176915
 30
0.0
 11
266.0
 21
211.176915
 31
0.0
  0
LINE
  8
L-ZISSEN
 10
293.0
 20
198.475209
 30
0.0
 11
282.0
 21
198.475209
 31
0.0
  0
LINE
  8
L-ZISSEN
 10
293.0
 20
161.524791
 30
0.0
 11
282.0
 21
161.524791
 31
0.0
  0
LINE
  8
L-ZISSEN
 10
275.0
 20
148.823085
 30
0.0
 11
266.0
 21
148.823085
 31
0.0
  0
LINE
  8
L-ZISSEN
 10
120.588457
 20
127.0
 30
0.0
 11
89.411543
 21
127.0
 31
0.0
  0
LINE
  8
L-ZISSEN
 10
136.176915
 20
100.0
 30
0.0
 11
120.588457
 21
127.0
 31
0.0
  0
LINE
  8
L-ZISSEN
 10
120.588457
 20
73.0
 30
0.0
 11
136.176915
 21
100.0
 31
0.0
  0
LINE
  8
L-ZISSEN
 10
89.411543
 20
73.0
 30
0.0
 11
120.588457
 21
73.0
 31
0.0
  0
LINE
  8
L-ZISSEN
 10
73.823085
 20
100.0
 30
0.0
 11
89.411543
 21
73.0
 31
0.0
  0
LINE
  8
L-ZISSEN
 10
89.411543
 20
127.0
 30
0.0
 11
73.823085
 21
100.0
 31
0.0
  0
LINE
  8
L-TYUSIN
 10
105.0
 20
130.0
 30
0.0
 11
105.0
 21
70.0
 31
0.0
  0
LINE
  8
L-TYUSIN
 10
71.0
 20
100.0
 30
0.0
 11
139.0
 21
100.0
 31
0.0
  0
CIRCLE
  8
L-ZISSEN
 10
105.0
 20
100.0
 30
0.0
 40
25.4
  0
LINE
  8
L-TYUSIN
 10
300.0
 20
210.0
 30
0.0
 11
300.0
 21
150.0
 31
0.0
  0
LINE
  8
L-TYUSIN
 10
300.0
 20
130.0
 30
0.0
 11
300.0
 21
70.0
 31
0.0
  0
TEXT
  8
L-ZISSEN
 10
65.0
 20
225.0
 30
0.0
 40
4.5
  1
MODEL No. : MFF-306
  0
SOLID
  8
L-ZISSEN
 10
306.487344
 20
114.423494
 30
0.0
 11
305.978419
 21
114.854121
 31
0.0
 12
304.941001
 22
113.112031
 32
0.0
 13
304.941001
 23
113.112031
 33
0.0
  0
LINE
  8
L-ZISSEN
 10
306.232882
 20
114.638807
 30
0.0
 11
315.0
 21
125.0
 31
0.0
  0
LINE
  8
L-ZISSEN
 10
315.0
 20
125.0
 30
0.0
 11
317.0
 21
125.0
 31
0.0
  0
TEXT
  8
L-ZISSEN
 10
319.0
 20
122.75
 30
0.0
 40
4.5
  1
R 3/4
  0
ENDSEC
  0
EOF
