  0
SECTION
  2
HEADER
  9
$ACADVER
  1
AC1006
  9
$INSBASE
 10
0.0
 20
0.0
 30
0.0
  9
$EXTMIN
 10
30.0
 20
43.869863
  9
$EXTMAX
 10
268.5
 20
179.5
  9
$LIMMIN
 10
0.0
 20
0.0
  9
$LIMMAX
 10
297.0
 20
210.0
  9
$ORTHOMODE
 70
     0
  9
$REGENMODE
 70
     1
  9
$FILLMODE
 70
     1
  9
$QTEXTMODE
 70
     0
  9
$MIRRTEXT
 70
     1
  9
$DRAGMODE
 70
     2
  9
$LTSCALE
 40
1.0
  9
$OSMODE
 70
     0
  9
$ATTMODE
 70
     1
  9
$TEXTSIZE
 40
4.5
  9
$TRACEWID
 40
0.05
  9
$TEXTSTYLE
  7
STANDARD
  9
$CLAYER
  8
L-ZISSEN
  9
$CELTYPE
  6
BYLAYER
  9
$CECOLOR
 62
   256
  9
$DIMSCALE
 40
1.0
  9
$DIMASZ
 40
2.0
  9
$DIMEXO
 40
1.0
  9
$DIMDLI
 40
0.38
  9
$DIMRND
 40
0.0
  9
$DIMDLE
 40
1.0
  9
$DIMEXE
 40
1.0
  9
$DIMTP
 40
0.0
  9
$DIMTM
 40
0.0
  9
$DIMTXT
 40
4.5
  9
$DIMCEN
 40
0.09
  9
$DIMTSZ
 40
0.0
  9
$DIMTOL
 70
     0
  9
$DIMLIM
 70
     0
  9
$DIMTIH
 70
     0
  9
$DIMTOH
 70
     0
  9
$DIMSE1
 70
     0
  9
$DIMSE2
 70
     0
  9
$DIMTAD
 70
     1
  9
$DIMZIN
 70
     0
  9
$DIMBLK
  1

  9
$DIMASO
 70
     0
  9
$DIMSHO
 70
     0
  9
$DIMPOST
  1

  9
$DIMAPOST
  1

  9
$DIMALT
 70
     0
  9
$DIMALTD
 70
     2
  9
$DIMALTF
 40
25.4
  9
$DIMLFAC
 40
1.0
  9
$DIMTOFL
 70
     1
  9
$DIMTVP
 40
0.0
  9
$DIMTIX
 70
     0
  9
$DIMSOXD
 70
     0
  9
$DIMSAH
 70
     0
  9
$DIMBLK1
  1

  9
$DIMBLK2
  1

  9
$LUNITS
 70
     2
  9
$LUPREC
 70
     4
  9
$AXISMODE
 70
     0
  9
$AXISUNIT
 10
0.0
 20
0.0
  9
$SKETCHINC
 40
0.1
  9
$FILLETRAD
 40
0.0
  9
$AUNITS
 70
     0
  9
$AUPREC
 70
     0
  9
$MENU
  1
acad
  9
$ELEVATION
 40
0.0
  9
$THICKNESS
 40
0.0
  9
$LIMCHECK
 70
     0
  9
$BLIPMODE
 70
     1
  9
$CHAMFERA
 40
0.0
  9
$CHAMFERB
 40
0.0
  9
$SKPOLY
 70
     0
  9
$TDCREATE
 40
2449000.9568230323
  9
$TDUPDATE
 40
2449000.9568230323
  9
$TDINDWG
 40
0.0000000000
  9
$TDUSRTIMER
 40
0.0000000000
  9
$USRTIMER
 70
     1
  9
$ANGBASE
 50
0.0
  9
$ANGDIR
 70
     0
  9
$PDMODE
 70
     0
  9
$PDSIZE
 40
0.0
  9
$PLINEWID
 40
0.0
  9
$COORDS
 70
     2
  9
$SPLFRAME
 70
     0
  9
$SPLINETYPE
 70
     6
  9
$SPLINESEGS
 70
     8
  9
$ATTDIA
 70
     0
  9
$ATTREQ
 70
     1
  9
$HANDLING
 70
     0
  9
$HANDSEED
  5
0
  9
$SURFTAB1
 70
     6
  9
$SURFTAB2
 70
     6
  9
$SURFTYPE
 70
     6
  9
$SURFU
 70
     6
  9
$SURFV
 70
     6
  9
$FLATLAND
 70
     0
  9
$UCSNAME
  2

  9
$UCSORG
 10
0.0
 20
0.0
 30
0.0
  9
$UCSXDIR
 10
1.0
 20
0.0
 30
0.0
  9
$UCSYDIR
 10
0.0
 20
1.0
 30
0.0
  9
$USERI1
 70
     0
  9
$USERI2
 70
     0
  9
$USERI3
 70
     0
  9
$USERI4
 70
     0
  9
$USERI5
 70
     0
  9
$USERR1
 40
0.0
  9
$USERR2
 40
0.0
  9
$USERR3
 40
0.0
  9
$USERR4
 40
0.0
  9
$USERR5
 40
0.0
  9
$WORLDVIEW
 70
     1
  0
ENDSEC
  0
SECTION
  2
TABLES
  0
TABLE
  2
VPORT
 70
     2
  0
VPORT
  2
*ACTIVE
 70
     0
 10
0.0
 20
0.0
 11
1.0
 21
1.0
 12
168.444033
 22
108.764811
 13
0.0
 23
0.0
 14
5.0
 24
5.0
 15
0.0
 25
0.0
 16
0.0
 26
0.0
 36
1.0
 17
0.0
 27
0.0
 37
0.0
 40
217.529623
 41
1.5487
 42
50.0
 43
0.0
 44
0.0
 50
0.0
 51
0.0
 71
     0
 72
   100
 73
     1
 74
     0
 75
     0
 76
     0
 77
     0
 78
     0
  0
ENDTAB
  0
TABLE
  2
LTYPE
 70
     2
  0
LTYPE
  2
CONTINUOUS
 70
    64
  3
Solid line
 72
    65
 73
     0
 40
0.0
  0
LTYPE
  2
CENTER
 70
    64
  3
____ _ ____ _ ____ _ ____ _ 
 72
    65
 73
     4
 40
60.0
 49
45.0
 49
-5.0
 49
5.0
 49
-5.0
  0
ENDTAB
  0
TABLE
  2
LAYER
 70
     3
  0
LAYER
  2
0
 70
     0
 62
     7
  6
CONTINUOUS
  0
LAYER
  2
L-ZISSEN
 70
    64
 62
     7
  6
CONTINUOUS
  0
LAYER
  2
L-TYUSIN
 70
    64
 62
     1
  6
CENTER
  0
ENDTAB
  0
TABLE
  2
STYLE
 70
     1
  0
STYLE
  2
STANDARD
 70
    64
 40
0.0
 41
1.0
 50
0.0
 71
     0
 42
4.5
  3
TXT
  4

  0
ENDTAB
  0
TABLE
  2
VIEW
 70
     0
  0
ENDTAB
  0
TABLE
  2
UCS
 70
     0
  0
ENDTAB
  0
TABLE
  2
DWGMGR
 70
     0
  0
ENDTAB
  0
ENDSEC
  0
SECTION
  2
BLOCKS
  0
ENDSEC
  0
SECTION
  2
ENTITIES
  0
LINE
  8
L-TYUSIN
  6
CENTER
 62
     1
 10
155.0
 20
80.0
 30
0.0
 11
248.0
 21
80.0
 31
0.0
  0
LINE
  8
L-ZISSEN
  6
CONTINUOUS
 62
     7
 10
160.0
 20
68.0
 30
0.0
 11
160.0
 21
92.0
 31
0.0
  0
LINE
  8
L-ZISSEN
  6
CONTINUOUS
 62
     7
 10
167.0
 20
97.25
 30
0.0
 11
225.0
 21
97.25
 31
0.0
  0
LINE
  8
L-ZISSEN
  6
CONTINUOUS
 62
     7
 10
225.0
 20
97.25
 30
0.0
 11
225.0
 21
62.75
 31
0.0
  0
LINE
  8
L-ZISSEN
  6
CONTINUOUS
 62
     7
 10
167.0
 20
97.25
 30
0.0
 11
167.0
 21
62.75
 31
0.0
  0
LINE
  8
L-ZISSEN
 62
     7
 10
243.0
 20
69.777513
 30
0.0
 11
225.0
 21
69.214984
 31
0.0
  0
LINE
  8
L-ZISSEN
 62
     7
 10
243.0
 20
90.222487
 30
0.0
 11
225.0
 21
90.785016
 31
0.0
  0
LINE
  8
L-ZISSEN
 62
     7
 10
243.0
 20
69.777513
 30
0.0
 11
243.0
 21
90.222487
 31
0.0
  0
CIRCLE
  8
L-ZISSEN
  6
CONTINUOUS
 62
     7
 10
100.0
 20
80.0
 30
0.0
 40
17.25
  0
LINE
  8
L-TYUSIN
  6
CENTER
 62
     1
 10
78.0
 20
80.0
 30
0.0
 11
122.0
 21
80.0
 31
0.0
  0
LINE
  8
L-TYUSIN
  6
CENTER
 62
     1
 10
100.0
 20
58.0
 30
0.0
 11
100.0
 21
102.0
 31
0.0
  0
LINE
  8
L-ZISSEN
  6
CONTINUOUS
 62
     7
 10
160.0
 20
92.0
 30
0.0
 11
167.0
 21
92.0
 31
0.0
  0
LINE
  8
L-ZISSEN
  6
CONTINUOUS
 62
     7
 10
160.0
 20
68.0
 30
0.0
 11
167.0
 21
68.0
 31
0.0
  0
LINE
  8
L-ZISSEN
  6
CONTINUOUS
 62
     7
 10
167.0
 20
62.75
 30
0.0
 11
225.0
 21
62.75
 31
0.0
  0
LINE
  8
L-ZISSEN
  6
CONTINUOUS
 62
     7
 10
93.071797
 20
92.0
 30
0.0
 11
86.143594
 21
80.0
 31
0.0
  0
LINE
  8
L-ZISSEN
  6
CONTINUOUS
 62
     7
 10
86.143594
 20
80.0
 30
0.0
 11
93.071797
 21
68.0
 31
0.0
  0
LINE
  8
L-ZISSEN
  6
CONTINUOUS
 62
     7
 10
93.071797
 20
68.0
 30
0.0
 11
106.928203
 21
68.0
 31
0.0
  0
LINE
  8
L-ZISSEN
  6
CONTINUOUS
 62
     7
 10
106.928203
 20
68.0
 30
0.0
 11
113.856406
 21
80.0
 31
0.0
  0
LINE
  8
L-ZISSEN
  6
CONTINUOUS
 62
     7
 10
113.856406
 20
80.0
 30
0.0
 11
106.928203
 21
92.0
 31
0.0
  0
LINE
  8
L-ZISSEN
  6
CONTINUOUS
 62
     7
 10
106.928203
 20
92.0
 30
0.0
 11
93.071797
 21
92.0
 31
0.0
  0
TEXT
  8
L-ZISSEN
 10
85.0
 20
175.0
 30
0.0
 40
4.5
  1
MODEL No. : MFF-204
  0
LINE
  8
L-ZISSEN
  6
CONTINUOUS
 62
     7
 10
167.0
 20
117.75
 30
0.0
 11
225.0
 21
117.75
 31
0.0
  0
LINE
  8
L-ZISSEN
 62
     7
 10
243.0
 20
124.777513
 30
0.0
 11
243.0
 21
145.222487
 31
0.0
  0
LINE
  8
L-ZISSEN
 62
     7
 10
243.0
 20
145.222487
 30
0.0
 11
225.0
 21
145.785016
 31
0.0
  0
LINE
  8
L-ZISSEN
 62
     7
 10
243.0
 20
124.777513
 30
0.0
 11
225.0
 21
124.214984
 31
0.0
  0
LINE
  8
L-ZISSEN
  6
CONTINUOUS
 62
     7
 10
167.0
 20
152.25
 30
0.0
 11
167.0
 21
117.75
 31
0.0
  0
LINE
  8
L-ZISSEN
  6
CONTINUOUS
 62
     7
 10
225.0
 20
152.25
 30
0.0
 11
225.0
 21
117.75
 31
0.0
  0
LINE
  8
L-ZISSEN
  6
CONTINUOUS
 62
     7
 10
167.0
 20
152.25
 30
0.0
 11
225.0
 21
152.25
 31
0.0
  0
LINE
  8
L-ZISSEN
  6
CONTINUOUS
 62
     7
 10
160.0
 20
121.143594
 30
0.0
 11
160.0
 21
148.856406
 31
0.0
  0
LINE
  8
L-TYUSIN
  6
CENTER
 62
     1
 10
155.0
 20
135.0
 30
0.0
 11
248.0
 21
135.0
 31
0.0
  0
LINE
  8
L-ZISSEN
 10
160.0
 20
148.856406
 30
0.0
 11
167.0
 21
148.856406
 31
0.0
  0
LINE
  8
L-ZISSEN
 10
160.0
 20
121.143594
 30
0.0
 11
167.0
 21
121.143594
 31
0.0
  0
LINE
  8
L-TYUSIN
 10
233.0
 20
62.0
 30
0.0
 11
233.0
 21
98.0
 31
0.0
  0
LINE
  8
L-TYUSIN
 10
233.0
 20
117.0
 30
0.0
 11
233.0
 21
153.0
 31
0.0
  0
SOLID
  8
L-ZISSEN
 10
236.691825
 20
91.611572
 30
0.0
 11
236.231595
 21
92.093891
 31
0.0
 12
235.014752
 22
90.472039
 32
0.0
 13
235.014752
 23
90.472039
 33
0.0
  0
LINE
  8
L-ZISSEN
 10
236.46171
 20
91.852732
 30
0.0
 11
245.0
 21
100.0
 31
0.0
  0
LINE
  8
L-ZISSEN
 10
245.0
 20
100.0
 30
0.0
 11
247.0
 21
100.0
 31
0.0
  0
TEXT
  8
L-ZISSEN
 10
249.0
 20
97.75
 30
0.0
 40
4.5
  1
R 1/2
  0
ENDSEC
  0
EOF
