  0
SECTION
  2
HEADER
  9
$ACADVER
  1
AC1006
  9
$INSBASE
 10
0.0
 20
0.0
 30
0.0
  9
$EXTMIN
 10
70.0
 20
38.0
  9
$EXTMAX
 10
744.984887
 20
571.0
  9
$LIMMIN
 10
0.0
 20
0.0
  9
$LIMMAX
 10
841.0
 20
594.0
  9
$ORTHOMODE
 70
     0
  9
$REGENMODE
 70
     1
  9
$FILLMODE
 70
     1
  9
$QTEXTMODE
 70
     0
  9
$MIRRTEXT
 70
     1
  9
$DRAGMODE
 70
     2
  9
$LTSCALE
 40
1.0
  9
$OSMODE
 70
     0
  9
$ATTMODE
 70
     1
  9
$TEXTSIZE
 40
4.5
  9
$TRACEWID
 40
0.05
  9
$TEXTSTYLE
  7
STANDARD
  9
$CLAYER
  8
L-ZISSEN
  9
$CELTYPE
  6
BYLAYER
  9
$CECOLOR
 62
   256
  9
$DIMSCALE
 40
1.0
  9
$DIMASZ
 40
2.0
  9
$DIMEXO
 40
1.0
  9
$DIMDLI
 40
0.38
  9
$DIMRND
 40
0.0
  9
$DIMDLE
 40
1.0
  9
$DIMEXE
 40
1.0
  9
$DIMTP
 40
0.0
  9
$DIMTM
 40
0.0
  9
$DIMTXT
 40
4.5
  9
$DIMCEN
 40
0.09
  9
$DIMTSZ
 40
0.0
  9
$DIMTOL
 70
     0
  9
$DIMLIM
 70
     0
  9
$DIMTIH
 70
     0
  9
$DIMTOH
 70
     0
  9
$DIMSE1
 70
     0
  9
$DIMSE2
 70
     0
  9
$DIMTAD
 70
     1
  9
$DIMZIN
 70
     0
  9
$DIMBLK
  1

  9
$DIMASO
 70
     0
  9
$DIMSHO
 70
     0
  9
$DIMPOST
  1

  9
$DIMAPOST
  1

  9
$DIMALT
 70
     0
  9
$DIMALTD
 70
     2
  9
$DIMALTF
 40
25.4
  9
$DIMLFAC
 40
1.0
  9
$DIMTOFL
 70
     1
  9
$DIMTVP
 40
0.0
  9
$DIMTIX
 70
     0
  9
$DIMSOXD
 70
     0
  9
$DIMSAH
 70
     0
  9
$DIMBLK1
  1

  9
$DIMBLK2
  1

  9
$LUNITS
 70
     2
  9
$LUPREC
 70
     4
  9
$AXISMODE
 70
     0
  9
$AXISUNIT
 10
0.0
 20
0.0
  9
$SKETCHINC
 40
0.1
  9
$FILLETRAD
 40
0.0
  9
$AUNITS
 70
     0
  9
$AUPREC
 70
     0
  9
$MENU
  1
acad
  9
$ELEVATION
 40
0.0
  9
$THICKNESS
 40
0.0
  9
$LIMCHECK
 70
     0
  9
$BLIPMODE
 70
     1
  9
$CHAMFERA
 40
0.0
  9
$CHAMFERB
 40
0.0
  9
$SKPOLY
 70
     0
  9
$TDCREATE
 40
2449000.9376474535
  9
$TDUPDATE
 40
2449000.9376474535
  9
$TDINDWG
 40
0.0000000000
  9
$TDUSRTIMER
 40
0.0000000000
  9
$USRTIMER
 70
     1
  9
$ANGBASE
 50
0.0
  9
$ANGDIR
 70
     0
  9
$PDMODE
 70
     0
  9
$PDSIZE
 40
0.0
  9
$PLINEWID
 40
0.0
  9
$COORDS
 70
     2
  9
$SPLFRAME
 70
     0
  9
$SPLINETYPE
 70
     6
  9
$SPLINESEGS
 70
     8
  9
$ATTDIA
 70
     0
  9
$ATTREQ
 70
     1
  9
$HANDLING
 70
     0
  9
$HANDSEED
  5
0
  9
$SURFTAB1
 70
     6
  9
$SURFTAB2
 70
     6
  9
$SURFTYPE
 70
     6
  9
$SURFU
 70
     6
  9
$SURFV
 70
     6
  9
$FLATLAND
 70
     0
  9
$UCSNAME
  2

  9
$UCSORG
 10
0.0
 20
0.0
 30
0.0
  9
$UCSXDIR
 10
1.0
 20
0.0
 30
0.0
  9
$UCSYDIR
 10
0.0
 20
1.0
 30
0.0
  9
$USERI1
 70
     0
  9
$USERI2
 70
     0
  9
$USERI3
 70
     0
  9
$USERI4
 70
     0
  9
$USERI5
 70
     0
  9
$USERR1
 40
0.0
  9
$USERR2
 40
0.0
  9
$USERR3
 40
0.0
  9
$USERR4
 40
0.0
  9
$USERR5
 40
0.0
  9
$WORLDVIEW
 70
     1
  0
ENDSEC
  0
SECTION
  2
TABLES
  0
TABLE
  2
VPORT
 70
     2
  0
VPORT
  2
*ACTIVE
 70
     0
 10
0.0
 20
0.0
 11
1.0
 21
1.0
 12
476.455978
 22
307.649038
 13
0.0
 23
0.0
 14
5.0
 24
5.0
 15
0.0
 25
0.0
 16
0.0
 26
0.0
 36
1.0
 17
0.0
 27
0.0
 37
0.0
 40
615.298075
 41
1.5487
 42
50.0
 43
0.0
 44
0.0
 50
0.0
 51
0.0
 71
     0
 72
   100
 73
     1
 74
     0
 75
     0
 76
     0
 77
     0
 78
     2
  0
ENDTAB
  0
TABLE
  2
LTYPE
 70
     2
  0
LTYPE
  2
CONTINUOUS
 70
    64
  3
Solid line
 72
    65
 73
     0
 40
0.0
  0
LTYPE
  2
CENTER
 70
    64
  3
____ _ ____ _ ____ _ ____ _ 
 72
    65
 73
     4
 40
60.0
 49
45.0
 49
-5.0
 49
5.0
 49
-5.0
  0
ENDTAB
  0
TABLE
  2
LAYER
 70
     3
  0
LAYER
  2
0
 70
     0
 62
     7
  6
CONTINUOUS
  0
LAYER
  2
L-ZISSEN
 70
    64
 62
     7
  6
CONTINUOUS
  0
LAYER
  2
L-TYUSIN
 70
    64
 62
     1
  6
CENTER
  0
ENDTAB
  0
TABLE
  2
STYLE
 70
     1
  0
STYLE
  2
STANDARD
 70
    64
 40
0.0
 41
1.0
 50
0.0
 71
     0
 42
4.5
  3
TXT
  4

  0
ENDTAB
  0
TABLE
  2
VIEW
 70
     0
  0
ENDTAB
  0
TABLE
  2
UCS
 70
     0
  0
ENDTAB
  0
TABLE
  2
DWGMGR
 70
     0
  0
ENDTAB
  0
ENDSEC
  0
SECTION
  2
BLOCKS
  0
ENDSEC
  0
SECTION
  2
ENTITIES
  0
LINE
  8
L-TYUSIN
 10
315.0
 20
68.0
 30
0.0
 11
315.0
 21
256.5
 31
0.0
  0
LINE
  8
L-TYUSIN
 10
180.0
 20
140.0
 30
0.0
 11
450.0
 21
140.0
 31
0.0
  0
LINE
  8
L-ZISSEN
 10
185.0
 20
170.0
 30
0.0
 11
185.0
 21
110.0
 31
0.0
  0
LINE
  8
L-ZISSEN
 10
445.0
 20
170.0
 30
0.0
 11
445.0
 21
110.0
 31
0.0
  0
LINE
  8
L-ZISSEN
 10
220.0
 20
73.0
 30
0.0
 11
410.0
 21
73.0
 31
0.0
  0
LINE
  8
L-ZISSEN
 10
220.0
 20
212.0
 30
0.0
 11
410.0
 21
212.0
 31
0.0
  0
LINE
  8
L-TYUSIN
 10
270.0
 20
168.0
 30
0.0
 11
360.0
 21
168.0
 31
0.0
  0
LINE
  8
L-TYUSIN
 10
406.0
 20
98.0
 30
0.0
 11
446.0
 21
98.0
 31
0.0
  0
LINE
  8
L-TYUSIN
 10
426.0
 20
78.0
 30
0.0
 11
426.0
 21
118.0
 31
0.0
  0
CIRCLE
  8
L-ZISSEN
 10
426.0
 20
98.0
 30
0.0
 40
15.0
  0
CIRCLE
  8
L-ZISSEN
 10
426.0
 20
176.0
 30
0.0
 40
15.0
  0
CIRCLE
  8
L-ZISSEN
 10
209.0
 20
98.0
 30
0.0
 40
15.0
  0
CIRCLE
  8
L-ZISSEN
 10
209.0
 20
176.0
 30
0.0
 40
15.0
  0
LINE
  8
L-ZISSEN
 10
185.0
 20
110.0
 30
0.0
 11
194.0
 21
110.0
 31
0.0
  0
LINE
  8
L-ZISSEN
 10
185.0
 20
170.0
 30
0.0
 11
194.0
 21
170.0
 31
0.0
  0
LINE
  8
L-ZISSEN
 10
220.0
 20
231.0
 30
0.0
 11
220.0
 21
191.0
 31
0.0
  0
LINE
  8
L-ZISSEN
 10
209.0
 20
191.0
 30
0.0
 11
220.0
 21
191.0
 31
0.0
  0
LINE
  8
L-ZISSEN
 10
194.0
 20
176.0
 30
0.0
 11
194.0
 21
170.0
 31
0.0
  0
LINE
  8
L-ZISSEN
 10
410.0
 20
231.0
 30
0.0
 11
410.0
 21
191.0
 31
0.0
  0
LINE
  8
L-ZISSEN
 10
426.0
 20
191.0
 30
0.0
 11
410.0
 21
191.0
 31
0.0
  0
LINE
  8
L-ZISSEN
 10
426.0
 20
83.0
 30
0.0
 11
410.0
 21
83.0
 31
0.0
  0
LINE
  8
L-ZISSEN
 10
209.0
 20
83.0
 30
0.0
 11
220.0
 21
83.0
 31
0.0
  0
LINE
  8
L-ZISSEN
 10
441.0
 20
176.0
 30
0.0
 11
441.0
 21
170.0
 31
0.0
  0
LINE
  8
L-ZISSEN
 10
441.0
 20
170.0
 30
0.0
 11
445.0
 21
170.0
 31
0.0
  0
LINE
  8
L-ZISSEN
 10
194.0
 20
110.0
 30
0.0
 11
194.0
 21
98.0
 31
0.0
  0
LINE
  8
L-ZISSEN
 10
441.0
 20
110.0
 30
0.0
 11
445.0
 21
110.0
 31
0.0
  0
LINE
  8
L-ZISSEN
 10
441.0
 20
110.0
 30
0.0
 11
441.0
 21
98.0
 31
0.0
  0
LINE
  8
L-ZISSEN
 10
410.0
 20
85.0
 30
0.0
 11
410.0
 21
73.0
 31
0.0
  0
LINE
  8
L-ZISSEN
 10
220.0
 20
85.0
 30
0.0
 11
220.0
 21
73.0
 31
0.0
  0
LINE
  8
L-TYUSIN
 10
189.0
 20
98.0
 30
0.0
 11
229.0
 21
98.0
 31
0.0
  0
LINE
  8
L-TYUSIN
 10
209.0
 20
78.0
 30
0.0
 11
209.0
 21
118.0
 31
0.0
  0
LINE
  8
L-TYUSIN
 10
209.0
 20
156.0
 30
0.0
 11
209.0
 21
196.0
 31
0.0
  0
LINE
  8
L-TYUSIN
 10
189.0
 20
176.0
 30
0.0
 11
229.0
 21
176.0
 31
0.0
  0
LINE
  8
L-TYUSIN
 10
406.0
 20
176.0
 30
0.0
 11
446.0
 21
176.0
 31
0.0
  0
LINE
  8
L-TYUSIN
 10
426.0
 20
156.0
 30
0.0
 11
426.0
 21
196.0
 31
0.0
  0
LINE
  8
L-ZISSEN
 10
220.0
 20
85.0
 30
0.0
 11
289.0
 21
85.0
 31
0.0
  0
LINE
  8
L-ZISSEN
 10
220.0
 20
195.0
 30
0.0
 11
285.487291
 21
195.0
 31
0.0
  0
CIRCLE
  8
L-ZISSEN
 10
315.0
 20
168.0
 30
0.0
 40
40.0
  0
LINE
  8
L-ZISSEN
 10
344.512709
 20
195.0
 30
0.0
 11
410.0
 21
195.0
 31
0.0
  0
LINE
  8
L-TYUSIN
 10
570.0
 20
140.0
 30
0.0
 11
640.0
 21
140.0
 31
0.0
  0
LINE
  8
L-TYUSIN
 10
605.0
 20
38.0
 30
0.0
 11
605.0
 21
322.1
 31
0.0
  0
LINE
  8
L-TYUSIN
 10
521.0
 20
168.0
 30
0.0
 11
570.0
 21
168.0
 31
0.0
  0
LINE
  8
L-TYUSIN
 10
570.0
 20
176.0
 30
0.0
 11
656.0
 21
176.0
 31
0.0
  0
LINE
  8
L-TYUSIN
 10
582.588579
 20
98.0
 30
0.0
 11
622.588579
 21
98.0
 31
0.0
  0
LINE
  8
L-ZISSEN
 10
560.0
 20
212.0
 30
0.0
 11
650.0
 21
212.0
 31
0.0
  0
LINE
  8
L-ZISSEN
 10
575.0
 20
191.0
 30
0.0
 11
651.0
 21
191.0
 31
0.0
  0
LINE
  8
L-ZISSEN
 10
560.0
 20
73.0
 30
0.0
 11
650.0
 21
73.0
 31
0.0
  0
LINE
  8
L-ZISSEN
 10
526.0
 20
208.0
 30
0.0
 11
560.0
 21
208.0
 31
0.0
  0
LINE
  8
L-ZISSEN
 10
526.0
 20
128.0
 30
0.0
 11
565.0
 21
128.0
 31
0.0
  0
LINE
  8
L-ZISSEN
 10
526.0
 20
208.0
 30
0.0
 11
526.0
 21
128.0
 31
0.0
  0
LINE
  8
L-ZISSEN
 10
560.0
 20
231.0
 30
0.0
 11
560.0
 21
195.0
 31
0.0
  0
LINE
  8
L-ZISSEN
 10
650.0
 20
231.0
 30
0.0
 11
650.0
 21
191.0
 31
0.0
  0
LINE
  8
L-ZISSEN
 10
651.0
 20
191.0
 30
0.0
 11
651.0
 21
161.0
 31
0.0
  0
LINE
  8
L-ZISSEN
 10
651.0
 20
161.0
 30
0.0
 11
626.424285
 21
161.0
 31
0.0
  0
LINE
  8
L-ZISSEN
 10
650.0
 20
161.0
 30
0.0
 11
650.0
 21
113.0
 31
0.0
  0
LINE
  8
L-ZISSEN
 10
575.0
 20
191.0
 30
0.0
 11
575.0
 21
161.0
 31
0.0
  0
LINE
  8
L-ZISSEN
 10
575.0
 20
113.0
 30
0.0
 11
575.0
 21
83.0
 31
0.0
  0
LINE
  8
L-ZISSEN
 10
651.0
 20
83.0
 30
0.0
 11
575.0
 21
83.0
 31
0.0
  0
LINE
  8
L-ZISSEN
 10
651.0
 20
113.0
 30
0.0
 11
651.0
 21
83.0
 31
0.0
  0
LINE
  8
L-ZISSEN
 10
575.0
 20
113.0
 30
0.0
 11
591.923303
 21
113.0
 31
0.0
  0
LINE
  8
L-TYUSIN
 10
570.0
 20
98.0
 30
0.0
 11
656.0
 21
98.0
 31
0.0
  0
LINE
  8
L-ZISSEN
 10
650.0
 20
83.0
 30
0.0
 11
650.0
 21
73.0
 31
0.0
  0
CIRCLE
  8
L-ZISSEN
 10
605.0
 20
140.0
 30
0.0
 40
30.0
  0
LINE
  8
L-ZISSEN
 10
583.575715
 20
161.0
 30
0.0
 11
575.0
 21
161.0
 31
0.0
  0
LINE
  8
L-ZISSEN
 10
618.076697
 20
113.0
 30
0.0
 11
651.0
 21
113.0
 31
0.0
  0
LINE
  8
L-ZISSEN
 10
560.0
 20
195.0
 30
0.0
 11
650.0
 21
195.0
 31
0.0
  0
LINE
  8
L-ZISSEN
 10
560.0
 20
85.0
 30
0.0
 11
573.0
 21
85.0
 31
0.0
  0
LINE
  8
L-ZISSEN
 10
560.0
 20
93.0
 30
0.0
 11
573.0
 21
93.0
 31
0.0
  0
LINE
  8
L-ZISSEN
 10
573.0
 20
107.0
 30
0.0
 11
573.0
 21
85.0
 31
0.0
  0
LINE
  8
L-ZISSEN
 10
289.0
 20
93.0
 30
0.0
 11
341.0
 21
93.0
 31
0.0
  0
LINE
  8
L-ZISSEN
 10
289.0
 20
93.0
 30
0.0
 11
289.0
 21
85.0
 31
0.0
  0
LINE
  8
L-ZISSEN
 10
341.0
 20
93.0
 30
0.0
 11
341.0
 21
85.0
 31
0.0
  0
LINE
  8
L-ZISSEN
 10
341.0
 20
85.0
 30
0.0
 11
410.0
 21
85.0
 31
0.0
  0
LINE
  8
L-ZISSEN
 10
565.0
 20
128.0
 30
0.0
 11
565.0
 21
107.0
 31
0.0
  0
LINE
  8
L-ZISSEN
 10
560.0
 20
93.0
 30
0.0
 11
560.0
 21
73.0
 31
0.0
  0
LINE
  8
L-ZISSEN
 10
565.0
 20
107.0
 30
0.0
 11
573.0
 21
107.0
 31
0.0
  0
LINE
  8
L-ZISSEN
 10
645.0
 20
147.0
 30
0.0
 11
645.0
 21
113.0
 31
0.0
  0
LINE
  8
L-ZISSEN
 10
645.0
 20
147.0
 30
0.0
 11
650.0
 21
147.0
 31
0.0
  0
LINE
  8
L-ZISSEN
 10
232.0
 20
43.0
 30
0.0
 11
314.0
 21
43.0
 31
0.0
  0
LINE
  8
L-ZISSEN
 10
313.987803
 20
60.0
 30
0.0
 11
232.012197
 21
60.0
 31
0.0
  0
LINE
  8
L-ZISSEN
 10
281.212223
 20
60.0
 30
0.0
 11
281.212223
 21
43.0
 31
0.0
  0
LINE
  8
L-ZISSEN
 10
296.798877
 20
60.0
 30
0.0
 11
296.798877
 21
43.0
 31
0.0
  0
LINE
  8
L-ZISSEN
 10
313.987803
 20
43.0
 30
0.0
 11
313.987803
 21
73.0
 31
0.0
  0
LINE
  8
L-ZISSEN
 10
232.012197
 20
43.0
 30
0.0
 11
232.012197
 21
73.0
 31
0.0
  0
LINE
  8
L-ZISSEN
 10
282.50555
 20
51.0
 30
0.0
 11
295.50555
 21
51.0
 31
0.0
  0
LINE
  8
L-ZISSEN
 10
282.50555
 20
51.0
 30
0.0
 11
282.50555
 21
60.0
 31
0.0
  0
LINE
  8
L-ZISSEN
 10
295.50555
 20
51.0
 30
0.0
 11
295.50555
 21
60.0
 31
0.0
  0
LINE
  8
L-ZISSEN
 10
334.49445
 20
51.0
 30
0.0
 11
334.49445
 21
61.0
 31
0.0
  0
LINE
  8
L-ZISSEN
 10
347.49445
 20
51.0
 30
0.0
 11
347.49445
 21
61.0
 31
0.0
  0
LINE
  8
L-ZISSEN
 10
347.49445
 20
51.0
 30
0.0
 11
334.49445
 21
51.0
 31
0.0
  0
LINE
  8
L-ZISSEN
 10
646.0
 20
43.0
 30
0.0
 11
564.0
 21
43.0
 31
0.0
  0
LINE
  8
L-ZISSEN
 10
564.012197
 20
60.0
 30
0.0
 11
582.5
 21
60.0
 31
0.0
  0
LINE
  8
L-ZISSEN
 10
628.798877
 20
61.0
 30
0.0
 11
628.798877
 21
43.0
 31
0.0
  0
LINE
  8
L-ZISSEN
 10
564.012197
 20
43.0
 30
0.0
 11
564.012197
 21
73.0
 31
0.0
  0
LINE
  8
L-ZISSEN
 10
645.987803
 20
43.0
 30
0.0
 11
645.987803
 21
73.0
 31
0.0
  0
LINE
  8
L-ZISSEN
 10
220.0
 20
231.0
 30
0.0
 11
410.0
 21
231.0
 31
0.0
  0
LINE
  8
L-ZISSEN
 10
560.0
 20
231.0
 30
0.0
 11
650.0
 21
231.0
 31
0.0
  0
CIRCLE
  8
L-ZISSEN
 10
315.0
 20
168.0
 30
0.0
 40
28.328
  0
CIRCLE
  8
L-ZISSEN
 10
605.0
 20
140.0
 30
0.0
 40
19.476
  0
TEXT
  8
L-ZISSEN
 10
70.0
 20
540.0
 30
0.0
 40
4.5
  1
MODEL No. : H1B-B00-1000
  0
CIRCLE
  8
L-ZISSEN
 10
209.0
 20
176.0
 30
0.0
 40
6.75
  0
CIRCLE
  8
L-ZISSEN
 10
426.0
 20
176.0
 30
0.0
 40
6.75
  0
CIRCLE
  8
L-ZISSEN
 10
426.0
 20
98.0
 30
0.0
 40
6.75
  0
CIRCLE
  8
L-ZISSEN
 10
209.0
 20
98.0
 30
0.0
 40
6.75
  0
LINE
  8
L-ZISSEN
 10
243.0
 20
251.5
 30
0.0
 11
387.0
 21
251.5
 31
0.0
  0
LINE
  8
L-ZISSEN
 10
387.0
 20
251.5
 30
0.0
 11
387.0
 21
231.0
 31
0.0
  0
LINE
  8
L-ZISSEN
 10
243.0
 20
251.5
 30
0.0
 11
243.0
 21
231.0
 31
0.0
  0
LINE
  8
L-ZISSEN
 10
557.9
 20
251.5
 30
0.0
 11
644.1
 21
251.5
 31
0.0
  0
LINE
  8
L-ZISSEN
 10
567.5
 20
251.5
 30
0.0
 11
567.5
 21
241.5
 31
0.0
  0
LINE
  8
L-ZISSEN
 10
642.5
 20
251.5
 30
0.0
 11
642.5
 21
241.5
 31
0.0
  0
LINE
  8
L-ZISSEN
 10
445.0
 20
500.0
 30
0.0
 11
445.0
 21
440.0
 31
0.0
  0
LINE
  8
L-ZISSEN
 10
410.0
 20
500.0
 30
0.0
 11
411.0
 21
500.0
 31
0.0
  0
LINE
  8
L-TYUSIN
 10
180.0
 20
470.0
 30
0.0
 11
450.0
 21
470.0
 31
0.0
  0
LINE
  8
L-ZISSEN
 10
185.0
 20
500.0
 30
0.0
 11
185.0
 21
440.0
 31
0.0
  0
LINE
  8
L-ZISSEN
 10
185.0
 20
500.0
 30
0.0
 11
194.0
 21
500.0
 31
0.0
  0
LINE
  8
L-ZISSEN
 10
220.0
 20
425.0
 30
0.0
 11
220.0
 21
515.0
 31
0.0
  0
LINE
  8
L-ZISSEN
 10
410.0
 20
425.0
 30
0.0
 11
410.0
 21
515.0
 31
0.0
  0
LINE
  8
L-ZISSEN
 10
387.0
 20
432.5
 30
0.0
 11
387.0
 21
507.5
 31
0.0
  0
LINE
  8
L-ZISSEN
 10
243.0
 20
432.5
 30
0.0
 11
243.0
 21
507.5
 31
0.0
  0
LINE
  8
L-ZISSEN
 10
387.0
 20
432.5
 30
0.0
 11
369.2
 21
432.5
 31
0.0
  0
LINE
  8
L-ZISSEN
 10
387.0
 20
507.5
 30
0.0
 11
369.2
 21
507.5
 31
0.0
  0
LINE
  8
L-ZISSEN
 10
410.0
 20
425.0
 30
0.0
 11
369.2
 21
425.0
 31
0.0
  0
LINE
  8
L-ZISSEN
 10
410.0
 20
515.0
 30
0.0
 11
220.0
 21
515.0
 31
0.0
  0
LINE
  8
L-TYUSIN
 10
315.0
 20
386.0
 30
0.0
 11
315.0
 21
520.0
 31
0.0
  0
LINE
  8
L-ZISSEN
 10
318.313973
 20
391.0
 30
0.0
 11
311.686027
 21
391.0
 31
0.0
  0
LINE
  8
L-ZISSEN
 10
411.0
 20
516.0
 30
0.0
 11
441.0
 21
516.0
 31
0.0
  0
LINE
  8
L-ZISSEN
 10
411.0
 20
440.0
 30
0.0
 11
411.0
 21
516.0
 31
0.0
  0
LINE
  8
L-TYUSIN
 10
426.0
 20
435.0
 30
0.0
 11
426.0
 21
521.0
 31
0.0
  0
LINE
  8
L-ZISSEN
 10
441.0
 20
516.0
 30
0.0
 11
441.0
 21
440.0
 31
0.0
  0
LINE
  8
L-ZISSEN
 10
410.0
 20
440.0
 30
0.0
 11
445.0
 21
440.0
 31
0.0
  0
LINE
  8
L-ZISSEN
 10
224.0
 20
516.0
 30
0.0
 11
194.0
 21
516.0
 31
0.0
  0
LINE
  8
L-ZISSEN
 10
194.0
 20
516.0
 30
0.0
 11
194.0
 21
440.0
 31
0.0
  0
LINE
  8
L-ZISSEN
 10
224.0
 20
515.0
 30
0.0
 11
224.0
 21
516.0
 31
0.0
  0
LINE
  8
L-ZISSEN
 10
220.0
 20
440.0
 30
0.0
 11
185.0
 21
440.0
 31
0.0
  0
LINE
  8
L-TYUSIN
 10
209.0
 20
435.0
 30
0.0
 11
209.0
 21
521.0
 31
0.0
  0
LINE
  8
L-ZISSEN
 10
441.0
 20
500.0
 30
0.0
 11
445.0
 21
500.0
 31
0.0
  0
CIRCLE
  8
L-ZISSEN
 10
400.0
 20
435.0
 30
0.0
 40
8.0
  0
CIRCLE
  8
L-ZISSEN
 10
400.0
 20
505.0
 30
0.0
 40
8.0
  0
CIRCLE
  8
L-ZISSEN
 10
230.0
 20
435.0
 30
0.0
 40
8.0
  0
CIRCLE
  8
L-ZISSEN
 10
230.0
 20
505.0
 30
0.0
 40
8.0
  0
LINE
  8
L-ZISSEN
 10
392.0
 20
241.5
 30
0.0
 11
408.0
 21
241.5
 31
0.0
  0
LINE
  8
L-ZISSEN
 10
392.0
 20
241.5
 30
0.0
 11
392.0
 21
231.0
 31
0.0
  0
LINE
  8
L-ZISSEN
 10
408.0
 20
241.5
 30
0.0
 11
408.0
 21
231.0
 31
0.0
  0
LINE
  8
L-ZISSEN
 10
222.0
 20
241.5
 30
0.0
 11
222.0
 21
231.0
 31
0.0
  0
LINE
  8
L-ZISSEN
 10
238.0
 20
241.5
 30
0.0
 11
238.0
 21
231.0
 31
0.0
  0
LINE
  8
L-ZISSEN
 10
238.0
 20
241.5
 30
0.0
 11
222.0
 21
241.5
 31
0.0
  0
LINE
  8
L-ZISSEN
 10
578.0
 20
241.5
 30
0.0
 11
578.0
 21
231.0
 31
0.0
  0
LINE
  8
L-ZISSEN
 10
562.0
 20
241.5
 30
0.0
 11
562.0
 21
231.0
 31
0.0
  0
LINE
  8
L-ZISSEN
 10
562.0
 20
241.5
 30
0.0
 11
578.0
 21
241.5
 31
0.0
  0
LINE
  8
L-ZISSEN
 10
648.0
 20
241.5
 30
0.0
 11
632.0
 21
241.5
 31
0.0
  0
LINE
  8
L-ZISSEN
 10
648.0
 20
241.5
 30
0.0
 11
648.0
 21
231.0
 31
0.0
  0
LINE
  8
L-ZISSEN
 10
632.0
 20
241.5
 30
0.0
 11
632.0
 21
231.0
 31
0.0
  0
CIRCLE
  8
L-ZISSEN
 10
378.0
 20
499.0
 30
0.0
 40
4.25
  0
CIRCLE
  8
L-ZISSEN
 10
378.0
 20
441.0
 30
0.0
 40
4.25
  0
CIRCLE
  8
L-ZISSEN
 10
252.0
 20
441.0
 30
0.0
 40
4.25
  0
CIRCLE
  8
L-ZISSEN
 10
252.0
 20
499.0
 30
0.0
 40
4.25
  0
LINE
  8
L-ZISSEN
 10
373.75
 20
257.8
 30
0.0
 11
382.25
 21
257.8
 31
0.0
  0
LINE
  8
L-ZISSEN
 10
373.75
 20
257.8
 30
0.0
 11
373.75
 21
251.5
 31
0.0
  0
LINE
  8
L-ZISSEN
 10
382.25
 20
257.8
 30
0.0
 11
382.25
 21
251.5
 31
0.0
  0
LINE
  8
L-ZISSEN
 10
247.75
 20
257.8
 30
0.0
 11
247.75
 21
251.5
 31
0.0
  0
LINE
  8
L-ZISSEN
 10
256.25
 20
257.8
 30
0.0
 11
256.25
 21
251.5
 31
0.0
  0
LINE
  8
L-ZISSEN
 10
256.25
 20
257.8
 30
0.0
 11
247.75
 21
257.8
 31
0.0
  0
LINE
  8
L-ZISSEN
 10
580.25
 20
257.8
 30
0.0
 11
580.25
 21
251.5
 31
0.0
  0
LINE
  8
L-ZISSEN
 10
571.75
 20
257.8
 30
0.0
 11
571.75
 21
251.5
 31
0.0
  0
LINE
  8
L-ZISSEN
 10
571.75
 20
257.8
 30
0.0
 11
580.25
 21
257.8
 31
0.0
  0
LINE
  8
L-ZISSEN
 10
638.25
 20
257.8
 30
0.0
 11
629.75
 21
257.8
 31
0.0
  0
LINE
  8
L-ZISSEN
 10
638.25
 20
257.8
 30
0.0
 11
638.25
 21
251.5
 31
0.0
  0
LINE
  8
L-ZISSEN
 10
629.75
 20
257.8
 30
0.0
 11
629.75
 21
251.5
 31
0.0
  0
LINE
  8
L-ZISSEN
 10
331.0
 20
61.0
 30
0.0
 11
383.0
 21
61.0
 31
0.0
  0
LINE
  8
L-ZISSEN
 10
334.5
 20
43.0
 30
0.0
 11
379.5
 21
43.0
 31
0.0
  0
LINE
  8
L-ZISSEN
 10
379.5
 20
43.0
 30
0.0
 11
379.5
 21
61.0
 31
0.0
  0
LINE
  8
L-ZISSEN
 10
334.5
 20
43.0
 30
0.0
 11
334.5
 21
51.0
 31
0.0
  0
LINE
  8
L-ZISSEN
 10
331.0
 20
61.0
 30
0.0
 11
331.0
 21
73.0
 31
0.0
  0
LINE
  8
L-ZISSEN
 10
383.0
 20
61.0
 30
0.0
 11
383.0
 21
73.0
 31
0.0
  0
LINE
  8
L-ZISSEN
 10
627.5
 20
43.0
 30
0.0
 11
627.5
 21
51.0
 31
0.0
  0
LINE
  8
L-ZISSEN
 10
569.290392
 20
61.0
 30
0.0
 11
640.709608
 21
61.0
 31
0.0
  0
LINE
  8
L-ZISSEN
 10
582.5
 20
43.0
 30
0.0
 11
627.5
 21
43.0
 31
0.0
  0
LINE
  8
L-ZISSEN
 10
627.50555
 20
51.0
 30
0.0
 11
614.50555
 21
51.0
 31
0.0
  0
LINE
  8
L-ZISSEN
 10
627.50555
 20
51.0
 30
0.0
 11
627.50555
 21
61.0
 31
0.0
  0
LINE
  8
L-ZISSEN
 10
614.50555
 20
51.0
 30
0.0
 11
614.50555
 21
61.0
 31
0.0
  0
LINE
  8
L-ZISSEN
 10
582.5
 20
43.0
 30
0.0
 11
582.5
 21
61.0
 31
0.0
  0
LINE
  8
L-ZISSEN
 10
628.70555
 20
60.0
 30
0.0
 11
645.987803
 21
60.0
 31
0.0
  0
LINE
  8
L-ZISSEN
 10
569.290392
 20
61.0
 30
0.0
 11
569.290392
 21
73.0
 31
0.0
  0
LINE
  8
L-ZISSEN
 10
640.709608
 20
61.0
 30
0.0
 11
640.709608
 21
73.0
 31
0.0
  0
CIRCLE
  8
L-ZISSEN
 10
605.0
 20
298.5
 30
0.0
 40
9.3155
  0
LINE
  8
L-ZISSEN
  6
CONTINUOUS
 62
     7
 10
640.0
 20
317.1
 30
0.0
 11
640.0
 21
303.5
 31
0.0
  0
LINE
  8
L-ZISSEN
  6
CONTINUOUS
 62
     7
 10
642.1
 20
251.5
 30
0.0
 11
642.1
 21
303.5
 31
0.0
  0
LINE
  8
L-ZISSEN
  6
CONTINUOUS
 62
     7
 10
644.1
 20
303.5
 30
0.0
 11
644.1
 21
251.5
 31
0.0
  0
LINE
  8
L-ZISSEN
  6
CONTINUOUS
 62
     7
 10
647.4
 20
302.0
 30
0.0
 11
647.4
 21
293.0
 31
0.0
  0
LINE
  8
L-ZISSEN
  6
CONTINUOUS
 62
     7
 10
644.1
 20
293.0
 30
0.0
 11
647.4
 21
293.0
 31
0.0
  0
LINE
  8
L-ZISSEN
  6
CONTINUOUS
 62
     7
 10
644.1
 20
302.0
 30
0.0
 11
647.4
 21
302.0
 31
0.0
  0
LINE
  8
L-ZISSEN
  6
CONTINUOUS
 62
     7
 10
644.1
 20
262.0
 30
0.0
 11
647.4
 21
262.0
 31
0.0
  0
LINE
  8
L-ZISSEN
  6
CONTINUOUS
 62
     7
 10
644.1
 20
253.0
 30
0.0
 11
647.4
 21
253.0
 31
0.0
  0
LINE
  8
L-ZISSEN
  6
CONTINUOUS
 62
     7
 10
647.4
 20
262.0
 30
0.0
 11
647.4
 21
253.0
 31
0.0
  0
LINE
  8
L-ZISSEN
  6
CONTINUOUS
 62
     7
 10
644.1
 20
303.5
 30
0.0
 11
640.0
 21
303.5
 31
0.0
  0
LINE
  8
L-ZISSEN
  6
CONTINUOUS
 62
     7
 10
612.5
 20
311.5
 30
0.0
 11
612.5
 21
309.118381
 31
0.0
  0
LINE
  8
L-ZISSEN
  6
CONTINUOUS
 62
     7
 10
597.5
 20
311.5
 30
0.0
 11
597.5
 21
309.118381
 31
0.0
  0
ARC
  8
L-ZISSEN
  6
CONTINUOUS
 62
     7
 10
605.0
 20
298.5
 30
0.0
 40
13.0
 50
125.234418
 51
54.765582
  0
LINE
  8
L-ZISSEN
  6
CONTINUOUS
 62
     7
 10
570.0
 20
303.5
 30
0.0
 11
557.9
 21
303.5
 31
0.0
  0
LINE
  8
L-ZISSEN
  6
CONTINUOUS
 62
     7
 10
567.9
 20
251.5
 30
0.0
 11
567.9
 21
303.5
 31
0.0
  0
LINE
  8
L-ZISSEN
  6
CONTINUOUS
 62
     7
 10
557.9
 20
303.5
 30
0.0
 11
511.9
 21
301.893644
 31
0.0
  0
LINE
  8
L-ZISSEN
  6
CONTINUOUS
 62
     7
 10
511.9
 20
253.106356
 30
0.0
 11
511.9
 21
301.893644
 31
0.0
  0
LINE
  8
L-ZISSEN
  6
CONTINUOUS
 62
     7
 10
557.9
 20
251.5
 30
0.0
 11
511.9
 21
253.106356
 31
0.0
  0
LINE
  8
L-ZISSEN
  6
CONTINUOUS
 62
     7
 10
570.0
 20
317.1
 30
0.0
 11
570.0
 21
303.5
 31
0.0
  0
LINE
  8
L-ZISSEN
  6
CONTINUOUS
 62
     7
 10
570.1
 20
311.5
 30
0.0
 11
640.0
 21
311.5
 31
0.0
  0
LINE
  8
L-ZISSEN
 10
369.2
 20
251.5
 30
0.0
 11
369.2
 21
317.1
 31
0.0
  0
LINE
  8
L-ZISSEN
 10
369.2
 20
303.5
 30
0.0
 11
317.2
 21
303.5
 31
0.0
  0
LINE
  8
L-ZISSEN
 10
371.2
 20
285.5
 30
0.0
 11
371.2
 21
311.5
 31
0.0
  0
LINE
  8
L-ZISSEN
 10
317.2
 20
317.1
 30
0.0
 11
317.2
 21
251.5
 31
0.0
  0
LINE
  8
L-ZISSEN
 10
371.2
 20
285.5
 30
0.0
 11
369.2
 21
285.5
 31
0.0
  0
LINE
  8
L-ZISSEN
 10
312.8
 20
285.5
 30
0.0
 11
317.2
 21
285.5
 31
0.0
  0
LINE
  8
L-ZISSEN
 10
258.8
 20
285.5
 30
0.0
 11
260.8
 21
285.5
 31
0.0
  0
LINE
  8
L-ZISSEN
 10
258.8
 20
311.5
 30
0.0
 11
371.2
 21
311.5
 31
0.0
  0
LINE
  8
L-ZISSEN
 10
312.8
 20
317.1
 30
0.0
 11
312.8
 21
251.5
 31
0.0
  0
LINE
  8
L-ZISSEN
 10
258.8
 20
285.5
 30
0.0
 11
258.8
 21
311.5
 31
0.0
  0
LINE
  8
L-ZISSEN
 10
260.8
 20
303.5
 30
0.0
 11
312.8
 21
303.5
 31
0.0
  0
LINE
  8
L-ZISSEN
 10
260.8
 20
251.5
 30
0.0
 11
260.8
 21
317.1
 31
0.0
  0
LINE
  8
L-ZISSEN
  6
CONTINUOUS
 62
     7
 10
510.9
 20
266.5
 30
0.0
 11
511.9
 21
266.5
 31
0.0
  0
LINE
  8
L-ZISSEN
  6
CONTINUOUS
 62
     7
 10
510.9
 20
288.5
 30
0.0
 11
510.9
 21
266.5
 31
0.0
  0
LINE
  8
L-ZISSEN
  6
CONTINUOUS
 62
     7
 10
510.9
 20
288.5
 30
0.0
 11
511.9
 21
288.5
 31
0.0
  0
CIRCLE
  8
L-ZISSEN
 10
286.8
 20
277.5
 30
0.0
 40
11.0
  0
CIRCLE
  8
L-ZISSEN
 10
343.2
 20
277.5
 30
0.0
 40
11.0
  0
LINE
  8
L-ZISSEN
  6
CONTINUOUS
 62
     7
 10
632.5
 20
320.7
 30
0.0
 11
639.5
 21
320.7
 31
0.0
  0
LINE
  8
L-ZISSEN
  6
CONTINUOUS
 62
     7
 10
632.5
 20
317.1
 30
0.0
 11
632.5
 21
320.7
 31
0.0
  0
LINE
  8
L-ZISSEN
  6
CONTINUOUS
 62
     7
 10
639.5
 20
317.1
 30
0.0
 11
639.5
 21
320.7
 31
0.0
  0
LINE
  8
L-ZISSEN
  6
CONTINUOUS
 62
     7
 10
640.0
 20
317.1
 30
0.0
 11
570.0
 21
317.1
 31
0.0
  0
LINE
  8
L-ZISSEN
  6
CONTINUOUS
 62
     7
 10
594.0
 20
323.6
 30
0.0
 11
586.0
 21
323.6
 31
0.0
  0
LINE
  8
L-ZISSEN
 10
594.0
 20
323.6
 30
0.0
 11
594.0
 21
317.1
 31
0.0
  0
LINE
  8
L-ZISSEN
 10
586.0
 20
317.1
 30
0.0
 11
586.0
 21
323.6
 31
0.0
  0
LINE
  8
L-ZISSEN
  6
CONTINUOUS
 62
     7
 10
570.5
 20
317.1
 30
0.0
 11
570.5
 21
320.7
 31
0.0
  0
LINE
  8
L-ZISSEN
  6
CONTINUOUS
 62
     7
 10
577.5
 20
317.1
 30
0.0
 11
577.5
 21
320.7
 31
0.0
  0
LINE
  8
L-ZISSEN
  6
CONTINUOUS
 62
     7
 10
577.5
 20
320.7
 30
0.0
 11
570.5
 21
320.7
 31
0.0
  0
LINE
  8
L-ZISSEN
 10
317.2
 20
317.1
 30
0.0
 11
369.2
 21
317.1
 31
0.0
  0
LINE
  8
L-ZISSEN
  6
CONTINUOUS
 62
     7
 10
317.7
 20
317.1
 30
0.0
 11
317.7
 21
320.7
 31
0.0
  0
LINE
  8
L-ZISSEN
  6
CONTINUOUS
 62
     7
 10
324.7
 20
317.1
 30
0.0
 11
324.7
 21
320.7
 31
0.0
  0
LINE
  8
L-ZISSEN
  6
CONTINUOUS
 62
     7
 10
324.7
 20
320.7
 30
0.0
 11
317.7
 21
320.7
 31
0.0
  0
LINE
  8
L-ZISSEN
  6
CONTINUOUS
 62
     7
 10
361.7
 20
320.7
 30
0.0
 11
368.7
 21
320.7
 31
0.0
  0
LINE
  8
L-ZISSEN
  6
CONTINUOUS
 62
     7
 10
361.7
 20
317.1
 30
0.0
 11
361.7
 21
320.7
 31
0.0
  0
LINE
  8
L-ZISSEN
  6
CONTINUOUS
 62
     7
 10
368.7
 20
317.1
 30
0.0
 11
368.7
 21
320.7
 31
0.0
  0
LINE
  8
L-ZISSEN
  6
CONTINUOUS
 62
     7
 10
365.2
 20
323.6
 30
0.0
 11
357.2
 21
323.6
 31
0.0
  0
LINE
  8
L-ZISSEN
 10
365.2
 20
323.6
 30
0.0
 11
365.2
 21
320.7
 31
0.0
  0
LINE
  8
L-ZISSEN
 10
357.2
 20
317.1
 30
0.0
 11
357.2
 21
323.6
 31
0.0
  0
LINE
  8
L-ZISSEN
 10
300.8
 20
317.1
 30
0.0
 11
300.8
 21
323.6
 31
0.0
  0
LINE
  8
L-ZISSEN
 10
308.8
 20
323.6
 30
0.0
 11
308.8
 21
320.7
 31
0.0
  0
LINE
  8
L-ZISSEN
  6
CONTINUOUS
 62
     7
 10
308.8
 20
323.6
 30
0.0
 11
300.8
 21
323.6
 31
0.0
  0
LINE
  8
L-ZISSEN
  6
CONTINUOUS
 62
     7
 10
312.3
 20
317.1
 30
0.0
 11
312.3
 21
320.7
 31
0.0
  0
LINE
  8
L-ZISSEN
  6
CONTINUOUS
 62
     7
 10
305.3
 20
317.1
 30
0.0
 11
305.3
 21
320.7
 31
0.0
  0
LINE
  8
L-ZISSEN
  6
CONTINUOUS
 62
     7
 10
305.3
 20
320.7
 30
0.0
 11
312.3
 21
320.7
 31
0.0
  0
LINE
  8
L-ZISSEN
  6
CONTINUOUS
 62
     7
 10
268.3
 20
320.7
 30
0.0
 11
261.3
 21
320.7
 31
0.0
  0
LINE
  8
L-ZISSEN
  6
CONTINUOUS
 62
     7
 10
268.3
 20
317.1
 30
0.0
 11
268.3
 21
320.7
 31
0.0
  0
LINE
  8
L-ZISSEN
  6
CONTINUOUS
 62
     7
 10
261.3
 20
317.1
 30
0.0
 11
261.3
 21
320.7
 31
0.0
  0
LINE
  8
L-ZISSEN
 10
260.8
 20
317.1
 30
0.0
 11
312.8
 21
317.1
 31
0.0
  0
LINE
  8
L-ZISSEN
  6
CONTINUOUS
 62
     7
 10
297.8
 20
375.9
 30
0.0
 11
297.8
 21
376.9
 31
0.0
  0
LINE
  8
L-ZISSEN
  6
CONTINUOUS
 62
     7
 10
297.8
 20
375.9
 30
0.0
 11
275.8
 21
375.9
 31
0.0
  0
LINE
  8
L-ZISSEN
  6
CONTINUOUS
 62
     7
 10
275.8
 20
375.9
 30
0.0
 11
275.8
 21
376.9
 31
0.0
  0
CIRCLE
  8
L-ZISSEN
 10
304.8
 20
455.0
 30
0.0
 40
4.0
  0
LINE
  8
L-ZISSEN
 10
260.8
 20
422.9
 30
0.0
 11
260.8
 21
509.1
 31
0.0
  0
LINE
  8
L-ZISSEN
  6
CONTINUOUS
 62
     7
 10
260.8
 20
422.9
 30
0.0
 11
262.406356
 21
376.9
 31
0.0
  0
LINE
  8
L-ZISSEN
  6
CONTINUOUS
 62
     7
 10
312.8
 20
422.9
 30
0.0
 11
311.193644
 21
376.9
 31
0.0
  0
LINE
  8
L-ZISSEN
  6
CONTINUOUS
 62
     7
 10
262.406356
 20
376.9
 30
0.0
 11
311.193644
 21
376.9
 31
0.0
  0
LINE
  8
L-ZISSEN
 10
260.8
 20
435.0
 30
0.0
 11
312.8
 21
435.0
 31
0.0
  0
LINE
  8
L-ZISSEN
  6
CONTINUOUS
 62
     7
 10
260.8
 20
432.9
 30
0.0
 11
312.8
 21
432.9
 31
0.0
  0
LINE
  8
L-ZISSEN
 10
258.8
 20
483.0
 30
0.0
 11
260.8
 21
483.0
 31
0.0
  0
LINE
  8
L-ZISSEN
 10
258.8
 20
457.0
 30
0.0
 11
258.8
 21
483.0
 31
0.0
  0
LINE
  8
L-ZISSEN
 10
258.8
 20
457.0
 30
0.0
 11
260.8
 21
457.0
 31
0.0
  0
LINE
  8
L-ZISSEN
 10
312.8
 20
422.9
 30
0.0
 11
312.8
 21
509.1
 31
0.0
  0
LINE
  8
L-ZISSEN
  6
CONTINUOUS
 62
     7
 10
260.8
 20
507.1
 30
0.0
 11
312.8
 21
507.1
 31
0.0
  0
LINE
  8
L-ZISSEN
  6
CONTINUOUS
 62
     7
 10
312.8
 20
509.1
 30
0.0
 11
260.8
 21
509.1
 31
0.0
  0
LINE
  8
L-ZISSEN
  6
CONTINUOUS
 62
     7
 10
311.3
 20
512.4
 30
0.0
 11
302.3
 21
512.4
 31
0.0
  0
LINE
  8
L-ZISSEN
  6
CONTINUOUS
 62
     7
 10
302.3
 20
509.1
 30
0.0
 11
302.3
 21
512.4
 31
0.0
  0
LINE
  8
L-ZISSEN
  6
CONTINUOUS
 62
     7
 10
311.3
 20
509.1
 30
0.0
 11
311.3
 21
512.4
 31
0.0
  0
LINE
  8
L-ZISSEN
  6
CONTINUOUS
 62
     7
 10
271.3
 20
509.1
 30
0.0
 11
271.3
 21
512.4
 31
0.0
  0
LINE
  8
L-ZISSEN
  6
CONTINUOUS
 62
     7
 10
262.3
 20
509.1
 30
0.0
 11
262.3
 21
512.4
 31
0.0
  0
LINE
  8
L-ZISSEN
  6
CONTINUOUS
 62
     7
 10
271.3
 20
512.4
 30
0.0
 11
262.3
 21
512.4
 31
0.0
  0
LINE
  8
L-ZISSEN
 10
260.8
 20
505.0
 30
0.0
 11
312.8
 21
505.0
 31
0.0
  0
LINE
  8
L-ZISSEN
 10
317.2
 20
457.0
 30
0.0
 11
312.8
 21
457.0
 31
0.0
  0
LINE
  8
L-ZISSEN
 10
317.2
 20
483.0
 30
0.0
 11
312.8
 21
483.0
 31
0.0
  0
LINE
  8
L-ZISSEN
 10
260.8
 20
432.5
 30
0.0
 11
243.0
 21
432.5
 31
0.0
  0
LINE
  8
L-ZISSEN
 10
260.8
 20
425.0
 30
0.0
 11
220.0
 21
425.0
 31
0.0
  0
LINE
  8
L-ZISSEN
 10
260.8
 20
507.5
 30
0.0
 11
243.0
 21
507.5
 31
0.0
  0
LINE
  8
L-ZISSEN
 10
317.2
 20
505.0
 30
0.0
 11
369.2
 21
505.0
 31
0.0
  0
LINE
  8
L-ZISSEN
  6
CONTINUOUS
 62
     7
 10
327.7
 20
512.4
 30
0.0
 11
318.7
 21
512.4
 31
0.0
  0
LINE
  8
L-ZISSEN
  6
CONTINUOUS
 62
     7
 10
318.7
 20
509.1
 30
0.0
 11
318.7
 21
512.4
 31
0.0
  0
LINE
  8
L-ZISSEN
  6
CONTINUOUS
 62
     7
 10
327.7
 20
509.1
 30
0.0
 11
327.7
 21
512.4
 31
0.0
  0
LINE
  8
L-ZISSEN
  6
CONTINUOUS
 62
     7
 10
367.7
 20
509.1
 30
0.0
 11
367.7
 21
512.4
 31
0.0
  0
LINE
  8
L-ZISSEN
  6
CONTINUOUS
 62
     7
 10
358.7
 20
509.1
 30
0.0
 11
358.7
 21
512.4
 31
0.0
  0
LINE
  8
L-ZISSEN
  6
CONTINUOUS
 62
     7
 10
367.7
 20
512.4
 30
0.0
 11
358.7
 21
512.4
 31
0.0
  0
LINE
  8
L-ZISSEN
  6
CONTINUOUS
 62
     7
 10
369.2
 20
509.1
 30
0.0
 11
317.2
 21
509.1
 31
0.0
  0
LINE
  8
L-ZISSEN
  6
CONTINUOUS
 62
     7
 10
317.2
 20
507.1
 30
0.0
 11
369.2
 21
507.1
 31
0.0
  0
LINE
  8
L-ZISSEN
 10
369.2
 20
422.9
 30
0.0
 11
369.2
 21
509.1
 31
0.0
  0
LINE
  8
L-ZISSEN
  6
CONTINUOUS
 62
     7
 10
317.2
 20
432.9
 30
0.0
 11
369.2
 21
432.9
 31
0.0
  0
LINE
  8
L-ZISSEN
 10
317.2
 20
435.0
 30
0.0
 11
369.2
 21
435.0
 31
0.0
  0
LINE
  8
L-ZISSEN
  6
CONTINUOUS
 62
     7
 10
318.806356
 20
376.9
 30
0.0
 11
367.593644
 21
376.9
 31
0.0
  0
LINE
  8
L-ZISSEN
  6
CONTINUOUS
 62
     7
 10
369.2
 20
422.9
 30
0.0
 11
367.593644
 21
376.9
 31
0.0
  0
LINE
  8
L-ZISSEN
  6
CONTINUOUS
 62
     7
 10
317.2
 20
422.9
 30
0.0
 11
318.806356
 21
376.9
 31
0.0
  0
LINE
  8
L-ZISSEN
 10
317.2
 20
422.9
 30
0.0
 11
317.2
 21
509.1
 31
0.0
  0
CIRCLE
  8
L-ZISSEN
 10
361.2
 20
455.0
 30
0.0
 40
4.0
  0
LINE
  8
L-ZISSEN
  6
CONTINUOUS
 62
     7
 10
332.2
 20
375.9
 30
0.0
 11
332.2
 21
376.9
 31
0.0
  0
LINE
  8
L-ZISSEN
  6
CONTINUOUS
 62
     7
 10
354.2
 20
375.9
 30
0.0
 11
332.2
 21
375.9
 31
0.0
  0
LINE
  8
L-ZISSEN
  6
CONTINUOUS
 62
     7
 10
354.2
 20
375.9
 30
0.0
 11
354.2
 21
376.9
 31
0.0
  0
LINE
  8
L-ZISSEN
 10
371.2
 20
483.0
 30
0.0
 11
369.2
 21
483.0
 31
0.0
  0
LINE
  8
L-ZISSEN
 10
371.2
 20
457.0
 30
0.0
 11
371.2
 21
483.0
 31
0.0
  0
LINE
  8
L-ZISSEN
 10
371.2
 20
457.0
 30
0.0
 11
369.2
 21
457.0
 31
0.0
  0
LINE
  8
L-ZISSEN
 10
315.0
 20
285.5
 30
0.0
 11
315.0
 21
311.5
 31
0.0
  0
LINE
  8
L-ZISSEN
 10
315.0
 20
457.0
 30
0.0
 11
315.0
 21
483.0
 31
0.0
  0
LINE
  8
L-ZISSEN
 10
317.2
 20
425.0
 30
0.0
 11
312.8
 21
425.0
 31
0.0
  0
LINE
  8
L-ZISSEN
 10
317.2
 20
432.5
 30
0.0
 11
312.8
 21
432.5
 31
0.0
  0
LINE
  8
L-ZISSEN
 10
317.2
 20
507.5
 30
0.0
 11
312.8
 21
507.5
 31
0.0
  0
CIRCLE
  8
L-ZISSEN
 10
264.8
 20
439.0
 30
0.0
 40
3.5
  0
CIRCLE
  8
L-ZISSEN
 10
308.8
 20
439.0
 30
0.0
 40
3.5
  0
CIRCLE
  8
L-ZISSEN
 10
308.8
 20
501.0
 30
0.0
 40
3.5
  0
CIRCLE
  8
L-ZISSEN
 10
264.8
 20
501.0
 30
0.0
 40
3.5
  0
CIRCLE
  8
L-ZISSEN
 10
321.2
 20
501.0
 30
0.0
 40
3.5
  0
CIRCLE
  8
L-ZISSEN
 10
365.2
 20
501.0
 30
0.0
 40
3.5
  0
CIRCLE
  8
L-ZISSEN
 10
365.2
 20
439.0
 30
0.0
 40
3.5
  0
CIRCLE
  8
L-ZISSEN
 10
321.2
 20
439.0
 30
0.0
 40
3.5
  0
SOLID
  8
L-ZISSEN
 10
445.9891
 20
138.230031
 30
0.0
 11
446.50968
 21
138.646494
 31
0.0
 12
445.0
 22
140.0
 32
0.0
 13
445.0
 23
140.0
 33
0.0
  0
LINE
  8
L-ZISSEN
 10
446.24939
 20
138.438262
 30
0.0
 11
465.0
 21
115.0
 31
0.0
  0
LINE
  8
L-ZISSEN
 10
465.0
 20
115.0
 30
0.0
 11
467.0
 21
115.0
 31
0.0
  0
TEXT
  8
L-ZISSEN
 10
469.0
 20
112.75
 30
0.0
 40
4.5
  1
IN
  0
TEXT
  8
L-ZISSEN
 10
470.0
 20
105.0
 30
0.0
 40
4.5
  1
Rc 1-1/2
  0
ENDSEC
  0
EOF
