  0
SECTION
  2
HEADER
  9
$ACADVER
  1
AC1012
  9
$DWGCODEPAGE
  3
dos932
  9
$INSBASE
 10
0.0
 20
0.0
 30
0.0
  9
$EXTMIN
 10
-169.457354481296
 20
-2431.513929900372
 30
-0.0000000000000058
  9
$EXTMAX
 10
447.5551911429618
 20
-1934.149319944669
 30
0.0000000000000104
  9
$LIMMIN
 10
0.0
 20
0.0
  9
$LIMMAX
 10
297.0
 20
210.0
  9
$ORTHOMODE
 70
     1
  9
$REGENMODE
 70
     1
  9
$FILLMODE
 70
     1
  9
$QTEXTMODE
 70
     0
  9
$MIRRTEXT
 70
     1
  9
$DRAGMODE
 70
     2
  9
$LTSCALE
 40
1.0
  9
$OSMODE
 70
    39
  9
$ATTMODE
 70
     1
  9
$TEXTSIZE
 40
5.599999999999999
  9
$TRACEWID
 40
0.05
  9
$TEXTSTYLE
  7
STANDARD
  9
$CLAYER
  8
L-TYUSIN
  9
$CELTYPE
  6
BYLAYER
  9
$CECOLOR
 62
   256
  9
$CELTSCALE
 40
1.0
  9
$DELOBJ
 70
     1
  9
$DISPSILH
 70
     0
  9
$DIMSCALE
 40
2.0
  9
$DIMASZ
 40
2.0
  9
$DIMEXO
 40
1.0
  9
$DIMDLI
 40
8.0
  9
$DIMRND
 40
0.0
  9
$DIMDLE
 40
0.0
  9
$DIMEXE
 40
0.8
  9
$DIMTP
 40
0.0
  9
$DIMTM
 40
0.0
  9
$DIMTXT
 40
2.799999999999999
  9
$DIMCEN
 40
0.0
  9
$DIMTSZ
 40
0.0
  9
$DIMTOL
 70
     0
  9
$DIMLIM
 70
     0
  9
$DIMTIH
 70
     0
  9
$DIMTOH
 70
     0
  9
$DIMSE1
 70
     0
  9
$DIMSE2
 70
     0
  9
$DIMTAD
 70
     0
  9
$DIMZIN
 70
    12
  9
$DIMBLK
  1

  9
$DIMASO
 70
     1
  9
$DIMSHO
 70
     0
  9
$DIMPOST
  1

  9
$DIMAPOST
  1

  9
$DIMALT
 70
     0
  9
$DIMALTD
 70
     2
  9
$DIMALTF
 40
25.4
  9
$DIMLFAC
 40
1.0
  9
$DIMTOFL
 70
     1
  9
$DIMTVP
 40
1.0
  9
$DIMTIX
 70
     1
  9
$DIMSOXD
 70
     0
  9
$DIMSAH
 70
     0
  9
$DIMBLK1
  1

  9
$DIMBLK2
  1

  9
$DIMSTYLE
  2
STANDARD
  9
$DIMCLRD
 70
     0
  9
$DIMCLRE
 70
     0
  9
$DIMCLRT
 70
     0
  9
$DIMTFAC
 40
1.0
  9
$DIMGAP
 40
0.8
  9
$DIMJUST
 70
     0
  9
$DIMSD1
 70
     0
  9
$DIMSD2
 70
     0
  9
$DIMTOLJ
 70
     1
  9
$DIMTZIN
 70
     0
  9
$DIMALTZ
 70
     0
  9
$DIMALTTZ
 70
     0
  9
$DIMFIT
 70
     3
  9
$DIMUPT
 70
     0
  9
$DIMUNIT
 70
     2
  9
$DIMDEC
 70
     8
  9
$DIMTDEC
 70
     8
  9
$DIMALTU
 70
     2
  9
$DIMALTTD
 70
     2
  9
$DIMTXSTY
  7
STANDARD
  9
$DIMAUNIT
 70
     0
  9
$LUNITS
 70
     2
  9
$LUPREC
 70
     4
  9
$SKETCHINC
 40
0.1
  9
$FILLETRAD
 40
1.5
  9
$AUNITS
 70
     0
  9
$AUPREC
 70
     0
  9
$MENU
  1
.
  9
$ELEVATION
 40
0.0
  9
$PELEVATION
 40
0.0
  9
$THICKNESS
 40
0.0
  9
$LIMCHECK
 70
     0
  9
$BLIPMODE
 70
     0
  9
$CHAMFERA
 40
4.0
  9
$CHAMFERB
 40
4.0
  9
$CHAMFERC
 40
0.0
  9
$CHAMFERD
 40
0.0
  9
$SKPOLY
 70
     0
  9
$TDCREATE
 40
2453354.092125822
  9
$TDUPDATE
 40
2455065.449729629
  9
$TDINDWG
 40
10.8660262153
  9
$TDUSRTIMER
 40
10.8660262153
  9
$USRTIMER
 70
     1
  9
$ANGBASE
 50
0.0
  9
$ANGDIR
 70
     0
  9
$PDMODE
 70
     0
  9
$PDSIZE
 40
0.0
  9
$PLINEWID
 40
0.0
  9
$COORDS
 70
     2
  9
$SPLFRAME
 70
     0
  9
$SPLINETYPE
 70
     6
  9
$SPLINESEGS
 70
     8
  9
$ATTDIA
 70
     0
  9
$ATTREQ
 70
     1
  9
$HANDLING
 70
-16383
  9
$HANDSEED
  5
DE05
  9
$SURFTAB1
 70
     6
  9
$SURFTAB2
 70
     6
  9
$SURFTYPE
 70
     6
  9
$SURFU
 70
     6
  9
$SURFV
 70
     6
  9
$UCSNAME
  2

  9
$UCSORG
 10
0.0
 20
0.0
 30
0.0
  9
$UCSXDIR
 10
1.0
 20
0.0
 30
0.0
  9
$UCSYDIR
 10
0.0
 20
1.0
 30
0.0
  9
$PUCSNAME
  2

  9
$PUCSORG
 10
0.0
 20
0.0
 30
0.0
  9
$PUCSXDIR
 10
1.0
 20
0.0
 30
0.0
  9
$PUCSYDIR
 10
0.0
 20
1.0
 30
0.0
  9
$USERI1
 70
     0
  9
$USERI2
 70
     0
  9
$USERI3
 70
     0
  9
$USERI4
 70
     0
  9
$USERI5
 70
     0
  9
$USERR1
 40
0.0
  9
$USERR2
 40
0.0
  9
$USERR3
 40
0.0
  9
$USERR4
 40
0.0
  9
$USERR5
 40
0.0
  9
$WORLDVIEW
 70
     1
  9
$SHADEDGE
 70
     3
  9
$SHADEDIF
 70
    70
  9
$TILEMODE
 70
     1
  9
$MAXACTVP
 70
    48
  9
$PINSBASE
 10
0.0
 20
0.0
 30
0.0
  9
$PLIMCHECK
 70
     0
  9
$PEXTMIN
 10
0.0
 20
0.0
 30
0.0
  9
$PEXTMAX
 10
0.0
 20
0.0
 30
0.0
  9
$PLIMMIN
 10
0.0
 20
0.0
  9
$PLIMMAX
 10
0.0
 20
0.0
  9
$UNITMODE
 70
     0
  9
$VISRETAIN
 70
     0
  9
$PLINEGEN
 70
     0
  9
$PSLTSCALE
 70
     0
  9
$TREEDEPTH
 70
  3020
  9
$PICKSTYLE
 70
     1
  9
$CMLSTYLE
  2
STANDARD
  9
$CMLJUST
 70
     0
  9
$CMLSCALE
 40
1.0
  9
$SAVEIMAGES
 70
     1
  0
ENDSEC
  0
SECTION
  2
CLASSES
  0
CLASS
  1
ACDBDICTIONARYWDFLT
  2
AcDbDictionaryWithDefault
  3
AutoCAD 2000
 90
    32768
280
     0
281
     0
  0
CLASS
  1
ACDBPLACEHOLDER
  2
AcDbPlaceHolder
  3
AutoCAD 2000
 90
    32768
280
     0
281
     0
  0
CLASS
  1
LAYOUT
  2
AcDbLayout
  3
AutoCAD 2000
 90
    32768
280
     0
281
     0
  0
CLASS
  1
DICTIONARYVAR
  2
AcDbDictionaryVar
  3
AutoCAD 2000
 90
    32768
280
     0
281
     0
  0
CLASS
  1
TABLESTYLE
  2
AcDbTableStyle
  3
ObjectDBX Classes
 90
    34815
280
     1
281
     0
  0
CLASS
  1
ACAD_PROXY_OBJECT_WRAPPER
  2
AcDbProxyObjectWrapper
  3
AutoCAD 2000
 90
    32768
280
     0
281
     0
  0
CLASS
  1
LONG_TRANSACTION
  2
AcDbLongTransaction
  3
AutoCAD 2000
 90
    32768
280
     0
281
     0
  0
CLASS
  1
LWPOLYLINE
  2
AcDbPolyline
  3
AutoCAD 2000
 90
    32768
280
     0
281
     1
  0
CLASS
  1
HATCH
  2
AcDbHatch
  3
AutoCAD 2000
 90
    32768
280
     0
281
     1
  0
CLASS
  1
XRECORD
  2
AcDbXrecord
  3
AutoCAD 2000
 90
    32768
280
     0
281
     0
  0
CLASS
  1
LONG_TRANSACTION
  2
AcDbLongTransaction
  3
AutoCAD 2000
 90
    32768
280
     0
281
     0
  0
CLASS
  1
LWPOLYLINE
  2
AcDbPolyline
  3
AutoCAD 2000
 90
    32768
280
     0
281
     1
  0
CLASS
  1
HATCH
  2
AcDbHatch
  3
AutoCAD 2000
 90
    32768
280
     0
281
     1
  0
CLASS
  1
XRECORD
  2
AcDbXrecord
  3
AutoCAD 2000
 90
    32768
280
     0
281
     0
  0
CLASS
  1
LONG_TRANSACTION
  2
AcDbLongTransaction
  3
AutoCAD 2000
 90
    32768
280
     0
281
     0
  0
CLASS
  1
LWPOLYLINE
  2
AcDbPolyline
  3
AutoCAD 2000
 90
    32768
280
     0
281
     1
  0
CLASS
  1
HATCH
  2
AcDbHatch
  3
AutoCAD 2000
 90
    32768
280
     0
281
     1
  0
CLASS
  1
XRECORD
  2
AcDbXrecord
  3
AutoCAD 2000
 90
    32768
280
     0
281
     0
  0
CLASS
  1
LONG_TRANSACTION
  2
AcDbLongTransaction
  3
AutoCAD 2000
 90
    32768
280
     0
281
     0
  0
CLASS
  1
LWPOLYLINE
  2
AcDbPolyline
  3
AutoCAD 2000
 90
    32768
280
     0
281
     1
  0
CLASS
  1
HATCH
  2
AcDbHatch
  3
AutoCAD 2000
 90
    32768
280
     0
281
     1
  0
CLASS
  1
XRECORD
  2
AcDbXrecord
  3
AutoCAD 2000
 90
    32768
280
     0
281
     0
  0
CLASS
  1
LONG_TRANSACTION
  2
AcDbLongTransaction
  3
AutoCAD 2000
 90
    32768
280
     0
281
     0
  0
CLASS
  1
LWPOLYLINE
  2
AcDbPolyline
  3
AutoCAD 2000
 90
    32768
280
     0
281
     1
  0
CLASS
  1
HATCH
  2
AcDbHatch
  3
AutoCAD 2000
 90
    32768
280
     0
281
     1
  0
CLASS
  1
XRECORD
  2
AcDbXrecord
  3
AutoCAD 2000
 90
    32768
280
     0
281
     0
  0
CLASS
  1
LONG_TRANSACTION
  2
AcDbLongTransaction
  3
AutoCAD 2000
 90
    32768
280
     0
281
     0
  0
CLASS
  1
LWPOLYLINE
  2
AcDbPolyline
  3
AutoCAD 2000
 90
    32768
280
     0
281
     1
  0
CLASS
  1
HATCH
  2
AcDbHatch
  3
AutoCAD 2000
 90
    32768
280
     0
281
     1
  0
CLASS
  1
XRECORD
  2
AcDbXrecord
  3
AutoCAD 2000
 90
    32768
280
     0
281
     0
  0
CLASS
  1
LONG_TRANSACTION
  2
AcDbLongTransaction
  3
AutoCAD 2000
 90
    32768
280
     0
281
     0
  0
CLASS
  1
LWPOLYLINE
  2
AcDbPolyline
  3
AutoCAD 2000
 90
    32768
280
     0
281
     1
  0
CLASS
  1
HATCH
  2
AcDbHatch
  3
AutoCAD 2000
 90
    32768
280
     0
281
     1
  0
CLASS
  1
XRECORD
  2
AcDbXrecord
  3
AutoCAD 2000
 90
    32768
280
     0
281
     0
  0
CLASS
  1
LONG_TRANSACTION
  2
AcDbLongTransaction
  3
AutoCAD 2000
 90
    32768
280
     0
281
     0
  0
CLASS
  1
LWPOLYLINE
  2
AcDbPolyline
  3
AutoCAD 2000
 90
    32768
280
     0
281
     1
  0
CLASS
  1
HATCH
  2
AcDbHatch
  3
AutoCAD 2000
 90
    32768
280
     0
281
     1
  0
CLASS
  1
XRECORD
  2
AcDbXrecord
  3
AutoCAD 2000
 90
    32768
280
     0
281
     0
  0
CLASS
  1
LONG_TRANSACTION
  2
AcDbLongTransaction
  3
AutoCAD 2000
 90
    32768
280
     0
281
     0
  0
CLASS
  1
LWPOLYLINE
  2
AcDbPolyline
  3
AutoCAD 2000
 90
    32768
280
     0
281
     1
  0
CLASS
  1
HATCH
  2
AcDbHatch
  3
AutoCAD 2000
 90
    32768
280
     0
281
     1
  0
CLASS
  1
XRECORD
  2
AcDbXrecord
  3
AutoCAD 2000
 90
    32768
280
     0
281
     0
  0
CLASS
  1
LONG_TRANSACTION
  2
AcDbLongTransaction
  3
AutoCAD 2000
 90
    32768
280
     0
281
     0
  0
CLASS
  1
LWPOLYLINE
  2
AcDbPolyline
  3
AutoCAD 2000
 90
    32768
280
     0
281
     1
  0
CLASS
  1
HATCH
  2
AcDbHatch
  3
AutoCAD 2000
 90
    32768
280
     0
281
     1
  0
CLASS
  1
XRECORD
  2
AcDbXrecord
  3
AutoCAD 2000
 90
    32768
280
     0
281
     0
  0
CLASS
  1
LONG_TRANSACTION
  2
AcDbLongTransaction
  3
AutoCAD 2000
 90
    32768
280
     0
281
     0
  0
CLASS
  1
LWPOLYLINE
  2
AcDbPolyline
  3
AutoCAD 2000
 90
    32768
280
     0
281
     1
  0
CLASS
  1
HATCH
  2
AcDbHatch
  3
AutoCAD 2000
 90
    32768
280
     0
281
     1
  0
CLASS
  1
XRECORD
  2
AcDbXrecord
  3
AutoCAD 2000
 90
    32768
280
     0
281
     0
  0
CLASS
  1
LONG_TRANSACTION
  2
AcDbLongTransaction
  3
AutoCAD 2000
 90
    32768
280
     0
281
     0
  0
CLASS
  1
LWPOLYLINE
  2
AcDbPolyline
  3
AutoCAD 2000
 90
    32768
280
     0
281
     1
  0
CLASS
  1
HATCH
  2
AcDbHatch
  3
AutoCAD 2000
 90
    32768
280
     0
281
     1
  0
CLASS
  1
XRECORD
  2
AcDbXrecord
  3
AutoCAD 2000
 90
    32768
280
     0
281
     0
  0
CLASS
  1
LONG_TRANSACTION
  2
AcDbLongTransaction
  3
AutoCAD 2000
 90
    32768
280
     0
281
     0
  0
CLASS
  1
LWPOLYLINE
  2
AcDbPolyline
  3
AutoCAD 2000
 90
    32768
280
     0
281
     1
  0
CLASS
  1
HATCH
  2
AcDbHatch
  3
AutoCAD 2000
 90
    32768
280
     0
281
     1
  0
CLASS
  1
XRECORD
  2
AcDbXrecord
  3
AutoCAD 2000
 90
    32768
280
     0
281
     0
  0
ENDSEC
  0
SECTION
  2
TABLES
  0
TABLE
  2
VPORT
  5
1E
330
0
100
AcDbSymbolTable
 70
     3
  0
VPORT
  5
DDF4
330
1E
100
AcDbSymbolTableRecord
100
AcDbViewportTableRecord
  2
*ACTIVE
 70
     0
 10
0.0
 20
0.0
 11
1.0
 21
1.0
 12
139.0489183308328
 22
-2182.831624922521
 13
0.0
 23
0.0
 14
1.0
 24
1.0
 15
4.0
 25
4.0
 16
0.0
 26
0.0
 36
1.0
 17
0.0
 27
0.0
 37
0.0
 40
500.5091701872454
 41
1.60759493670886
 42
50.0
 43
0.0
 44
0.0
 50
0.0
 51
0.0
 71
    16
 72
   100
 73
     1
 74
     0
 75
     0
 76
     0
 77
     0
 78
     0
  0
ENDTAB
  0
TABLE
  2
LTYPE
  5
19
330
0
100
AcDbSymbolTable
 70
     3
  0
LTYPE
  5
1A
330
19
100
AcDbSymbolTableRecord
100
AcDbLinetypeTableRecord
  2
BYBLOCK
 70
     0
  3

 72
    65
 73
     0
 40
0.0
  0
LTYPE
  5
1B
330
19
100
AcDbSymbolTableRecord
100
AcDbLinetypeTableRecord
  2
BYLAYER
 70
     0
  3

 72
    65
 73
     0
 40
0.0
  0
LTYPE
  5
B
330
19
100
AcDbSymbolTableRecord
100
AcDbLinetypeTableRecord
  2
CONTINUOUS
 70
     0
  3
Solid line
 72
    65
 73
     0
 40
0.0
  0
LTYPE
  5
32
330
19
100
AcDbSymbolTableRecord
100
AcDbLinetypeTableRecord
  2
CENTER
 70
     0
  3

 72
    65
 73
     4
 40
18.0
 49
15.0
 74
     4
 75
     0
340
0
 46
1.0
 50
0.0
 44
0.0
 45
0.0
 49
-1.0
 74
     4
 75
     0
340
0
 46
1.0
 50
0.0
 44
0.0
 45
0.0
 49
1.0
 74
     4
 75
     0
340
0
 46
1.0
 50
0.0
 44
0.0
 45
0.0
 49
-1.0
 74
     4
 75
     0
340
0
 46
1.0
 50
0.0
 44
0.0
 45
0.0
  0
LTYPE
  5
DCC1
330
19
100
AcDbSymbolTableRecord
100
AcDbLinetypeTableRecord
  2
PHANTOM
 70
     0
  3
----- - - ----- - - ----- - - ----- - - -----
 72
    65
 73
     6
 40
22.5
 49
15.0
 74
     4
 75
     0
340
0
 46
1.0
 50
0.0
 44
0.0
 45
0.0
 49
-1.5
 74
     4
 75
     0
340
0
 46
1.0
 50
0.0
 44
0.0
 45
0.0
 49
1.5
 74
     4
 75
     0
340
0
 46
1.0
 50
0.0
 44
0.0
 45
0.0
 49
-1.5
 74
     4
 75
     0
340
0
 46
1.0
 50
0.0
 44
0.0
 45
0.0
 49
1.5
 74
     4
 75
     0
340
0
 46
1.0
 50
0.0
 44
0.0
 45
0.0
 49
-1.5
 74
     4
 75
     0
340
0
 46
1.0
 50
0.0
 44
0.0
 45
0.0
  0
ENDTAB
  0
TABLE
  2
LAYER
  5
15
102
{ACAD_XDICTIONARY
360
8E1
102
}
330
0
100
AcDbSymbolTable
 70
     5
  0
LAYER
  5
6
330
15
100
AcDbSymbolTableRecord
100
AcDbLayerTableRecord
  2
0
 70
     0
 62
     7
  6
CONTINUOUS
  0
LAYER
  5
34
330
15
100
AcDbSymbolTableRecord
100
AcDbLayerTableRecord
  2
L-ZISSEN
 70
     0
 62
     7
  6
CONTINUOUS
  0
LAYER
  5
31
330
15
100
AcDbSymbolTableRecord
100
AcDbLayerTableRecord
  2
L-TYUSIN
 70
     0
 62
     1
  6
CENTER
  0
LAYER
  5
26
330
15
100
AcDbSymbolTableRecord
100
AcDbLayerTableRecord
  2
SUNPOU
 70
     0
 62
     3
  6
CONTINUOUS
  0
LAYER
  5
DCC2
330
15
100
AcDbSymbolTableRecord
100
AcDbLayerTableRecord
  2
L-SOUZOU
 70
     0
 62
     2
  6
PHANTOM
  0
ENDTAB
  0
TABLE
  2
STYLE
  5
16
330
0
100
AcDbSymbolTable
 70
     1
  0
STYLE
  5
17
330
16
100
AcDbSymbolTableRecord
100
AcDbTextStyleTableRecord
  2
STANDARD
 70
     0
 40
0.0
 41
1.0
 50
0.0
 71
     0
 42
5.599999999999999
  3
txt.shx
  4

  0
ENDTAB
  0
TABLE
  2
VIEW
  5
1C
330
0
100
AcDbSymbolTable
 70
     0
  0
ENDTAB
  0
TABLE
  2
UCS
  5
1D
330
0
100
AcDbSymbolTable
 70
     0
  0
ENDTAB
  0
TABLE
  2
APPID
  5
20
330
0
100
AcDbSymbolTable
 70
     1
  0
APPID
  5
A
330
20
100
AcDbSymbolTableRecord
100
AcDbRegAppTableRecord
  2
ACAD
 70
     0
  0
ENDTAB
  0
TABLE
  2
DIMSTYLE
  5
21
330
0
100
AcDbSymbolTable
 70
     1
  0
DIMSTYLE
105
28
330
21
100
AcDbSymbolTableRecord
100
AcDbDimStyleTableRecord
  2
STANDARD
 70
     0
  3

  4

  5

  6

  7

 40
1.0
 41
0.18
 42
0.0625
 43
0.38
 44
0.18
 45
0.0
 46
0.0
 47
0.0
 48
0.0
140
0.18
141
0.09
142
0.0
143
25.4
144
1.0
145
0.0
146
1.0
147
0.09
 71
     0
 72
     0
 73
     1
 74
     1
 75
     0
 76
     0
 77
     0
 78
     0
170
     0
171
     2
172
     0
173
     0
174
     0
175
     0
176
     0
177
     0
178
     0
270
     2
271
     4
272
     4
273
     2
274
     2
340
17
275
     0
280
     0
281
     0
282
     0
283
     1
284
     0
285
     0
286
     0
287
     3
288
     0
  0
ENDTAB
  0
TABLE
  2
BLOCK_RECORD
  5
1
330
0
100
AcDbSymbolTable
 70
     0
  0
BLOCK_RECORD
  5
2
102
{ACAD_XDICTIONARY
360
3
102
}
330
1
100
AcDbSymbolTableRecord
100
AcDbBlockTableRecord
  2
*MODEL_SPACE
  0
BLOCK_RECORD
  5
F
102
{ACAD_XDICTIONARY
360
10
102
}
330
1
100
AcDbSymbolTableRecord
100
AcDbBlockTableRecord
  2
*PAPER_SPACE
  0
ENDTAB
  0
ENDSEC
  0
SECTION
  2
BLOCKS
  0
BLOCK
  5
5
330
2
100
AcDbEntity
  8
0
100
AcDbBlockBegin
  2
*MODEL_SPACE
 70
     0
 10
0.0
 20
0.0
 30
0.0
  3
*MODEL_SPACE
  1

  0
ENDBLK
  5
C
330
2
100
AcDbEntity
  8
0
100
AcDbBlockEnd
  0
BLOCK
  5
12
330
F
100
AcDbEntity
 67
     1
  8
0
100
AcDbBlockBegin
  2
*PAPER_SPACE
 70
     0
 10
0.0
 20
0.0
 30
0.0
  3
*PAPER_SPACE
  1

  0
ENDBLK
  5
13
330
F
100
AcDbEntity
 67
     1
  8
0
100
AcDbBlockEnd
  0
ENDSEC
  0
SECTION
  2
ENTITIES
  0
LINE
  5
D085
330
2
100
AcDbEntity
  8
L-TYUSIN
100
AcDbLine
 10
197.5437025631246
 20
-2202.460951410232
 30
0.0
 11
447.5437025631246
 21
-2202.460951410232
 31
0.0
  0
TEXT
  5
D086
330
2
100
AcDbEntity
  8
L-ZISSEN
100
AcDbText
 10
219.4526188643544
 20
-2235.072192997639
 30
0.0
 40
4.5
  1
MODEL NO. F64- 00-*210
100
AcDbText
  0
TEXT
  5
D087
330
2
100
AcDbEntity
  8
L-ZISSEN
100
AcDbText
 10
219.4526188643544
 20
-1993.293725444551
 30
0.0
 40
4.5
  1
MODEL NO. F68- 00-*020
100
AcDbText
  0
LINE
  5
D088
330
2
100
AcDbEntity
  8
L-ZISSEN
100
AcDbLine
 10
251.0072600039299
 20
-2035.180582610903
 30
0.0
 11
237.5437025631248
 21
-2023.960951410233
 31
0.0
  0
LINE
  5
D089
330
2
100
AcDbEntity
  8
L-ZISSEN
100
AcDbLine
 10
251.0072600039299
 20
-2284.916512650541
 30
0.0
 11
237.5437025631248
 21
-2273.696881449871
 31
0.0
  0
ARC
  5
D08A
330
2
100
AcDbEntity
  8
L-ZISSEN
100
AcDbCircle
 10
252.5437025631223
 20
-2052.947545891576
 30
0.0
 40
99.53938471878538
100
AcDbArc
 50
256.0937629349463
 51
263.0758486315294
  0
LINE
  5
D08B
330
2
100
AcDbEntity
  8
L-ZISSEN
100
AcDbLine
 10
234.0437025631253
 20
-2299.695861950164
 30
0.0
 11
248.7937025631246
 21
-2299.695861950164
 31
0.0
  0
LINE
  5
D08C
330
2
100
AcDbEntity
  8
L-ZISSEN
100
AcDbLine
 10
243.1085352949057
 20
-2389.695861950166
 30
0.0
 11
234.1516752313083
 21
-2388.646957584238
 31
0.0
  0
LINE
  5
D08D
330
2
100
AcDbEntity
  8
L-ZISSEN
100
AcDbLine
 10
223.2878355016436
 20
-2299.695861950165
 30
0.0
 11
225.0036965036203
 21
-2378.941455281105
 31
0.0
  0
LINE
  5
D08E
330
2
100
AcDbEntity
  8
L-TYUSIN
100
AcDbLine
 10
197.5437025631246
 20
-2431.352845316006
 30
0.0
 11
197.5437025631246
 21
-1981.352802088991
 31
0.0
  0
ARC
  5
D091
330
2
100
AcDbEntity
  8
L-ZISSEN
100
AcDbCircle
 10
235.0003569118654
 20
-2378.683035695489
 30
0.0
 40
10.0
100
AcDbArc
 50
181.0000000000278
 51
265.1315559371177
  0
LINE
  5
D092
330
2
100
AcDbEntity
  8
L-ZISSEN
100
AcDbLine
 10
222.5437025631219
 20
-2141.803941017046
 30
0.0
 11
222.5437025631246
 21
-2036.460951410232
 31
0.0
  0
LINE
  5
D093
330
2
100
AcDbEntity
  8
L-ZISSEN
100
AcDbLine
 10
227.2637025631222
 20
-2046.799690321864
 30
0.0
 11
227.2637025631249
 21
-2129.299690321865
 31
0.0
  0
LINE
  5
D094
330
2
100
AcDbEntity
  8
L-ZISSEN
100
AcDbLine
 10
235.6937025631252
 20
-2046.799690321864
 30
0.0
 11
235.6937025631252
 21
-2129.299690321863
 31
0.0
  0
TEXT
  5
D095
330
2
100
AcDbEntity
  8
L-ZISSEN
100
AcDbText
 10
224.5437025631248
 20
-2275.946881449871
 30
0.0
 40
4.5
  1
P.P
100
AcDbText
  0
LINE
  5
D096
330
2
100
AcDbEntity
  8
L-ZISSEN
100
AcDbLine
 10
222.5877179628978
 20
-2299.695861950165
 30
0.0
 11
226.0437025631253
 21
-2299.695861950165
 31
0.0
  0
LINE
  5
D097
330
2
100
AcDbEntity
  8
L-ZISSEN
100
AcDbLine
 10
222.3403316280907
 20
-2286.196881449871
 30
0.0
 11
222.5877179628978
 21
-2299.695861950165
 31
0.0
  0
LINE
  5
D098
330
2
100
AcDbEntity
  8
L-ZISSEN
100
AcDbLine
 10
226.0437025631253
 20
-2289.695861950166
 30
0.0
 11
234.0437025631253
 21
-2289.695861950166
 31
0.0
  0
LINE
  5
D099
330
2
100
AcDbEntity
  8
L-ZISSEN
100
AcDbLine
 10
226.0437025631253
 20
-2289.695861950166
 30
0.0
 11
226.0437025631253
 21
-2299.695861950165
 31
0.0
  0
LINE
  5
D09A
330
2
100
AcDbEntity
  8
L-ZISSEN
100
AcDbLine
 10
237.5437025631248
 20
-2273.696881449871
 30
0.0
 11
235.5437025631248
 21
-2273.696881449871
 31
0.0
  0
LINE
  5
D09B
330
2
100
AcDbEntity
  8
L-ZISSEN
100
AcDbLine
 10
234.0437025631253
 20
-2289.695861950166
 30
0.0
 11
234.0437025631253
 21
-2299.695861950165
 31
0.0
  0
ARC
  5
D09C
330
2
100
AcDbEntity
  8
L-ZISSEN
100
AcDbCircle
 10
230.5437025631219
 20
-2141.803941017046
 30
0.0
 40
8.000000000000113
100
AcDbArc
 50
180.0
 51
256.093762934765
  0
LINE
  5
D09D
330
2
100
AcDbEntity
  8
L-ZISSEN
100
AcDbLine
 10
235.6937025631229
 20
-2129.299690321864
 30
0.0
 11
231.4787025631214
 21
-2131.299690321865
 31
0.0
  0
LINE
  5
D09E
330
2
100
AcDbEntity
  8
L-ZISSEN
100
AcDbLine
 10
231.4787025631214
 20
-2131.299690321865
 30
0.0
 11
227.2637025631222
 21
-2129.299690321864
 31
0.0
  0
TEXT
  5
D09F
330
2
100
AcDbEntity
  8
L-ZISSEN
100
AcDbText
 10
224.5437025631248
 20
-2026.210951410233
 30
0.0
 40
4.5
  1
P.P
100
AcDbText
  0
LINE
  5
D0A0
330
2
100
AcDbEntity
  8
L-ZISSEN
100
AcDbLine
 10
227.2637025631222
 20
-2046.799690321864
 30
0.0
 11
235.6937025631252
 21
-2046.799690321864
 31
0.0
  0
LINE
  5
D0A1
330
2
100
AcDbEntity
  8
L-ZISSEN
100
AcDbLine
 10
237.5437025631248
 20
-2023.960951410233
 30
0.0
 11
235.5437025631248
 21
-2023.960951410233
 31
0.0
  0
LINE
  5
D0A2
330
2
100
AcDbEntity
  8
L-ZISSEN
100
AcDbLine
 10
250.0437025631246
 20
-2369.195861950165
 30
0.0
 11
250.0437025631246
 21
-2315.195861950165
 31
0.0
  0
LINE
  5
D0A3
330
2
100
AcDbEntity
  8
L-ZISSEN
100
AcDbLine
 10
243.7937025631246
 20
-2303.695861950165
 30
0.0
 11
243.7937025631264
 21
-2380.695861950165
 31
0.0
  0
LINE
  5
D0A4
330
2
100
AcDbEntity
  8
L-ZISSEN
100
AcDbLine
 10
255.0437025631246
 20
-2315.195861950165
 30
0.0
 11
255.0437025631246
 21
-2369.195861950165
 31
0.0
  0
LINE
  5
D0A5
330
2
100
AcDbEntity
  8
L-ZISSEN
100
AcDbLine
 10
261.2937025631246
 20
-2303.695861950165
 30
0.0
 11
261.2937025631264
 21
-2380.695861950165
 31
0.0
  0
LINE
  5
D0A6
330
2
100
AcDbEntity
  8
L-ZISSEN
100
AcDbLine
 10
281.7995696246061
 20
-2299.695861950165
 30
0.0
 11
280.0837086226294
 21
-2378.941455281105
 31
0.0
  0
LINE
  5
D0A7
330
2
100
AcDbEntity
  8
L-ZISSEN
100
AcDbLine
 10
243.1085352949059
 20
-2393.195861950166
 30
0.0
 11
261.978869831344
 21
-2393.195861950166
 31
0.0
  0
LINE
  5
D0A8
330
2
100
AcDbEntity
  8
L-ZISSEN
100
AcDbLine
 10
243.1085352949054
 20
-2389.695861950166
 30
0.0
 11
261.978869831344
 21
-2389.695861950166
 31
0.0
  0
LINE
  5
D0A9
330
2
100
AcDbEntity
  8
L-TYUSIN
100
AcDbLine
 10
258.7937025631248
 20
-2375.445861950166
 30
0.0
 11
246.2937025631248
 21
-2375.445861950166
 31
0.0
  0
LINE
  5
D0AA
330
2
100
AcDbEntity
  8
L-ZISSEN
100
AcDbLine
 10
248.0084382034862
 20
-2396.197521371248
 30
0.0
 11
257.0770620612224
 21
-2396.197598534196
 31
0.0
  0
ARC
  5
D0AB
330
2
100
AcDbEntity
  8
L-ZISSEN
100
AcDbCircle
 10
248.6226009596427
 20
-2381.059714699647
 30
0.0
 40
15.15026028548078
100
AcDbArc
 50
255.1892479927985
 51
284.9997091106928
  0
ARC
  5
D0AC
330
2
100
AcDbEntity
  8
L-ZISSEN
100
AcDbCircle
 10
248.6219961918306
 20
-2408.700804584853
 30
0.0
 40
15.50496374778473
100
AcDbArc
 50
75.34890043484701
 51
104.4621424617026
  0
LINE
  5
D0AD
330
2
100
AcDbEntity
  8
L-ZISSEN
100
AcDbLine
 10
247.076501341379
 20
-2398.138046860362
 30
0.0
 11
255.5765013413803
 21
-2398.138046860362
 31
0.0
  0
CIRCLE
  5
D0AE
330
2
100
AcDbEntity
  8
L-ZISSEN
100
AcDbCircle
 10
252.5437025631248
 20
-2375.445861950166
 30
0.0
 40
3.75
  0
LINE
  5
D0AF
330
2
100
AcDbEntity
  8
L-ZISSEN
100
AcDbLine
 10
258.2765013413801
 20
-2408.196881449871
 30
0.0
 11
246.8765013413814
 21
-2408.196881449871
 31
0.0
  0
LINE
  5
D0B0
330
2
100
AcDbEntity
  8
L-ZISSEN
100
AcDbLine
 10
243.7937025631246
 20
-2380.695861950165
 30
0.0
 11
261.2937025631246
 21
-2380.695861950166
 31
0.0
  0
LINE
  5
D0B1
330
2
100
AcDbEntity
  8
L-ZISSEN
100
AcDbLine
 10
244.7497825631248
 20
-2393.687148719814
 30
0.0
 11
244.7497825631248
 21
-2395.706614179927
 31
0.0
  0
LINE
  5
D0B2
330
2
100
AcDbEntity
  8
L-ZISSEN
100
AcDbLine
 10
247.076501341379
 20
-2398.138046860362
 30
0.0
 11
246.5765013413817
 21
-2398.638046860362
 31
0.0
  0
LINE
  5
D0B3
330
2
100
AcDbEntity
  8
L-ZISSEN
100
AcDbLine
 10
247.0765013413817
 20
-2397.638046860362
 30
0.0
 11
247.0765013413817
 21
-2396.196881449871
 31
0.0
  0
LINE
  5
D0B4
330
2
100
AcDbEntity
  8
L-ZISSEN
100
AcDbLine
 10
247.576501341383
 20
-2396.197578060999
 30
0.0
 11
247.576501341379
 21
-2398.138046860362
 31
0.0
  0
LINE
  5
D0B5
330
2
100
AcDbEntity
  8
L-ZISSEN
100
AcDbLine
 10
247.576501341379
 20
-2398.138046860362
 30
0.0
 11
247.0765013413817
 21
-2397.638046860362
 31
0.0
  0
LINE
  5
D0B6
330
2
100
AcDbEntity
  8
L-ZISSEN
100
AcDbLine
 10
246.8765013413814
 20
-2408.196881449871
 30
0.0
 11
246.5765013413817
 21
-2407.89688144987
 31
0.0
  0
LINE
  5
D0B7
330
2
100
AcDbEntity
  8
L-ZISSEN
100
AcDbLine
 10
249.5765013413812
 20
-2398.138046860362
 30
0.0
 11
249.5765013413812
 21
-2408.196881449871
 31
0.0
  0
LINE
  5
D0B8
330
2
100
AcDbEntity
  8
L-ZISSEN
100
AcDbLine
 10
248.5765013413799
 20
-2398.138046860362
 30
0.0
 11
248.5765013413799
 21
-2408.196881449871
 31
0.0
  0
LINE
  5
D0B9
330
2
100
AcDbEntity
  8
L-ZISSEN
100
AcDbLine
 10
247.5765013413808
 20
-2398.138046860362
 30
0.0
 11
247.5765013413808
 21
-2408.196881449871
 31
0.0
  0
LINE
  5
D0BA
330
2
100
AcDbEntity
  8
L-ZISSEN
100
AcDbLine
 10
246.5765013413817
 20
-2407.89688144987
 30
0.0
 11
246.5765013413817
 21
-2398.638046860362
 31
0.0
  0
LINE
  5
D0BB
330
2
100
AcDbEntity
  8
L-ZISSEN
100
AcDbLine
 10
243.1085352949057
 20
-2389.695861950166
 30
0.0
 11
243.1085352949059
 21
-2393.195861950166
 31
0.0
  0
ARC
  5
D0BC
330
2
100
AcDbEntity
  8
L-ZISSEN
100
AcDbCircle
 10
256.46540893442
 20
-2408.700804584853
 30
0.0
 40
15.50496374778473
100
AcDbArc
 50
75.53785753829742
 51
104.6510995651527
  0
ARC
  5
D0BD
330
2
100
AcDbEntity
  8
L-ZISSEN
100
AcDbCircle
 10
256.4648041666079
 20
-2381.059714699647
 30
0.0
 40
15.15026028548078
100
AcDbArc
 50
255.0002908893071
 51
284.8107520072012
  0
LINE
  5
D0BE
330
2
100
AcDbEntity
  8
L-ZISSEN
100
AcDbLine
 10
255.5765013413803
 20
-2398.138046860362
 30
0.0
 11
258.0765013413803
 21
-2398.138046860362
 31
0.0
  0
LINE
  5
D0BF
330
2
100
AcDbEntity
  8
L-ZISSEN
100
AcDbLine
 10
252.5437025631253
 20
-2393.700000607816
 30
0.0
 11
252.5437025631253
 21
-2395.694824520445
 31
0.0
  0
LINE
  5
D0C0
330
2
100
AcDbEntity
  8
L-ZISSEN
100
AcDbLine
 10
252.5437025631253
 20
-2393.700000607816
 30
0.0
 11
252.5437025631253
 21
-2395.694824520445
 31
0.0
  0
LINE
  5
D0C1
330
2
100
AcDbEntity
  8
L-ZISSEN
100
AcDbLine
 10
252.5437025631253
 20
-2393.700000607816
 30
0.0
 11
252.5437025631253
 21
-2395.694824520445
 31
0.0
  0
LINE
  5
D0C2
330
2
100
AcDbEntity
  8
L-ZISSEN
100
AcDbLine
 10
252.5437025631253
 20
-2393.700000607816
 30
0.0
 11
252.5437025631253
 21
-2395.694824520445
 31
0.0
  0
LINE
  5
D0C3
330
2
100
AcDbEntity
  8
L-ZISSEN
100
AcDbLine
 10
250.5765013413826
 20
-2398.138046860362
 30
0.0
 11
250.5765013413826
 21
-2408.196881449871
 31
0.0
  0
LINE
  5
D0C4
330
2
100
AcDbEntity
  8
L-ZISSEN
100
AcDbLine
 10
255.5765013413803
 20
-2398.138046860362
 30
0.0
 11
255.5765013413803
 21
-2408.196881449871
 31
0.0
  0
LINE
  5
D0C5
330
2
100
AcDbEntity
  8
L-ZISSEN
100
AcDbLine
 10
254.5765013413813
 20
-2398.138046860362
 30
0.0
 11
254.5765013413813
 21
-2408.196881449871
 31
0.0
  0
LINE
  5
D0C6
330
2
100
AcDbEntity
  8
L-ZISSEN
100
AcDbLine
 10
253.5765013413822
 20
-2398.138046860362
 30
0.0
 11
253.5765013413822
 21
-2408.196881449871
 31
0.0
  0
LINE
  5
D0C7
330
2
100
AcDbEntity
  8
L-ZISSEN
100
AcDbLine
 10
252.5765013413831
 20
-2398.138046860362
 30
0.0
 11
252.5765013413831
 21
-2408.196881449871
 31
0.0
  0
LINE
  5
D0C8
330
2
100
AcDbEntity
  8
L-ZISSEN
100
AcDbLine
 10
251.5765013413817
 20
-2398.138046860362
 30
0.0
 11
251.5765013413817
 21
-2408.196881449871
 31
0.0
  0
LINE
  5
D0C9
330
2
100
AcDbEntity
  8
L-ZISSEN
100
AcDbLine
 10
260.3376225631258
 20
-2393.687148719814
 30
0.0
 11
260.3376225631258
 21
-2395.706614179927
 31
0.0
  0
LINE
  5
D0CA
330
2
100
AcDbEntity
  8
L-ZISSEN
100
AcDbLine
 10
258.0765013413803
 20
-2398.138046860362
 30
0.0
 11
258.5765013413799
 21
-2398.638046860362
 31
0.0
  0
LINE
  5
D0CB
330
2
100
AcDbEntity
  8
L-ZISSEN
100
AcDbLine
 10
258.0765013413799
 20
-2397.638046860362
 30
0.0
 11
258.0765013413799
 21
-2396.196881449871
 31
0.0
  0
LINE
  5
D0CC
330
2
100
AcDbEntity
  8
L-ZISSEN
100
AcDbLine
 10
257.5765013413844
 20
-2396.198227712293
 30
0.0
 11
257.5765013413803
 21
-2398.138046860362
 31
0.0
  0
LINE
  5
D0CD
330
2
100
AcDbEntity
  8
L-ZISSEN
100
AcDbLine
 10
257.5765013413803
 20
-2398.138046860362
 30
0.0
 11
258.0765013413799
 21
-2397.638046860362
 31
0.0
  0
LINE
  5
D0CE
330
2
100
AcDbEntity
  8
L-ZISSEN
100
AcDbLine
 10
258.2765013413801
 20
-2408.196881449871
 30
0.0
 11
258.5765013413799
 21
-2407.89688144987
 31
0.0
  0
LINE
  5
D0CF
330
2
100
AcDbEntity
  8
L-ZISSEN
100
AcDbLine
 10
258.5765013413799
 20
-2398.638046860362
 30
0.0
 11
258.5765013413799
 21
-2407.89688144987
 31
0.0
  0
LINE
  5
D0D0
330
2
100
AcDbEntity
  8
L-ZISSEN
100
AcDbLine
 10
257.5765013413831
 20
-2398.138046860362
 30
0.0
 11
257.5765013413851
 21
-2408.196881449871
 31
0.0
  0
LINE
  5
D0D1
330
2
100
AcDbEntity
  8
L-ZISSEN
100
AcDbLine
 10
256.576501341384
 20
-2398.138046860362
 30
0.0
 11
256.576501341384
 21
-2408.196881449871
 31
0.0
  0
LINE
  5
D0D2
330
2
100
AcDbEntity
  8
L-ZISSEN
100
AcDbLine
 10
255.0437025631246
 20
-2369.195861950165
 30
0.0
 11
250.0437025631246
 21
-2369.195861950165
 31
0.0
  0
POLYLINE
  5
D0D3
330
2
100
AcDbEntity
  8
L-ZISSEN
100
AcDb2dPolyline
 66
     1
 10
0.0
 20
0.0
 30
0.0
 70
     1
  0
VERTEX
  5
DDF7
330
D0D3
100
AcDbEntity
  8
L-ZISSEN
100
AcDbVertex
100
AcDb2dVertex
 10
251.2937025631249
 20
-2374.724174113679
 30
0.0
  0
VERTEX
  5
DDF8
330
D0D3
100
AcDbEntity
  8
L-ZISSEN
100
AcDbVertex
100
AcDb2dVertex
 10
252.5437025631248
 20
-2374.002486277192
 30
0.0
  0
VERTEX
  5
DDF9
330
D0D3
100
AcDbEntity
  8
L-ZISSEN
100
AcDbVertex
100
AcDb2dVertex
 10
253.7937025631249
 20
-2374.724174113679
 30
0.0
  0
VERTEX
  5
DDFA
330
D0D3
100
AcDbEntity
  8
L-ZISSEN
100
AcDbVertex
100
AcDb2dVertex
 10
253.7937025631249
 20
-2376.167549786653
 30
0.0
  0
VERTEX
  5
DDFB
330
D0D3
100
AcDbEntity
  8
L-ZISSEN
100
AcDbVertex
100
AcDb2dVertex
 10
252.5437025631248
 20
-2376.88923762314
 30
0.0
  0
VERTEX
  5
DDFC
330
D0D3
100
AcDbEntity
  8
L-ZISSEN
100
AcDbVertex
100
AcDb2dVertex
 10
251.2937025631249
 20
-2376.167549786653
 30
0.0
  0
SEQEND
  5
DDFD
330
D0D3
100
AcDbEntity
  8
L-ZISSEN
  0
ARC
  5
D0D4
330
2
100
AcDbEntity
  8
L-ZISSEN
100
AcDbCircle
 10
270.0870482143843
 20
-2378.683035695489
 30
0.0
 40
10.0
100
AcDbArc
 50
274.868444062882
 51
358.9999999999721
  0
LINE
  5
D0D5
330
2
100
AcDbEntity
  8
L-ZISSEN
100
AcDbLine
 10
261.978869831344
 20
-2389.695861950166
 30
0.0
 11
270.9357298949413
 21
-2388.646957584238
 31
0.0
  0
LINE
  5
D0D6
330
2
100
AcDbEntity
  8
L-ZISSEN
100
AcDbLine
 10
261.978869831344
 20
-2389.695861950166
 30
0.0
 11
261.9788698313438
 21
-2393.195861950166
 31
0.0
  0
LINE
  5
D0D7
330
2
100
AcDbEntity
  8
L-ZISSEN
100
AcDbLine
 10
285.8577978876762
 20
-2060.267973707313
 30
0.0
 11
282.5437025631246
 21
-2060.267973707313
 31
0.0
  0
LINE
  5
D0D8
330
2
100
AcDbEntity
  8
L-ZISSEN
100
AcDbLine
 10
284.0941237439043
 20
-2069.934433695692
 30
0.0
 11
285.8577978876762
 21
-2062.454457948248
 31
0.0
  0
LINE
  5
D0D9
330
2
100
AcDbEntity
  8
L-ZISSEN
100
AcDbLine
 10
286.3478309727954
 20
-2286.495861950165
 30
0.0
 11
284.1478309727951
 21
-2286.495861950165
 31
0.0
  0
ARC
  5
D0DA
330
2
100
AcDbEntity
  8
L-ZISSEN
100
AcDbCircle
 10
283.3796491546128
 20
-2320.295861950165
 30
0.0
 40
2.368181818181991
100
AcDbArc
 50
302.3784125140503
 51
57.62158748594965
  0
LINE
  5
D0DB
330
2
100
AcDbEntity
  8
L-ZISSEN
100
AcDbLine
 10
292.1478309727951
 20
-2310.855482836534
 30
0.0
 11
284.1478309727951
 21
-2312.795861950165
 31
0.0
  0
LINE
  5
D0DC
330
2
100
AcDbEntity
  8
L-ZISSEN
100
AcDbLine
 10
282.5437025631246
 20
-2036.460951410232
 30
0.0
 11
282.5437025631246
 21
-2077.784945864431
 31
0.0
  0
LINE
  5
D0DD
330
2
100
AcDbEntity
  8
L-ZISSEN
100
AcDbLine
 10
282.5437025631218
 20
-2141.803941017046
 30
0.0
 11
282.5437025631246
 21
-2036.460951410232
 31
0.0
  0
LINE
  5
D0DE
330
2
100
AcDbEntity
  8
L-ZISSEN
100
AcDbLine
 10
269.3937025631218
 20
-2046.799690321864
 30
0.0
 11
269.3937025631218
 21
-2129.299690321865
 31
0.0
  0
LINE
  5
D0DF
330
2
100
AcDbEntity
  8
L-ZISSEN
100
AcDbLine
 10
277.8237025631248
 20
-2046.799690321864
 30
0.0
 11
277.823702563122
 21
-2129.299690321863
 31
0.0
  0
LINE
  5
D0E0
330
2
100
AcDbEntity
  8
L-ZISSEN
100
AcDbLine
 10
263.5437025631246
 20
-2164.760951410233
 30
0.0
 11
241.5437025631246
 21
-2164.760951410233
 31
0.0
  0
LINE
  5
D0E1
330
2
100
AcDbEntity
  8
L-ZISSEN
100
AcDbLine
 10
242.5437025631246
 20
-2168.260951410232
 30
0.0
 11
262.5437025631246
 21
-2168.260951410232
 31
0.0
  0
LINE
  5
D0E2
330
2
100
AcDbEntity
  8
L-ZISSEN
100
AcDbLine
 10
242.5437025631246
 20
-2168.960951410232
 30
0.0
 11
262.5437025631246
 21
-2168.960951410232
 31
0.0
  0
LINE
  5
D0E3
330
2
100
AcDbEntity
  8
L-ZISSEN
100
AcDbLine
 10
242.5437025631246
 20
-2182.460951410232
 30
0.0
 11
262.5437025631246
 21
-2182.460951410232
 31
0.0
  0
LINE
  5
D0E4
330
2
100
AcDbEntity
  8
L-ZISSEN
100
AcDbLine
 10
240.5437025631246
 20
-2153.260951410232
 30
0.0
 11
264.5437025631246
 21
-2153.260951410232
 31
0.0
  0
LINE
  5
D0E5
330
2
100
AcDbEntity
  8
L-ZISSEN
100
AcDbLine
 10
240.5437025631246
 20
-2151.760951410232
 30
0.0
 11
264.5437025631246
 21
-2151.760951410232
 31
0.0
  0
LINE
  5
D0E6
330
2
100
AcDbEntity
  8
L-ZISSEN
100
AcDbLine
 10
240.5437025631246
 20
-2155.760951410232
 30
0.0
 11
264.5437025631246
 21
-2155.760951410232
 31
0.0
  0
LINE
  5
D0E7
330
2
100
AcDbEntity
  8
L-ZISSEN
100
AcDbLine
 10
271.0437025631253
 20
-2299.695861950163
 30
0.0
 11
256.2937025631242
 21
-2299.695861950165
 31
0.0
  0
LINE
  5
D0E8
330
2
100
AcDbEntity
  8
L-ZISSEN
100
AcDbLine
 10
256.2937025631246
 20
-2289.695861950165
 30
0.0
 11
248.7937025631246
 21
-2289.695861950165
 31
0.0
  0
CIRCLE
  5
D0E9
330
2
100
AcDbEntity
  8
L-ZISSEN
100
AcDbCircle
 10
252.5437025631248
 20
-2308.945861950165
 30
0.0
 40
3.75
  0
LINE
  5
D0EA
330
2
100
AcDbEntity
  8
L-TYUSIN
100
AcDbLine
 10
258.7937025631248
 20
-2308.945861950165
 30
0.0
 11
246.2937025631248
 21
-2308.945861950165
 31
0.0
  0
LINE
  5
D0EB
330
2
100
AcDbEntity
  8
L-ZISSEN
100
AcDbLine
 10
243.7937025631246
 20
-2303.695861950165
 30
0.0
 11
261.2937025631246
 21
-2303.695861950165
 31
0.0
  0
LINE
  5
D0EC
330
2
100
AcDbEntity
  8
L-ZISSEN
100
AcDbLine
 10
248.7937025631246
 20
-2289.695861950165
 30
0.0
 11
248.7937025631246
 21
-2299.695861950164
 31
0.0
  0
SOLID
  5
D0ED
330
2
100
AcDbEntity
  8
L-ZISSEN
100
AcDbTrace
 10
250.7938652040417
 20
-2285.172586410407
 30
0.0
 11
251.220654803818
 21
-2284.660438890676
 31
0.0
 12
252.5437025631246
 22
-2286.196881449871
 32
0.0
 13
252.5437025631246
 23
-2286.196881449871
 33
0.0
  0
LINE
  5
D0EE
330
2
100
AcDbEntity
  8
L-ZISSEN
100
AcDbLine
 10
250.0437025631246
 20
-2315.195861950165
 30
0.0
 11
255.0437025631246
 21
-2315.195861950165
 31
0.0
  0
POLYLINE
  5
D0EF
330
2
100
AcDbEntity
  8
L-ZISSEN
100
AcDb2dPolyline
 66
     1
 10
0.0
 20
0.0
 30
0.0
 70
     1
  0
VERTEX
  5
DDFE
330
D0EF
100
AcDbEntity
  8
L-ZISSEN
100
AcDbVertex
100
AcDb2dVertex
 10
251.2937025631249
 20
-2309.667549786652
 30
0.0
  0
VERTEX
  5
DDFF
330
D0EF
100
AcDbEntity
  8
L-ZISSEN
100
AcDbVertex
100
AcDb2dVertex
 10
252.5437025631248
 20
-2310.389237623139
 30
0.0
  0
VERTEX
  5
DE00
330
D0EF
100
AcDbEntity
  8
L-ZISSEN
100
AcDbVertex
100
AcDb2dVertex
 10
253.7937025631249
 20
-2309.667549786652
 30
0.0
  0
VERTEX
  5
DE01
330
D0EF
100
AcDbEntity
  8
L-ZISSEN
100
AcDbVertex
100
AcDb2dVertex
 10
253.7937025631249
 20
-2308.224174113678
 30
0.0
  0
VERTEX
  5
DE02
330
D0EF
100
AcDbEntity
  8
L-ZISSEN
100
AcDbVertex
100
AcDb2dVertex
 10
252.5437025631248
 20
-2307.502486277191
 30
0.0
  0
VERTEX
  5
DE03
330
D0EF
100
AcDbEntity
  8
L-ZISSEN
100
AcDbVertex
100
AcDb2dVertex
 10
251.2937025631249
 20
-2308.224174113678
 30
0.0
  0
SEQEND
  5
DE04
330
D0EF
100
AcDbEntity
  8
L-ZISSEN
  0
LINE
  5
D0F0
330
2
100
AcDbEntity
  8
L-ZISSEN
100
AcDbLine
 10
256.2937025631244
 20
-2289.695861950165
 30
0.0
 11
256.2937025631242
 21
-2299.695861950164
 31
0.0
  0
LINE
  5
D0F1
330
2
100
AcDbEntity
  8
L-ZISSEN
100
AcDbLine
 10
241.5437025631246
 20
-2155.760951410232
 30
0.0
 11
241.5437025631246
 21
-2164.760951410233
 31
0.0
  0
LINE
  5
D0F2
330
2
100
AcDbEntity
  8
L-ZISSEN
100
AcDbLine
 10
243.5437025631246
 20
-2168.960951410232
 30
0.0
 11
243.5437025631251
 21
-2168.260951410232
 31
0.0
  0
LINE
  5
D0F3
330
2
100
AcDbEntity
  8
L-ZISSEN
100
AcDbLine
 10
242.5437025631246
 20
-2168.260951410232
 30
0.0
 11
242.5437025631246
 21
-2164.760951410233
 31
0.0
  0
LINE
  5
D0F4
330
2
100
AcDbEntity
  8
L-ZISSEN
100
AcDbLine
 10
242.5437025631246
 20
-2182.460951410232
 30
0.0
 11
242.5437025631246
 21
-2168.960951410232
 31
0.0
  0
LINE
  5
D0F5
330
2
100
AcDbEntity
  8
L-ZISSEN
100
AcDbLine
 10
240.5437025631246
 20
-2155.760951410232
 30
0.0
 11
240.5437025631246
 21
-2151.760951410232
 31
0.0
  0
LINE
  5
D0F6
330
2
100
AcDbEntity
  8
L-ZISSEN
100
AcDbLine
 10
261.5437025631251
 20
-2168.960951410232
 30
0.0
 11
261.5437025631246
 21
-2168.260951410232
 31
0.0
  0
LINE
  5
D0F7
330
2
100
AcDbEntity
  8
L-ZISSEN
100
AcDbLine
 10
271.0437025631244
 20
-2289.695861950164
 30
0.0
 11
276.5550570013828
 21
-2289.695861950166
 31
0.0
  0
LINE
  5
D0F8
330
2
100
AcDbEntity
  8
L-ZISSEN
100
AcDbLine
 10
271.0437025631253
 20
-2289.695861950164
 30
0.0
 11
271.0437025631253
 21
-2299.695861950163
 31
0.0
  0
LINE
  5
D0F9
330
2
100
AcDbEntity
  8
L-ZISSEN
100
AcDbLine
 10
276.5550570013828
 20
-2299.695861950163
 30
0.0
 11
281.7995696246061
 21
-2299.695861950163
 31
0.0
  0
LINE
  5
D0FA
330
2
100
AcDbEntity
  8
L-ZISSEN
100
AcDbLine
 10
276.5550570013828
 20
-2289.695861950166
 30
0.0
 11
276.5550570013828
 21
-2299.695861950163
 31
0.0
  0
LINE
  5
D0FB
330
2
100
AcDbEntity
  8
L-ZISSEN
100
AcDbLine
 10
284.1478309727951
 20
-2291.195861950166
 30
0.0
 11
284.1478309727951
 21
-2286.495861950164
 31
0.0
  0
LINE
  5
D0FC
330
2
100
AcDbEntity
  8
L-ZISSEN
100
AcDbLine
 10
284.6357186584891
 20
-2291.195861950166
 30
0.0
 11
282.6132170243035
 21
-2291.195861950166
 31
0.0
  0
LINE
  5
D0FD
330
2
100
AcDbEntity
  8
L-ZISSEN
100
AcDbLine
 10
284.1478309727951
 20
-2286.196881449871
 30
0.0
 11
284.1478309727951
 21
-2286.495861950164
 31
0.0
  0
LINE
  5
D0FE
330
2
100
AcDbEntity
  8
L-ZISSEN
100
AcDbLine
 10
284.1478309727946
 20
-2326.795861950166
 30
0.0
 11
284.1478309727956
 21
-2303.476906533906
 31
0.0
  0
LINE
  5
D0FF
330
2
100
AcDbEntity
  8
L-ZISSEN
100
AcDbLine
 10
281.1478309727947
 20
-2329.795861950165
 30
0.0
 11
284.1478309727946
 21
-2326.795861950166
 31
0.0
  0
LINE
  5
D100
330
2
100
AcDbEntity
  8
L-ZISSEN
100
AcDbLine
 10
284.1478309727951
 20
-2322.295861950165
 30
0.0
 11
284.6478309727951
 21
-2322.295861950165
 31
0.0
  0
LINE
  5
D101
330
2
100
AcDbEntity
  8
L-ZISSEN
100
AcDbLine
 10
284.1478309727951
 20
-2318.295861950165
 30
0.0
 11
284.6478309727951
 21
-2318.295861950165
 31
0.0
  0
LINE
  5
D102
330
2
100
AcDbEntity
  8
L-ZISSEN
100
AcDbLine
 10
282.9478309727953
 20
-2315.795861950166
 30
0.0
 11
282.9478309727953
 21
-2309.995861950164
 31
0.0
  0
LINE
  5
D103
330
2
100
AcDbEntity
  8
L-ZISSEN
100
AcDbLine
 10
284.1478309727951
 20
-2312.795861950165
 30
0.0
 11
284.1478309727951
 21
-2299.695861950164
 31
0.0
  0
LINE
  5
D104
330
2
100
AcDbEntity
  8
L-ZISSEN
100
AcDbLine
 10
282.0182899913281
 20
-2309.995861950165
 30
0.0
 11
282.0182899913281
 21
-2299.695861950165
 31
0.0
  0
LINE
  5
D105
330
2
100
AcDbEntity
  8
L-ZISSEN
100
AcDbLine
 10
282.0182899913274
 20
-2308.713398345235
 30
0.0
 11
282.0182899913281
 21
-2299.695861950165
 31
0.0
  0
LINE
  5
D106
330
2
100
AcDbEntity
  8
L-ZISSEN
100
AcDbLine
 10
284.1478309727951
 20
-2309.995861950165
 30
0.0
 11
282.0182899913281
 21
-2309.995861950164
 31
0.0
  0
LINE
  5
D107
330
2
100
AcDbEntity
  8
L-ZISSEN
100
AcDbLine
 10
284.6357186584891
 20
-2299.695861950164
 30
0.0
 11
281.9729790569208
 21
-2299.695861950164
 31
0.0
  0
LINE
  5
D108
330
2
100
AcDbEntity
  8
L-ZISSEN
100
AcDbLine
 10
281.4509652294511
 20
-2315.795861950166
 30
0.0
 11
284.1478309727956
 21
-2315.795861950166
 31
0.0
  0
LINE
  5
D109
330
2
100
AcDbEntity
  8
L-ZISSEN
100
AcDbLine
 10
281.7995696246061
 20
-2299.695861950165
 30
0.0
 11
282.499687163352
 21
-2299.695861950165
 31
0.0
  0
LINE
  5
D10A
330
2
100
AcDbEntity
  8
L-ZISSEN
100
AcDbLine
 10
282.6132170243035
 20
-2291.195861950166
 30
0.0
 11
282.6132170243035
 21
-2299.695861950164
 31
0.0
  0
LINE
  5
D10B
330
2
100
AcDbEntity
  8
L-ZISSEN
100
AcDbLine
 10
284.6357186584891
 20
-2291.195861950166
 30
0.0
 11
284.6357186584891
 21
-2299.695861950164
 31
0.0
  0
LINE
  5
D10E
330
2
100
AcDbEntity
  8
L-ZISSEN
100
AcDbLine
 10
269.3937025631195
 20
-2129.299690321864
 30
0.0
 11
273.6087025631233
 21
-2131.299690321865
 31
0.0
  0
ARC
  5
D10F
330
2
100
AcDbEntity
  8
L-ZISSEN
100
AcDbCircle
 10
252.5437025631223
 20
-2052.947545891576
 30
0.0
 40
99.53938471878515
100
AcDbArc
 50
276.9241513684729
 51
283.9062370650422
  0
LINE
  5
D110
330
2
100
AcDbEntity
  8
L-ZISSEN
100
AcDbLine
 10
263.5437025631246
 20
-2155.760951410232
 30
0.0
 11
263.5437025631246
 21
-2164.760951410233
 31
0.0
  0
LINE
  5
D111
330
2
100
AcDbEntity
  8
L-ZISSEN
100
AcDbLine
 10
262.5437025631246
 20
-2168.260951410232
 30
0.0
 11
262.5437025631248
 21
-2164.760951410233
 31
0.0
  0
LINE
  5
D112
330
2
100
AcDbEntity
  8
L-ZISSEN
100
AcDbLine
 10
262.5437025631246
 20
-2182.460951410232
 30
0.0
 11
262.5437025631246
 21
-2168.960951410232
 31
0.0
  0
LINE
  5
D113
330
2
100
AcDbEntity
  8
L-ZISSEN
100
AcDbLine
 10
264.5437025631246
 20
-2155.760951410232
 30
0.0
 11
264.5437025631246
 21
-2151.760951410232
 31
0.0
  0
ARC
  5
D114
330
2
100
AcDbEntity
  8
L-ZISSEN
100
AcDbCircle
 10
274.5437025631205
 20
-2141.803941017046
 30
0.0
 40
8.000000000000113
100
AcDbArc
 50
283.9062370650535
 51
0.0
  0
LINE
  5
D115
330
2
100
AcDbEntity
  8
L-ZISSEN
100
AcDbLine
 10
273.6087025631233
 20
-2131.299690321865
 30
0.0
 11
277.8237025631203
 21
-2129.299690321864
 31
0.0
  0
SOLID
  5
D116
330
2
100
AcDbEntity
  8
L-ZISSEN
100
AcDbTrace
 10
250.7938652040417
 20
-2035.436656370769
 30
0.0
 11
251.220654803818
 21
-2034.924508851038
 31
0.0
 12
252.5437025631246
 22
-2036.460951410233
 32
0.0
 13
252.5437025631246
 23
-2036.460951410233
 33
0.0
  0
LINE
  5
D117
330
2
100
AcDbEntity
  8
L-ZISSEN
100
AcDbLine
 10
277.8237025631248
 20
-2046.799690321864
 30
0.0
 11
269.3937025631218
 21
-2046.799690321864
 31
0.0
  0
LINE
  5
D118
330
2
100
AcDbEntity
  8
L-ZISSEN
100
AcDbLine
 10
284.3712140569202
 20
-2060.267973707314
 30
0.0
 11
284.3712140569202
 21
-2062.103942177424
 31
0.0
  0
LINE
  5
D119
330
2
100
AcDbEntity
  8
L-ZISSEN
100
AcDbLine
 10
282.6075399131484
 20
-2069.583917924868
 30
0.0
 11
284.3712140569202
 21
-2062.103942177424
 31
0.0
  0
LINE
  5
D11A
330
2
100
AcDbEntity
  8
L-ZISSEN
100
AcDbLine
 10
284.0941237439043
 20
-2069.934433695692
 30
0.0
 11
282.5437025631246
 21
-2069.934433695692
 31
0.0
  0
LINE
  5
D11D
330
2
100
AcDbEntity
  8
L-ZISSEN
100
AcDbLine
 10
286.3478309727954
 20
-2305.960515461561
 30
0.0
 11
292.1478309727951
 21
-2306.571313853936
 31
0.0
  0
LINE
  5
D11E
330
2
100
AcDbEntity
  8
L-ZISSEN
100
AcDbLine
 10
286.3478309727954
 20
-2286.495861950165
 30
0.0
 11
286.3478309727954
 21
-2305.960515461561
 31
0.0
  0
LINE
  5
D11F
330
2
100
AcDbEntity
  8
L-ZISSEN
100
AcDbLine
 10
292.1478309727951
 20
-2306.571313853936
 30
0.0
 11
292.1478309727951
 21
-2310.855482836534
 31
0.0
  0
LINE
  5
D120
330
2
100
AcDbEntity
  8
L-ZISSEN
100
AcDbLine
 10
287.5437025631246
 20
-2057.460951410232
 30
0.0
 11
291.5437025631232
 21
-2058.125889216015
 31
0.0
  0
LINE
  5
D121
330
2
100
AcDbEntity
  8
L-ZISSEN
100
AcDbLine
 10
291.5437025631232
 20
-2062.410058198613
 30
0.0
 11
286.043702563126
 21
-2064.350437312243
 31
0.0
  0
LINE
  5
D122
330
2
100
AcDbEntity
  8
L-ZISSEN
100
AcDbLine
 10
287.5437025631246
 20
-2036.460951410233
 30
0.0
 11
287.5437025631246
 21
-2057.460951410232
 31
0.0
  0
LINE
  5
D123
330
2
100
AcDbEntity
  8
L-ZISSEN
100
AcDbLine
 10
285.8577978876762
 20
-2064.350437312243
 30
0.0
 11
285.8577978876762
 21
-2036.460951410233
 31
0.0
  0
LINE
  5
D124
330
2
100
AcDbEntity
  8
L-ZISSEN
100
AcDbLine
 10
285.8577978876762
 20
-2062.454457948248
 30
0.0
 11
285.8577978876762
 21
-2060.267973707313
 31
0.0
  0
LINE
  5
D125
330
2
100
AcDbEntity
  8
L-ZISSEN
100
AcDbLine
 10
286.043702563126
 20
-2064.350437312243
 30
0.0
 11
285.8577978876762
 21
-2064.350437312243
 31
0.0
  0
LINE
  5
D126
330
2
100
AcDbEntity
  8
L-ZISSEN
100
AcDbLine
 10
291.5437025631232
 20
-2058.125889216015
 30
0.0
 11
291.5437025631232
 21
-2062.410058198613
 31
0.0
  0
ARC
  5
D129
330
2
100
AcDbEntity
  8
L-ZISSEN
100
AcDbCircle
 10
424.5437025631205
 20
-2141.803941017046
 30
0.0
 40
8.000000000000113
100
AcDbArc
 50
283.9062370650535
 51
0.0
  0
LINE
  5
D12A
330
2
100
AcDbEntity
  8
L-ZISSEN
100
AcDbLine
 10
426.5550570013828
 20
-2299.695861950163
 30
0.0
 11
431.7995696246061
 21
-2299.695861950163
 31
0.0
  0
ARC
  5
D12B
330
2
100
AcDbEntity
  8
L-ZISSEN
100
AcDbCircle
 10
420.0870482143845
 20
-2378.683035695489
 30
0.0
 40
10.0
100
AcDbArc
 50
274.868444062882
 51
358.9999999999721
  0
LINE
  5
D12C
330
2
100
AcDbEntity
  8
L-ZISSEN
100
AcDbLine
 10
370.2991116827579
 20
-2303.695861950165
 30
0.0
 11
370.2991116827597
 21
-2380.695861950165
 31
0.0
  0
LINE
  5
D12D
330
2
100
AcDbEntity
  8
L-ZISSEN
 48
0.3
100
AcDbLine
 10
375.3968948782748
 20
-2380.695861950165
 30
0.0
 11
375.3968948782748
 21
-2303.695861950165
 31
0.0
  0
LINE
  5
D12E
330
2
100
AcDbEntity
  8
L-ZISSEN
100
AcDbLine
 10
360.7991116827578
 20
-2303.695861950165
 30
0.0
 11
360.7991116827597
 21
-2380.695861950165
 31
0.0
  0
ARC
  5
D12F
330
2
100
AcDbEntity
  8
L-ZISSEN
100
AcDbCircle
 10
385.0003569118652
 20
-2378.683035695489
 30
0.0
 40
10.0
100
AcDbArc
 50
191.6119735011067
 51
265.1315559371177
  0
LINE
  5
D130
330
2
100
AcDbEntity
  8
L-TYUSIN
100
AcDbLine
 10
376.9399873919746
 20
-2375.695861950165
 30
0.0
 11
353.8991116827582
 21
-2375.695861950165
 31
0.0
  0
LINE
  5
D131
330
2
100
AcDbEntity
  8
L-ZISSEN
100
AcDbLine
 10
360.7991116827578
 20
-2380.695861950165
 30
0.0
 11
370.2991116827579
 21
-2380.695861950165
 31
0.0
  0
ARC
  5
D132
330
2
100
AcDbEntity
  8
L-ZISSEN
100
AcDbCircle
 10
361.2111142505354
 20
-2373.971075434348
 30
0.0
 40
2.312215931624567
100
AcDbArc
 50
100.2640683722085
 51
180.7783719766075
  0
ARC
  5
D133
330
2
100
AcDbEntity
  8
L-ZISSEN
100
AcDbCircle
 10
361.2111142505354
 20
-2376.920648465984
 30
0.0
 40
2.312215931624567
100
AcDbArc
 50
179.2216280233924
 51
259.7359316277914
  0
LINE
  5
D134
330
2
100
AcDbEntity
  8
L-ZISSEN
100
AcDbLine
 10
358.8991116827582
 20
-2376.88923762314
 30
0.0
 11
358.899111682758
 21
-2374.002486277192
 31
0.0
  0
LINE
  5
D135
330
2
100
AcDbEntity
  8
L-ZISSEN
 48
0.3
100
AcDbLine
 10
374.0968948782746
 20
-2380.695861950165
 30
0.0
 11
375.3968948782748
 21
-2380.695861950165
 31
0.0
  0
LINE
  5
D136
330
2
100
AcDbEntity
  8
L-ZISSEN
100
AcDbLine
 10
370.2991116827597
 20
-2380.695861950165
 30
0.0
 11
374.0968948782746
 21
-2380.695861950165
 31
0.0
  0
LINE
  5
D137
330
2
100
AcDbEntity
  8
L-ZISSEN
100
AcDbLine
 10
393.108535294907
 20
-2393.195861950166
 30
0.0
 11
411.978869831344
 21
-2393.195861950166
 31
0.0
  0
LINE
  5
D138
330
2
100
AcDbEntity
  8
L-ZISSEN
100
AcDbLine
 10
393.1085352949066
 20
-2389.695861950166
 30
0.0
 11
411.978869831344
 21
-2389.695861950166
 31
0.0
  0
LINE
  5
D139
330
2
100
AcDbEntity
  8
L-ZISSEN
100
AcDbLine
 10
408.2765013413801
 20
-2408.19688144987
 30
0.0
 11
396.8765013413814
 21
-2408.19688144987
 31
0.0
  0
ARC
  5
D13A
330
2
100
AcDbEntity
  8
L-ZISSEN
100
AcDbCircle
 10
402.5765013413808
 20
-2413.837944123788
 30
0.0
 40
20.64106267391679
100
AcDbArc
 50
77.50558048157245
 51
102.6763186877432
  0
ARC
  5
D13B
330
2
100
AcDbEntity
  8
L-ZISSEN
100
AcDbCircle
 10
402.5765013413808
 20
-2375.555818775953
 30
0.0
 40
20.64106267391694
100
AcDbArc
 50
257.3236813122694
 51
282.4944195184275
  0
LINE
  5
D13C
330
2
100
AcDbEntity
  8
L-ZISSEN
100
AcDbLine
 10
397.076501341379
 20
-2398.138046860362
 30
0.0
 11
405.5765013413803
 21
-2398.138046860362
 31
0.0
  0
LINE
  5
D13D
330
2
100
AcDbEntity
  8
L-ZISSEN
100
AcDbLine
 10
395.7981857248761
 20
-2393.196260335052
 30
0.0
 11
409.2892194013745
 21
-2393.19546356528
 31
0.0
  0
LINE
  5
D13E
330
2
100
AcDbEntity
  8
L-ZISSEN
100
AcDbLine
 10
395.7981857248761
 20
-2396.19750256469
 30
0.0
 11
409.2892194013745
 21
-2396.198299334462
 31
0.0
  0
LINE
  5
D13F
330
2
100
AcDbEntity
  8
L-ZISSEN
100
AcDbLine
 10
393.1085352949057
 20
-2389.695861950166
 30
0.0
 11
384.1516752313081
 21
-2388.646957584238
 31
0.0
  0
ARC
  5
D140
330
2
100
AcDbEntity
  8
L-ZISSEN
100
AcDbCircle
 10
395.7981857248761
 20
-2398.467590505422
 30
0.0
 40
5.271330170370607
100
AcDbArc
 50
64.74766100341156
 51
114.9228807251722
  0
LINE
  5
D141
330
2
100
AcDbEntity
  8
L-ZISSEN
100
AcDbLine
 10
397.5765013413833
 20
-2396.197578060998
 30
0.0
 11
397.576501341379
 21
-2398.138046860362
 31
0.0
  0
LINE
  5
D142
330
2
100
AcDbEntity
  8
L-ZISSEN
100
AcDbLine
 10
398.0469650233623
 20
-2393.700000607819
 30
0.0
 11
398.0469650233692
 21
-2395.693762291922
 31
0.0
  0
LINE
  5
D143
330
2
100
AcDbEntity
  8
L-ZISSEN
100
AcDbLine
 10
397.076501341379
 20
-2398.138046860362
 30
0.0
 11
396.5765013413817
 21
-2398.638046860362
 31
0.0
  0
LINE
  5
D144
330
2
100
AcDbEntity
  8
L-ZISSEN
100
AcDbLine
 10
393.5768577212968
 20
-2393.687148719814
 30
0.0
 11
393.5768577212968
 21
-2395.706614179927
 31
0.0
  0
LINE
  5
D145
330
2
100
AcDbEntity
  8
L-ZISSEN
100
AcDbLine
 10
397.0765013413817
 20
-2397.638046860362
 30
0.0
 11
397.0765013413817
 21
-2396.19688144987
 31
0.0
  0
LINE
  5
D146
330
2
100
AcDbEntity
  8
L-ZISSEN
100
AcDbLine
 10
397.576501341379
 20
-2398.138046860362
 30
0.0
 11
397.0765013413817
 21
-2397.638046860362
 31
0.0
  0
ARC
  5
D147
330
2
100
AcDbEntity
  8
L-ZISSEN
100
AcDbCircle
 10
395.7981857248761
 20
-2390.926172394319
 30
0.0
 40
5.271330170370607
100
AcDbArc
 50
245.0771192748277
 51
295.2523389966474
  0
LINE
  5
D148
330
2
100
AcDbEntity
  8
L-ZISSEN
100
AcDbLine
 10
396.8765013413814
 20
-2408.19688144987
 30
0.0
 11
396.5765013413817
 21
-2407.89688144987
 31
0.0
  0
LINE
  5
D149
330
2
100
AcDbEntity
  8
L-ZISSEN
100
AcDbLine
 10
398.5765013413799
 20
-2398.138046860362
 30
0.0
 11
398.5765013413799
 21
-2408.19688144987
 31
0.0
  0
LINE
  5
D14A
330
2
100
AcDbEntity
  8
L-ZISSEN
100
AcDbLine
 10
397.5765013413808
 20
-2398.138046860362
 30
0.0
 11
397.576501341381
 21
-2408.19688144987
 31
0.0
  0
LINE
  5
D14B
330
2
100
AcDbEntity
  8
L-ZISSEN
100
AcDbLine
 10
396.5765013413815
 20
-2407.89688144987
 30
0.0
 11
396.5765013413817
 21
-2398.638046860362
 31
0.0
  0
LINE
  5
D14C
330
2
100
AcDbEntity
  8
L-ZISSEN
100
AcDbLine
 10
404.5765013413812
 20
-2398.138046860362
 30
0.0
 11
404.5765013413815
 21
-2408.19688144987
 31
0.0
  0
LINE
  5
D14D
330
2
100
AcDbEntity
  8
L-ZISSEN
100
AcDbLine
 10
403.5765013413821
 20
-2398.138046860362
 30
0.0
 11
403.5765013413824
 21
-2408.19688144987
 31
0.0
  0
LINE
  5
D14E
330
2
100
AcDbEntity
  8
L-ZISSEN
100
AcDbLine
 10
402.576501341383
 20
-2398.138046860362
 30
0.0
 11
402.5765013413833
 21
-2408.19688144987
 31
0.0
  0
LINE
  5
D14F
330
2
100
AcDbEntity
  8
L-ZISSEN
100
AcDbLine
 10
401.5765013413817
 20
-2398.138046860362
 30
0.0
 11
401.5765013413819
 21
-2408.19688144987
 31
0.0
  0
LINE
  5
D150
330
2
100
AcDbEntity
  8
L-ZISSEN
100
AcDbLine
 10
400.5765013413826
 20
-2398.138046860362
 30
0.0
 11
400.5765013413828
 21
-2408.19688144987
 31
0.0
  0
LINE
  5
D151
330
2
100
AcDbEntity
  8
L-ZISSEN
100
AcDbLine
 10
399.5765013413813
 20
-2398.138046860362
 30
0.0
 11
399.5765013413815
 21
-2408.19688144987
 31
0.0
  0
LINE
  5
D152
330
2
100
AcDbEntity
  8
L-ZISSEN
100
AcDbLine
 10
393.1085352949066
 20
-2389.695861950166
 30
0.0
 11
393.108535294907
 21
-2393.195861950166
 31
0.0
  0
LINE
  5
D153
330
2
100
AcDbEntity
  8
L-ZISSEN
100
AcDbLine
 10
411.978869831344
 20
-2389.695861950166
 30
0.0
 11
420.9357298949416
 21
-2388.646957584238
 31
0.0
  0
ARC
  5
D154
330
2
100
AcDbEntity
  8
L-ZISSEN
100
AcDbCircle
 10
409.2892194013745
 20
-2398.466793735651
 30
0.0
 40
5.271330170371789
100
AcDbArc
 50
64.28835488513612
 51
115.2591066834208
  0
ARC
  5
D155
330
2
100
AcDbEntity
  8
L-ZISSEN
100
AcDbCircle
 10
409.2892194013745
 20
-2390.92696916409
 30
0.0
 40
5.271330170371532
100
AcDbArc
 50
244.7408933165791
 51
295.7116451148636
  0
LINE
  5
D156
330
2
100
AcDbEntity
  8
L-ZISSEN
100
AcDbLine
 10
407.5765013413847
 20
-2396.198227712293
 30
0.0
 11
407.5765013413803
 21
-2398.138046860362
 31
0.0
  0
LINE
  5
D157
330
2
100
AcDbEntity
  8
L-ZISSEN
100
AcDbLine
 10
407.5765013413803
 20
-2398.138046860362
 30
0.0
 11
408.0765013413799
 21
-2397.638046860362
 31
0.0
  0
LINE
  5
D158
330
2
100
AcDbEntity
  8
L-ZISSEN
100
AcDbLine
 10
405.5765013413803
 20
-2398.138046860362
 30
0.0
 11
408.0765013413803
 21
-2398.138046860362
 31
0.0
  0
LINE
  5
D159
330
2
100
AcDbEntity
  8
L-ZISSEN
100
AcDbLine
 10
408.0765013413803
 20
-2398.138046860362
 30
0.0
 11
408.5765013413799
 21
-2398.638046860362
 31
0.0
  0
LINE
  5
D15A
330
2
100
AcDbEntity
  8
L-ZISSEN
100
AcDbLine
 10
407.039876978398
 20
-2393.699469493557
 30
0.0
 11
407.039876978398
 21
-2395.694293406184
 31
0.0
  0
LINE
  5
D15B
330
2
100
AcDbEntity
  8
L-ZISSEN
100
AcDbLine
 10
408.0765013413801
 20
-2397.638046860361
 30
0.0
 11
408.0765013413799
 21
-2396.19688144987
 31
0.0
  0
LINE
  5
D15C
330
2
100
AcDbEntity
  8
L-ZISSEN
100
AcDbLine
 10
408.2765013413801
 20
-2408.19688144987
 30
0.0
 11
408.5765013413799
 21
-2407.89688144987
 31
0.0
  0
LINE
  5
D15D
330
2
100
AcDbEntity
  8
L-ZISSEN
100
AcDbLine
 10
408.5765013413799
 20
-2398.638046860362
 30
0.0
 11
408.5765013413799
 21
-2407.89688144987
 31
0.0
  0
LINE
  5
D15E
330
2
100
AcDbEntity
  8
L-ZISSEN
100
AcDbLine
 10
407.5765013413831
 20
-2398.138046860362
 30
0.0
 11
407.5765013413851
 21
-2408.19688144987
 31
0.0
  0
LINE
  5
D15F
330
2
100
AcDbEntity
  8
L-ZISSEN
100
AcDbLine
 10
406.576501341384
 20
-2398.138046860362
 30
0.0
 11
406.5765013413842
 21
-2408.19688144987
 31
0.0
  0
LINE
  5
D160
330
2
100
AcDbEntity
  8
L-ZISSEN
100
AcDbLine
 10
405.5765013413803
 20
-2398.138046860362
 30
0.0
 11
405.5765013413803
 21
-2408.19688144987
 31
0.0
  0
LINE
  5
D161
330
2
100
AcDbEntity
  8
L-ZISSEN
100
AcDbLine
 10
411.5761449614671
 20
-2393.717383956776
 30
0.0
 11
411.5761449614671
 21
-2395.676378942964
 31
0.0
  0
LINE
  5
D162
330
2
100
AcDbEntity
  8
L-ZISSEN
100
AcDbLine
 10
411.978869831344
 20
-2389.695861950166
 30
0.0
 11
411.9788698313436
 21
-2393.195861950166
 31
0.0
  0
TEXT
  5
D163
330
2
100
AcDbEntity
  8
L-ZISSEN
100
AcDbText
 10
374.5437025631249
 20
-2026.210951410233
 30
0.0
 40
4.5
  1
P.P
100
AcDbText
  0
TEXT
  5
D164
330
2
100
AcDbEntity
  8
L-ZISSEN
100
AcDbText
 10
374.5437025631249
 20
-2275.946881449871
 30
0.0
 40
4.5
  1
P.P
100
AcDbText
  0
LINE
  5
D165
330
2
100
AcDbEntity
  8
L-ZISSEN
100
AcDbLine
 10
377.2637025631244
 20
-2046.799690321864
 30
0.0
 11
385.6937025631252
 21
-2046.799690321864
 31
0.0
  0
ARC
  5
D166
330
2
100
AcDbEntity
  8
L-ZISSEN
100
AcDbCircle
 10
402.5437025631224
 20
-2052.947545891576
 30
0.0
 40
99.53938471878538
100
AcDbArc
 50
256.0937629349463
 51
263.0758486315294
  0
LINE
  5
D167
330
2
100
AcDbEntity
  8
L-ZISSEN
100
AcDbLine
 10
381.4787025631236
 20
-2131.299690321865
 30
0.0
 11
377.2637025631244
 21
-2129.299690321865
 31
0.0
  0
LINE
  5
D168
330
2
100
AcDbEntity
  8
L-ZISSEN
100
AcDbLine
 10
376.0437025631253
 20
-2289.695861950165
 30
0.0
 11
384.0437025631253
 21
-2289.695861950165
 31
0.0
  0
LINE
  5
D169
330
2
100
AcDbEntity
  8
L-ZISSEN
100
AcDbLine
 10
377.2637025631244
 20
-2046.799690321864
 30
0.0
 11
377.2637025631244
 21
-2129.299690321865
 31
0.0
  0
LINE
  5
D16A
330
2
100
AcDbEntity
  8
L-ZISSEN
100
AcDbLine
 10
372.5437025631246
 20
-2141.803941017046
 30
0.0
 11
372.5437025631246
 21
-2036.460951410233
 31
0.0
  0
LINE
  5
D16B
330
2
100
AcDbEntity
  8
L-TYUSIN
100
AcDbLine
 10
353.8991116827582
 20
-2308.695861950166
 30
0.0
 11
378.4207863924084
 21
-2308.695861950165
 31
0.0
  0
LINE
  5
D16C
330
2
100
AcDbEntity
  8
L-ZISSEN
100
AcDbLine
 10
368.5877179628977
 20
-2303.695861950165
 30
0.0
 11
372.0437025631253
 21
-2303.695861950165
 31
0.0
  0
LINE
  5
D16D
330
2
100
AcDbEntity
  8
L-ZISSEN
100
AcDbLine
 10
360.7991116827578
 20
-2303.695861950165
 30
0.0
 11
370.2991116827579
 21
-2303.695861950165
 31
0.0
  0
LINE
  5
D16E
330
2
100
AcDbEntity
  8
L-ZISSEN
100
AcDbLine
 10
358.8991116827582
 20
-2307.502486277191
 30
0.0
 11
358.899111682758
 21
-2310.389237623139
 31
0.0
  0
ARC
  5
D16F
330
2
100
AcDbEntity
  8
L-ZISSEN
100
AcDbCircle
 10
361.2111142505354
 20
-2307.471075434347
 30
0.0
 40
2.312215931624567
100
AcDbArc
 50
100.2640683722081
 51
180.7783719766075
  0
ARC
  5
D170
330
2
100
AcDbEntity
  8
L-ZISSEN
100
AcDbCircle
 10
361.2111142505354
 20
-2310.420648465983
 30
0.0
 40
2.312215931624567
100
AcDbArc
 50
179.2216280233924
 51
259.7359316277914
  0
LINE
  5
D171
330
2
100
AcDbEntity
  8
L-ZISSEN
100
AcDbLine
 10
372.5877179628978
 20
-2299.695861950165
 30
0.0
 11
376.0437025631253
 21
-2299.695861950165
 31
0.0
  0
LINE
  5
D172
330
2
100
AcDbEntity
  8
L-ZISSEN
 48
0.3
100
AcDbLine
 10
375.3968948782748
 20
-2303.695861950165
 30
0.0
 11
373.3992292215043
 21
-2303.695861950165
 31
0.0
  0
LINE
  5
D173
330
2
100
AcDbEntity
  8
L-ZISSEN
100
AcDbLine
 10
372.3403316280909
 20
-2286.196881449871
 30
0.0
 11
372.5877179628978
 21
-2299.695861950165
 31
0.0
  0
LINE
  5
D174
330
2
100
AcDbEntity
  8
L-ZISSEN
100
AcDbLine
 10
373.2878355016445
 20
-2299.695861950165
 30
0.0
 11
373.3256893003328
 21
-2303.695861950165
 31
0.0
  0
LINE
  5
D175
330
2
100
AcDbEntity
  8
L-ZISSEN
100
AcDbLine
 10
370.2991116827579
 20
-2303.695861950165
 30
0.0
 11
373.3992292215043
 21
-2303.695861950165
 31
0.0
  0
LINE
  5
D176
330
2
100
AcDbEntity
  8
L-ZISSEN
100
AcDbLine
 10
376.0437025631253
 20
-2289.695861950165
 30
0.0
 11
376.0437025631253
 21
-2299.695861950165
 31
0.0
  0
ARC
  5
D177
330
2
100
AcDbEntity
  8
L-ZISSEN
100
AcDbCircle
 10
380.5437025631219
 20
-2141.803941017046
 30
0.0
 40
8.000000000000113
100
AcDbArc
 50
180.0
 51
256.093762934765
  0
ARC
  5
D178
330
2
100
AcDbEntity
  8
L-ZISSEN
100
AcDbCircle
 10
415.3562025631246
 20
-2075.210951410233
 30
0.0
 40
1.249999999999715
100
AcDbArc
 50
270.0
 51
0.0
  0
LINE
  5
D179
330
2
100
AcDbEntity
  8
L-ZISSEN
100
AcDbLine
 10
411.9187025631224
 20
-2068.960951410232
 30
0.0
 11
411.9187025631224
 21
-2076.460951410233
 31
0.0
  0
LINE
  5
D17A
330
2
100
AcDbEntity
  8
L-ZISSEN
100
AcDbLine
 10
393.1687025631246
 20
-2068.960951410232
 30
0.0
 11
393.1687025631223
 21
-2076.460951410233
 31
0.0
  0
ARC
  5
D17B
330
2
100
AcDbEntity
  8
L-ZISSEN
100
AcDbCircle
 10
389.7312025631246
 20
-2075.210951410233
 30
0.0
 40
1.250000000000568
100
AcDbArc
 50
180.0
 51
270.0
  0
LINE
  5
D17C
330
2
100
AcDbEntity
  8
L-ZISSEN
100
AcDbLine
 10
385.6937025631252
 20
-2046.799690321864
 30
0.0
 11
385.6937025631252
 21
-2129.299690321865
 31
0.0
  0
LINE
  5
D17D
330
2
100
AcDbEntity
  8
L-ZISSEN
100
AcDbLine
 10
427.8237025631248
 20
-2046.799690321864
 30
0.0
 11
427.8237025631248
 21
-2129.299690321865
 31
0.0
  0
LINE
  5
D17E
330
2
100
AcDbEntity
  8
L-ZISSEN
100
AcDbLine
 10
419.3937025631241
 20
-2046.799690321864
 30
0.0
 11
419.3937025631241
 21
-2129.299690321865
 31
0.0
  0
LINE
  5
D17F
330
2
100
AcDbEntity
  8
L-ZISSEN
100
AcDbLine
 10
389.7312025631246
 20
-2076.460951410233
 30
0.0
 11
415.3562025631246
 21
-2076.460951410233
 31
0.0
  0
LINE
  5
D180
330
2
100
AcDbEntity
  8
L-ZISSEN
100
AcDbLine
 10
390.5437025631247
 20
-2153.260951410232
 30
0.0
 11
414.5437025631246
 21
-2153.260951410232
 31
0.0
  0
LINE
  5
D181
330
2
100
AcDbEntity
  8
L-ZISSEN
100
AcDbLine
 10
390.5437025631247
 20
-2151.760951410232
 30
0.0
 11
414.5437025631246
 21
-2151.760951410232
 31
0.0
  0
LINE
  5
D182
330
2
100
AcDbEntity
  8
L-ZISSEN
100
AcDbLine
 10
390.5437025631247
 20
-2155.760951410232
 30
0.0
 11
414.5437025631246
 21
-2155.760951410232
 31
0.0
  0
LINE
  5
D183
330
2
100
AcDbEntity
  8
L-ZISSEN
100
AcDbLine
 10
413.5437025631246
 20
-2164.760951410233
 30
0.0
 11
391.5437025631246
 21
-2164.760951410233
 31
0.0
  0
LINE
  5
D184
330
2
100
AcDbEntity
  8
L-ZISSEN
100
AcDbLine
 10
392.5437025631246
 20
-2168.260951410232
 30
0.0
 11
412.5437025631247
 21
-2168.260951410232
 31
0.0
  0
LINE
  5
D185
330
2
100
AcDbEntity
  8
L-ZISSEN
100
AcDbLine
 10
392.5437025631246
 20
-2168.960951410232
 30
0.0
 11
412.5437025631247
 21
-2168.960951410232
 31
0.0
  0
LINE
  5
D186
330
2
100
AcDbEntity
  8
L-ZISSEN
100
AcDbLine
 10
392.5437025631246
 20
-2182.460951410232
 30
0.0
 11
412.5437025631247
 21
-2182.460951410232
 31
0.0
  0
LINE
  5
D187
330
2
100
AcDbEntity
  8
L-ZISSEN
100
AcDbLine
 10
405.4229525631264
 20
-2296.480111950164
 30
0.0
 11
402.5437025631262
 21
-2301.278861950164
 31
0.0
  0
LINE
  5
D188
330
2
100
AcDbEntity
  8
L-ZISSEN
100
AcDbLine
 10
403.5034525631262
 20
-2296.480111950164
 30
0.0
 11
405.4229525631264
 21
-2296.480111950164
 31
0.0
  0
LINE
  5
D189
330
2
100
AcDbEntity
  8
L-ZISSEN
100
AcDbLine
 10
402.5437025631246
 20
-2312.795861950164
 30
0.0
 11
413.3408900631229
 21
-2309.916611950164
 31
0.0
  0
LINE
  5
D18A
330
2
100
AcDbEntity
  8
L-ZISSEN
100
AcDbLine
 10
411.6916043240505
 20
-2308.912349137544
 30
0.0
 11
402.5437025631246
 21
-2310.827517190312
 31
0.0
  0
LINE
  5
D18B
330
2
100
AcDbEntity
  8
L-ZISSEN
100
AcDbLine
 10
402.5437025631246
 20
-2306.715786009263
 30
0.0
 11
411.6916043240505
 21
-2305.40894290056
 31
0.0
  0
LINE
  5
D18C
330
2
100
AcDbEntity
  8
L-ZISSEN
100
AcDbLine
 10
402.5437025631246
 20
-2306.077611950164
 30
0.0
 11
412.6210775631228
 21
-2304.637986950165
 31
0.0
  0
LINE
  5
D18D
330
2
100
AcDbEntity
  8
L-ZISSEN
100
AcDbLine
 10
414.5437025631246
 20
-2286.495861950164
 30
0.0
 11
390.5437025631247
 21
-2286.495861950164
 31
0.0
  0
LINE
  5
D18E
330
2
100
AcDbEntity
  8
L-ZISSEN
100
AcDbLine
 10
392.943702563125
 20
-2326.795861950165
 30
0.0
 11
412.1437025631248
 21
-2326.795861950165
 31
0.0
  0
LINE
  5
D18F
330
2
100
AcDbEntity
  8
L-ZISSEN
100
AcDbLine
 10
392.5437025631244
 20
-2329.795861950164
 30
0.0
 11
412.5437025631244
 21
-2329.795861950164
 31
0.0
  0
LINE
  5
D190
330
2
100
AcDbEntity
  8
L-ZISSEN
100
AcDbLine
 10
394.943702563125
 20
-2324.795861950164
 30
0.0
 11
410.1437025631248
 21
-2324.795861950164
 31
0.0
  0
LINE
  5
D191
330
2
100
AcDbEntity
  8
L-ZISSEN
100
AcDbLine
 10
394.943702563125
 20
-2323.795861950164
 30
0.0
 11
410.1437025631248
 21
-2323.795861950164
 31
0.0
  0
LINE
  5
D192
330
2
100
AcDbEntity
  8
L-TYUSIN
100
AcDbLine
 10
394.943702563125
 20
-2320.295861950164
 30
0.0
 11
410.1437025631248
 21
-2320.295861950164
 31
0.0
  0
LINE
  5
D193
330
2
100
AcDbEntity
  8
L-ZISSEN
100
AcDbLine
 10
401.0072600039299
 20
-2284.916512650541
 30
0.0
 11
387.5437025631248
 21
-2273.696881449871
 31
0.0
  0
LINE
  5
D194
330
2
100
AcDbEntity
  8
L-ZISSEN
100
AcDbLine
 10
392.0437025631244
 20
-2315.795861950165
 30
0.0
 11
394.9437025631245
 21
-2315.795861950165
 31
0.0
  0
LINE
  5
D195
330
2
100
AcDbEntity
  8
L-ZISSEN
100
AcDbLine
 10
391.7465150631227
 20
-2309.916611950164
 30
0.0
 11
393.3958008021988
 21
-2308.912349137544
 31
0.0
  0
LINE
  5
D196
330
2
100
AcDbEntity
  8
L-ZISSEN
100
AcDbLine
 10
392.943702563125
 20
-2326.795861950164
 30
0.0
 11
392.5437025631244
 21
-2329.795861950164
 31
0.0
  0
LINE
  5
D197
330
2
100
AcDbEntity
  8
L-ZISSEN
100
AcDbLine
 10
393.3958008021988
 20
-2304.770768841461
 30
0.0
 11
392.4663275631227
 21
-2304.637986950165
 31
0.0
  0
LINE
  5
D198
330
2
100
AcDbEntity
  8
L-ZISSEN
100
AcDbLine
 10
393.3958008021988
 20
-2305.40894290056
 30
0.0
 11
392.4663275631227
 21
-2304.637986950165
 31
0.0
  0
LINE
  5
D199
330
2
100
AcDbEntity
  8
L-ZISSEN
100
AcDbLine
 10
402.5437025631246
 20
-2312.795861950164
 30
0.0
 11
391.7465150631227
 21
-2309.916611950164
 31
0.0
  0
LINE
  5
D19A
330
2
100
AcDbEntity
  8
L-ZISSEN
100
AcDbLine
 10
402.5437025631246
 20
-2306.077611950164
 30
0.0
 11
392.4663275631227
 21
-2304.637986950165
 31
0.0
  0
LINE
  5
D19B
330
2
100
AcDbEntity
  8
L-ZISSEN
100
AcDbLine
 10
387.5437025631248
 20
-2273.696881449871
 30
0.0
 11
385.5437025631248
 21
-2273.696881449871
 31
0.0
  0
LINE
  5
D19C
330
2
100
AcDbEntity
  8
L-ZISSEN
100
AcDbLine
 10
384.0437025631253
 20
-2299.695861950164
 30
0.0
 11
391.0437025631253
 21
-2299.695861950164
 31
0.0
  0
LINE
  5
D19D
330
2
100
AcDbEntity
  8
L-ZISSEN
100
AcDbLine
 10
384.0437025631253
 20
-2289.695861950165
 30
0.0
 11
384.0437025631253
 21
-2299.695861950165
 31
0.0
  0
LINE
  5
D19E
330
2
100
AcDbEntity
  8
L-ZISSEN
100
AcDbLine
 10
391.5437025631244
 20
-2286.495861950164
 30
0.0
 11
391.5437025631244
 21
-2315.295861950165
 31
0.0
  0
LINE
  5
D19F
330
2
100
AcDbEntity
  8
L-ZISSEN
100
AcDbLine
 10
391.746515063123
 20
-2286.495861950164
 30
0.0
 11
391.7465150631227
 21
-2309.916611950164
 31
0.0
  0
LINE
  5
D1A0
330
2
100
AcDbEntity
  8
L-ZISSEN
100
AcDbLine
 10
392.5437025631244
 20
-2315.795861950164
 30
0.0
 11
392.5437025631244
 21
-2329.795861950164
 31
0.0
  0
LINE
  5
D1A1
330
2
100
AcDbEntity
  8
L-ZISSEN
100
AcDbLine
 10
392.4663275631227
 20
-2286.495861950164
 30
0.0
 11
392.4663275631227
 21
-2304.637986950165
 31
0.0
  0
LINE
  5
D1A2
330
2
100
AcDbEntity
  8
L-ZISSEN
100
AcDbLine
 10
390.5437025631249
 20
-2286.196881449871
 30
0.0
 11
390.5437025631247
 21
-2286.495861950164
 31
0.0
  0
LINE
  5
D1A3
330
2
100
AcDbEntity
  8
L-ZISSEN
100
AcDbLine
 10
390.2437025631251
 20
-2291.195861950166
 30
0.0
 11
390.2437025631251
 21
-2299.695861950164
 31
0.0
  0
LINE
  5
D1A4
330
2
100
AcDbEntity
  8
L-ZISSEN
100
AcDbLine
 10
390.2437025631251
 20
-2291.195861950166
 30
0.0
 11
391.5437025631244
 21
-2291.195861950166
 31
0.0
  0
ARC
  5
D1A5
330
2
100
AcDbEntity
  8
L-ZISSEN
100
AcDbCircle
 10
392.0437025631244
 20
-2315.295861950165
 30
0.0
 40
0.5
100
AcDbArc
 50
180.0
 51
270.0
  0
LINE
  5
D1A6
330
2
100
AcDbEntity
  8
L-ZISSEN
100
AcDbLine
 10
390.2437025631251
 20
-2299.695861950164
 30
0.0
 11
391.5437025631244
 21
-2299.695861950164
 31
0.0
  0
LINE
  5
D1A7
330
2
100
AcDbEntity
  8
L-ZISSEN
100
AcDbLine
 10
400.1443275631246
 20
-2291.681361950165
 30
0.0
 11
396.3053275631245
 21
-2291.681361950165
 31
0.0
  0
LINE
  5
D1A8
330
2
100
AcDbEntity
  8
L-ZISSEN
100
AcDbLine
 10
400.1443275631246
 20
-2291.681361950165
 30
0.0
 11
396.3053275631245
 21
-2291.681361950165
 31
0.0
  0
LINE
  5
D1A9
330
2
100
AcDbEntity
  8
L-ZISSEN
100
AcDbLine
 10
400.1443275631246
 20
-2290.721611950165
 30
0.0
 11
396.3053275631245
 21
-2290.721611950165
 31
0.0
  0
LINE
  5
D1AA
330
2
100
AcDbEntity
  8
L-ZISSEN
100
AcDbLine
 10
400.1443275631246
 20
-2290.721611950165
 30
0.0
 11
396.3053275631245
 21
-2290.721611950165
 31
0.0
  0
CIRCLE
  5
D1AB
330
2
100
AcDbEntity
  8
L-ZISSEN
100
AcDbCircle
 10
398.2937025631244
 20
-2320.295861950164
 30
0.0
 40
2.0
  0
LINE
  5
D1AC
330
2
100
AcDbEntity
  8
L-ZISSEN
100
AcDbLine
 10
393.3958008021988
 20
-2308.912349137544
 30
0.0
 11
402.5437025631246
 21
-2310.827517190312
 31
0.0
  0
LINE
  5
D1AD
330
2
100
AcDbEntity
  8
L-ZISSEN
100
AcDbLine
 10
402.5437025631246
 20
-2306.715786009263
 30
0.0
 11
393.3958008021988
 21
-2305.40894290056
 31
0.0
  0
LINE
  5
D1AE
330
2
100
AcDbEntity
  8
L-ZISSEN
100
AcDbLine
 10
396.3053275631245
 20
-2289.761861950164
 30
0.0
 11
393.9059525631245
 21
-2291.201486950165
 31
0.0
  0
LINE
  5
D1AF
330
2
100
AcDbEntity
  8
L-ZISSEN
100
AcDbLine
 10
396.3053275631245
 20
-2290.721611950165
 30
0.0
 11
396.3053275631245
 21
-2289.761861950164
 31
0.0
  0
LINE
  5
D1B0
330
2
100
AcDbEntity
  8
L-ZISSEN
100
AcDbLine
 10
396.3053275631245
 20
-2292.641111950165
 30
0.0
 11
393.9059525631245
 21
-2291.201486950165
 31
0.0
  0
LINE
  5
D1B1
330
2
100
AcDbEntity
  8
L-ZISSEN
100
AcDbLine
 10
396.3053275631245
 20
-2291.681361950165
 30
0.0
 11
396.3053275631245
 21
-2292.641111950165
 31
0.0
  0
LINE
  5
D1B2
330
2
100
AcDbEntity
  8
L-TYUSIN
100
AcDbLine
 10
398.2937025631244
 20
-2317.045861950164
 30
0.0
 11
398.2937025631244
 21
-2323.545861950164
 31
0.0
  0
LINE
  5
D1B3
330
2
100
AcDbEntity
  8
L-ZISSEN
100
AcDbLine
 10
392.943702563124
 20
-2315.795861950164
 30
0.0
 11
392.943702563125
 21
-2326.795861950164
 31
0.0
  0
LINE
  5
D1B4
330
2
100
AcDbEntity
  8
L-ZISSEN
100
AcDbLine
 10
394.9437025631245
 20
-2310.769195283499
 30
0.0
 11
394.943702563125
 21
-2324.795861950164
 31
0.0
  0
LINE
  5
D1B5
330
2
100
AcDbEntity
  8
L-ZISSEN
100
AcDbLine
 10
393.3958008021988
 20
-2305.40894290056
 30
0.0
 11
393.3958008021988
 21
-2308.912349137544
 31
0.0
  0
SOLID
  5
D1B6
330
2
100
AcDbEntity
  8
L-ZISSEN
100
AcDbTrace
 10
400.7938652040417
 20
-2285.172586410407
 30
0.0
 11
401.2206548038181
 21
-2284.660438890676
 31
0.0
 12
402.5437025631246
 22
-2286.196881449871
 32
0.0
 13
402.5437025631246
 23
-2286.196881449871
 33
0.0
  0
LINE
  5
D1B7
330
2
100
AcDbEntity
  8
L-ZISSEN
100
AcDbLine
 10
403.5034525631262
 20
-2288.802111950164
 30
0.0
 11
401.5839525631262
 21
-2288.802111950164
 31
0.0
  0
ARC
  5
D1B8
330
2
100
AcDbEntity
  8
L-ZISSEN
100
AcDbCircle
 10
402.5437025631249
 20
-2314.545861950164
 30
0.0
 40
1.25
100
AcDbArc
 50
180.0
 51
0.0
  0
LINE
  5
D1B9
330
2
100
AcDbEntity
  8
L-ZISSEN
100
AcDbLine
 10
401.2937025631249
 20
-2314.545861950164
 30
0.0
 11
401.2937025631249
 21
-2312.462528616831
 31
0.0
  0
LINE
  5
D1BA
330
2
100
AcDbEntity
  8
L-ZISSEN
100
AcDbLine
 10
401.5839525631262
 20
-2288.802111950164
 30
0.0
 11
401.5839525631262
 21
-2296.480111950164
 31
0.0
  0
LINE
  5
D1BB
330
2
100
AcDbEntity
  8
L-ZISSEN
100
AcDbLine
 10
401.5839525631262
 20
-2288.802111950164
 30
0.0
 11
401.5839525631262
 21
-2296.480111950164
 31
0.0
  0
LINE
  5
D1BC
330
2
100
AcDbEntity
  8
L-ZISSEN
100
AcDbLine
 10
402.5437025631246
 20
-2306.077611950164
 30
0.0
 11
402.5437025631246
 21
-2306.715786009263
 31
0.0
  0
LINE
  5
D1BD
330
2
100
AcDbEntity
  8
L-ZISSEN
100
AcDbLine
 10
403.7937025631249
 20
-2314.545861950164
 30
0.0
 11
403.7937025631249
 21
-2312.462528616831
 31
0.0
  0
LINE
  5
D1BE
330
2
100
AcDbEntity
  8
L-ZISSEN
100
AcDbLine
 10
403.5034525631262
 20
-2288.802111950164
 30
0.0
 11
403.5034525631262
 21
-2296.480111950164
 31
0.0
  0
LINE
  5
D1BF
330
2
100
AcDbEntity
  8
L-ZISSEN
100
AcDbLine
 10
403.5034525631262
 20
-2288.802111950164
 30
0.0
 11
403.5034525631262
 21
-2296.480111950164
 31
0.0
  0
LINE
  5
D1C0
330
2
100
AcDbEntity
  8
L-ZISSEN
100
AcDbLine
 10
400.1443275631246
 20
-2290.721611950165
 30
0.0
 11
400.1443275631246
 21
-2291.681361950165
 31
0.0
  0
LINE
  5
D1C1
330
2
100
AcDbEntity
  8
L-ZISSEN
100
AcDbLine
 10
399.6644525631263
 20
-2296.480111950164
 30
0.0
 11
402.5437025631262
 21
-2301.278861950164
 31
0.0
  0
LINE
  5
D1C2
330
2
100
AcDbEntity
  8
L-ZISSEN
100
AcDbLine
 10
401.5839525631262
 20
-2296.480111950164
 30
0.0
 11
399.6644525631263
 21
-2296.480111950164
 31
0.0
  0
LINE
  5
D1C3
330
2
100
AcDbEntity
  8
L-ZISSEN
100
AcDbLine
 10
390.5437025631247
 20
-2155.760951410232
 30
0.0
 11
390.5437025631247
 21
-2151.760951410232
 31
0.0
  0
LINE
  5
D1C4
330
2
100
AcDbEntity
  8
L-ZISSEN
100
AcDbLine
 10
392.5437025631246
 20
-2168.260951410232
 30
0.0
 11
392.5437025631246
 21
-2164.760951410233
 31
0.0
  0
LINE
  5
D1C5
330
2
100
AcDbEntity
  8
L-ZISSEN
100
AcDbLine
 10
392.5437025631246
 20
-2182.460951410232
 30
0.0
 11
392.5437025631246
 21
-2168.960951410232
 31
0.0
  0
LINE
  5
D1C6
330
2
100
AcDbEntity
  8
L-ZISSEN
100
AcDbLine
 10
391.5437025631246
 20
-2155.760951410232
 30
0.0
 11
391.5437025631246
 21
-2164.760951410233
 31
0.0
  0
LINE
  5
D1C7
330
2
100
AcDbEntity
  8
L-ZISSEN
100
AcDbLine
 10
385.6937025631252
 20
-2129.299690321865
 30
0.0
 11
381.4787025631236
 21
-2131.299690321865
 31
0.0
  0
LINE
  5
D1C8
330
2
100
AcDbEntity
  8
L-ZISSEN
100
AcDbLine
 10
393.5437025631246
 20
-2168.960951410232
 30
0.0
 11
393.5437025631251
 21
-2168.260951410232
 31
0.0
  0
LINE
  5
D1C9
330
2
100
AcDbEntity
  8
L-ZISSEN
100
AcDbLine
 10
421.0437025631253
 20
-2299.695861950163
 30
0.0
 11
414.0437025631253
 21
-2299.695861950164
 31
0.0
  0
LINE
  5
D1CA
330
2
100
AcDbEntity
  8
L-ZISSEN
100
AcDbLine
 10
410.1437025631248
 20
-2315.795861950165
 30
0.0
 11
413.0437025631244
 21
-2315.795861950165
 31
0.0
  0
LINE
  5
D1CB
330
2
100
AcDbEntity
  8
L-ZISSEN
100
AcDbLine
 10
408.7820775631247
 20
-2289.761861950164
 30
0.0
 11
411.1814525631247
 21
-2291.201486950164
 31
0.0
  0
LINE
  5
D1CC
330
2
100
AcDbEntity
  8
L-ZISSEN
100
AcDbLine
 10
408.7820775631247
 20
-2292.641111950163
 30
0.0
 11
411.1814525631247
 21
-2291.201486950164
 31
0.0
  0
LINE
  5
D1CD
330
2
100
AcDbEntity
  8
L-ZISSEN
100
AcDbLine
 10
408.7820775631247
 20
-2290.721611950164
 30
0.0
 11
408.7820775631247
 21
-2289.761861950164
 31
0.0
  0
LINE
  5
D1CE
330
2
100
AcDbEntity
  8
L-ZISSEN
100
AcDbLine
 10
408.7820775631247
 20
-2291.681361950164
 30
0.0
 11
408.7820775631247
 21
-2292.641111950163
 31
0.0
  0
LINE
  5
D1CF
330
2
100
AcDbEntity
  8
L-ZISSEN
100
AcDbLine
 10
404.9430775631246
 20
-2290.721611950164
 30
0.0
 11
404.9430775631246
 21
-2291.681361950164
 31
0.0
  0
LINE
  5
D1D0
330
2
100
AcDbEntity
  8
L-ZISSEN
100
AcDbLine
 10
404.9430775631246
 20
-2291.681361950164
 30
0.0
 11
408.7820775631247
 21
-2291.681361950164
 31
0.0
  0
LINE
  5
D1D1
330
2
100
AcDbEntity
  8
L-ZISSEN
100
AcDbLine
 10
404.9430775631246
 20
-2291.681361950164
 30
0.0
 11
408.7820775631247
 21
-2291.681361950164
 31
0.0
  0
LINE
  5
D1D2
330
2
100
AcDbEntity
  8
L-ZISSEN
100
AcDbLine
 10
404.9430775631246
 20
-2290.721611950164
 30
0.0
 11
408.7820775631247
 21
-2290.721611950164
 31
0.0
  0
LINE
  5
D1D3
330
2
100
AcDbEntity
  8
L-ZISSEN
100
AcDbLine
 10
404.9430775631246
 20
-2290.721611950164
 30
0.0
 11
408.7820775631247
 21
-2290.721611950164
 31
0.0
  0
LINE
  5
D1D4
330
2
100
AcDbEntity
  8
L-ZISSEN
100
AcDbLine
 10
410.1437025631248
 20
-2310.769195283497
 30
0.0
 11
410.1437025631248
 21
-2324.795861950164
 31
0.0
  0
LINE
  5
D1D5
330
2
100
AcDbEntity
  8
L-TYUSIN
100
AcDbLine
 10
406.7937025631253
 20
-2317.045861950164
 30
0.0
 11
406.7937025631253
 21
-2323.545861950164
 31
0.0
  0
CIRCLE
  5
D1D6
330
2
100
AcDbEntity
  8
L-ZISSEN
100
AcDbCircle
 10
406.7937025631253
 20
-2320.295861950164
 30
0.0
 40
2.0
  0
LINE
  5
D1D7
330
2
100
AcDbEntity
  8
L-ZISSEN
100
AcDbLine
 10
414.5437025631244
 20
-2286.19688144987
 30
0.0
 11
414.5437025631244
 21
-2286.495861950164
 31
0.0
  0
LINE
  5
D1D8
330
2
100
AcDbEntity
  8
L-ZISSEN
100
AcDbLine
 10
414.8437025631255
 20
-2291.195861950166
 30
0.0
 11
413.5437025631244
 21
-2291.195861950166
 31
0.0
  0
LINE
  5
D1D9
330
2
100
AcDbEntity
  8
L-ZISSEN
100
AcDbLine
 10
412.1437025631248
 20
-2315.795861950164
 30
0.0
 11
412.1437025631248
 21
-2326.795861950165
 31
0.0
  0
LINE
  5
D1DA
330
2
100
AcDbEntity
  8
L-ZISSEN
100
AcDbLine
 10
412.5437025631253
 20
-2315.795861950164
 30
0.0
 11
412.5437025631253
 21
-2329.795861950164
 31
0.0
  0
LINE
  5
D1DB
330
2
100
AcDbEntity
  8
L-ZISSEN
100
AcDbLine
 10
412.1437025631248
 20
-2326.795861950165
 30
0.0
 11
412.5437025631253
 21
-2329.795861950164
 31
0.0
  0
ARC
  5
D1DC
330
2
100
AcDbEntity
  8
L-ZISSEN
100
AcDbCircle
 10
413.0437025631244
 20
-2315.295861950165
 30
0.0
 40
0.5
100
AcDbArc
 50
270.0
 51
0.0
  0
LINE
  5
D1DD
330
2
100
AcDbEntity
  8
L-ZISSEN
100
AcDbLine
 10
414.8437025631245
 20
-2299.695861950164
 30
0.0
 11
413.5437025631244
 21
-2299.695861950164
 31
0.0
  0
LINE
  5
D1DE
330
2
100
AcDbEntity
  8
L-ZISSEN
100
AcDbLine
 10
414.8437025631245
 20
-2299.695861950164
 30
0.0
 11
413.5437025631244
 21
-2299.695861950165
 31
0.0
  0
LINE
  5
D1DF
330
2
100
AcDbEntity
  8
L-ZISSEN
100
AcDbLine
 10
411.6916043240505
 20
-2305.40894290056
 30
0.0
 11
411.6916043240505
 21
-2308.912349137544
 31
0.0
  0
LINE
  5
D1E0
330
2
100
AcDbEntity
  8
L-ZISSEN
100
AcDbLine
 10
413.3408900631229
 20
-2309.916611950164
 30
0.0
 11
411.6916043240505
 21
-2308.912349137544
 31
0.0
  0
LINE
  5
D1E1
330
2
100
AcDbEntity
  8
L-ZISSEN
100
AcDbLine
 10
411.6916043240505
 20
-2305.40894290056
 30
0.0
 11
412.6210775631228
 21
-2304.637986950165
 31
0.0
  0
LINE
  5
D1E2
330
2
100
AcDbEntity
  8
L-ZISSEN
100
AcDbLine
 10
411.6916043240505
 20
-2304.770768841461
 30
0.0
 11
412.6210775631228
 21
-2304.637986950165
 31
0.0
  0
LINE
  5
D1E3
330
2
100
AcDbEntity
  8
L-ZISSEN
100
AcDbLine
 10
413.5437025631244
 20
-2286.495861950164
 30
0.0
 11
413.5437025631244
 21
-2315.295861950165
 31
0.0
  0
LINE
  5
D1E4
330
2
100
AcDbEntity
  8
L-ZISSEN
100
AcDbLine
 10
413.3408900631229
 20
-2286.495861950164
 30
0.0
 11
413.3408900631229
 21
-2309.916611950164
 31
0.0
  0
LINE
  5
D1E5
330
2
100
AcDbEntity
  8
L-ZISSEN
100
AcDbLine
 10
412.6210775631228
 20
-2286.495861950164
 30
0.0
 11
412.6210775631228
 21
-2304.637986950165
 31
0.0
  0
LINE
  5
D1E6
330
2
100
AcDbEntity
  8
L-ZISSEN
100
AcDbLine
 10
414.8437025631255
 20
-2291.195861950166
 30
0.0
 11
414.8437025631245
 21
-2299.695861950164
 31
0.0
  0
LINE
  5
D1E7
330
2
100
AcDbEntity
  8
L-ZISSEN
100
AcDbLine
 10
421.0437025631244
 20
-2289.695861950164
 30
0.0
 11
426.5550570013828
 21
-2289.695861950165
 31
0.0
  0
LINE
  5
D1E8
330
2
100
AcDbEntity
  8
L-ZISSEN
100
AcDbLine
 10
421.0437025631253
 20
-2289.695861950164
 30
0.0
 11
421.0437025631253
 21
-2299.695861950163
 31
0.0
  0
LINE
  5
D1E9
330
2
100
AcDbEntity
  8
L-ZISSEN
100
AcDbLine
 10
426.5550570013828
 20
-2289.695861950165
 30
0.0
 11
426.5550570013828
 21
-2299.695861950163
 31
0.0
  0
ARC
  5
D1EA
330
2
100
AcDbEntity
  8
L-ZISSEN
100
AcDbCircle
 10
402.5437025631224
 20
-2052.947545891576
 30
0.0
 40
99.53938471878515
100
AcDbArc
 50
276.9241513684729
 51
283.9062370650422
  0
LINE
  5
D1EB
330
2
100
AcDbEntity
  8
L-ZISSEN
100
AcDbLine
 10
414.5437025631246
 20
-2155.760951410232
 30
0.0
 11
414.5437025631246
 21
-2151.760951410232
 31
0.0
  0
LINE
  5
D1EC
330
2
100
AcDbEntity
  8
L-ZISSEN
100
AcDbLine
 10
411.543702563125
 20
-2168.960951410232
 30
0.0
 11
411.5437025631246
 21
-2168.260951410232
 31
0.0
  0
LINE
  5
D1ED
330
2
100
AcDbEntity
  8
L-ZISSEN
100
AcDbLine
 10
412.5437025631247
 20
-2168.260951410232
 30
0.0
 11
412.5437025631248
 21
-2164.760951410233
 31
0.0
  0
LINE
  5
D1EE
330
2
100
AcDbEntity
  8
L-ZISSEN
100
AcDbLine
 10
412.5437025631247
 20
-2182.460951410232
 30
0.0
 11
412.5437025631247
 21
-2168.960951410232
 31
0.0
  0
LINE
  5
D1EF
330
2
100
AcDbEntity
  8
L-ZISSEN
100
AcDbLine
 10
413.5437025631246
 20
-2155.760951410232
 30
0.0
 11
413.5437025631246
 21
-2164.760951410233
 31
0.0
  0
LINE
  5
D1F0
330
2
100
AcDbEntity
  8
L-ZISSEN
100
AcDbLine
 10
419.3937025631241
 20
-2129.299690321865
 30
0.0
 11
423.6087025631256
 21
-2131.299690321865
 31
0.0
  0
LINE
  5
D1F1
330
2
100
AcDbEntity
  8
L-ZISSEN
100
AcDbLine
 10
423.6087025631256
 20
-2131.299690321865
 30
0.0
 11
427.8237025631248
 21
-2129.299690321865
 31
0.0
  0
LINE
  5
D1F2
330
2
100
AcDbEntity
  8
L-ZISSEN
100
AcDbLine
 10
406.2937025631269
 20
-2050.210951410231
 30
0.0
 11
402.5437025631269
 21
-2056.460951410231
 31
0.0
  0
LINE
  5
D1F3
330
2
100
AcDbEntity
  8
L-ZISSEN
100
AcDbLine
 10
403.7937025631269
 20
-2050.210951410231
 30
0.0
 11
406.2937025631269
 21
-2050.210951410231
 31
0.0
  0
LINE
  5
D1F4
330
2
100
AcDbEntity
  8
L-ZISSEN
100
AcDbLine
 10
402.5437025631246
 20
-2062.710951410232
 30
0.0
 11
415.6687025631224
 21
-2060.835951410233
 31
0.0
  0
LINE
  5
D1F5
330
2
100
AcDbEntity
  8
L-ZISSEN
100
AcDbLine
 10
402.5437025631246
 20
-2063.54212366746
 30
0.0
 11
414.458135697959
 21
-2061.840061791055
 31
0.0
  0
LINE
  5
D1F6
330
2
100
AcDbEntity
  8
L-ZISSEN
100
AcDbLine
 10
414.458135697959
 20
-2066.402976921277
 30
0.0
 11
402.5437025631246
 21
-2068.897334895708
 31
0.0
  0
LINE
  5
D1F7
330
2
100
AcDbEntity
  8
L-ZISSEN
100
AcDbLine
 10
402.5437025631246
 20
-2071.460951410233
 30
0.0
 11
416.6062025631224
 21
-2067.710951410233
 31
0.0
  0
LINE
  5
D1F8
330
2
100
AcDbEntity
  8
L-ZISSEN
100
AcDbLine
 10
401.0072600039299
 20
-2035.180582610903
 30
0.0
 11
387.5437025631248
 21
-2023.960951410233
 31
0.0
  0
LINE
  5
D1F9
330
2
100
AcDbEntity
  8
L-ZISSEN
100
AcDbLine
 10
394.4187025631246
 20
-2045.210951410233
 30
0.0
 11
391.2937025631246
 21
-2043.335951410233
 31
0.0
  0
LINE
  5
D1FA
330
2
100
AcDbEntity
  8
L-ZISSEN
100
AcDbLine
 10
394.4187025631246
 20
-2041.460951410233
 30
0.0
 11
391.2937025631246
 21
-2043.335951410233
 31
0.0
  0
LINE
  5
D1FB
330
2
100
AcDbEntity
  8
L-ZISSEN
100
AcDbLine
 10
402.5437025631246
 20
-2071.460951410233
 30
0.0
 11
388.4812025631223
 21
-2067.710951410233
 31
0.0
  0
LINE
  5
D1FC
330
2
100
AcDbEntity
  8
L-ZISSEN
100
AcDbLine
 10
402.5437025631246
 20
-2063.54212366746
 30
0.0
 11
390.6292694282903
 21
-2061.840061791055
 31
0.0
  0
LINE
  5
D1FD
330
2
100
AcDbEntity
  8
L-ZISSEN
100
AcDbLine
 10
390.6292694282903
 20
-2066.402976921277
 30
0.0
 11
402.5437025631246
 21
-2068.897334895708
 31
0.0
  0
LINE
  5
D1FE
330
2
100
AcDbEntity
  8
L-ZISSEN
100
AcDbLine
 10
402.5437025631246
 20
-2062.710951410232
 30
0.0
 11
389.4187025631223
 21
-2060.835951410233
 31
0.0
  0
LINE
  5
D1FF
330
2
100
AcDbEntity
  8
L-ZISSEN
100
AcDbLine
 10
387.5437025631248
 20
-2023.960951410233
 30
0.0
 11
385.5437025631248
 21
-2023.960951410233
 31
0.0
  0
LINE
  5
D200
330
2
100
AcDbEntity
  8
L-ZISSEN
100
AcDbLine
 10
389.4187025631223
 20
-2036.460951410233
 30
0.0
 11
389.4187025631223
 21
-2060.835951410233
 31
0.0
  0
LINE
  5
D201
330
2
100
AcDbEntity
  8
L-ZISSEN
100
AcDbLine
 10
390.6292694282903
 20
-2061.840061791055
 30
0.0
 11
390.6292694282903
 21
-2066.402976921277
 31
0.0
  0
LINE
  5
D202
330
2
100
AcDbEntity
  8
L-ZISSEN
100
AcDbLine
 10
390.6292694282903
 20
-2061.840061791055
 30
0.0
 11
389.4187025631223
 21
-2060.835951410233
 31
0.0
  0
LINE
  5
D203
330
2
100
AcDbEntity
  8
L-ZISSEN
100
AcDbLine
 10
390.6292694282903
 20
-2061.008889533828
 30
0.0
 11
389.4187025631223
 21
-2060.835951410233
 31
0.0
  0
LINE
  5
D204
330
2
100
AcDbEntity
  8
L-ZISSEN
100
AcDbLine
 10
388.4812025631223
 20
-2036.460951410233
 30
0.0
 11
388.4812025631223
 21
-2060.250226777366
 31
0.0
  0
LINE
  5
D205
330
2
100
AcDbEntity
  8
L-ZISSEN
100
AcDbLine
 10
388.4812025631223
 20
-2036.460951410233
 30
0.0
 11
388.4812025631223
 21
-2075.210951410233
 31
0.0
  0
LINE
  5
D206
330
2
100
AcDbEntity
  8
L-ZISSEN
100
AcDbLine
 10
388.4812025631223
 20
-2067.710951410233
 30
0.0
 11
390.6292694282903
 21
-2066.402976921277
 31
0.0
  0
LINE
  5
D207
330
2
100
AcDbEntity
  8
L-ZISSEN
100
AcDbLine
 10
399.4187025631246
 20
-2042.710951410233
 30
0.0
 11
394.4187025631246
 21
-2042.710951410233
 31
0.0
  0
LINE
  5
D208
330
2
100
AcDbEntity
  8
L-ZISSEN
100
AcDbLine
 10
399.4187025631246
 20
-2042.710951410233
 30
0.0
 11
394.4187025631246
 21
-2042.710951410233
 31
0.0
  0
LINE
  5
D209
330
2
100
AcDbEntity
  8
L-ZISSEN
100
AcDbLine
 10
399.4187025631246
 20
-2043.960951410233
 30
0.0
 11
394.4187025631246
 21
-2043.960951410233
 31
0.0
  0
LINE
  5
D20A
330
2
100
AcDbEntity
  8
L-ZISSEN
100
AcDbLine
 10
399.4187025631246
 20
-2043.960951410233
 30
0.0
 11
394.4187025631246
 21
-2043.960951410233
 31
0.0
  0
LINE
  5
D20B
330
2
100
AcDbEntity
  8
L-ZISSEN
100
AcDbLine
 10
394.4187025631246
 20
-2043.960951410233
 30
0.0
 11
394.4187025631246
 21
-2045.210951410233
 31
0.0
  0
LINE
  5
D20C
330
2
100
AcDbEntity
  8
L-ZISSEN
100
AcDbLine
 10
394.4187025631246
 20
-2042.710951410233
 30
0.0
 11
394.4187025631246
 21
-2041.460951410233
 31
0.0
  0
SOLID
  5
D20D
330
2
100
AcDbEntity
  8
L-ZISSEN
100
AcDbTrace
 10
400.7938652040417
 20
-2035.436656370769
 30
0.0
 11
401.2206548038181
 21
-2034.924508851038
 31
0.0
 12
402.5437025631246
 22
-2036.460951410233
 32
0.0
 13
402.5437025631246
 23
-2036.460951410233
 33
0.0
  0
LINE
  5
D20E
330
2
100
AcDbEntity
  8
L-ZISSEN
100
AcDbLine
 10
401.2937025631269
 20
-2050.210951410231
 30
0.0
 11
398.7937025631269
 21
-2050.210951410231
 31
0.0
  0
LINE
  5
D20F
330
2
100
AcDbEntity
  8
L-ZISSEN
100
AcDbLine
 10
398.7937025631269
 20
-2050.210951410231
 30
0.0
 11
402.5437025631269
 21
-2056.460951410231
 31
0.0
  0
LINE
  5
D210
330
2
100
AcDbEntity
  8
L-ZISSEN
100
AcDbLine
 10
402.5437025631246
 20
-2062.710951410232
 30
0.0
 11
402.5437025631246
 21
-2063.54212366746
 31
0.0
  0
LINE
  5
D211
330
2
100
AcDbEntity
  8
L-ZISSEN
100
AcDbLine
 10
402.5437025631246
 20
-2071.460951410233
 30
0.0
 11
402.5437025631246
 21
-2068.897334895708
 31
0.0
  0
LINE
  5
D212
330
2
100
AcDbEntity
  8
L-ZISSEN
100
AcDbLine
 10
403.7937025631246
 20
-2071.127618076899
 30
0.0
 11
403.7937025631246
 21
-2072.710951410233
 31
0.0
  0
LINE
  5
D213
330
2
100
AcDbEntity
  8
L-ZISSEN
100
AcDbLine
 10
403.7937025631269
 20
-2040.210951410232
 30
0.0
 11
403.7937025631269
 21
-2050.210951410231
 31
0.0
  0
LINE
  5
D214
330
2
100
AcDbEntity
  8
L-ZISSEN
100
AcDbLine
 10
403.7937025631269
 20
-2040.210951410232
 30
0.0
 11
403.7937025631269
 21
-2050.210951410231
 31
0.0
  0
LINE
  5
D215
330
2
100
AcDbEntity
  8
L-ZISSEN
100
AcDbLine
 10
401.2937025631224
 20
-2071.127618076898
 30
0.0
 11
401.2937025631246
 21
-2072.710951410233
 31
0.0
  0
LINE
  5
D216
330
2
100
AcDbEntity
  8
L-ZISSEN
100
AcDbLine
 10
399.4187025631246
 20
-2042.710951410233
 30
0.0
 11
399.4187025631246
 21
-2043.960951410233
 31
0.0
  0
LINE
  5
D217
330
2
100
AcDbEntity
  8
L-ZISSEN
100
AcDbLine
 10
401.2937025631269
 20
-2040.210951410232
 30
0.0
 11
401.2937025631269
 21
-2050.210951410231
 31
0.0
  0
LINE
  5
D218
330
2
100
AcDbEntity
  8
L-ZISSEN
100
AcDbLine
 10
401.2937025631269
 20
-2040.210951410232
 30
0.0
 11
401.2937025631269
 21
-2050.210951410231
 31
0.0
  0
LINE
  5
D219
330
2
100
AcDbEntity
  8
L-ZISSEN
100
AcDbLine
 10
403.7937025631269
 20
-2040.210951410232
 30
0.0
 11
401.2937025631269
 21
-2040.210951410232
 31
0.0
  0
LINE
  5
D21A
330
2
100
AcDbEntity
  8
L-TYUSIN
100
AcDbLine
 10
400.3569090005695
 20
-2066.457406111406
 30
0.0
 11
404.5516889754814
 21
-2066.457406111406
 31
0.0
  0
CIRCLE
  5
D21B
330
2
100
AcDbEntity
  8
L-ZISSEN
100
AcDbCircle
 10
402.5437025631246
 20
-2066.457406111406
 30
0.0
 40
1.25
  0
ARC
  5
D21C
330
2
100
AcDbEntity
  8
L-ZISSEN
100
AcDbCircle
 10
402.5437025631246
 20
-2072.710951410233
 30
0.0
 40
1.250000000000568
100
AcDbArc
 50
180.0
 51
0.0
  0
LINE
  5
D21D
330
2
100
AcDbEntity
  8
L-ZISSEN
100
AcDbLine
 10
416.6062025631224
 20
-2067.710951410233
 30
0.0
 11
414.458135697959
 21
-2066.402976921277
 31
0.0
  0
LINE
  5
D21E
330
2
100
AcDbEntity
  8
L-ZISSEN
100
AcDbLine
 10
405.6687025631246
 20
-2042.710951410232
 30
0.0
 11
410.6687025631246
 21
-2042.710951410232
 31
0.0
  0
LINE
  5
D21F
330
2
100
AcDbEntity
  8
L-ZISSEN
100
AcDbLine
 10
405.6687025631246
 20
-2042.710951410232
 30
0.0
 11
410.6687025631246
 21
-2042.710951410232
 31
0.0
  0
LINE
  5
D220
330
2
100
AcDbEntity
  8
L-ZISSEN
100
AcDbLine
 10
405.6687025631246
 20
-2043.960951410232
 30
0.0
 11
410.6687025631246
 21
-2043.960951410232
 31
0.0
  0
LINE
  5
D221
330
2
100
AcDbEntity
  8
L-ZISSEN
100
AcDbLine
 10
405.6687025631246
 20
-2043.960951410232
 30
0.0
 11
410.6687025631246
 21
-2043.960951410232
 31
0.0
  0
LINE
  5
D222
330
2
100
AcDbEntity
  8
L-ZISSEN
100
AcDbLine
 10
405.6687025631246
 20
-2042.710951410232
 30
0.0
 11
405.6687025631246
 21
-2043.960951410232
 31
0.0
  0
LINE
  5
D223
330
2
100
AcDbEntity
  8
L-ZISSEN
100
AcDbLine
 10
415.6687025631224
 20
-2036.460951410233
 30
0.0
 11
415.6687025631224
 21
-2060.835951410233
 31
0.0
  0
LINE
  5
D224
330
2
100
AcDbEntity
  8
L-ZISSEN
100
AcDbLine
 10
414.458135697959
 20
-2061.840061791055
 30
0.0
 11
414.458135697959
 21
-2066.402976921277
 31
0.0
  0
LINE
  5
D225
330
2
100
AcDbEntity
  8
L-ZISSEN
100
AcDbLine
 10
414.458135697959
 20
-2061.008889533828
 30
0.0
 11
415.6687025631224
 21
-2060.835951410233
 31
0.0
  0
LINE
  5
D226
330
2
100
AcDbEntity
  8
L-ZISSEN
100
AcDbLine
 10
414.458135697959
 20
-2061.840061791055
 30
0.0
 11
415.6687025631224
 21
-2060.835951410233
 31
0.0
  0
LINE
  5
D227
330
2
100
AcDbEntity
  8
L-ZISSEN
100
AcDbLine
 10
410.6687025631246
 20
-2043.960951410232
 30
0.0
 11
410.6687025631246
 21
-2045.210951410232
 31
0.0
  0
LINE
  5
D228
330
2
100
AcDbEntity
  8
L-ZISSEN
100
AcDbLine
 10
410.6687025631246
 20
-2045.210951410232
 30
0.0
 11
413.7937025631246
 21
-2043.335951410232
 31
0.0
  0
LINE
  5
D229
330
2
100
AcDbEntity
  8
L-ZISSEN
100
AcDbLine
 10
410.6687025631246
 20
-2042.710951410232
 30
0.0
 11
410.6687025631246
 21
-2041.460951410232
 31
0.0
  0
LINE
  5
D22A
330
2
100
AcDbEntity
  8
L-ZISSEN
100
AcDbLine
 10
410.6687025631246
 20
-2041.460951410232
 30
0.0
 11
413.7937025631246
 21
-2043.335951410232
 31
0.0
  0
LINE
  5
D22B
330
2
100
AcDbEntity
  8
L-ZISSEN
100
AcDbLine
 10
427.8237025631248
 20
-2046.799690321864
 30
0.0
 11
419.3937025631241
 21
-2046.799690321864
 31
0.0
  0
LINE
  5
D22C
330
2
100
AcDbEntity
  8
L-ZISSEN
100
AcDbLine
 10
416.6062025631224
 20
-2036.460951410233
 30
0.0
 11
416.6062025631224
 21
-2060.250226777366
 31
0.0
  0
LINE
  5
D22D
330
2
100
AcDbEntity
  8
L-ZISSEN
100
AcDbLine
 10
416.6062025631224
 20
-2036.460951410233
 30
0.0
 11
416.6062025631224
 21
-2075.210951410233
 31
0.0
  0
LINE
  5
D22E
330
2
100
AcDbEntity
  8
L-ZISSEN
100
AcDbLine
 10
431.7995696246061
 20
-2299.695861950165
 30
0.0
 11
430.0837086226292
 21
-2378.941455281104
 31
0.0
  0
LINE
  5
D22F
330
2
100
AcDbEntity
  8
L-ZISSEN
100
AcDbLine
 10
432.5437025631219
 20
-2141.803941017046
 30
0.0
 11
432.5437025631246
 21
-2036.460951410231
 31
0.0
  0
LINE
  5
D230
330
2
100
AcDbEntity
  8
L-ZISSEN
100
AcDbLine
 10
431.7995696246061
 20
-2299.695861950165
 30
0.0
 11
432.499687163352
 21
-2299.695861950165
 31
0.0
  0
LINE
  5
D231
330
2
100
AcDbEntity
  8
L-ZISSEN
100
AcDbLine
 10
432.6799856785505
 20
-2286.196881449871
 30
0.0
 11
432.499687163352
 21
-2299.695861950165
 31
0.0
  0
LINE
  5
D99A
330
2
100
AcDbEntity
  8
L-ZISSEN
100
AcDbLine
 10
-60.42349913120848
 20
-2167.19688144987
 30
0.0
 11
-60.42349913120848
 21
-2200.196881449869
 31
0.0
  0
LINE
  5
D99B
330
2
100
AcDbEntity
  8
L-ZISSEN
100
AcDbLine
 10
-70.92349913120802
 20
-2168.19688144987
 30
0.0
 11
-70.92349913120802
 21
-2230.196881449868
 31
0.0
  0
CIRCLE
  5
D99C
330
2
100
AcDbEntity
  8
L-ZISSEN
100
AcDbCircle
 10
-97.42349913120893
 20
-2184.19688144987
 30
0.0
 40
15.0
  0
LINE
  5
D99D
330
2
100
AcDbEntity
  8
L-ZISSEN
100
AcDbLine
 10
-134.4234991312093
 20
-2167.196881449869
 30
0.0
 11
-134.4234991312092
 21
-2200.196881449869
 31
0.0
  0
LINE
  5
D99E
330
2
100
AcDbEntity
  8
L-ZISSEN
100
AcDbLine
 10
-123.9234991312076
 20
-2168.196881449868
 30
0.0
 11
-123.9234991312075
 21
-2230.196881449868
 31
0.0
  0
LINE
  5
D99F
330
2
100
AcDbEntity
  8
L-TYUSIN
100
AcDbLine
 10
-97.4234991312093
 20
-2155.19688144987
 30
0.0
 11
-97.42349913120893
 21
-2408.196881449871
 31
0.0
  0
LINE
  5
D9A0
330
2
100
AcDbEntity
  8
L-ZISSEN
100
AcDbLine
 10
-123.9234991312075
 20
-2200.196881449869
 30
0.0
 11
-140.923499131208
 21
-2200.196881449869
 31
0.0
  0
LINE
  5
D9A1
330
2
100
AcDbEntity
  8
L-ZISSEN
100
AcDbLine
 10
-59.84023804178537
 20
-2288.198615303685
 30
0.0
 11
-135.0067602206324
 21
-2288.198615303685
 31
0.0
  0
LINE
  5
D9A2
330
2
100
AcDbEntity
  8
L-ZISSEN
100
AcDbLine
 10
-61.92349913120938
 20
-2290.196881449871
 30
0.0
 11
-132.9234991312084
 21
-2290.196881449871
 31
0.0
  0
LINE
  5
D9A3
330
2
100
AcDbEntity
  8
L-ZISSEN
100
AcDbLine
 10
-132.9234991312084
 20
-2290.196881449871
 30
0.0
 11
-61.92349913120938
 21
-2290.196881449871
 31
0.0
  0
LINE
  5
D9A4
330
2
100
AcDbEntity
  8
L-ZISSEN
100
AcDbLine
 10
-57.42349913120893
 20
-2230.196881449868
 30
0.0
 11
-140.4234991312084
 21
-2230.196881449868
 31
0.0
  0
LINE
  5
D9A5
330
2
100
AcDbEntity
  8
L-ZISSEN
100
AcDbLine
 10
-142.4234991312089
 20
-2214.196881449869
 30
0.0
 11
-52.4234991312112
 21
-2214.196881449869
 31
0.0
  0
LINE
  5
D9A6
330
2
100
AcDbEntity
  8
L-ZISSEN
100
AcDbLine
 10
-135.0067602206324
 20
-2288.198615303685
 30
0.0
 11
-137.4234991312112
 21
-2230.196881449868
 31
0.0
  0
LINE
  5
D9A7
330
2
100
AcDbEntity
  8
L-ZISSEN
100
AcDbLine
 10
-132.9234991312084
 20
-2290.196881449871
 30
0.0
 11
-135.0067602206324
 21
-2288.198615303685
 31
0.0
  0
LINE
  5
D9A8
330
2
100
AcDbEntity
  8
L-ZISSEN
100
AcDbLine
 10
-142.4234991312089
 20
-2201.696881449869
 30
0.0
 11
-142.4234991312089
 21
-2215.196881449869
 31
0.0
  0
LINE
  5
D9AA
330
2
100
AcDbEntity
  8
L-ZISSEN
100
AcDbLine
 10
-142.4234991312089
 20
-2215.196881449869
 30
0.0
 11
-142.4234991312089
 21
-2228.19688144987
 31
0.0
  0
ARC
  5
D9AB
330
2
100
AcDbEntity
  8
L-ZISSEN
100
AcDbCircle
 10
-140.4234991312084
 20
-2228.19688144987
 30
0.0
 40
1.999999999999317
100
AcDbArc
 50
180.0
 51
270.0
  0
ARC
  5
D9AC
330
2
100
AcDbEntity
  8
L-ZISSEN
100
AcDbCircle
 10
-140.923499131208
 20
-2201.696881449869
 30
0.0
 40
1.500000000000341
100
AcDbArc
 50
90.0
 51
180.0
  0
LINE
  5
D9C1
330
2
100
AcDbEntity
  8
L-ZISSEN
100
AcDbLine
 10
-123.9234991312075
 20
-2206.196881449869
 30
0.0
 11
-70.92349913120802
 21
-2206.196881449869
 31
0.0
  0
LINE
  5
D9C2
330
2
100
AcDbEntity
  8
L-ZISSEN
100
AcDbLine
 10
-123.9234991312075
 20
-2210.196881449869
 30
0.0
 11
-70.92349913120802
 21
-2210.196881449869
 31
0.0
  0
LINE
  5
D9C5
330
2
100
AcDbEntity
  8
L-TYUSIN
100
AcDbLine
 10
-119.1293345226533
 20
-2184.19688144987
 30
0.0
 11
-75.82733590330622
 21
-2184.19688144987
 31
0.0
  0
LINE
  5
D9CD
330
2
100
AcDbEntity
  8
L-ZISSEN
100
AcDbLine
 10
-59.84023804178537
 20
-2288.198615303685
 30
0.0
 11
-57.42349913120893
 21
-2230.196881449868
 31
0.0
  0
LINE
  5
D9E1
330
2
100
AcDbEntity
  8
L-ZISSEN
100
AcDbLine
 10
-61.92349913120938
 20
-2290.196881449871
 30
0.0
 11
-59.84023804178537
 21
-2288.198615303685
 31
0.0
  0
LINE
  5
D9E2
330
2
100
AcDbEntity
  8
L-ZISSEN
100
AcDbLine
 10
-52.4234991312112
 20
-2201.696881449869
 30
0.0
 11
-52.4234991312112
 21
-2215.196881449869
 31
0.0
  0
LINE
  5
D9E3
330
2
100
AcDbEntity
  8
L-ZISSEN
100
AcDbLine
 10
-52.4234991312112
 20
-2215.196881449869
 30
0.0
 11
-52.4234991312112
 21
-2230.196881449868
 31
0.0
  0
LINE
  5
D9E4
330
2
100
AcDbEntity
  8
L-ZISSEN
100
AcDbLine
 10
-52.4234991312112
 20
-2230.196881449868
 30
0.0
 11
-52.4234991312112
 21
-2215.196881449869
 31
0.0
  0
LINE
  5
D9E6
330
2
100
AcDbEntity
  8
L-ZISSEN
100
AcDbLine
 10
-57.42349913120893
 20
-2230.196881449868
 30
0.0
 11
-52.4234991312112
 21
-2230.196881449868
 31
0.0
  0
LINE
  5
D9E7
330
2
100
AcDbEntity
  8
L-ZISSEN
100
AcDbLine
 10
-52.4234991312112
 20
-2230.196881449868
 30
0.0
 11
-56.42349913120984
 21
-2230.196881449868
 31
0.0
  0
LINE
  5
D9E8
330
2
100
AcDbEntity
  8
L-ZISSEN
100
AcDbLine
 10
-70.92349913120802
 20
-2200.196881449869
 30
0.0
 11
-53.92349913120984
 21
-2200.196881449869
 31
0.0
  0
ARC
  5
D9E9
330
2
100
AcDbEntity
  8
L-ZISSEN
100
AcDbCircle
 10
-53.92349913120984
 20
-2201.696881449869
 30
0.0
 40
1.500000000000341
100
AcDbArc
 50
0.0
 51
90.0
  0
LINE
  5
D9EA
330
2
100
AcDbEntity
  8
L-ZISSEN
100
AcDbLine
 10
-123.9234991312099
 20
-2024.94688144987
 30
0.0
 11
-142.423499131209
 21
-2019.69688144987
 31
0.0
  0
LINE
  5
D9EC
330
2
100
AcDbEntity
  8
L-ZISSEN
100
AcDbLine
 10
-133.9234991312089
 20
-2006.19688144987
 30
0.0
 11
-118.923499131209
 21
-2010.69688144987
 31
0.0
  0
LINE
  5
D9ED
330
2
100
AcDbEntity
  8
L-ZISSEN
100
AcDbLine
 10
-133.9234991312089
 20
-1962.19688144987
 30
0.0
 11
-118.923499131209
 21
-1957.69688144987
 31
0.0
  0
LINE
  5
D9EE
330
2
100
AcDbEntity
  8
L-ZISSEN
100
AcDbLine
 10
-123.9234991312099
 20
-1943.44688144987
 30
0.0
 11
-142.423499131209
 21
-1948.69688144987
 31
0.0
  0
LINE
  5
D9EF
330
2
100
AcDbEntity
  8
L-ZISSEN
100
AcDbLine
 10
-78.923499131208
 20
-2160.19688144987
 30
0.0
 11
-115.9234991312094
 21
-2160.196881449869
 31
0.0
  0
LINE
  5
D9F0
330
2
100
AcDbEntity
  8
L-TYUSIN
100
AcDbLine
 10
-47.42349913120892
 20
-1984.19688144987
 30
0.0
 11
-147.4234991312089
 21
-1984.19688144987
 31
0.0
  0
LINE
  5
D9F1
330
2
100
AcDbEntity
  8
L-ZISSEN
100
AcDbLine
 10
-142.4234991312089
 20
-2019.69688144987
 30
0.0
 11
-142.4234991312089
 21
-1948.69688144987
 31
0.0
  0
LINE
  5
D9F2
330
2
100
AcDbEntity
  8
L-ZISSEN
100
AcDbLine
 10
-133.9234991312088
 20
-2006.19688144987
 30
0.0
 11
-133.9234991312088
 21
-1962.196881449871
 31
0.0
  0
CIRCLE
  5
D9F3
330
2
100
AcDbEntity
  8
L-ZISSEN
100
AcDbCircle
 10
-134.9234991312089
 20
-2014.19688144987
 30
0.0
 40
2.5
  0
CIRCLE
  5
D9F4
330
2
100
AcDbEntity
  8
L-ZISSEN
100
AcDbCircle
 10
-134.9234991312089
 20
-1954.19688144987
 30
0.0
 40
2.5
  0
LINE
  5
D9F5
330
2
100
AcDbEntity
  8
L-ZISSEN
100
AcDbLine
 10
-75.92349913120848
 20
-1944.19688144987
 30
0.0
 11
-75.92349913120893
 21
-2024.196881449871
 31
0.0
  0
LINE
  5
D9F6
330
2
100
AcDbEntity
  8
L-ZISSEN
100
AcDbLine
 10
-78.92349913120779
 20
-2029.196881449871
 30
0.0
 11
-78.92349913120735
 21
-1939.19688144987
 31
0.0
  0
LINE
  5
D9F7
330
2
100
AcDbEntity
  8
L-ZISSEN
100
AcDbLine
 10
-70.9234991312079
 20
-2024.94688144987
 30
0.0
 11
-52.42349913120881
 21
-2019.69688144987
 31
0.0
  0
LINE
  5
D9F8
330
2
100
AcDbEntity
  8
L-TYUSIN
100
AcDbLine
 10
-97.42349913120893
 20
-1934.19688144987
 30
0.0
 11
-97.42349913120893
 21
-2034.19688144987
 31
0.0
  0
LINE
  5
D9F9
330
2
100
AcDbEntity
  8
L-ZISSEN
100
AcDbLine
 10
-118.923499131209
 20
-2024.196881449871
 30
0.0
 11
-118.923499131209
 21
-1944.196881449869
 31
0.0
  0
LINE
  5
D9FA
330
2
100
AcDbEntity
  8
L-ZISSEN
100
AcDbLine
 10
-115.92349913121
 20
-2029.196881449871
 30
0.0
 11
-115.9234991312102
 21
-1939.196881449871
 31
0.0
  0
LINE
  5
D9FB
330
2
100
AcDbEntity
  8
L-ZISSEN
100
AcDbLine
 10
-70.92349913120779
 20
-2029.196881449871
 30
0.0
 11
-123.9234991312076
 21
-2029.196881449869
 31
0.0
  0
LINE
  5
D9FC
330
2
100
AcDbEntity
  8
L-ZISSEN
100
AcDbLine
 10
-70.92349913120802
 20
-2168.19688144987
 30
0.0
 11
-78.92349913120802
 21
-2160.19688144987
 31
0.0
  0
LINE
  5
DA04
330
2
100
AcDbEntity
  8
L-ZISSEN
100
AcDbLine
 10
-123.9234991312098
 20
-2168.19688144987
 30
0.0
 11
-115.9234991312098
 21
-2160.19688144987
 31
0.0
  0
LINE
  5
DA16
330
2
100
AcDbEntity
  8
L-ZISSEN
100
AcDbLine
 10
-118.9234991312089
 20
-2024.196881449871
 30
0.0
 11
-123.9234991312099
 21
-2025.69688144987
 31
0.0
  0
LINE
  5
DA17
330
2
100
AcDbEntity
  8
L-ZISSEN
100
AcDbLine
 10
-123.9234991312076
 20
-2029.19688144987
 30
0.0
 11
-123.9234991312076
 21
-2024.946881449872
 31
0.0
  0
LINE
  5
DA19
330
2
100
AcDbEntity
  8
L-ZISSEN
100
AcDbLine
 10
-75.92349913120893
 20
-2024.196881449871
 30
0.0
 11
-70.9234991312079
 21
-2025.69688144987
 31
0.0
  0
LINE
  5
DA1A
330
2
100
AcDbEntity
  8
L-ZISSEN
100
AcDbLine
 10
-70.92349913120779
 20
-2029.196881449871
 30
0.0
 11
-70.9234991312079
 21
-2024.946881449871
 31
0.0
  0
LINE
  5
DA1C
330
2
100
AcDbEntity
  8
L-ZISSEN
100
AcDbLine
 10
-60.92349913120893
 20
-1962.19688144987
 30
0.0
 11
-75.92349913120857
 21
-1957.69688144987
 31
0.0
  0
LINE
  5
DA1D
330
2
100
AcDbEntity
  8
L-ZISSEN
100
AcDbLine
 10
-70.92349913120779
 20
-1939.19688144987
 30
0.0
 11
-123.9234991312076
 21
-1939.196881449871
 31
0.0
  0
LINE
  5
DA1E
330
2
100
AcDbEntity
  8
L-ZISSEN
100
AcDbLine
 10
-123.9234991312075
 20
-1939.19688144987
 30
0.0
 11
-70.92349913120779
 21
-1939.196881449871
 31
0.0
  0
LINE
  5
DA28
330
2
100
AcDbEntity
  8
L-ZISSEN
100
AcDbLine
 10
-123.9234991312076
 20
-1939.196881449871
 30
0.0
 11
-123.9234991312076
 21
-1943.446881449869
 31
0.0
  0
LINE
  5
DA29
330
2
100
AcDbEntity
  8
L-ZISSEN
100
AcDbLine
 10
-118.9234991312089
 20
-1944.19688144987
 30
0.0
 11
-123.9234991312099
 21
-1942.696881449871
 31
0.0
  0
LINE
  5
DA2A
330
2
100
AcDbEntity
  8
L-ZISSEN
100
AcDbLine
 10
-52.42349913120915
 20
-1948.69688144987
 30
0.0
 11
-52.42349913120881
 21
-2019.69688144987
 31
0.0
  0
LINE
  5
DA2C
330
2
100
AcDbEntity
  8
L-ZISSEN
100
AcDbLine
 10
-60.92349913120904
 20
-2006.19688144987
 30
0.0
 11
-60.92349913120904
 21
-1962.196881449871
 31
0.0
  0
LINE
  5
DA2D
330
2
100
AcDbEntity
  8
L-ZISSEN
100
AcDbLine
 10
-60.92349913120893
 20
-2006.19688144987
 30
0.0
 11
-75.92349913120881
 21
-2010.69688144987
 31
0.0
  0
CIRCLE
  5
DA2E
330
2
100
AcDbEntity
  8
L-ZISSEN
100
AcDbCircle
 10
-59.92349913120893
 20
-2014.19688144987
 30
0.0
 40
2.5
  0
CIRCLE
  5
DA2F
330
2
100
AcDbEntity
  8
L-ZISSEN
100
AcDbCircle
 10
-59.92349913120893
 20
-1954.19688144987
 30
0.0
 40
2.5
  0
LINE
  5
DA30
330
2
100
AcDbEntity
  8
L-ZISSEN
100
AcDbLine
 10
-70.9234991312079
 20
-1943.44688144987
 30
0.0
 11
-52.42349913120881
 21
-1948.69688144987
 31
0.0
  0
LINE
  5
DA31
330
2
100
AcDbEntity
  8
L-ZISSEN
100
AcDbLine
 10
-70.92349913120779
 20
-1939.19688144987
 30
0.0
 11
-70.9234991312079
 21
-1943.44688144987
 31
0.0
  0
LINE
  5
DA32
330
2
100
AcDbEntity
  8
L-ZISSEN
100
AcDbLine
 10
-75.92349913120893
 20
-1944.19688144987
 30
0.0
 11
-70.9234991312079
 21
-1942.696881449871
 31
0.0
  0
LINE
  5
DA33
330
2
100
AcDbEntity
  8
L-ZISSEN
100
AcDbLine
 10
55.09061898852595
 20
-2181.063131471368
 30
0.0
 11
33.80959447752066
 21
-2154.235872318381
 31
0.0
  0
LINE
  5
DA34
330
2
100
AcDbEntity
  8
L-ZISSEN
100
AcDbLine
 10
142.3265013413822
 20
-2163.196881449871
 30
0.0
 11
142.3265013413822
 21
-2200.196881449869
 31
0.0
  0
LINE
  5
DA35
330
2
100
AcDbEntity
  8
L-ZISSEN
100
AcDbLine
 10
144.0765013413821
 20
-2168.19688144987
 30
0.0
 11
144.0765013413821
 21
-2200.196881449869
 31
0.0
  0
LINE
  5
DA36
330
2
100
AcDbEntity
  8
L-ZISSEN
100
AcDbLine
 10
129.5765013413813
 20
-2167.19688144987
 30
0.0
 11
129.5765013413813
 21
-2200.196881449869
 31
0.0
  0
LINE
  5
DA37
330
2
100
AcDbEntity
  8
L-ZISSEN
100
AcDbLine
 10
124.5765013413808
 20
-2167.19688144987
 30
0.0
 11
124.5765013413808
 21
-2200.196881449869
 31
0.0
  0
LINE
  5
DA38
330
2
100
AcDbEntity
  8
L-ZISSEN
100
AcDbLine
 10
147.5765013413808
 20
-2160.196881449871
 30
0.0
 11
147.5765013413808
 21
-2206.196881449869
 31
0.0
  0
LINE
  5
DA39
330
2
100
AcDbEntity
  8
L-ZISSEN
100
AcDbLine
 10
75.57650134138039
 20
-2167.19688144987
 30
0.0
 11
75.57650134138039
 21
-2200.196881449869
 31
0.0
  0
LINE
  5
DA3A
330
2
100
AcDbEntity
  8
L-ZISSEN
100
AcDbLine
 10
80.57650134138084
 20
-2167.19688144987
 30
0.0
 11
80.57650134138084
 21
-2200.196881449869
 31
0.0
  0
LINE
  5
DA3B
330
2
100
AcDbEntity
  8
L-ZISSEN
100
AcDbLine
 10
61.07650134137958
 20
-2168.19688144987
 30
0.0
 11
61.07650134137948
 21
-2200.196881449869
 31
0.0
  0
LINE
  5
DA3C
330
2
100
AcDbEntity
  8
L-ZISSEN
100
AcDbLine
 10
62.82650134137949
 20
-2163.196881449871
 30
0.0
 11
62.82650134137949
 21
-2200.196881449869
 31
0.0
  0
LINE
  5
DA3D
330
2
100
AcDbEntity
  8
L-ZISSEN
100
AcDbLine
 10
57.57650134138085
 20
-2160.196881449871
 30
0.0
 11
57.57650134138085
 21
-2206.196881449869
 31
0.0
  0
LINE
  5
DA3E
330
2
100
AcDbEntity
  8
L-TYUSIN
100
AcDbLine
 10
102.5765013413808
 20
-2155.19688144987
 30
0.0
 11
102.5765013413808
 21
-2408.196881449871
 31
0.0
  0
LINE
  5
DA40
330
2
100
AcDbEntity
  8
L-ZISSEN
100
AcDbLine
 10
134.0765013413794
 20
-2230.196881449868
 30
0.0
 11
71.07650134137994
 21
-2230.196881449868
 31
0.0
  0
LINE
  5
DA41
330
2
100
AcDbEntity
  8
L-ZISSEN
100
AcDbLine
 10
129.5765013413813
 20
-2230.196881449868
 30
0.0
 11
75.57650134138039
 21
-2230.196881449868
 31
0.0
  0
LINE
  5
DA42
330
2
100
AcDbEntity
  8
L-ZISSEN
100
AcDbLine
 10
140.1597624308043
 20
-2288.198615303685
 30
0.0
 11
64.99324025195729
 21
-2288.198615303685
 31
0.0
  0
LINE
  5
DA43
330
2
100
AcDbEntity
  8
L-ZISSEN
100
AcDbLine
 10
138.0765013413803
 20
-2290.196881449871
 30
0.0
 11
67.0765013413813
 21
-2290.196881449871
 31
0.0
  0
LINE
  5
DA44
330
2
100
AcDbEntity
  8
L-ZISSEN
100
AcDbLine
 10
67.0765013413813
 20
-2290.196881449871
 30
0.0
 11
138.0765013413803
 21
-2290.196881449871
 31
0.0
  0
LINE
  5
DA48
330
2
100
AcDbEntity
  8
L-ZISSEN
100
AcDbLine
 10
145.5765013413803
 20
-2230.196881449868
 30
0.0
 11
59.5765013413813
 21
-2230.196881449868
 31
0.0
  0
LINE
  5
DA49
330
2
100
AcDbEntity
  8
L-ZISSEN
100
AcDbLine
 10
61.07650134137948
 20
-2200.196881449869
 30
0.0
 11
144.0765013413821
 21
-2200.196881449869
 31
0.0
  0
LINE
  5
DA51
330
2
100
AcDbEntity
  8
L-ZISSEN
100
AcDbLine
 10
64.99324025195729
 20
-2288.198615303685
 30
0.0
 11
62.57650134138085
 21
-2230.196881449868
 31
0.0
  0
LINE
  5
DA52
330
2
100
AcDbEntity
  8
L-ZISSEN
100
AcDbLine
 10
67.0765013413813
 20
-2290.196881449871
 30
0.0
 11
64.99324025195729
 21
-2288.198615303685
 31
0.0
  0
LINE
  5
DA56
330
2
100
AcDbEntity
  8
L-ZISSEN
100
AcDbLine
 10
61.82650134137948
 20
-2200.196881449869
 30
0.0
 11
61.82650134137948
 21
-2230.196881449868
 31
0.0
  0
LINE
  5
DA57
330
2
100
AcDbEntity
  8
L-ZISSEN
100
AcDbLine
 10
57.57650134138085
 20
-2210.196881449869
 30
0.0
 11
57.57650134138085
 21
-2228.19688144987
 31
0.0
  0
ARC
  5
DA58
330
2
100
AcDbEntity
  8
L-ZISSEN
100
AcDbCircle
 10
59.5765013413813
 20
-2228.19688144987
 30
0.0
 40
2.000000000001023
100
AcDbArc
 50
180.0
 51
270.0
  0
LINE
  5
DA5A
330
2
100
AcDbEntity
  8
L-ZISSEN
100
AcDbLine
 10
61.27650134138078
 20
-2206.19688144987
 30
0.0
 11
57.57650134138096
 21
-2206.19688144987
 31
0.0
  0
LINE
  5
DA5B
330
2
100
AcDbEntity
  8
L-ZISSEN
100
AcDbLine
 10
57.57650134138073
 20
-2210.196881449869
 30
0.0
 11
61.27650134138078
 21
-2210.196881449869
 31
0.0
  0
LINE
  5
DA5C
330
2
100
AcDbEntity
  8
L-ZISSEN
100
AcDbLine
 10
61.27650134138078
 20
-2206.19688144987
 30
0.0
 11
61.2765013413809
 21
-2210.19688144987
 31
0.0
  0
SOLID
  5
DA5D
330
2
100
AcDbEntity
  8
L-ZISSEN
100
AcDbTrace
 10
55.61291065160971
 20
-2180.648817745892
 30
0.0
 11
54.56832732544221
 21
-2181.477445196844
 31
0.0
 12
57.57650134138085
 22
-2184.19688144987
 32
0.0
 13
57.57650134138085
 23
-2184.19688144987
 33
0.0
  0
LINE
  5
DA5E
330
2
100
AcDbEntity
  8
L-ZISSEN
100
AcDbLine
 10
67.07650134137948
 20
-2200.196881449869
 30
0.0
 11
67.07650134137948
 21
-2214.196881449869
 31
0.0
  0
LINE
  5
DA6B
330
2
100
AcDbEntity
  8
L-ZISSEN
100
AcDbLine
 10
147.5765013413809
 20
-2210.196881449869
 30
0.0
 11
143.8765013413808
 21
-2210.196881449869
 31
0.0
  0
LINE
  5
DA6C
330
2
100
AcDbEntity
  8
L-ZISSEN
100
AcDbLine
 10
143.8765013413808
 20
-2206.19688144987
 30
0.0
 11
147.5765013413807
 21
-2206.19688144987
 31
0.0
  0
LINE
  5
DA6D
330
2
100
AcDbEntity
  8
L-ZISSEN
100
AcDbLine
 10
140.1597624308043
 20
-2288.198615303685
 30
0.0
 11
142.5765013413808
 21
-2230.196881449868
 31
0.0
  0
LINE
  5
DAA9
330
2
100
AcDbEntity
  8
L-ZISSEN
100
AcDbLine
 10
138.0765013413803
 20
-2290.196881449871
 30
0.0
 11
140.1597624308043
 21
-2288.198615303685
 31
0.0
  0
LINE
  5
DAAA
330
2
100
AcDbEntity
  8
L-ZISSEN
100
AcDbLine
 10
138.0765013413822
 20
-2200.196881449869
 30
0.0
 11
138.0765013413822
 21
-2214.196881449869
 31
0.0
  0
LINE
  5
DAAB
330
2
100
AcDbEntity
  8
L-ZISSEN
100
AcDbLine
 10
143.3265013413822
 20
-2200.196881449869
 30
0.0
 11
143.3265013413822
 21
-2230.196881449868
 31
0.0
  0
LINE
  5
DAAC
330
2
100
AcDbEntity
  8
L-ZISSEN
100
AcDbLine
 10
143.8765013413808
 20
-2206.19688144987
 30
0.0
 11
143.8765013413807
 21
-2210.19688144987
 31
0.0
  0
LINE
  5
DAAD
330
2
100
AcDbEntity
  8
L-ZISSEN
100
AcDbLine
 10
147.5765013413808
 20
-2210.196881449869
 30
0.0
 11
147.5765013413808
 21
-2228.19688144987
 31
0.0
  0
ARC
  5
DAAE
330
2
100
AcDbEntity
  8
L-ZISSEN
100
AcDbCircle
 10
145.5765013413803
 20
-2228.19688144987
 30
0.0
 40
2.000000000001023
100
AcDbArc
 50
270.0
 51
0.0
  0
TEXT
  5
DAB0
330
2
100
AcDbEntity
  8
L-ZISSEN
100
AcDbText
 10
53.99824902321666
 20
-2011.960401994072
 30
0.0
 40
4.5
  1
MODEL NO. F68- 00-*0 0
100
AcDbText
  0
LINE
  5
DAB1
330
2
100
AcDbEntity
  8
L-ZISSEN
100
AcDbLine
 10
129.5765013413813
 20
-2167.19688144987
 30
0.0
 11
75.57650134138039
 21
-2167.19688144987
 31
0.0
  0
LINE
  5
DAB2
330
2
100
AcDbEntity
  8
L-ZISSEN
100
AcDbLine
 10
62.82650134137949
 20
-2163.196881449871
 30
0.0
 11
142.3265013413822
 21
-2163.196881449871
 31
0.0
  0
LINE
  5
DAB3
330
2
100
AcDbEntity
  8
L-ZISSEN
100
AcDbLine
 10
147.5765013413808
 20
-2160.19688144987
 30
0.0
 11
57.57650134138085
 21
-2160.19688144987
 31
0.0
  0
TEXT
  5
DAB4
330
2
100
AcDbEntity
  8
L-ZISSEN
100
AcDbText
 10
11.59117431594604
 20
-2161.281679647608
 30
0.0
 40
4.5
  1
Rc3/4
100
AcDbText
  0
TEXT
  5
DAB5
330
2
100
AcDbEntity
  8
L-ZISSEN
100
AcDbText
 10
11.8962166307494
 20
-2152.359555847395
 30
0.0
 40
4.5
  1
IN
100
AcDbText
  0
LINE
  5
DAB6
330
2
100
AcDbEntity
  8
L-ZISSEN
100
AcDbLine
 10
33.80959447752066
 20
-2154.235872318381
 30
0.0
 11
10.50474384219451
 21
-2154.235872318381
 31
0.0
  0
TEXT
  5
DAB7
330
2
100
AcDbEntity
  8
L-ZISSEN
100
AcDbText
 10
11.59117431594604
 20
-2168.781679647608
 30
0.0
 40
4.5
  1
Rc1
100
AcDbText
  0
LINE
  5
DAB8
330
2
100
AcDbEntity
  8
L-ZISSEN
100
AcDbLine
 10
57.57650134138085
 20
-2168.19688144987
 30
0.0
 11
61.07650134137959
 21
-2168.19688144987
 31
0.0
  0
LINE
  5
DAB9
330
2
100
AcDbEntity
  8
L-ZISSEN
100
AcDbLine
 10
62.82650134137949
 20
-2163.196881449871
 30
0.0
 11
61.07650134137959
 21
-2168.19688144987
 31
0.0
  0
LINE
  5
DABA
330
2
100
AcDbEntity
  8
L-ZISSEN
100
AcDbLine
 10
147.5765013413808
 20
-2168.19688144987
 30
0.0
 11
144.076501341382
 21
-2168.19688144987
 31
0.0
  0
LINE
  5
DAD3
330
2
100
AcDbEntity
  8
L-ZISSEN
100
AcDbLine
 10
142.3265013413822
 20
-2163.196881449871
 30
0.0
 11
144.076501341382
 21
-2168.19688144987
 31
0.0
  0
LINE
  5
DB08
330
2
100
AcDbEntity
  8
L-ZISSEN
100
AcDbLine
 10
-60.42349913120858
 20
-2167.19688144987
 30
0.0
 11
-71.923499131208
 21
-2167.19688144987
 31
0.0
  0
LINE
  5
DB09
330
2
100
AcDbEntity
  8
L-ZISSEN
100
AcDbLine
 10
-122.9234991312089
 20
-2167.19688144987
 30
0.0
 11
-134.4234991312093
 21
-2167.196881449869
 31
0.0
  0
LINE
  5
DB1A
330
2
100
AcDbEntity
  8
L-ZISSEN
100
AcDbLine
 10
57.57650134138085
 20
-2214.196881449869
 30
0.0
 11
147.5765013413785
 21
-2214.196881449869
 31
0.0
  0
LINE
  5
DB25
330
2
100
AcDbEntity
  8
L-TYUSIN
100
AcDbLine
 10
52.57650134138085
 20
-2184.19688144987
 30
0.0
 11
152.5765013413808
 21
-2184.19688144987
 31
0.0
  0
LINE
  5
DB27
330
2
100
AcDbEntity
  8
L-ZISSEN
100
AcDbLine
 10
-72.14349913120867
 20
-2300.535620361503
 30
0.0
 11
-80.5734991312117
 21
-2300.535620361503
 31
0.0
  0
LINE
  5
DB28
330
2
100
AcDbEntity
  8
L-ZISSEN
100
AcDbLine
 10
-76.3584991312079
 20
-2370.535620361502
 30
0.0
 11
-72.14349913121094
 21
-2368.535620361501
 31
0.0
  0
ARC
  5
DB29
330
2
100
AcDbEntity
  8
L-ZISSEN
100
AcDbCircle
 10
-97.42349913120529
 20
-2287.744170368387
 30
0.0
 40
99.53938471878515
100
AcDbArc
 50
275.3320776948647
 51
283.9062370650462
  0
LINE
  5
DB2A
330
2
100
AcDbEntity
  8
L-ZISSEN
100
AcDbLine
 10
-80.5734991312117
 20
-2300.535620361503
 30
0.0
 11
-80.5734991312117
 21
-2368.535620361501
 31
0.0
  0
LINE
  5
DB2B
330
2
100
AcDbEntity
  8
L-ZISSEN
100
AcDbLine
 10
-122.7034991312113
 20
-2300.535620361503
 30
0.0
 11
-122.703499131209
 21
-2368.535620361501
 31
0.0
  0
LINE
  5
DB2C
330
2
100
AcDbEntity
  8
L-ZISSEN
100
AcDbLine
 10
-114.2734991312083
 20
-2300.535620361503
 30
0.0
 11
-114.2734991312083
 21
-2368.535620361501
 31
0.0
  0
LINE
  5
DB2D
330
2
100
AcDbEntity
  8
L-ZISSEN
100
AcDbLine
 10
-102.4234991312106
 20
-2393.138046860362
 30
0.0
 11
-102.9234991312079
 21
-2392.638046860362
 31
0.0
  0
ARC
  5
DB2E
330
2
100
AcDbEntity
  8
L-ZISSEN
100
AcDbCircle
 10
-104.2018147477135
 20
-2385.92617239432
 30
0.0
 40
5.271330170370607
100
AcDbArc
 50
245.0771192748252
 51
295.2523389966427
  0
ARC
  5
DB2F
330
2
100
AcDbEntity
  8
L-ZISSEN
100
AcDbCircle
 10
-104.2018147477122
 20
-2393.467590505422
 30
0.0
 40
5.271330170370607
100
AcDbArc
 50
64.74766100341561
 51
114.9228807251748
  0
LINE
  5
DB30
330
2
100
AcDbEntity
  8
L-ZISSEN
100
AcDbLine
 10
-91.72349913120951
 20
-2403.196881449871
 30
0.0
 11
-103.1234991312082
 21
-2403.196881449871
 31
0.0
  0
LINE
  5
DB31
330
2
100
AcDbEntity
  8
L-ZISSEN
100
AcDbLine
 10
-102.9234991312106
 20
-2393.138046860362
 30
0.0
 11
-94.42349913120933
 21
-2393.138046860362
 31
0.0
  0
LINE
  5
DB32
330
2
100
AcDbEntity
  8
L-ZISSEN
100
AcDbLine
 10
-104.2018147477135
 20
-2391.19750256469
 30
0.0
 11
-90.7107810712152
 21
-2391.198299334462
 31
0.0
  0
LINE
  5
DB33
330
2
100
AcDbEntity
  8
L-ZISSEN
100
AcDbLine
 10
-104.2827333290008
 20
-2388.196881449871
 30
0.0
 11
-91.42349913120847
 21
-2388.196881449871
 31
0.0
  0
LINE
  5
DB34
330
2
100
AcDbEntity
  8
L-ZISSEN
100
AcDbLine
 10
-91.42349913120847
 20
-2388.056432650435
 30
0.0
 11
-106.4234991312084
 21
-2388.056432650435
 31
0.0
  0
LINE
  5
DB35
330
2
100
AcDbEntity
  8
L-ZISSEN
100
AcDbLine
 10
-91.42349913120847
 20
-2388.056432650435
 30
0.0
 11
-106.4234991312084
 21
-2388.056432650435
 31
0.0
  0
LINE
  5
DB36
330
2
100
AcDbEntity
  8
L-ZISSEN
100
AcDbLine
 10
-88.42349913120665
 20
-2386.852830989921
 30
0.0
 11
-106.6734991312071
 21
-2386.852830989921
 31
0.0
  0
LINE
  5
DB37
330
2
100
AcDbEntity
  8
L-ZISSEN
100
AcDbLine
 10
-114.2734991312083
 20
-2368.535620361501
 30
0.0
 11
-118.4884991312098
 21
-2370.535620361502
 31
0.0
  0
ARC
  5
DB38
330
2
100
AcDbEntity
  8
L-ZISSEN
100
AcDbCircle
 10
-97.42349913120529
 20
-2287.744170368387
 30
0.0
 40
99.53938471878538
100
AcDbArc
 50
256.0937629349411
 51
264.6679223051352
  0
ARC
  5
DB39
330
2
100
AcDbEntity
  8
L-ZISSEN
100
AcDbCircle
 10
-119.4234991311997
 20
-2376.600565493859
 30
0.0
 40
8.000000000000113
100
AcDbArc
 50
180.0
 51
256.0937629347642
  0
LINE
  5
DB3A
330
2
100
AcDbEntity
  8
L-ZISSEN
100
AcDbLine
 10
-118.4884991312098
 20
-2370.535620361502
 30
0.0
 11
-122.703499131209
 21
-2368.535620361501
 31
0.0
  0
LINE
  5
DB3B
330
2
100
AcDbEntity
  8
L-ZISSEN
100
AcDbLine
 10
-106.4234991312084
 20
-2388.056432650435
 30
0.0
 11
-106.4234991312084
 21
-2386.852830989921
 31
0.0
  0
LINE
  5
DB3C
330
2
100
AcDbEntity
  8
L-ZISSEN
100
AcDbLine
 10
-106.4231427512916
 20
-2388.687148719814
 30
0.0
 11
-106.4231427512916
 21
-2390.706614179927
 31
0.0
  0
LINE
  5
DB3D
330
2
100
AcDbEntity
  8
L-ZISSEN
100
AcDbLine
 10
-102.9234991312106
 20
-2393.138046860362
 30
0.0
 11
-103.4234991312079
 21
-2393.638046860362
 31
0.0
  0
LINE
  5
DB3E
330
2
100
AcDbEntity
  8
L-ZISSEN
100
AcDbLine
 10
-102.9234991312079
 20
-2392.638046860362
 30
0.0
 11
-102.9234991312079
 21
-2391.196881449871
 31
0.0
  0
LINE
  5
DB3F
330
2
100
AcDbEntity
  8
L-ZISSEN
100
AcDbLine
 10
-103.1234991312082
 20
-2403.196881449871
 30
0.0
 11
-103.4234991312079
 21
-2402.896881449871
 31
0.0
  0
LINE
  5
DB40
330
2
100
AcDbEntity
  8
L-ZISSEN
100
AcDbLine
 10
-103.423499131208
 20
-2402.896881449871
 30
0.0
 11
-103.4234991312079
 21
-2393.638046860362
 31
0.0
  0
ARC
  5
DB41
330
2
100
AcDbEntity
  8
L-ZISSEN
100
AcDbCircle
 10
-90.7107810712152
 20
-2385.92696916409
 30
0.0
 40
5.271330170371532
100
AcDbArc
 50
244.7408933165819
 51
295.711645114861
  0
LINE
  5
DB42
330
2
100
AcDbEntity
  8
L-ZISSEN
100
AcDbLine
 10
-88.42349913120665
 20
-2388.056432650435
 30
0.0
 11
-91.42349913120847
 21
-2388.056432650435
 31
0.0
  0
LINE
  5
DB43
330
2
100
AcDbEntity
  8
L-ZISSEN
100
AcDbLine
 10
-88.42349913120665
 20
-2388.056432650435
 30
0.0
 11
-91.42349913120847
 21
-2388.056432650435
 31
0.0
  0
ARC
  5
DB44
330
2
100
AcDbEntity
  8
L-ZISSEN
100
AcDbCircle
 10
-90.71078107121389
 20
-2393.466793735651
 30
0.0
 40
5.271330170371789
100
AcDbArc
 50
64.28835488513906
 51
115.2591066834178
  0
ARC
  5
DB45
330
2
100
AcDbEntity
  8
L-ZISSEN
100
AcDbCircle
 10
-97.42349913120888
 20
-2370.555818775954
 30
0.0
 40
20.64106267391694
100
AcDbArc
 50
257.3236813122661
 51
282.4944195184307
  0
ARC
  5
DB46
330
2
100
AcDbEntity
  8
L-ZISSEN
100
AcDbCircle
 10
-97.42349913120756
 20
-2408.837944123788
 30
0.0
 40
20.64106267391679
100
AcDbArc
 50
77.50558048156747
 51
102.6763186877484
  0
LINE
  5
DB47
330
2
100
AcDbEntity
  8
L-ZISSEN
100
AcDbLine
 10
-100.4234991312084
 20
-2393.138046860362
 30
0.0
 11
-100.4234991312082
 21
-2403.196881449871
 31
0.0
  0
LINE
  5
DB48
330
2
100
AcDbEntity
  8
L-ZISSEN
100
AcDbLine
 10
-96.42349913120751
 20
-2393.138046860362
 30
0.0
 11
-96.42349913120739
 21
-2403.196881449871
 31
0.0
  0
LINE
  5
DB49
330
2
100
AcDbEntity
  8
L-ZISSEN
100
AcDbLine
 10
-97.4234991312066
 20
-2393.138046860362
 30
0.0
 11
-97.42349913120648
 21
-2403.196881449871
 31
0.0
  0
LINE
  5
DB4A
330
2
100
AcDbEntity
  8
L-ZISSEN
100
AcDbLine
 10
-98.42349913120797
 20
-2393.138046860362
 30
0.0
 11
-98.42349913120784
 21
-2403.196881449871
 31
0.0
  0
LINE
  5
DB4B
330
2
100
AcDbEntity
  8
L-ZISSEN
100
AcDbLine
 10
-99.42349913120706
 20
-2393.138046860362
 30
0.0
 11
-99.42349913120693
 21
-2403.196881449871
 31
0.0
  0
LINE
  5
DB4C
330
2
100
AcDbEntity
  8
L-ZISSEN
100
AcDbLine
 10
-101.953035449226
 20
-2388.70000060782
 30
0.0
 11
-101.9530354492192
 21
-2390.693762291923
 31
0.0
  0
LINE
  5
DB4D
330
2
100
AcDbEntity
  8
L-ZISSEN
100
AcDbLine
 10
-102.4234991312064
 20
-2391.197578060999
 30
0.0
 11
-102.4234991312106
 21
-2393.138046860362
 31
0.0
  0
LINE
  5
DB4E
330
2
100
AcDbEntity
  8
L-ZISSEN
100
AcDbLine
 10
-101.4234991312097
 20
-2393.138046860362
 30
0.0
 11
-101.4234991312097
 21
-2403.196881449871
 31
0.0
  0
LINE
  5
DB4F
330
2
100
AcDbEntity
  8
L-ZISSEN
100
AcDbLine
 10
-102.4234991312088
 20
-2393.138046860362
 30
0.0
 11
-102.4234991312087
 21
-2403.196881449871
 31
0.0
  0
LINE
  5
DB50
330
2
100
AcDbEntity
  8
L-ZISSEN
100
AcDbLine
 10
-92.96012349419038
 20
-2388.699469493557
 30
0.0
 11
-92.96012349419038
 21
-2390.694293406185
 31
0.0
  0
LINE
  5
DB51
330
2
100
AcDbEntity
  8
L-ZISSEN
100
AcDbLine
 10
-92.42349913120511
 20
-2391.198227712293
 30
0.0
 11
-92.42349913120932
 21
-2393.138046860362
 31
0.0
  0
LINE
  5
DB52
330
2
100
AcDbEntity
  8
L-ZISSEN
100
AcDbLine
 10
-92.42349913120932
 20
-2393.138046860362
 30
0.0
 11
-91.92349913120978
 21
-2392.638046860362
 31
0.0
  0
LINE
  5
DB53
330
2
100
AcDbEntity
  8
L-ZISSEN
100
AcDbLine
 10
-91.92349913120933
 20
-2393.138046860362
 30
0.0
 11
-91.42349913120979
 21
-2393.638046860362
 31
0.0
  0
LINE
  5
DB54
330
2
100
AcDbEntity
  8
L-ZISSEN
100
AcDbLine
 10
-91.92349913120967
 20
-2392.638046860362
 30
0.0
 11
-91.92349913120978
 21
-2391.196881449871
 31
0.0
  0
LINE
  5
DB55
330
2
100
AcDbEntity
  8
L-ZISSEN
100
AcDbLine
 10
-91.42349913120847
 20
-2388.196881449871
 30
0.0
 11
-90.58852615211231
 21
-2388.196881449871
 31
0.0
  0
LINE
  5
DB56
330
2
100
AcDbEntity
  8
L-ZISSEN
100
AcDbLine
 10
-94.42349913120802
 20
-2388.196881449871
 30
0.0
 11
-94.42349913120802
 21
-2388.056432650435
 31
0.0
  0
LINE
  5
DB57
330
2
100
AcDbEntity
  8
L-ZISSEN
100
AcDbLine
 10
-94.42349913120933
 20
-2393.138046860362
 30
0.0
 11
-91.92349913120933
 21
-2393.138046860362
 31
0.0
  0
LINE
  5
DB58
330
2
100
AcDbEntity
  8
L-ZISSEN
100
AcDbLine
 10
-91.72349913120951
 20
-2403.196881449871
 30
0.0
 11
-91.42349913120979
 21
-2402.896881449871
 31
0.0
  0
LINE
  5
DB59
330
2
100
AcDbEntity
  8
L-ZISSEN
100
AcDbLine
 10
-91.42349913120979
 20
-2393.638046860362
 30
0.0
 11
-91.42349913120979
 21
-2402.896881449871
 31
0.0
  0
LINE
  5
DB5A
330
2
100
AcDbEntity
  8
L-ZISSEN
100
AcDbLine
 10
-92.4234991312066
 20
-2393.138046860362
 30
0.0
 11
-92.42349913120454
 21
-2403.196881449871
 31
0.0
  0
LINE
  5
DB5B
330
2
100
AcDbEntity
  8
L-ZISSEN
100
AcDbLine
 10
-93.42349913120569
 20
-2393.138046860362
 30
0.0
 11
-93.42349913120557
 21
-2403.196881449871
 31
0.0
  0
LINE
  5
DB5C
330
2
100
AcDbEntity
  8
L-ZISSEN
100
AcDbLine
 10
-94.42349913120933
 20
-2393.138046860362
 30
0.0
 11
-94.42349913120933
 21
-2403.196881449871
 31
0.0
  0
LINE
  5
DB5D
330
2
100
AcDbEntity
  8
L-ZISSEN
100
AcDbLine
 10
-95.42349913120842
 20
-2393.138046860362
 30
0.0
 11
-95.4234991312083
 21
-2403.196881449871
 31
0.0
  0
LINE
  5
DB5E
330
2
100
AcDbEntity
  8
L-ZISSEN
100
AcDbLine
 10
-88.54849913120711
 20
-2388.056432650434
 30
0.0
 11
-88.54849913120711
 21
-2386.852830989921
 31
0.0
  0
LINE
  5
DB5F
330
2
100
AcDbEntity
  8
L-ZISSEN
100
AcDbLine
 10
-88.42385551112124
 20
-2388.717383956776
 30
0.0
 11
-88.42385551112124
 21
-2390.676378942964
 31
0.0
  0
LINE
  5
DB60
330
2
100
AcDbEntity
  8
L-ZISSEN
100
AcDbLine
 10
-88.17349913120574
 20
-2386.852830989921
 30
0.0
 11
-88.42349913120665
 21
-2386.852830989921
 31
0.0
  0
LINE
  5
DB61
330
2
100
AcDbEntity
  8
L-ZISSEN
100
AcDbLine
 10
-80.5734991312117
 20
-2368.535620361501
 30
0.0
 11
-76.3584991312079
 21
-2370.535620361502
 31
0.0
  0
LINE
  5
DB62
330
2
100
AcDbEntity
  8
L-ZISSEN
100
AcDbLine
 10
-122.7034991312113
 20
-2300.535620361503
 30
0.0
 11
-114.2734991312083
 21
-2300.535620361503
 31
0.0
  0
LINE
  5
DB63
330
2
100
AcDbEntity
  8
L-ZISSEN
100
AcDbLine
 10
-72.14349913120867
 20
-2300.535620361503
 30
0.0
 11
-72.14349913121094
 21
-2368.535620361501
 31
0.0
  0
ARC
  5
DB64
330
2
100
AcDbEntity
  8
L-ZISSEN
100
AcDbCircle
 10
-75.42349913120114
 20
-2376.600565493859
 30
0.0
 40
8.000000000000113
100
AcDbArc
 50
283.9062370650588
 51
0.0
  0
LINE
  5
DB65
330
2
100
AcDbEntity
  8
L-ZISSEN
100
AcDbLine
 10
-62.42349913120887
 20
-2311.19688144987
 30
0.0
 11
-58.42349913121023
 21
-2311.861819255653
 31
0.0
  0
LINE
  5
DB66
330
2
100
AcDbEntity
  8
L-ZISSEN
100
AcDbLine
 10
-58.42349913121023
 20
-2316.145988238251
 30
0.0
 11
-63.9234991312075
 21
-2318.086367351881
 31
0.0
  0
LINE
  5
DB67
330
2
100
AcDbEntity
  8
L-ZISSEN
100
AcDbLine
 10
-65.59598763741331
 20
-2314.003903746952
 30
0.0
 11
-65.59598763741331
 21
-2315.839872217063
 31
0.0
  0
LINE
  5
DB68
330
2
100
AcDbEntity
  8
L-ZISSEN
100
AcDbLine
 10
-64.10940380665732
 20
-2316.190387987886
 30
0.0
 11
-64.10940380665732
 21
-2314.003903746951
 31
0.0
  0
LINE
  5
DB69
330
2
100
AcDbEntity
  8
L-ZISSEN
100
AcDbLine
 10
-63.9234991312075
 20
-2318.086367351881
 30
0.0
 11
-64.10940380665732
 21
-2318.086367351881
 31
0.0
  0
LINE
  5
DB6A
330
2
100
AcDbEntity
  8
L-ZISSEN
100
AcDbLine
 10
-65.87307795042915
 20
-2323.67036373533
 30
0.0
 11
-64.10940380665732
 21
-2316.190387987886
 31
0.0
  0
LINE
  5
DB6B
330
2
100
AcDbEntity
  8
L-ZISSEN
100
AcDbLine
 10
-64.10940380665732
 20
-2314.003903746951
 30
0.0
 11
-67.42349913120887
 21
-2314.003903746951
 31
0.0
  0
LINE
  5
DB6C
330
2
100
AcDbEntity
  8
L-ZISSEN
100
AcDbLine
 10
-67.35966178118514
 20
-2323.319847964507
 30
0.0
 11
-65.59598763741331
 21
-2315.839872217063
 31
0.0
  0
LINE
  5
DB6D
330
2
100
AcDbEntity
  8
L-ZISSEN
100
AcDbLine
 10
-65.87307795042915
 20
-2323.67036373533
 30
0.0
 11
-67.42349913120887
 21
-2323.67036373533
 31
0.0
  0
LINE
  5
DB6E
330
2
100
AcDbEntity
  8
L-ZISSEN
100
AcDbLine
 10
-58.42349913121023
 20
-2311.861819255653
 30
0.0
 11
-58.42349913121023
 21
-2316.145988238251
 31
0.0
  0
LINE
  5
DB6F
330
2
100
AcDbEntity
  8
L-ZISSEN
100
AcDbLine
 10
-127.4234991312111
 20
-2376.600565493859
 30
0.0
 11
-127.4234991312088
 21
-2290.19688144987
 31
0.0
  0
LINE
  5
DB70
330
2
100
AcDbEntity
  8
L-ZISSEN
100
AcDbLine
 10
-99.05085600046113
 20
-2291.359511924312
 30
0.0
 11
-144.4477451893374
 21
-2323.792353062627
 31
0.0
  0
TEXT
  5
DB71
330
2
100
AcDbEntity
  8
L-ZISSEN
100
AcDbText
 10
-157.3181342572407
 20
-2326.039027290578
 30
0.0
 40
4.5
  1
P.P
100
AcDbText
  0
LINE
  5
DB72
330
2
100
AcDbEntity
  8
L-ZISSEN
100
AcDbLine
 10
-144.4477451893374
 20
-2323.792353062627
 30
0.0
 11
-146.4477451893374
 21
-2323.792353062627
 31
0.0
  0
SOLID
  5
DB73
330
2
100
AcDbEntity
  8
L-ZISSEN
100
AcDbTrace
 10
-99.24462774620128
 20
-2291.088285779437
 30
0.0
 11
-98.85708425472097
 21
-2291.630738069187
 31
0.0
 12
-97.42349913120911
 22
-2290.196881449871
 32
0.0
 13
-97.42349913120911
 23
-2290.196881449871
 33
0.0
  0
LINE
  5
DB74
330
2
100
AcDbEntity
  8
L-ZISSEN
100
AcDbLine
 10
-67.42349913120887
 20
-2290.19688144987
 30
0.0
 11
-67.42349913120887
 21
-2331.520875904069
 31
0.0
  0
LINE
  5
DB75
330
2
100
AcDbEntity
  8
L-ZISSEN
100
AcDbLine
 10
-64.10940380665732
 20
-2318.086367351881
 30
0.0
 11
-64.10940380665732
 21
-2290.196881449871
 31
0.0
  0
LINE
  5
DB76
330
2
100
AcDbEntity
  8
L-ZISSEN
100
AcDbLine
 10
-62.42349913120887
 20
-2290.196881449871
 30
0.0
 11
-62.42349913120887
 21
-2311.19688144987
 31
0.0
  0
LINE
  5
DB77
330
2
100
AcDbEntity
  8
L-ZISSEN
100
AcDbLine
 10
-67.42349913121111
 20
-2376.600565493859
 30
0.0
 11
-67.42349913120887
 21
-2290.19688144987
 31
0.0
  0
ARC
  5
DB78
330
2
100
AcDbEntity
  8
L-ZISSEN
100
AcDbCircle
 10
102.5765013413825
 20
-2287.744170368388
 30
0.0
 40
99.53938471878538
100
AcDbArc
 50
256.0937629349537
 51
264.6679223051352
  0
LINE
  5
DB79
330
2
100
AcDbEntity
  8
L-ZISSEN
100
AcDbLine
 10
85.72650134138184
 20
-2368.535620361502
 30
0.0
 11
81.51150134138033
 21
-2370.535620361502
 31
0.0
  0
ARC
  5
DB7A
330
2
100
AcDbEntity
  8
L-ZISSEN
100
AcDbCircle
 10
80.5765013413821
 20
-2376.600565493859
 30
0.0
 40
8.000000000000113
100
AcDbArc
 50
180.0
 51
256.0937629349411
  0
LINE
  5
DB7B
330
2
100
AcDbEntity
  8
L-ZISSEN
100
AcDbLine
 10
81.51150134138033
 20
-2370.535620361502
 30
0.0
 11
77.2965013413811
 21
-2368.535620361501
 31
0.0
  0
TEXT
  5
DB7C
330
2
100
AcDbEntity
  8
L-ZISSEN
100
AcDbText
 10
42.68186621534961
 20
-2326.039027290577
 30
0.0
 40
4.5
  1
P.P
100
AcDbText
  0
LINE
  5
DB7D
330
2
100
AcDbEntity
  8
L-ZISSEN
100
AcDbLine
 10
55.55225528325293
 20
-2323.792353062627
 30
0.0
 11
53.55225528325293
 21
-2323.792353062627
 31
0.0
  0
LINE
  5
DB7E
330
2
100
AcDbEntity
  8
L-ZISSEN
100
AcDbLine
 10
111.951501341379
 20
-2322.696881449871
 30
0.0
 11
111.951501341379
 21
-2330.196881449871
 31
0.0
  0
ARC
  5
DB7F
330
2
100
AcDbEntity
  8
L-ZISSEN
100
AcDbCircle
 10
102.5765013413812
 20
-2326.446881449871
 30
0.0
 40
1.250000000000568
100
AcDbArc
 50
180.0
 51
0.0
  0
LINE
  5
DB80
330
2
100
AcDbEntity
  8
L-ZISSEN
100
AcDbLine
 10
93.20150134138129
 20
-2322.69688144987
 30
0.0
 11
93.20150134137902
 21
-2330.196881449871
 31
0.0
  0
LINE
  5
DB81
330
2
100
AcDbEntity
  8
L-ZISSEN
100
AcDbLine
 10
89.76400134138129
 20
-2330.196881449871
 30
0.0
 11
115.3890013413813
 21
-2330.196881449871
 31
0.0
  0
ARC
  5
DB82
330
2
100
AcDbEntity
  8
L-ZISSEN
100
AcDbCircle
 10
109.2892194013762
 20
-2393.466793735651
 30
0.0
 40
5.271330170371789
100
AcDbArc
 50
64.28835488513906
 51
115.2591066834178
  0
LINE
  5
DB83
330
2
100
AcDbEntity
  8
L-ZISSEN
100
AcDbLine
 10
111.5765013413834
 20
-2388.056432650435
 30
0.0
 11
108.5765013413816
 21
-2388.056432650435
 31
0.0
  0
LINE
  5
DB84
330
2
100
AcDbEntity
  8
L-ZISSEN
100
AcDbLine
 10
111.5765013413834
 20
-2388.056432650435
 30
0.0
 11
108.5765013413816
 21
-2388.056432650435
 31
0.0
  0
ARC
  5
DB85
330
2
100
AcDbEntity
  8
L-ZISSEN
100
AcDbCircle
 10
109.2892194013749
 20
-2385.92696916409
 30
0.0
 40
5.271330170371532
100
AcDbArc
 50
244.7408933165819
 51
295.711645114861
  0
LINE
  5
DB86
330
2
100
AcDbEntity
  8
L-ZISSEN
100
AcDbLine
 10
111.5765013413834
 20
-2386.852830989922
 30
0.0
 11
93.32650134137846
 21
-2386.852830989921
 31
0.0
  0
ARC
  5
DB87
330
2
100
AcDbEntity
  8
L-ZISSEN
100
AcDbCircle
 10
95.79818572487791
 20
-2393.467590505422
 30
0.0
 40
5.271330170370607
100
AcDbArc
 50
64.74766100341561
 51
114.9228807251748
  0
ARC
  5
DB88
330
2
100
AcDbEntity
  8
L-ZISSEN
100
AcDbCircle
 10
95.79818572487665
 20
-2385.92617239432
 30
0.0
 40
5.271330170370607
100
AcDbArc
 50
245.0771192748252
 51
295.2523389966427
  0
LINE
  5
DB89
330
2
100
AcDbEntity
  8
L-ZISSEN
100
AcDbLine
 10
97.57650134137948
 20
-2393.138046860362
 30
0.0
 11
97.07650134138221
 21
-2392.638046860362
 31
0.0
  0
LINE
  5
DB8A
330
2
100
AcDbEntity
  8
L-ZISSEN
100
AcDbLine
 10
95.79818572487665
 20
-2391.19750256469
 30
0.0
 11
109.2892194013749
 21
-2391.198299334462
 31
0.0
  0
LINE
  5
DB8B
330
2
100
AcDbEntity
  8
L-ZISSEN
100
AcDbLine
 10
97.07650134137949
 20
-2393.138046860362
 30
0.0
 11
105.5765013413808
 21
-2393.138046860362
 31
0.0
  0
LINE
  5
DB8C
330
2
100
AcDbEntity
  8
L-ZISSEN
100
AcDbLine
 10
108.2765013413806
 20
-2403.196881449871
 30
0.0
 11
96.87650134138195
 21
-2403.196881449871
 31
0.0
  0
LINE
  5
DB8D
330
2
100
AcDbEntity
  8
L-ZISSEN
100
AcDbLine
 10
108.5765013413816
 20
-2388.056432650435
 30
0.0
 11
93.57650134138165
 21
-2388.056432650435
 31
0.0
  0
LINE
  5
DB8E
330
2
100
AcDbEntity
  8
L-ZISSEN
100
AcDbLine
 10
95.71726714358927
 20
-2388.196881449871
 30
0.0
 11
108.5765013413816
 21
-2388.196881449871
 31
0.0
  0
LINE
  5
DB8F
330
2
100
AcDbEntity
  8
L-ZISSEN
100
AcDbLine
 10
108.5765013413816
 20
-2388.056432650435
 30
0.0
 11
93.57650134138165
 21
-2388.056432650435
 31
0.0
  0
LINE
  5
DB90
330
2
100
AcDbEntity
  8
L-ZISSEN
100
AcDbLine
 10
93.57650134138165
 20
-2388.056432650435
 30
0.0
 11
93.57650134138165
 21
-2386.852830989921
 31
0.0
  0
LINE
  5
DB91
330
2
100
AcDbEntity
  8
L-ZISSEN
100
AcDbLine
 10
93.57650134138165
 20
-2388.056432650435
 30
0.0
 11
93.57650134138165
 21
-2386.852830989921
 31
0.0
  0
LINE
  5
DB92
330
2
100
AcDbEntity
  8
L-ZISSEN
100
AcDbLine
 10
97.07650134137949
 20
-2393.138046860362
 30
0.0
 11
96.57650134138222
 21
-2393.638046860362
 31
0.0
  0
LINE
  5
DB93
330
2
100
AcDbEntity
  8
L-ZISSEN
100
AcDbLine
 10
93.57685772129851
 20
-2388.687148719814
 30
0.0
 11
93.57685772129851
 21
-2390.706614179927
 31
0.0
  0
LINE
  5
DB94
330
2
100
AcDbEntity
  8
L-ZISSEN
100
AcDbLine
 10
97.07650134138221
 20
-2392.638046860362
 30
0.0
 11
97.07650134138221
 21
-2391.196881449871
 31
0.0
  0
LINE
  5
DB95
330
2
100
AcDbEntity
  8
L-ZISSEN
100
AcDbLine
 10
96.87650134138195
 20
-2403.196881449871
 30
0.0
 11
96.57650134138222
 21
-2402.896881449871
 31
0.0
  0
LINE
  5
DB96
330
2
100
AcDbEntity
  8
L-ZISSEN
100
AcDbLine
 10
96.5765013413821
 20
-2402.896881449871
 30
0.0
 11
96.57650134138222
 21
-2393.638046860362
 31
0.0
  0
ARC
  5
DB97
330
2
100
AcDbEntity
  8
L-ZISSEN
100
AcDbCircle
 10
89.76400134138129
 20
-2328.946881449871
 30
0.0
 40
1.250000000000568
100
AcDbArc
 50
180.0
 51
270.0
  0
ARC
  5
DB98
330
2
100
AcDbEntity
  8
L-ZISSEN
100
AcDbCircle
 10
102.5765013413812
 20
-2370.555818775954
 30
0.0
 40
20.64106267391694
100
AcDbArc
 50
257.3236813122661
 51
282.4944195184307
  0
ARC
  5
DB99
330
2
100
AcDbEntity
  8
L-ZISSEN
100
AcDbCircle
 10
102.5765013413825
 20
-2408.837944123788
 30
0.0
 40
20.64106267391679
100
AcDbArc
 50
77.50558048156747
 51
102.6763186877484
  0
LINE
  5
DB9A
330
2
100
AcDbEntity
  8
L-ZISSEN
100
AcDbLine
 10
99.57650134138177
 20
-2393.138046860362
 30
0.0
 11
99.57650134138187
 21
-2403.196881449871
 31
0.0
  0
LINE
  5
DB9B
330
2
100
AcDbEntity
  8
L-ZISSEN
100
AcDbLine
 10
100.5765013413831
 20
-2393.138046860362
 30
0.0
 11
100.5765013413832
 21
-2403.196881449871
 31
0.0
  0
LINE
  5
DB9C
330
2
100
AcDbEntity
  8
L-ZISSEN
100
AcDbLine
 10
101.5765013413822
 20
-2393.138046860362
 30
0.0
 11
101.5765013413823
 21
-2403.196881449871
 31
0.0
  0
LINE
  5
DB9D
330
2
100
AcDbEntity
  8
L-ZISSEN
100
AcDbLine
 10
102.5765013413835
 20
-2393.138046860362
 30
0.0
 11
102.5765013413836
 21
-2403.196881449871
 31
0.0
  0
LINE
  5
DB9E
330
2
100
AcDbEntity
  8
L-ZISSEN
100
AcDbLine
 10
103.5765013413826
 20
-2393.138046860362
 30
0.0
 11
103.5765013413827
 21
-2403.196881449871
 31
0.0
  0
LINE
  5
DB9F
330
2
100
AcDbEntity
  8
L-ZISSEN
100
AcDbLine
 10
97.57650134138369
 20
-2391.197578060999
 30
0.0
 11
97.57650134137948
 21
-2393.138046860362
 31
0.0
  0
LINE
  5
DBA0
330
2
100
AcDbEntity
  8
L-ZISSEN
100
AcDbLine
 10
98.04696502336408
 20
-2388.70000060782
 30
0.0
 11
98.0469650233709
 21
-2390.693762291923
 31
0.0
  0
LINE
  5
DBA1
330
2
100
AcDbEntity
  8
L-ZISSEN
100
AcDbLine
 10
97.57650134138131
 20
-2393.138046860362
 30
0.0
 11
97.57650134138142
 21
-2403.196881449871
 31
0.0
  0
LINE
  5
DBA2
330
2
100
AcDbEntity
  8
L-ZISSEN
100
AcDbLine
 10
98.5765013413804
 20
-2393.138046860362
 30
0.0
 11
98.5765013413804
 21
-2403.196881449871
 31
0.0
  0
LINE
  5
DBA3
330
2
100
AcDbEntity
  8
L-ZISSEN
100
AcDbLine
 10
108.5765013413816
 20
-2388.196881449871
 30
0.0
 11
109.4114743204778
 21
-2388.196881449871
 31
0.0
  0
LINE
  5
DBA4
330
2
100
AcDbEntity
  8
L-ZISSEN
100
AcDbLine
 10
108.0765013413805
 20
-2392.638046860362
 30
0.0
 11
108.0765013413804
 21
-2391.196881449871
 31
0.0
  0
LINE
  5
DBA5
330
2
100
AcDbEntity
  8
L-ZISSEN
100
AcDbLine
 10
108.0765013413808
 20
-2393.138046860362
 30
0.0
 11
108.5765013413803
 21
-2393.638046860362
 31
0.0
  0
LINE
  5
DBA6
330
2
100
AcDbEntity
  8
L-ZISSEN
100
AcDbLine
 10
107.5765013413808
 20
-2393.138046860362
 30
0.0
 11
108.0765013413804
 21
-2392.638046860362
 31
0.0
  0
LINE
  5
DBA7
330
2
100
AcDbEntity
  8
L-ZISSEN
100
AcDbLine
 10
107.576501341385
 20
-2391.198227712293
 30
0.0
 11
107.5765013413808
 21
-2393.138046860362
 31
0.0
  0
LINE
  5
DBA8
330
2
100
AcDbEntity
  8
L-ZISSEN
100
AcDbLine
 10
107.0398769783997
 20
-2388.699469493557
 30
0.0
 11
107.0398769783997
 21
-2390.694293406185
 31
0.0
  0
LINE
  5
DBA9
330
2
100
AcDbEntity
  8
L-ZISSEN
100
AcDbLine
 10
105.5765013413821
 20
-2388.196881449871
 30
0.0
 11
105.5765013413821
 21
-2388.056432650435
 31
0.0
  0
LINE
  5
DBAA
330
2
100
AcDbEntity
  8
L-ZISSEN
100
AcDbLine
 10
105.5765013413808
 20
-2393.138046860362
 30
0.0
 11
108.0765013413808
 21
-2393.138046860362
 31
0.0
  0
LINE
  5
DBAB
330
2
100
AcDbEntity
  8
L-ZISSEN
100
AcDbLine
 10
108.2765013413806
 20
-2403.196881449871
 30
0.0
 11
108.5765013413803
 21
-2402.896881449871
 31
0.0
  0
LINE
  5
DBAC
330
2
100
AcDbEntity
  8
L-ZISSEN
100
AcDbLine
 10
104.5765013413817
 20
-2393.138046860362
 30
0.0
 11
104.5765013413818
 21
-2403.196881449871
 31
0.0
  0
LINE
  5
DBAD
330
2
100
AcDbEntity
  8
L-ZISSEN
100
AcDbLine
 10
105.5765013413808
 20
-2393.138046860362
 30
0.0
 11
105.5765013413808
 21
-2403.196881449871
 31
0.0
  0
LINE
  5
DBAE
330
2
100
AcDbEntity
  8
L-ZISSEN
100
AcDbLine
 10
106.5765013413844
 20
-2393.138046860362
 30
0.0
 11
106.5765013413846
 21
-2403.196881449871
 31
0.0
  0
LINE
  5
DBAF
330
2
100
AcDbEntity
  8
L-ZISSEN
100
AcDbLine
 10
107.5765013413835
 20
-2393.138046860362
 30
0.0
 11
107.5765013413856
 21
-2403.196881449871
 31
0.0
  0
LINE
  5
DBB0
330
2
100
AcDbEntity
  8
L-ZISSEN
100
AcDbLine
 10
108.5765013413803
 20
-2393.638046860362
 30
0.0
 11
108.5765013413803
 21
-2402.896881449871
 31
0.0
  0
ARC
  5
DBB1
330
2
100
AcDbEntity
  8
L-ZISSEN
100
AcDbCircle
 10
102.5765013413825
 20
-2287.744170368388
 30
0.0
 40
99.53938471878553
100
AcDbArc
 50
275.3320776948647
 51
283.9062370650588
  0
LINE
  5
DBB2
330
2
100
AcDbEntity
  8
L-ZISSEN
100
AcDbLine
 10
123.6415013413822
 20
-2370.535620361502
 30
0.0
 11
127.8565013413815
 21
-2368.535620361501
 31
0.0
  0
LINE
  5
DBB3
330
2
100
AcDbEntity
  8
L-ZISSEN
100
AcDbLine
 10
111.5765013413834
 20
-2388.056432650435
 30
0.0
 11
111.5765013413834
 21
-2386.852830989922
 31
0.0
  0
LINE
  5
DBB4
330
2
100
AcDbEntity
  8
L-ZISSEN
100
AcDbLine
 10
111.5765013413834
 20
-2388.056432650435
 30
0.0
 11
111.5765013413834
 21
-2386.852830989922
 31
0.0
  0
LINE
  5
DBB5
330
2
100
AcDbEntity
  8
L-ZISSEN
100
AcDbLine
 10
111.5761449614688
 20
-2388.717383956776
 30
0.0
 11
111.5761449614688
 21
-2390.676378942964
 31
0.0
  0
ARC
  5
DBB6
330
2
100
AcDbEntity
  8
L-ZISSEN
100
AcDbCircle
 10
115.3890013413813
 20
-2328.946881449871
 30
0.0
 40
1.249999999999715
100
AcDbArc
 50
270.0
 51
0.0
  0
LINE
  5
DBB7
330
2
100
AcDbEntity
  8
L-ZISSEN
100
AcDbLine
 10
111.8265013413866
 20
-2386.852830989921
 30
0.0
 11
111.5765013413834
 21
-2386.852830989922
 31
0.0
  0
LINE
  5
DBB8
330
2
100
AcDbEntity
  8
L-ZISSEN
100
AcDbLine
 10
119.4265013413807
 20
-2368.535620361502
 30
0.0
 11
123.6415013413822
 21
-2370.535620361502
 31
0.0
  0
ARC
  5
DBB9
330
2
100
AcDbEntity
  8
L-ZISSEN
100
AcDbCircle
 10
124.5765013413807
 20
-2376.60056549386
 30
0.0
 40
8.000000000000113
100
AcDbArc
 50
283.9062370652484
 51
0.0
  0
LINE
  5
DBBA
330
2
100
AcDbEntity
  8
L-ZISSEN
100
AcDbLine
 10
102.5765013413812
 20
-2316.446881449871
 30
0.0
 11
115.701501341379
 21
-2314.571881449871
 31
0.0
  0
LINE
  5
DBBB
330
2
100
AcDbEntity
  8
L-ZISSEN
100
AcDbLine
 10
102.5765013413812
 20
-2317.278053707098
 30
0.0
 11
114.4909344762156
 21
-2315.575991830694
 31
0.0
  0
LINE
  5
DBBC
330
2
100
AcDbEntity
  8
L-ZISSEN
100
AcDbLine
 10
114.4909344762156
 20
-2320.138906960916
 30
0.0
 11
102.5765013413812
 21
-2322.633264935346
 31
0.0
  0
LINE
  5
DBBD
330
2
100
AcDbEntity
  8
L-ZISSEN
100
AcDbLine
 10
102.5765013413812
 20
-2325.196881449871
 30
0.0
 11
116.639001341379
 21
-2321.446881449871
 31
0.0
  0
LINE
  5
DBBE
330
2
100
AcDbEntity
  8
L-ZISSEN
100
AcDbLine
 10
102.5765013413812
 20
-2316.446881449871
 30
0.0
 11
89.45150134137902
 21
-2314.571881449871
 31
0.0
  0
LINE
  5
DBBF
330
2
100
AcDbEntity
  8
L-ZISSEN
100
AcDbLine
 10
102.5765013413812
 20
-2325.196881449871
 30
0.0
 11
88.51400134137902
 21
-2321.446881449871
 31
0.0
  0
LINE
  5
DBC0
330
2
100
AcDbEntity
  8
L-ZISSEN
100
AcDbLine
 10
102.5765013413812
 20
-2317.278053707098
 30
0.0
 11
90.66206820654697
 21
-2315.575991830694
 31
0.0
  0
LINE
  5
DBC1
330
2
100
AcDbEntity
  8
L-ZISSEN
100
AcDbLine
 10
90.66206820654697
 20
-2320.138906960916
 30
0.0
 11
102.5765013413812
 21
-2322.633264935346
 31
0.0
  0
LINE
  5
DBC2
330
2
100
AcDbEntity
  8
L-ZISSEN
100
AcDbLine
 10
90.66206820654697
 20
-2315.575991830694
 30
0.0
 11
89.45150134137902
 21
-2314.571881449871
 31
0.0
  0
LINE
  5
DBC3
330
2
100
AcDbEntity
  8
L-ZISSEN
100
AcDbLine
 10
90.66206820654697
 20
-2314.744819573466
 30
0.0
 11
89.45150134137902
 21
-2314.571881449871
 31
0.0
  0
LINE
  5
DBC4
330
2
100
AcDbEntity
  8
L-ZISSEN
100
AcDbLine
 10
88.51400134137902
 20
-2321.446881449871
 30
0.0
 11
90.66206820654697
 21
-2320.138906960916
 31
0.0
  0
LINE
  5
DBC5
330
2
100
AcDbEntity
  8
L-ZISSEN
100
AcDbLine
 10
90.66206820654697
 20
-2315.575991830694
 30
0.0
 11
90.66206820654697
 21
-2320.138906960916
 31
0.0
  0
LINE
  5
DBC6
330
2
100
AcDbEntity
  8
L-TYUSIN
100
AcDbLine
 10
100.3897077788262
 20
-2320.193336151044
 30
0.0
 11
104.584487753738
 21
-2320.193336151044
 31
0.0
  0
CIRCLE
  5
DBC7
330
2
100
AcDbEntity
  8
L-ZISSEN
100
AcDbCircle
 10
102.5765013413812
 20
-2320.193336151044
 30
0.0
 40
1.25
  0
LINE
  5
DBC8
330
2
100
AcDbEntity
  8
L-ZISSEN
100
AcDbLine
 10
101.326501341379
 20
-2324.863548116537
 30
0.0
 11
101.3265013413813
 21
-2326.446881449871
 31
0.0
  0
LINE
  5
DBC9
330
2
100
AcDbEntity
  8
L-ZISSEN
100
AcDbLine
 10
102.5765013413812
 20
-2316.446881449871
 30
0.0
 11
102.5765013413812
 21
-2317.278053707098
 31
0.0
  0
LINE
  5
DBCA
330
2
100
AcDbEntity
  8
L-ZISSEN
100
AcDbLine
 10
102.5765013413812
 20
-2325.196881449871
 30
0.0
 11
102.5765013413812
 21
-2322.633264935346
 31
0.0
  0
LINE
  5
DBCB
330
2
100
AcDbEntity
  8
L-ZISSEN
100
AcDbLine
 10
103.8265013413812
 20
-2324.863548116537
 30
0.0
 11
103.8265013413812
 21
-2326.446881449871
 31
0.0
  0
LINE
  5
DBCC
330
2
100
AcDbEntity
  8
L-ZISSEN
100
AcDbLine
 10
114.4909344762156
 20
-2315.575991830694
 30
0.0
 11
114.4909344762156
 21
-2320.138906960916
 31
0.0
  0
LINE
  5
DBCD
330
2
100
AcDbEntity
  8
L-ZISSEN
100
AcDbLine
 10
114.4909344762156
 20
-2314.744819573466
 30
0.0
 11
115.701501341379
 21
-2314.571881449871
 31
0.0
  0
LINE
  5
DBCE
330
2
100
AcDbEntity
  8
L-ZISSEN
100
AcDbLine
 10
114.4909344762156
 20
-2315.575991830694
 30
0.0
 11
115.701501341379
 21
-2314.571881449871
 31
0.0
  0
LINE
  5
DBCF
330
2
100
AcDbEntity
  8
L-ZISSEN
100
AcDbLine
 10
116.639001341379
 20
-2321.446881449871
 30
0.0
 11
114.4909344762156
 21
-2320.138906960916
 31
0.0
  0
LINE
  5
DBD0
330
2
100
AcDbEntity
  8
L-ZISSEN
100
AcDbLine
 10
77.2965013413811
 20
-2300.535620361502
 30
0.0
 11
85.72650134138184
 21
-2300.535620361502
 31
0.0
  0
LINE
  5
DBD1
330
2
100
AcDbEntity
  8
L-ZISSEN
100
AcDbLine
 10
77.2965013413811
 20
-2300.535620361502
 30
0.0
 11
77.2965013413811
 21
-2368.535620361501
 31
0.0
  0
LINE
  5
DBD2
330
2
100
AcDbEntity
  8
L-ZISSEN
100
AcDbLine
 10
72.5765013413813
 20
-2376.600565493859
 30
0.0
 11
72.5765013413813
 21
-2290.196881449871
 31
0.0
  0
LINE
  5
DBD3
330
2
100
AcDbEntity
  8
L-ZISSEN
100
AcDbLine
 10
116.639001341379
 20
-2290.196881449871
 30
0.0
 11
116.639001341379
 21
-2328.946881449871
 31
0.0
  0
LINE
  5
DBD4
330
2
100
AcDbEntity
  8
L-ZISSEN
100
AcDbLine
 10
88.51400134137902
 20
-2290.196881449871
 30
0.0
 11
88.51400134137902
 21
-2328.946881449871
 31
0.0
  0
LINE
  5
DBD5
330
2
100
AcDbEntity
  8
L-ZISSEN
100
AcDbLine
 10
85.72650134138184
 20
-2300.535620361502
 30
0.0
 11
85.72650134138184
 21
-2368.535620361502
 31
0.0
  0
LINE
  5
DBD6
330
2
100
AcDbEntity
  8
L-ZISSEN
100
AcDbLine
 10
127.8565013413815
 20
-2300.535620361502
 30
0.0
 11
127.8565013413815
 21
-2368.535620361501
 31
0.0
  0
LINE
  5
DBD7
330
2
100
AcDbEntity
  8
L-ZISSEN
100
AcDbLine
 10
119.4265013413807
 20
-2300.535620361502
 30
0.0
 11
119.4265013413807
 21
-2368.535620361502
 31
0.0
  0
LINE
  5
DBD8
330
2
100
AcDbEntity
  8
L-ZISSEN
100
AcDbLine
 10
132.5765013413789
 20
-2376.60056549386
 30
0.0
 11
132.5765013413812
 21
-2290.19688144987
 31
0.0
  0
LINE
  5
DBD9
330
2
100
AcDbEntity
  8
L-ZISSEN
100
AcDbLine
 10
110.7015013413813
 20
-2298.94688144987
 30
0.0
 11
113.8265013413813
 21
-2297.07188144987
 31
0.0
  0
LINE
  5
DBDA
330
2
100
AcDbEntity
  8
L-ZISSEN
100
AcDbLine
 10
110.7015013413813
 20
-2295.19688144987
 30
0.0
 11
113.8265013413813
 21
-2297.07188144987
 31
0.0
  0
LINE
  5
DBDB
330
2
100
AcDbEntity
  8
L-ZISSEN
100
AcDbLine
 10
99.45150134138131
 20
-2296.446881449871
 30
0.0
 11
94.45150134138129
 21
-2296.446881449871
 31
0.0
  0
LINE
  5
DBDC
330
2
100
AcDbEntity
  8
L-ZISSEN
100
AcDbLine
 10
99.45150134138131
 20
-2296.446881449871
 30
0.0
 11
94.45150134138129
 21
-2296.446881449871
 31
0.0
  0
LINE
  5
DBDD
330
2
100
AcDbEntity
  8
L-ZISSEN
100
AcDbLine
 10
99.45150134138131
 20
-2297.696881449871
 30
0.0
 11
94.45150134138129
 21
-2297.696881449871
 31
0.0
  0
LINE
  5
DBDE
330
2
100
AcDbEntity
  8
L-ZISSEN
100
AcDbLine
 10
99.45150134138131
 20
-2297.696881449871
 30
0.0
 11
94.45150134138129
 21
-2297.696881449871
 31
0.0
  0
LINE
  5
DBDF
330
2
100
AcDbEntity
  8
L-ZISSEN
100
AcDbLine
 10
89.45150134137902
 20
-2290.196881449871
 30
0.0
 11
89.45150134137902
 21
-2314.571881449871
 31
0.0
  0
LINE
  5
DBE0
330
2
100
AcDbEntity
  8
L-ZISSEN
100
AcDbLine
 10
88.51400134137902
 20
-2290.196881449871
 30
0.0
 11
88.51400134137902
 21
-2313.986156817004
 31
0.0
  0
LINE
  5
DBE1
330
2
100
AcDbEntity
  8
L-ZISSEN
100
AcDbLine
 10
94.45150134138129
 20
-2297.696881449871
 30
0.0
 11
94.45150134138129
 21
-2298.946881449871
 31
0.0
  0
LINE
  5
DBE2
330
2
100
AcDbEntity
  8
L-ZISSEN
100
AcDbLine
 10
94.45150134138129
 20
-2296.446881449871
 30
0.0
 11
94.45150134138129
 21
-2295.196881449871
 31
0.0
  0
LINE
  5
DBE3
330
2
100
AcDbEntity
  8
L-ZISSEN
100
AcDbLine
 10
94.45150134138129
 20
-2298.946881449871
 30
0.0
 11
91.32650134138129
 21
-2297.071881449871
 31
0.0
  0
LINE
  5
DBE4
330
2
100
AcDbEntity
  8
L-ZISSEN
100
AcDbLine
 10
94.45150134138129
 20
-2295.196881449871
 30
0.0
 11
91.32650134138129
 21
-2297.071881449871
 31
0.0
  0
LINE
  5
DBE5
330
2
100
AcDbEntity
  8
L-ZISSEN
100
AcDbLine
 10
106.3265013413835
 20
-2303.94688144987
 30
0.0
 11
102.5765013413835
 21
-2310.19688144987
 31
0.0
  0
LINE
  5
DBE6
330
2
100
AcDbEntity
  8
L-ZISSEN
100
AcDbLine
 10
103.8265013413835
 20
-2303.94688144987
 30
0.0
 11
106.3265013413835
 21
-2303.94688144987
 31
0.0
  0
LINE
  5
DBE7
330
2
100
AcDbEntity
  8
L-ZISSEN
100
AcDbLine
 10
103.8265013413835
 20
-2293.94688144987
 30
0.0
 11
101.3265013413835
 21
-2293.94688144987
 31
0.0
  0
LINE
  5
DBE8
330
2
100
AcDbEntity
  8
L-ZISSEN
100
AcDbLine
 10
99.45150134138131
 20
-2296.446881449871
 30
0.0
 11
99.45150134138131
 21
-2297.696881449871
 31
0.0
  0
LINE
  5
DBE9
330
2
100
AcDbEntity
  8
L-ZISSEN
100
AcDbLine
 10
101.3265013413835
 20
-2293.94688144987
 30
0.0
 11
101.3265013413835
 21
-2303.94688144987
 31
0.0
  0
LINE
  5
DBEA
330
2
100
AcDbEntity
  8
L-ZISSEN
100
AcDbLine
 10
101.3265013413835
 20
-2293.94688144987
 30
0.0
 11
101.3265013413835
 21
-2303.94688144987
 31
0.0
  0
LINE
  5
DBEB
330
2
100
AcDbEntity
  8
L-ZISSEN
100
AcDbLine
 10
103.8265013413835
 20
-2293.94688144987
 30
0.0
 11
103.8265013413835
 21
-2303.94688144987
 31
0.0
  0
LINE
  5
DBEC
330
2
100
AcDbEntity
  8
L-ZISSEN
100
AcDbLine
 10
103.8265013413835
 20
-2293.94688144987
 30
0.0
 11
103.8265013413835
 21
-2303.94688144987
 31
0.0
  0
SOLID
  5
DBED
330
2
100
AcDbEntity
  8
L-ZISSEN
100
AcDbTrace
 10
100.7553727263891
 20
-2291.088285779436
 30
0.0
 11
101.1429162178694
 21
-2291.630738069187
 31
0.0
 12
102.5765013413812
 22
-2290.19688144987
 32
0.0
 13
102.5765013413812
 23
-2290.19688144987
 33
0.0
  0
LINE
  5
DBEE
330
2
100
AcDbEntity
  8
L-ZISSEN
100
AcDbLine
 10
98.82650134138359
 20
-2303.94688144987
 30
0.0
 11
102.5765013413835
 21
-2310.19688144987
 31
0.0
  0
LINE
  5
DBEF
330
2
100
AcDbEntity
  8
L-ZISSEN
100
AcDbLine
 10
101.3265013413835
 20
-2303.94688144987
 30
0.0
 11
98.82650134138359
 21
-2303.94688144987
 31
0.0
  0
LINE
  5
DBF0
330
2
100
AcDbEntity
  8
L-ZISSEN
100
AcDbLine
 10
110.7015013413813
 20
-2297.69688144987
 30
0.0
 11
110.7015013413813
 21
-2298.94688144987
 31
0.0
  0
LINE
  5
DBF1
330
2
100
AcDbEntity
  8
L-ZISSEN
100
AcDbLine
 10
110.7015013413813
 20
-2296.44688144987
 30
0.0
 11
110.7015013413813
 21
-2295.19688144987
 31
0.0
  0
LINE
  5
DBF2
330
2
100
AcDbEntity
  8
L-ZISSEN
100
AcDbLine
 10
105.7015013413812
 20
-2296.44688144987
 30
0.0
 11
105.7015013413812
 21
-2297.69688144987
 31
0.0
  0
LINE
  5
DBF3
330
2
100
AcDbEntity
  8
L-ZISSEN
100
AcDbLine
 10
105.7015013413812
 20
-2296.44688144987
 30
0.0
 11
110.7015013413813
 21
-2296.44688144987
 31
0.0
  0
LINE
  5
DBF4
330
2
100
AcDbEntity
  8
L-ZISSEN
100
AcDbLine
 10
105.7015013413812
 20
-2296.44688144987
 30
0.0
 11
110.7015013413813
 21
-2296.44688144987
 31
0.0
  0
LINE
  5
DBF5
330
2
100
AcDbEntity
  8
L-ZISSEN
100
AcDbLine
 10
105.7015013413812
 20
-2297.69688144987
 30
0.0
 11
110.7015013413813
 21
-2297.69688144987
 31
0.0
  0
LINE
  5
DBF6
330
2
100
AcDbEntity
  8
L-ZISSEN
100
AcDbLine
 10
105.7015013413812
 20
-2297.69688144987
 30
0.0
 11
110.7015013413813
 21
-2297.69688144987
 31
0.0
  0
LINE
  5
DBF7
330
2
100
AcDbEntity
  8
L-ZISSEN
100
AcDbLine
 10
127.8565013413815
 20
-2300.535620361502
 30
0.0
 11
119.4265013413807
 21
-2300.535620361502
 31
0.0
  0
LINE
  5
DBF8
330
2
100
AcDbEntity
  8
L-ZISSEN
100
AcDbLine
 10
116.639001341379
 20
-2290.196881449871
 30
0.0
 11
116.639001341379
 21
-2313.986156817004
 31
0.0
  0
LINE
  5
DBF9
330
2
100
AcDbEntity
  8
L-ZISSEN
100
AcDbLine
 10
115.701501341379
 20
-2290.196881449871
 30
0.0
 11
115.701501341379
 21
-2314.571881449871
 31
0.0
  0
LINE
  5
DBFA
330
2
100
AcDbEntity
  8
L-ZISSEN
100
AcDbLine
 10
100.9491444721292
 20
-2291.359511924312
 30
0.0
 11
55.55225528325293
 21
-2323.792353062627
 31
0.0
  0
TEXT
  5
DBFC
330
2
100
AcDbEntity
  8
L-ZISSEN
100
AcDbText
 10
114.1181831755982
 20
-2008.671428185065
 30
0.0
 40
4.5
  1
6
100
AcDbText
  0
TEXT
  5
DBFD
330
2
100
AcDbEntity
  8
L-ZISSEN
100
AcDbText
 10
114.1181831755982
 20
-2015.028446471098
 30
0.0
 40
4.5
  1
8
100
AcDbText
  0
TEXT
  5
DC22
330
2
100
AcDbEntity
  8
L-ZISSEN
100
AcDbText
 10
279.5725530167359
 20
-1990.004751635544
 30
0.0
 40
4.5
  1
6
100
AcDbText
  0
TEXT
  5
DC23
330
2
100
AcDbEntity
  8
L-ZISSEN
100
AcDbText
 10
279.5725530167359
 20
-1996.361769921577
 30
0.0
 40
4.5
  1
8
100
AcDbText
  0
TEXT
  5
DC24
330
2
100
AcDbEntity
  8
L-ZISSEN
100
AcDbText
 10
279.5725530167359
 20
-2238.140237474666
 30
0.0
 40
4.5
  1
8
100
AcDbText
  0
TEXT
  5
DC25
330
2
100
AcDbEntity
  8
L-ZISSEN
100
AcDbText
 10
279.5725530167359
 20
-2231.783219188633
 30
0.0
 40
4.5
  1
6
100
AcDbText
  0
LINE
  5
DCB7
330
2
100
AcDbEntity
  8
L-SOUZOU
100
AcDbLine
 10
57.57650134138085
 20
-2200.196881449869
 30
0.0
 11
147.5765013413808
 21
-2200.196881449869
 31
0.0
  0
LINE
  5
DCB8
330
2
100
AcDbEntity
  8
L-SOUZOU
100
AcDbLine
 10
57.57650134138085
 20
-2197.196881449869
 30
0.0
 11
147.5765013413808
 21
-2197.196881449869
 31
0.0
  0
LINE
  5
DCBA
330
2
100
AcDbEntity
  8
L-SOUZOU
100
AcDbLine
 10
57.57650134138085
 20
-2200.196881449869
 30
0.0
 11
57.57650134138085
 21
-2141.196881449869
 31
0.0
  0
LINE
  5
DCBB
330
2
100
AcDbEntity
  8
L-SOUZOU
100
AcDbLine
 10
61.57650134138084
 20
-2137.196881449869
 30
0.0
 11
143.5765013413808
 21
-2137.196881449868
 31
0.0
  0
LINE
  5
DCBC
330
2
100
AcDbEntity
  8
L-SOUZOU
100
AcDbLine
 10
147.5765013413808
 20
-2141.196881449868
 30
0.0
 11
147.5765013413808
 21
-2200.196881449869
 31
0.0
  0
LINE
  5
DCBF
330
2
100
AcDbEntity
  8
L-SOUZOU
100
AcDbLine
 10
57.57650134138085
 20
-2141.196881449869
 30
0.0
 11
61.57650134138084
 21
-2137.196881449869
 31
0.0
  0
LINE
  5
DCC0
330
2
100
AcDbEntity
  8
L-SOUZOU
100
AcDbLine
 10
147.5765013413808
 20
-2141.196881449868
 30
0.0
 11
143.5765013413808
 21
-2137.196881449868
 31
0.0
  0
ARC
  5
DCC9
330
2
100
AcDbEntity
  8
L-SOUZOU
100
AcDbCircle
 10
68.57650134138085
 20
-2149.196881449868
 30
0.0
 40
6.0
100
AcDbArc
 50
90.0
 51
270.0
  0
ARC
  5
DCCB
330
2
100
AcDbEntity
  8
L-SOUZOU
100
AcDbCircle
 10
70.57650134138085
 20
-2149.196881449868
 30
0.0
 40
6.0
100
AcDbArc
 50
270.0
 51
90.0
  0
LINE
  5
DCCC
330
2
100
AcDbEntity
  8
L-SOUZOU
100
AcDbLine
 10
68.57650134138085
 20
-2143.196881449868
 30
0.0
 11
70.57650134138085
 21
-2143.196881449868
 31
0.0
  0
LINE
  5
DCCD
330
2
100
AcDbEntity
  8
L-SOUZOU
100
AcDbLine
 10
68.57650134138085
 20
-2155.196881449868
 30
0.0
 11
70.57650134138085
 21
-2155.196881449868
 31
0.0
  0
ARC
  5
DCEE
330
2
100
AcDbEntity
  8
L-SOUZOU
100
AcDbCircle
 10
136.5765013413808
 20
-2149.196881449868
 30
0.0
 40
6.0
100
AcDbArc
 50
270.0
 51
90.0
  0
ARC
  5
DCEF
330
2
100
AcDbEntity
  8
L-SOUZOU
100
AcDbCircle
 10
134.5765013413808
 20
-2149.196881449868
 30
0.0
 40
6.0
100
AcDbArc
 50
90.0
 51
270.0
  0
LINE
  5
DCF0
330
2
100
AcDbEntity
  8
L-SOUZOU
100
AcDbLine
 10
136.5765013413808
 20
-2143.196881449868
 30
0.0
 11
134.5765013413808
 21
-2143.196881449868
 31
0.0
  0
LINE
  5
DCF1
330
2
100
AcDbEntity
  8
L-SOUZOU
100
AcDbLine
 10
136.5765013413808
 20
-2155.196881449868
 30
0.0
 11
134.5765013413808
 21
-2155.196881449868
 31
0.0
  0
LINE
  5
DD28
330
2
100
AcDbEntity
  8
L-SOUZOU
100
AcDbLine
 10
-161.4234991312089
 20
-2197.196881449869
 30
0.0
 11
-121.4234991312089
 21
-2197.196881449869
 31
0.0
  0
LINE
  5
DD29
330
2
100
AcDbEntity
  8
L-SOUZOU
100
AcDbLine
 10
-164.4234991312089
 20
-2200.196881449869
 30
0.0
 11
-121.4234991312089
 21
-2200.196881449869
 31
0.0
  0
LINE
  5
DD2A
330
2
100
AcDbEntity
  8
L-SOUZOU
100
AcDbLine
 10
-164.4234991312089
 20
-2137.196881449869
 30
0.0
 11
-161.4234991312089
 21
-2137.196881449869
 31
0.0
  0
LINE
  5
DD2B
330
2
100
AcDbEntity
  8
L-SOUZOU
100
AcDbLine
 10
-164.4234991312089
 20
-2137.196881449869
 30
0.0
 11
-164.4234991312089
 21
-2200.196881449869
 31
0.0
  0
LINE
  5
DD2C
330
2
100
AcDbEntity
  8
L-SOUZOU
100
AcDbLine
 10
-161.4234991312089
 20
-2137.196881449869
 30
0.0
 11
-161.4234991312089
 21
-2197.196881449869
 31
0.0
  0
LINE
  5
DD2D
330
2
100
AcDbEntity
  8
L-SOUZOU
100
AcDbLine
 10
-121.4234991312089
 20
-2197.196881449869
 30
0.0
 11
-121.4234991312089
 21
-2200.196881449869
 31
0.0
  0
LINE
  5
DD2E
330
2
100
AcDbEntity
  8
L-SOUZOU
100
AcDbLine
 10
-164.4234991312085
 20
-1939.19688144987
 30
0.0
 11
-128.9234991312085
 21
-1939.19688144987
 31
0.0
  0
LINE
  5
DD2F
330
2
100
AcDbEntity
  8
L-SOUZOU
100
AcDbLine
 10
-128.9234991312088
 20
-2029.19688144987
 30
0.0
 11
-164.4234991312085
 21
-2029.19688144987
 31
0.0
  0
LINE
  5
DD30
330
2
100
AcDbEntity
  8
L-SOUZOU
100
AcDbLine
 10
-128.9234991312085
 20
-2029.19688144987
 30
0.0
 11
-121.4234991312085
 21
-2021.19688144987
 31
0.0
  0
LINE
  5
DD31
330
2
100
AcDbEntity
  8
L-SOUZOU
100
AcDbLine
 10
-136.4234991312085
 20
-2007.69688144987
 30
0.0
 11
-136.4234991312085
 21
-1960.69688144987
 31
0.0
  0
LINE
  5
DD33
330
2
100
AcDbEntity
  8
L-SOUZOU
100
AcDbLine
 10
-121.4234991312088
 20
-2021.19688144987
 30
0.0
 11
-121.4234991312085
 21
-2011.69688144987
 31
0.0
  0
LINE
  5
DD34
330
2
100
AcDbEntity
  8
L-SOUZOU
100
AcDbLine
 10
-136.4234991312085
 20
-2007.69688144987
 30
0.0
 11
-121.4234991312085
 21
-2011.69688144987
 31
0.0
  0
LINE
  5
DD36
330
2
100
AcDbEntity
  8
L-SOUZOU
100
AcDbLine
 10
-121.4234991312083
 20
-1956.69688144987
 30
0.0
 11
-121.4234991312081
 21
-1947.196881449871
 31
0.0
  0
LINE
  5
DD37
330
2
100
AcDbEntity
  8
L-SOUZOU
100
AcDbLine
 10
-136.4234991312085
 20
-1960.69688144987
 30
0.0
 11
-121.4234991312085
 21
-1956.69688144987
 31
0.0
  0
LINE
  5
DD38
330
2
100
AcDbEntity
  8
L-SOUZOU
100
AcDbLine
 10
-128.9234991312085
 20
-1939.19688144987
 30
0.0
 11
-121.4234991312085
 21
-1947.19688144987
 31
0.0
  0
LINE
  5
DD39
330
2
100
AcDbEntity
  8
L-SOUZOU
100
AcDbLine
 10
-164.4234991312085
 20
-2029.19688144987
 30
0.0
 11
-164.4234991312085
 21
-1939.19688144987
 31
0.0
  0
LINE
  5
DD3A
330
2
100
AcDbEntity
  8
L-SOUZOU
100
AcDbLine
 10
-161.4234991312085
 20
-1939.19688144987
 30
0.0
 11
-161.4234991312085
 21
-2029.19688144987
 31
0.0
  0
LINE
  5
DD55
330
2
100
AcDbEntity
  8
L-TYUSIN
100
AcDbLine
 10
81.57650134138085
 20
-2149.196881449868
 30
0.0
 11
57.57650134138085
 21
-2149.196881449868
 31
0.0
  0
LINE
  5
DD56
330
2
100
AcDbEntity
  8
L-TYUSIN
100
AcDbLine
 10
69.57650134138084
 20
-2138.196881449868
 30
0.0
 11
69.57650134138084
 21
-2160.196881449868
 31
0.0
  0
LINE
  5
DD57
330
2
100
AcDbEntity
  8
L-TYUSIN
100
AcDbLine
 10
135.5765013413808
 20
-2138.196881449868
 30
0.0
 11
135.5765013413808
 21
-2160.196881449868
 31
0.0
  0
LINE
  5
DD58
330
2
100
AcDbEntity
  8
L-TYUSIN
100
AcDbLine
 10
147.5765013413808
 20
-2149.196881449868
 30
0.0
 11
123.5765013413808
 21
-2149.196881449868
 31
0.0
  0
LINE
  5
DD59
330
2
100
AcDbEntity
  8
L-TYUSIN
100
AcDbLine
 10
-156.4234991312089
 20
-2149.196881449868
 30
0.0
 11
-169.4234991312089
 21
-2149.196881449868
 31
0.0
  0
LINE
  5
DD5B
330
2
100
AcDbEntity
  8
L-TYUSIN
100
AcDbLine
 10
-169.4234991312085
 20
-2017.196881449871
 30
0.0
 11
-156.4234991312085
 21
-2017.196881449871
 31
0.0
  0
LINE
  5
DD5C
330
2
100
AcDbEntity
  8
L-TYUSIN
100
AcDbLine
 10
-169.4234991312085
 20
-1951.19688144987
 30
0.0
 11
-156.4234991312085
 21
-1951.19688144987
 31
0.0
  0
TEXT
  5
DDAB
330
2
100
AcDbEntity
  8
L-ZISSEN
100
AcDbText
 10
138.9445617429264
 20
-2015.028446471098
 30
0.0
 40
4.5
  1
5
100
AcDbText
  0
TEXT
  5
DDAC
330
2
100
AcDbEntity
  8
L-ZISSEN
100
AcDbText
 10
139.5654283865153
 20
-2008.671428185065
 30
0.0
 40
4.5
  1
1
100
AcDbText
  0
VIEWPORT
  5
69B
330
F
100
AcDbEntity
 67
     1
  8
0
100
AcDbViewport
 10
0.0
 20
0.0
 30
0.0
 40
0.0
 41
0.0
 68
     1
 69
     1
1001
ACAD
1000
MVIEW
1002
{
1070
    16
1010
0.0
1020
0.0
1030
0.0
1010
0.0
1020
0.0
1030
1.0
1040
0.0
1040
0.0
1040
0.0
1040
0.0
1040
50.0
1040
0.0
1040
0.0
1070
     0
1070
   100
1070
     1
1070
     1
1070
     0
1070
     0
1070
     0
1070
     0
1040
0.0
1040
0.0
1040
0.0
1040
10.0
1040
10.0
1040
10.0
1040
10.0
1070
     0
1002
{
1002
}
1002
}
  0
VIEWPORT
  5
69D
330
F
100
AcDbEntity
 67
     1
  8
SUNPOU
100
AcDbViewport
 10
0.0
 20
0.0
 30
0.0
 40
0.0
 41
0.0
 68
    -1
 69
     2
1001
ACAD
1000
MVIEW
1002
{
1070
    16
1010
0.0
1020
0.0
1030
0.0
1010
0.0
1020
0.0
1030
1.0
1040
0.0
1040
59.8802181911947
1040
144.5109310282361
1040
-1209.648178221134
1040
50.0
1040
0.0
1040
0.0
1070
    16
1070
   100
1070
     1
1070
     0
1070
     0
1070
     0
1070
     0
1070
     0
1040
0.0
1040
0.0
1040
0.0
1040
1.0
1040
1.0
1040
4.0
1040
4.0
1070
     0
1002
{
1002
}
1002
}
  0
ENDSEC
  0
SECTION
  2
OBJECTS
  0
DICTIONARY
  5
9
330
0
100
AcDbDictionary
  3
ACAD_GROUP
350
23
  3
ACAD_LAYOUT
350
E
  3
ACAD_MLINESTYLE
350
24
  3
ACAD_PLOTSETTINGS
350
25
1001
ACAD
1000
TREAT_AS_HARD
1070
     0
  0
DICTIONARY
  5
8E1
330
15
100
AcDbDictionary
  3
ACAD_LAYERSTATES
350
8E2
1001
ACAD
1000
TREAT_AS_HARD
1070
     1
  0
DICTIONARY
  5
3
330
2
100
AcDbDictionary
  3
ACAD_LAYOUTSELFREF
350
DDF5
1001
ACAD
1000
TREAT_AS_HARD
1070
     1
  0
DICTIONARY
  5
10
330
F
100
AcDbDictionary
  3
ACAD_LAYOUTSELFREF
350
DDF6
1001
ACAD
1000
TREAT_AS_HARD
1070
     1
  0
DICTIONARY
  5
23
102
{ACAD_REACTORS
330
9
102
}
330
9
100
AcDbDictionary
1001
ACAD
1000
TREAT_AS_HARD
1070
     0
  0
DICTIONARY
  5
E
102
{ACAD_REACTORS
330
9
102
}
330
9
100
AcDbDictionary
1001
ACAD
1000
TREAT_AS_HARD
1070
     0
  0
DICTIONARY
  5
24
102
{ACAD_REACTORS
330
9
102
}
330
9
100
AcDbDictionary
  3
STANDARD
350
27
1001
ACAD
1000
TREAT_AS_HARD
1070
     0
  0
DICTIONARY
  5
25
102
{ACAD_REACTORS
330
9
102
}
330
9
100
AcDbDictionary
1001
ACAD
1000
TREAT_AS_HARD
1070
     0
  0
DICTIONARY
  5
8E2
102
{ACAD_REACTORS
330
8E1
102
}
330
8E1
100
AcDbDictionary
1001
ACAD
1000
TREAT_AS_HARD
1070
     0
  0
XRECORD
  5
DDF5
102
{ACAD_REACTORS
330
3
102
}
330
3
100
AcDbXrecord
340
2
  0
XRECORD
  5
DDF6
102
{ACAD_REACTORS
330
10
102
}
330
10
100
AcDbXrecord
340
F
  0
MLINESTYLE
  5
27
102
{ACAD_REACTORS
330
24
102
}
330
24
100
AcDbMlineStyle
  2
STANDARD
 70
     0
  3

 62
   256
 51
90.0
 52
90.0
 71
     2
 49
0.5
 62
   256
  6
BYLAYER
 49
-0.5
 62
   256
  6
BYLAYER
  0
ENDSEC
  0
EOF
