  0
SECTION
  2
HEADER
  9
$ACADVER
  1
AC1012
  9
$DWGCODEPAGE
  3
dos932
  9
$INSBASE
 10
0.0
 20
0.0
 30
0.0
  9
$EXTMIN
 10
157.9051241967632
 20
-2863.002779838222
 30
0.0
  9
$EXTMAX
 10
697.8780628503716
 20
-2413.002736611208
 30
0.0
  9
$LIMMIN
 10
0.0
 20
0.0
  9
$LIMMAX
 10
297.0
 20
210.0
  9
$ORTHOMODE
 70
     1
  9
$REGENMODE
 70
     1
  9
$FILLMODE
 70
     1
  9
$QTEXTMODE
 70
     0
  9
$MIRRTEXT
 70
     1
  9
$DRAGMODE
 70
     2
  9
$LTSCALE
 40
1.0
  9
$OSMODE
 70
    39
  9
$ATTMODE
 70
     1
  9
$TEXTSIZE
 40
5.599999999999999
  9
$TRACEWID
 40
0.05
  9
$TEXTSTYLE
  7
STANDARD
  9
$CLAYER
  8
L-ZISSEN
  9
$CELTYPE
  6
BYLAYER
  9
$CECOLOR
 62
   256
  9
$CELTSCALE
 40
1.0
  9
$DELOBJ
 70
     1
  9
$DISPSILH
 70
     0
  9
$DIMSCALE
 40
2.0
  9
$DIMASZ
 40
2.0
  9
$DIMEXO
 40
1.0
  9
$DIMDLI
 40
8.0
  9
$DIMRND
 40
0.0
  9
$DIMDLE
 40
0.0
  9
$DIMEXE
 40
0.8
  9
$DIMTP
 40
0.0
  9
$DIMTM
 40
0.0
  9
$DIMTXT
 40
2.799999999999999
  9
$DIMCEN
 40
0.0
  9
$DIMTSZ
 40
0.0
  9
$DIMTOL
 70
     0
  9
$DIMLIM
 70
     0
  9
$DIMTIH
 70
     0
  9
$DIMTOH
 70
     0
  9
$DIMSE1
 70
     0
  9
$DIMSE2
 70
     0
  9
$DIMTAD
 70
     0
  9
$DIMZIN
 70
    12
  9
$DIMBLK
  1

  9
$DIMASO
 70
     1
  9
$DIMSHO
 70
     0
  9
$DIMPOST
  1

  9
$DIMAPOST
  1

  9
$DIMALT
 70
     0
  9
$DIMALTD
 70
     2
  9
$DIMALTF
 40
25.4
  9
$DIMLFAC
 40
1.0
  9
$DIMTOFL
 70
     1
  9
$DIMTVP
 40
1.0
  9
$DIMTIX
 70
     1
  9
$DIMSOXD
 70
     0
  9
$DIMSAH
 70
     0
  9
$DIMBLK1
  1

  9
$DIMBLK2
  1

  9
$DIMSTYLE
  2
STANDARD
  9
$DIMCLRD
 70
     0
  9
$DIMCLRE
 70
     0
  9
$DIMCLRT
 70
     0
  9
$DIMTFAC
 40
1.0
  9
$DIMGAP
 40
0.8
  9
$DIMJUST
 70
     0
  9
$DIMSD1
 70
     0
  9
$DIMSD2
 70
     0
  9
$DIMTOLJ
 70
     1
  9
$DIMTZIN
 70
     0
  9
$DIMALTZ
 70
     0
  9
$DIMALTTZ
 70
     0
  9
$DIMFIT
 70
     3
  9
$DIMUPT
 70
     0
  9
$DIMUNIT
 70
     2
  9
$DIMDEC
 70
     8
  9
$DIMTDEC
 70
     8
  9
$DIMALTU
 70
     2
  9
$DIMALTTD
 70
     2
  9
$DIMTXSTY
  7
STANDARD
  9
$DIMAUNIT
 70
     0
  9
$LUNITS
 70
     2
  9
$LUPREC
 70
     4
  9
$SKETCHINC
 40
0.1
  9
$FILLETRAD
 40
1.5
  9
$AUNITS
 70
     0
  9
$AUPREC
 70
     0
  9
$MENU
  1
.
  9
$ELEVATION
 40
0.0
  9
$PELEVATION
 40
0.0
  9
$THICKNESS
 40
0.0
  9
$LIMCHECK
 70
     0
  9
$BLIPMODE
 70
     0
  9
$CHAMFERA
 40
3.0
  9
$CHAMFERB
 40
3.0
  9
$CHAMFERC
 40
0.0
  9
$CHAMFERD
 40
0.0
  9
$SKPOLY
 70
     0
  9
$TDCREATE
 40
2453354.092125822
  9
$TDUPDATE
 40
2455065.455327141
  9
$TDINDWG
 40
10.5593380324
  9
$TDUSRTIMER
 40
10.5593380324
  9
$USRTIMER
 70
     1
  9
$ANGBASE
 50
0.0
  9
$ANGDIR
 70
     0
  9
$PDMODE
 70
     0
  9
$PDSIZE
 40
0.0
  9
$PLINEWID
 40
0.0
  9
$COORDS
 70
     2
  9
$SPLFRAME
 70
     0
  9
$SPLINETYPE
 70
     6
  9
$SPLINESEGS
 70
     8
  9
$ATTDIA
 70
     0
  9
$ATTREQ
 70
     1
  9
$HANDLING
 70
-16383
  9
$HANDSEED
  5
D519
  9
$SURFTAB1
 70
     6
  9
$SURFTAB2
 70
     6
  9
$SURFTYPE
 70
     6
  9
$SURFU
 70
     6
  9
$SURFV
 70
     6
  9
$UCSNAME
  2

  9
$UCSORG
 10
0.0
 20
0.0
 30
0.0
  9
$UCSXDIR
 10
1.0
 20
0.0
 30
0.0
  9
$UCSYDIR
 10
0.0
 20
1.0
 30
0.0
  9
$PUCSNAME
  2

  9
$PUCSORG
 10
0.0
 20
0.0
 30
0.0
  9
$PUCSXDIR
 10
1.0
 20
0.0
 30
0.0
  9
$PUCSYDIR
 10
0.0
 20
1.0
 30
0.0
  9
$USERI1
 70
     0
  9
$USERI2
 70
     0
  9
$USERI3
 70
     0
  9
$USERI4
 70
     0
  9
$USERI5
 70
     0
  9
$USERR1
 40
0.0
  9
$USERR2
 40
0.0
  9
$USERR3
 40
0.0
  9
$USERR4
 40
0.0
  9
$USERR5
 40
0.0
  9
$WORLDVIEW
 70
     1
  9
$SHADEDGE
 70
     3
  9
$SHADEDIF
 70
    70
  9
$TILEMODE
 70
     1
  9
$MAXACTVP
 70
    48
  9
$PINSBASE
 10
0.0
 20
0.0
 30
0.0
  9
$PLIMCHECK
 70
     0
  9
$PEXTMIN
 10
0.0
 20
0.0
 30
0.0
  9
$PEXTMAX
 10
0.0
 20
0.0
 30
0.0
  9
$PLIMMIN
 10
0.0
 20
0.0
  9
$PLIMMAX
 10
0.0
 20
0.0
  9
$UNITMODE
 70
     0
  9
$VISRETAIN
 70
     0
  9
$PLINEGEN
 70
     0
  9
$PSLTSCALE
 70
     0
  9
$TREEDEPTH
 70
  3020
  9
$PICKSTYLE
 70
     1
  9
$CMLSTYLE
  2
STANDARD
  9
$CMLJUST
 70
     0
  9
$CMLSCALE
 40
1.0
  9
$SAVEIMAGES
 70
     1
  0
ENDSEC
  0
SECTION
  2
CLASSES
  0
CLASS
  1
ACDBDICTIONARYWDFLT
  2
AcDbDictionaryWithDefault
  3
AutoCAD 2000
 90
    32768
280
     0
281
     0
  0
CLASS
  1
ACDBPLACEHOLDER
  2
AcDbPlaceHolder
  3
AutoCAD 2000
 90
    32768
280
     0
281
     0
  0
CLASS
  1
LAYOUT
  2
AcDbLayout
  3
AutoCAD 2000
 90
    32768
280
     0
281
     0
  0
CLASS
  1
DICTIONARYVAR
  2
AcDbDictionaryVar
  3
AutoCAD 2000
 90
    32768
280
     0
281
     0
  0
CLASS
  1
TABLESTYLE
  2
AcDbTableStyle
  3
ObjectDBX Classes
 90
    34815
280
     1
281
     0
  0
CLASS
  1
ACAD_PROXY_OBJECT_WRAPPER
  2
AcDbProxyObjectWrapper
  3
AutoCAD 2000
 90
    32768
280
     0
281
     0
  0
CLASS
  1
LONG_TRANSACTION
  2
AcDbLongTransaction
  3
AutoCAD 2000
 90
    32768
280
     0
281
     0
  0
CLASS
  1
LWPOLYLINE
  2
AcDbPolyline
  3
AutoCAD 2000
 90
    32768
280
     0
281
     1
  0
CLASS
  1
HATCH
  2
AcDbHatch
  3
AutoCAD 2000
 90
    32768
280
     0
281
     1
  0
CLASS
  1
XRECORD
  2
AcDbXrecord
  3
AutoCAD 2000
 90
    32768
280
     0
281
     0
  0
CLASS
  1
LONG_TRANSACTION
  2
AcDbLongTransaction
  3
AutoCAD 2000
 90
    32768
280
     0
281
     0
  0
CLASS
  1
LWPOLYLINE
  2
AcDbPolyline
  3
AutoCAD 2000
 90
    32768
280
     0
281
     1
  0
CLASS
  1
HATCH
  2
AcDbHatch
  3
AutoCAD 2000
 90
    32768
280
     0
281
     1
  0
CLASS
  1
XRECORD
  2
AcDbXrecord
  3
AutoCAD 2000
 90
    32768
280
     0
281
     0
  0
CLASS
  1
LONG_TRANSACTION
  2
AcDbLongTransaction
  3
AutoCAD 2000
 90
    32768
280
     0
281
     0
  0
CLASS
  1
LWPOLYLINE
  2
AcDbPolyline
  3
AutoCAD 2000
 90
    32768
280
     0
281
     1
  0
CLASS
  1
HATCH
  2
AcDbHatch
  3
AutoCAD 2000
 90
    32768
280
     0
281
     1
  0
CLASS
  1
XRECORD
  2
AcDbXrecord
  3
AutoCAD 2000
 90
    32768
280
     0
281
     0
  0
CLASS
  1
LONG_TRANSACTION
  2
AcDbLongTransaction
  3
AutoCAD 2000
 90
    32768
280
     0
281
     0
  0
CLASS
  1
LWPOLYLINE
  2
AcDbPolyline
  3
AutoCAD 2000
 90
    32768
280
     0
281
     1
  0
CLASS
  1
HATCH
  2
AcDbHatch
  3
AutoCAD 2000
 90
    32768
280
     0
281
     1
  0
CLASS
  1
XRECORD
  2
AcDbXrecord
  3
AutoCAD 2000
 90
    32768
280
     0
281
     0
  0
CLASS
  1
LONG_TRANSACTION
  2
AcDbLongTransaction
  3
AutoCAD 2000
 90
    32768
280
     0
281
     0
  0
CLASS
  1
LWPOLYLINE
  2
AcDbPolyline
  3
AutoCAD 2000
 90
    32768
280
     0
281
     1
  0
CLASS
  1
HATCH
  2
AcDbHatch
  3
AutoCAD 2000
 90
    32768
280
     0
281
     1
  0
CLASS
  1
XRECORD
  2
AcDbXrecord
  3
AutoCAD 2000
 90
    32768
280
     0
281
     0
  0
CLASS
  1
LONG_TRANSACTION
  2
AcDbLongTransaction
  3
AutoCAD 2000
 90
    32768
280
     0
281
     0
  0
CLASS
  1
LWPOLYLINE
  2
AcDbPolyline
  3
AutoCAD 2000
 90
    32768
280
     0
281
     1
  0
CLASS
  1
HATCH
  2
AcDbHatch
  3
AutoCAD 2000
 90
    32768
280
     0
281
     1
  0
CLASS
  1
XRECORD
  2
AcDbXrecord
  3
AutoCAD 2000
 90
    32768
280
     0
281
     0
  0
CLASS
  1
LONG_TRANSACTION
  2
AcDbLongTransaction
  3
AutoCAD 2000
 90
    32768
280
     0
281
     0
  0
CLASS
  1
LWPOLYLINE
  2
AcDbPolyline
  3
AutoCAD 2000
 90
    32768
280
     0
281
     1
  0
CLASS
  1
HATCH
  2
AcDbHatch
  3
AutoCAD 2000
 90
    32768
280
     0
281
     1
  0
CLASS
  1
XRECORD
  2
AcDbXrecord
  3
AutoCAD 2000
 90
    32768
280
     0
281
     0
  0
CLASS
  1
LONG_TRANSACTION
  2
AcDbLongTransaction
  3
AutoCAD 2000
 90
    32768
280
     0
281
     0
  0
CLASS
  1
LWPOLYLINE
  2
AcDbPolyline
  3
AutoCAD 2000
 90
    32768
280
     0
281
     1
  0
CLASS
  1
HATCH
  2
AcDbHatch
  3
AutoCAD 2000
 90
    32768
280
     0
281
     1
  0
CLASS
  1
XRECORD
  2
AcDbXrecord
  3
AutoCAD 2000
 90
    32768
280
     0
281
     0
  0
CLASS
  1
LONG_TRANSACTION
  2
AcDbLongTransaction
  3
AutoCAD 2000
 90
    32768
280
     0
281
     0
  0
CLASS
  1
LWPOLYLINE
  2
AcDbPolyline
  3
AutoCAD 2000
 90
    32768
280
     0
281
     1
  0
CLASS
  1
HATCH
  2
AcDbHatch
  3
AutoCAD 2000
 90
    32768
280
     0
281
     1
  0
CLASS
  1
XRECORD
  2
AcDbXrecord
  3
AutoCAD 2000
 90
    32768
280
     0
281
     0
  0
CLASS
  1
LONG_TRANSACTION
  2
AcDbLongTransaction
  3
AutoCAD 2000
 90
    32768
280
     0
281
     0
  0
CLASS
  1
LWPOLYLINE
  2
AcDbPolyline
  3
AutoCAD 2000
 90
    32768
280
     0
281
     1
  0
CLASS
  1
HATCH
  2
AcDbHatch
  3
AutoCAD 2000
 90
    32768
280
     0
281
     1
  0
CLASS
  1
XRECORD
  2
AcDbXrecord
  3
AutoCAD 2000
 90
    32768
280
     0
281
     0
  0
CLASS
  1
LONG_TRANSACTION
  2
AcDbLongTransaction
  3
AutoCAD 2000
 90
    32768
280
     0
281
     0
  0
CLASS
  1
LWPOLYLINE
  2
AcDbPolyline
  3
AutoCAD 2000
 90
    32768
280
     0
281
     1
  0
CLASS
  1
HATCH
  2
AcDbHatch
  3
AutoCAD 2000
 90
    32768
280
     0
281
     1
  0
CLASS
  1
XRECORD
  2
AcDbXrecord
  3
AutoCAD 2000
 90
    32768
280
     0
281
     0
  0
CLASS
  1
LONG_TRANSACTION
  2
AcDbLongTransaction
  3
AutoCAD 2000
 90
    32768
280
     0
281
     0
  0
CLASS
  1
LWPOLYLINE
  2
AcDbPolyline
  3
AutoCAD 2000
 90
    32768
280
     0
281
     1
  0
CLASS
  1
HATCH
  2
AcDbHatch
  3
AutoCAD 2000
 90
    32768
280
     0
281
     1
  0
CLASS
  1
XRECORD
  2
AcDbXrecord
  3
AutoCAD 2000
 90
    32768
280
     0
281
     0
  0
CLASS
  1
LONG_TRANSACTION
  2
AcDbLongTransaction
  3
AutoCAD 2000
 90
    32768
280
     0
281
     0
  0
CLASS
  1
LWPOLYLINE
  2
AcDbPolyline
  3
AutoCAD 2000
 90
    32768
280
     0
281
     1
  0
CLASS
  1
HATCH
  2
AcDbHatch
  3
AutoCAD 2000
 90
    32768
280
     0
281
     1
  0
CLASS
  1
XRECORD
  2
AcDbXrecord
  3
AutoCAD 2000
 90
    32768
280
     0
281
     0
  0
CLASS
  1
LONG_TRANSACTION
  2
AcDbLongTransaction
  3
AutoCAD 2000
 90
    32768
280
     0
281
     0
  0
CLASS
  1
LWPOLYLINE
  2
AcDbPolyline
  3
AutoCAD 2000
 90
    32768
280
     0
281
     1
  0
CLASS
  1
HATCH
  2
AcDbHatch
  3
AutoCAD 2000
 90
    32768
280
     0
281
     1
  0
CLASS
  1
XRECORD
  2
AcDbXrecord
  3
AutoCAD 2000
 90
    32768
280
     0
281
     0
  0
ENDSEC
  0
SECTION
  2
TABLES
  0
TABLE
  2
VPORT
  5
1E
330
0
100
AcDbSymbolTable
 70
     3
  0
VPORT
  5
D508
330
1E
100
AcDbSymbolTableRecord
100
AcDbViewportTableRecord
  2
*ACTIVE
 70
     0
 10
0.0
 20
0.0
 11
1.0
 21
1.0
 12
427.8756683747825
 22
-2638.069039858187
 13
0.0
 23
0.0
 14
1.0
 24
1.0
 15
4.0
 25
4.0
 16
0.0
 26
0.0
 36
1.0
 17
0.0
 27
0.0
 37
0.0
 40
453.0002228629983
 41
1.60759493670886
 42
50.0
 43
0.0
 44
0.0
 50
0.0
 51
0.0
 71
    16
 72
   100
 73
     1
 74
     0
 75
     0
 76
     0
 77
     0
 78
     0
  0
ENDTAB
  0
TABLE
  2
LTYPE
  5
19
330
0
100
AcDbSymbolTable
 70
     3
  0
LTYPE
  5
1A
330
19
100
AcDbSymbolTableRecord
100
AcDbLinetypeTableRecord
  2
BYBLOCK
 70
     0
  3

 72
    65
 73
     0
 40
0.0
  0
LTYPE
  5
1B
330
19
100
AcDbSymbolTableRecord
100
AcDbLinetypeTableRecord
  2
BYLAYER
 70
     0
  3

 72
    65
 73
     0
 40
0.0
  0
LTYPE
  5
B
330
19
100
AcDbSymbolTableRecord
100
AcDbLinetypeTableRecord
  2
CONTINUOUS
 70
     0
  3
Solid line
 72
    65
 73
     0
 40
0.0
  0
LTYPE
  5
32
330
19
100
AcDbSymbolTableRecord
100
AcDbLinetypeTableRecord
  2
CENTER
 70
     0
  3

 72
    65
 73
     4
 40
18.0
 49
15.0
 74
     4
 75
     0
340
0
 46
1.0
 50
0.0
 44
0.0
 45
0.0
 49
-1.0
 74
     4
 75
     0
340
0
 46
1.0
 50
0.0
 44
0.0
 45
0.0
 49
1.0
 74
     4
 75
     0
340
0
 46
1.0
 50
0.0
 44
0.0
 45
0.0
 49
-1.0
 74
     4
 75
     0
340
0
 46
1.0
 50
0.0
 44
0.0
 45
0.0
  0
LTYPE
  5
A348
330
19
100
AcDbSymbolTableRecord
100
AcDbLinetypeTableRecord
  2
PHANTOM
 70
     0
  3
----- - - ----- - - ----- - - ----- - - -----
 72
    65
 73
     6
 40
22.5
 49
15.0
 74
     4
 75
     0
340
0
 46
1.0
 50
0.0
 44
0.0
 45
0.0
 49
-1.5
 74
     4
 75
     0
340
0
 46
1.0
 50
0.0
 44
0.0
 45
0.0
 49
1.5
 74
     4
 75
     0
340
0
 46
1.0
 50
0.0
 44
0.0
 45
0.0
 49
-1.5
 74
     4
 75
     0
340
0
 46
1.0
 50
0.0
 44
0.0
 45
0.0
 49
1.5
 74
     4
 75
     0
340
0
 46
1.0
 50
0.0
 44
0.0
 45
0.0
 49
-1.5
 74
     4
 75
     0
340
0
 46
1.0
 50
0.0
 44
0.0
 45
0.0
  0
ENDTAB
  0
TABLE
  2
LAYER
  5
15
102
{ACAD_XDICTIONARY
360
8E1
102
}
330
0
100
AcDbSymbolTable
 70
     6
  0
LAYER
  5
6
330
15
100
AcDbSymbolTableRecord
100
AcDbLayerTableRecord
  2
0
 70
     0
 62
     7
  6
CONTINUOUS
  0
LAYER
  5
34
330
15
100
AcDbSymbolTableRecord
100
AcDbLayerTableRecord
  2
L-ZISSEN
 70
     0
 62
     7
  6
CONTINUOUS
  0
LAYER
  5
31
330
15
100
AcDbSymbolTableRecord
100
AcDbLayerTableRecord
  2
L-TYUSIN
 70
     0
 62
     1
  6
CENTER
  0
LAYER
  5
26
330
15
100
AcDbSymbolTableRecord
100
AcDbLayerTableRecord
  2
SUNPOU
 70
     0
 62
     3
  6
CONTINUOUS
  0
LAYER
  5
9E
330
15
100
AcDbSymbolTableRecord
100
AcDbLayerTableRecord
  2
L-SAISEN
 70
     0
 62
     6
  6
CONTINUOUS
  0
LAYER
  5
A349
330
15
100
AcDbSymbolTableRecord
100
AcDbLayerTableRecord
  2
L-SOUZOU
 70
     0
 62
     2
  6
PHANTOM
  0
ENDTAB
  0
TABLE
  2
STYLE
  5
16
330
0
100
AcDbSymbolTable
 70
     1
  0
STYLE
  5
17
330
16
100
AcDbSymbolTableRecord
100
AcDbTextStyleTableRecord
  2
STANDARD
 70
     0
 40
0.0
 41
1.0
 50
0.0
 71
     0
 42
5.599999999999999
  3
txt.shx
  4

  0
ENDTAB
  0
TABLE
  2
VIEW
  5
1C
330
0
100
AcDbSymbolTable
 70
     0
  0
ENDTAB
  0
TABLE
  2
UCS
  5
1D
330
0
100
AcDbSymbolTable
 70
     0
  0
ENDTAB
  0
TABLE
  2
APPID
  5
20
330
0
100
AcDbSymbolTable
 70
     1
  0
APPID
  5
A
330
20
100
AcDbSymbolTableRecord
100
AcDbRegAppTableRecord
  2
ACAD
 70
     0
  0
ENDTAB
  0
TABLE
  2
DIMSTYLE
  5
21
330
0
100
AcDbSymbolTable
 70
     1
  0
DIMSTYLE
105
28
330
21
100
AcDbSymbolTableRecord
100
AcDbDimStyleTableRecord
  2
STANDARD
 70
     0
  3

  4

  5

  6

  7

 40
1.0
 41
0.18
 42
0.0625
 43
0.38
 44
0.18
 45
0.0
 46
0.0
 47
0.0
 48
0.0
140
0.18
141
0.09
142
0.0
143
25.4
144
1.0
145
0.0
146
1.0
147
0.09
 71
     0
 72
     0
 73
     1
 74
     1
 75
     0
 76
     0
 77
     0
 78
     0
170
     0
171
     2
172
     0
173
     0
174
     0
175
     0
176
     0
177
     0
178
     0
270
     2
271
     4
272
     4
273
     2
274
     2
340
17
275
     0
280
     0
281
     0
282
     0
283
     1
284
     0
285
     0
286
     0
287
     3
288
     0
  0
ENDTAB
  0
TABLE
  2
BLOCK_RECORD
  5
1
330
0
100
AcDbSymbolTable
 70
     0
  0
BLOCK_RECORD
  5
2
102
{ACAD_XDICTIONARY
360
3
102
}
330
1
100
AcDbSymbolTableRecord
100
AcDbBlockTableRecord
  2
*MODEL_SPACE
  0
BLOCK_RECORD
  5
F
102
{ACAD_XDICTIONARY
360
10
102
}
330
1
100
AcDbSymbolTableRecord
100
AcDbBlockTableRecord
  2
*PAPER_SPACE
  0
ENDTAB
  0
ENDSEC
  0
SECTION
  2
BLOCKS
  0
BLOCK
  5
5
330
2
100
AcDbEntity
  8
0
100
AcDbBlockBegin
  2
*MODEL_SPACE
 70
     0
 10
0.0
 20
0.0
 30
0.0
  3
*MODEL_SPACE
  1

  0
ENDBLK
  5
C
330
2
100
AcDbEntity
  8
0
100
AcDbBlockEnd
  0
BLOCK
  5
12
330
F
100
AcDbEntity
 67
     1
  8
0
100
AcDbBlockBegin
  2
*PAPER_SPACE
 70
     0
 10
0.0
 20
0.0
 30
0.0
  3
*PAPER_SPACE
  1

  0
ENDBLK
  5
13
330
F
100
AcDbEntity
 67
     1
  8
0
100
AcDbBlockEnd
  0
ENDSEC
  0
SECTION
  2
ENTITIES
  0
LINE
  5
9C12
330
2
100
AcDbEntity
  8
L-TYUSIN
100
AcDbLine
 10
367.7997593227948
 20
-2665.846815972086
 30
0.0
 11
367.7997593227948
 21
-2849.871745442703
 31
0.0
  0
LINE
  5
9C13
330
2
100
AcDbEntity
  8
L-TYUSIN
100
AcDbLine
 10
217.7997593227948
 20
-2665.846815972086
 30
0.0
 11
217.7997593227948
 21
-2853.846815972087
 31
0.0
  0
LINE
  5
9C15
330
2
100
AcDbEntity
  8
L-TYUSIN
100
AcDbLine
 10
407.6997593227949
 20
-2694.146815972086
 30
0.0
 11
327.8997593227948
 21
-2694.146815972087
 31
0.0
  0
LINE
  5
9C19
330
2
100
AcDbEntity
  8
L-ZISSEN
100
AcDbLine
 10
191.7997593227935
 20
-2681.346815972086
 30
0.0
 11
199.7997593227954
 21
-2681.346815972086
 31
0.0
  0
LINE
  5
9C1A
330
2
100
AcDbEntity
  8
L-ZISSEN
100
AcDbLine
 10
183.2997593227944
 20
-2705.346815972086
 30
0.0
 11
199.7997593227954
 21
-2705.346815972086
 31
0.0
  0
LINE
  5
9C1C
330
2
100
AcDbEntity
  8
L-TYUSIN
100
AcDbLine
 10
249.2997593227946
 20
-2694.146815972085
 30
0.0
 11
186.2997593227951
 21
-2694.146815972087
 31
0.0
  0
LINE
  5
9C1D
330
2
100
AcDbEntity
  8
L-ZISSEN
100
AcDbLine
 10
182.7997593227949
 20
-2726.846815972086
 30
0.0
 11
252.7997593227949
 21
-2726.846815972086
 31
0.0
  0
LINE
  5
9C20
330
2
100
AcDbEntity
  8
L-ZISSEN
100
AcDbLine
 10
191.299759322794
 20
-2705.346815972086
 30
0.0
 11
191.299759322794
 21
-2681.846815972086
 31
0.0
  0
LINE
  5
9C21
330
2
100
AcDbEntity
  8
L-ZISSEN
100
AcDbLine
 10
191.299759322794
 20
-2705.346815972086
 30
0.0
 11
191.3050671024209
 21
-2681.774155067192
 31
0.0
  0
LINE
  5
9C23
330
2
100
AcDbEntity
  8
L-ZISSEN
100
AcDbLine
 10
182.7997593227949
 20
-2726.846815972086
 30
0.0
 11
182.7997593227949
 21
-2705.846815972087
 31
0.0
  0
ARC
  5
9C24
330
2
100
AcDbEntity
  8
L-ZISSEN
100
AcDbCircle
 10
183.2997593227944
 20
-2705.846815972087
 30
0.0
 40
0.5000000000001137
100
AcDbArc
 50
90.0
 51
180.0
  0
ARC
  5
9C25
330
2
100
AcDbEntity
  8
L-ZISSEN
100
AcDbCircle
 10
183.2997593227944
 20
-2705.846815972087
 30
0.0
 40
0.5000000000001137
100
AcDbArc
 50
90.0
 51
180.0
  0
ARC
  5
9C28
330
2
100
AcDbEntity
  8
L-ZISSEN
100
AcDbCircle
 10
191.7997593227935
 20
-2681.846815972086
 30
0.0
 40
0.5000000000001137
100
AcDbArc
 50
90.0
 51
180.0
  0
LINE
  5
9C77
330
2
100
AcDbEntity
  8
L-ZISSEN
100
AcDbLine
 10
244.2997593227935
 20
-2705.346815972086
 30
0.0
 11
244.2997593227935
 21
-2681.846815972086
 31
0.0
  0
LINE
  5
9C78
330
2
100
AcDbEntity
  8
L-ZISSEN
100
AcDbLine
 10
235.7997593227944
 20
-2726.846815972086
 30
0.0
 11
235.7997593227944
 21
-2681.346815972086
 31
0.0
  0
LINE
  5
9C79
330
2
100
AcDbEntity
  8
L-ZISSEN
100
AcDbLine
 10
199.7997593227954
 20
-2726.846815972086
 30
0.0
 11
199.7997593227954
 21
-2681.346815972086
 31
0.0
  0
CIRCLE
  5
9C7A
330
2
100
AcDbEntity
  8
L-SAISEN
100
AcDbCircle
 10
217.7997593227948
 20
-2694.146815972086
 30
0.0
 40
10.48
  0
CIRCLE
  5
9C7B
330
2
100
AcDbEntity
  8
L-ZISSEN
100
AcDbCircle
 10
217.7997593227948
 20
-2694.146815972086
 30
0.0
 40
9.314999999999999
  0
LINE
  5
9C7E
330
2
100
AcDbEntity
  8
L-ZISSEN
100
AcDbLine
 10
235.7997593227944
 20
-2711.346815972087
 30
0.0
 11
199.7997593227954
 21
-2711.346815972087
 31
0.0
  0
LINE
  5
9C7F
330
2
100
AcDbEntity
  8
L-ZISSEN
100
AcDbLine
 10
199.7997593227954
 20
-2714.846815972086
 30
0.0
 11
235.7997593227944
 21
-2714.846815972086
 31
0.0
  0
LINE
  5
9C87
330
2
100
AcDbEntity
  8
L-ZISSEN
100
AcDbLine
 10
252.7997593227949
 20
-2726.846815972086
 30
0.0
 11
252.7997593227949
 21
-2705.846815972087
 31
0.0
  0
ARC
  5
9C8A
330
2
100
AcDbEntity
  8
L-ZISSEN
100
AcDbCircle
 10
252.299759322793
 20
-2705.846815972087
 30
0.0
 40
0.500000000001819
100
AcDbArc
 50
0.0
 51
90.0
  0
ARC
  5
9C8B
330
2
100
AcDbEntity
  8
L-ZISSEN
100
AcDbCircle
 10
252.299759322793
 20
-2705.846815972087
 30
0.0
 40
0.500000000001819
100
AcDbArc
 50
0.0
 51
90.0
  0
LINE
  5
9C97
330
2
100
AcDbEntity
  8
L-ZISSEN
100
AcDbLine
 10
252.299759322793
 20
-2705.346815972086
 30
0.0
 11
235.7997593227944
 21
-2705.346815972086
 31
0.0
  0
LINE
  5
9C99
330
2
100
AcDbEntity
  8
L-ZISSEN
100
AcDbLine
 10
230.2997593227948
 20
-2675.846815972087
 30
0.0
 11
205.2997593227924
 21
-2675.846815972087
 31
0.0
  0
LINE
  5
9C9A
330
2
100
AcDbEntity
  8
L-ZISSEN
100
AcDbLine
 10
199.7997593227954
 20
-2681.346815972086
 30
0.0
 11
205.2997593227926
 21
-2675.846815972087
 31
0.0
  0
ARC
  5
9C9B
330
2
100
AcDbEntity
  8
L-ZISSEN
100
AcDbCircle
 10
243.7997593227939
 20
-2681.846815972086
 30
0.0
 40
0.5000000000001137
100
AcDbArc
 50
0.0
 51
90.0
  0
LINE
  5
9C9C
330
2
100
AcDbEntity
  8
L-ZISSEN
100
AcDbLine
 10
235.7997593227944
 20
-2681.346815972086
 30
0.0
 11
230.2997593227948
 21
-2675.846815972087
 31
0.0
  0
LINE
  5
9C9D
330
2
100
AcDbEntity
  8
L-ZISSEN
100
AcDbLine
 10
243.7997593227939
 20
-2681.346815972086
 30
0.0
 11
235.7997593227944
 21
-2681.346815972086
 31
0.0
  0
LINE
  5
9C9E
330
2
100
AcDbEntity
  8
L-ZISSEN
100
AcDbLine
 10
190.7997593227948
 20
-2526.146815972087
 30
0.0
 11
202.9497593227949
 21
-2523.396815972088
 31
0.0
  0
LINE
  5
9CA1
330
2
100
AcDbEntity
  8
L-ZISSEN
100
AcDbLine
 10
190.7997593227948
 20
-2562.146815972086
 30
0.0
 11
202.9497593227949
 21
-2564.896815972087
 31
0.0
  0
LINE
  5
9CA2
330
2
100
AcDbEntity
  8
L-TYUSIN
100
AcDbLine
 10
257.7997593227948
 20
-2544.146815972087
 30
0.0
 11
177.7997593227949
 21
-2544.146815972087
 31
0.0
  0
LINE
  5
9CA3
330
2
100
AcDbEntity
  8
L-ZISSEN
100
AcDbLine
 10
182.7997593227948
 20
-2571.146815972088
 30
0.0
 11
182.7997593227949
 21
-2517.146815972086
 31
0.0
  0
LINE
  5
9CA4
330
2
100
AcDbEntity
  8
L-ZISSEN
100
AcDbLine
 10
190.7997593227948
 20
-2562.146815972086
 30
0.0
 11
190.7997593227948
 21
-2526.146815972087
 31
0.0
  0
LINE
  5
9CA5
330
2
100
AcDbEntity
  8
L-ZISSEN
100
AcDbLine
 10
230.2997593227958
 20
-2509.146815972087
 30
0.0
 11
230.2997593227958
 21
-2579.146815972087
 31
0.0
  0
LINE
  5
9CA6
330
2
100
AcDbEntity
  8
L-ZISSEN
100
AcDbLine
 10
205.299759322794
 20
-2509.146815972087
 30
0.0
 11
205.299759322794
 21
-2579.146815972087
 31
0.0
  0
LINE
  5
9CA7
330
2
100
AcDbEntity
  8
L-TYUSIN
100
AcDbLine
 10
217.7997593227948
 20
-2584.146815972087
 30
0.0
 11
217.7997593227948
 21
-2504.146815972087
 31
0.0
  0
LINE
  5
9CA8
330
2
100
AcDbEntity
  8
L-ZISSEN
100
AcDbLine
 10
202.9497593227949
 20
-2514.17679418544
 30
0.0
 11
202.9497593227949
 21
-2574.116837758734
 31
0.0
  0
LINE
  5
9CAC
330
2
100
AcDbEntity
  8
L-ZISSEN
100
AcDbLine
 10
200.2997593227949
 20
-2579.146815972087
 30
0.0
 11
235.2997593227949
 21
-2579.146815972087
 31
0.0
  0
LINE
  5
9CB4
330
2
100
AcDbEntity
  8
L-ZISSEN
100
AcDbLine
 10
200.2997593227949
 20
-2509.146815972087
 30
0.0
 11
235.2997593227949
 21
-2509.146815972087
 31
0.0
  0
LINE
  5
9D15
330
2
100
AcDbEntity
  8
L-ZISSEN
100
AcDbLine
 10
402.699759322795
 20
-2726.846815972087
 30
0.0
 11
332.7997593227948
 21
-2726.846815972087
 31
0.0
  0
LINE
  5
9D16
330
2
100
AcDbEntity
  8
L-ZISSEN
100
AcDbLine
 10
399.8997593227951
 20
-2705.346815972086
 30
0.0
 11
367.7997593227948
 21
-2705.346815972086
 31
0.0
  0
LINE
  5
9D17
330
2
100
AcDbEntity
  8
L-ZISSEN
100
AcDbLine
 10
402.7997593227949
 20
-2675.846815972087
 30
0.0
 11
332.7997593227948
 21
-2675.846815972087
 31
0.0
  0
LINE
  5
9D19
330
2
100
AcDbEntity
  8
L-ZISSEN
100
AcDbLine
 10
385.7997593227944
 20
-2705.346815972086
 30
0.0
 11
385.7997593227944
 21
-2681.346815972086
 31
0.0
  0
LINE
  5
9D1A
330
2
100
AcDbEntity
  8
L-ZISSEN
100
AcDbLine
 10
388.2997593227944
 20
-2705.346815972086
 30
0.0
 11
388.2997593227944
 21
-2681.346815972086
 31
0.0
  0
LINE
  5
9D1B
330
2
100
AcDbEntity
  8
L-ZISSEN
100
AcDbLine
 10
336.2997593227949
 20
-2681.846815972087
 30
0.0
 11
336.2997593227949
 21
-2705.346815972086
 31
0.0
  0
LINE
  5
9D1C
330
2
100
AcDbEntity
  8
L-ZISSEN
100
AcDbLine
 10
332.7997593227948
 20
-2711.346815972087
 30
0.0
 11
332.7997593227948
 21
-2675.846815972087
 31
0.0
  0
LINE
  5
9D1D
330
2
100
AcDbEntity
  8
L-ZISSEN
100
AcDbLine
 10
347.2997593227953
 20
-2705.346815972086
 30
0.0
 11
347.2997593227953
 21
-2681.346815972086
 31
0.0
  0
LINE
  5
9D1E
330
2
100
AcDbEntity
  8
L-ZISSEN
100
AcDbLine
 10
349.7997593227953
 20
-2705.346815972086
 30
0.0
 11
349.7997593227953
 21
-2681.346815972086
 31
0.0
  0
LINE
  5
9D1F
330
2
100
AcDbEntity
  8
L-ZISSEN
100
AcDbLine
 10
337.8297375361483
 20
-2677.846815972086
 30
0.0
 11
337.8297375361483
 21
-2705.346815972086
 31
0.0
  0
LINE
  5
9D24
330
2
100
AcDbEntity
  8
L-ZISSEN
100
AcDbLine
 10
335.6997593227945
 20
-2705.346815972086
 30
0.0
 11
367.7997593227948
 21
-2705.346815972086
 31
0.0
  0
LINE
  5
9D3C
330
2
100
AcDbEntity
  8
L-ZISSEN
100
AcDbLine
 10
332.7997593227948
 20
-2726.846815972087
 30
0.0
 11
332.7997593227948
 21
-2714.846815972087
 31
0.0
  0
LINE
  5
9D3D
330
2
100
AcDbEntity
  8
L-ZISSEN
100
AcDbLine
 10
332.7997593227948
 20
-2711.346815972087
 30
0.0
 11
335.1997593227927
 21
-2711.346815972087
 31
0.0
  0
LINE
  5
9D3E
330
2
100
AcDbEntity
  8
L-ZISSEN
100
AcDbLine
 10
332.7997593227948
 20
-2714.846815972087
 30
0.0
 11
335.1997593227927
 21
-2714.846815972087
 31
0.0
  0
LINE
  5
9D3F
330
2
100
AcDbEntity
  8
L-ZISSEN
100
AcDbLine
 10
335.1997593227927
 20
-2714.846815972087
 30
0.0
 11
335.1997593227927
 21
-2711.346815972087
 31
0.0
  0
LINE
  5
9D40
330
2
100
AcDbEntity
  8
L-ZISSEN
100
AcDbLine
 10
340.2997593227949
 20
-2726.846815972087
 30
0.0
 11
340.2997593227949
 21
-2705.346815972086
 31
0.0
  0
LINE
  5
9D41
330
2
100
AcDbEntity
  8
L-ZISSEN
100
AcDbLine
 10
336.2997593227962
 20
-2726.846815972087
 30
0.0
 11
336.2997593227962
 21
-2705.346815972086
 31
0.0
  0
LINE
  5
9D47
330
2
100
AcDbEntity
  8
L-ZISSEN
100
AcDbLine
 10
395.2997593227948
 20
-2726.846815972087
 30
0.0
 11
395.2997593227948
 21
-2705.346815972086
 31
0.0
  0
LINE
  5
9D69
330
2
100
AcDbEntity
  8
L-ZISSEN
100
AcDbLine
 10
347.2997593227953
 20
-2681.346815972086
 30
0.0
 11
367.7997593227948
 21
-2681.346815972086
 31
0.0
  0
LINE
  5
9D6A
330
2
100
AcDbEntity
  8
L-ZISSEN
100
AcDbLine
 10
337.8297375361483
 20
-2677.846815972086
 30
0.0
 11
397.7697811094413
 21
-2677.846815972086
 31
0.0
  0
LINE
  5
9D6B
330
2
100
AcDbEntity
  8
L-ZISSEN
100
AcDbLine
 10
336.2997593227949
 20
-2681.846815972087
 30
0.0
 11
337.8297375361483
 21
-2677.846815972086
 31
0.0
  0
LINE
  5
9D6C
330
2
100
AcDbEntity
  8
L-ZISSEN
100
AcDbLine
 10
332.7997593227948
 20
-2681.846815972087
 30
0.0
 11
336.2997593227949
 21
-2681.846815972087
 31
0.0
  0
LINE
  5
9D6D
330
2
100
AcDbEntity
  8
L-ZISSEN
100
AcDbLine
 10
332.8997593227948
 20
-2675.846815972087
 30
0.0
 11
335.7997593227944
 21
-2675.846815972087
 31
0.0
  0
LINE
  5
9D6E
330
2
100
AcDbEntity
  8
L-ZISSEN
100
AcDbLine
 10
332.8997593227948
 20
-2675.846815972087
 30
0.0
 11
337.7997593227949
 21
-2675.846815972087
 31
0.0
  0
LINE
  5
9D6F
330
2
100
AcDbEntity
  8
L-ZISSEN
100
AcDbLine
 10
388.2997593227944
 20
-2681.346815972086
 30
0.0
 11
367.7997593227948
 21
-2681.346815972086
 31
0.0
  0
LINE
  5
9D71
330
2
100
AcDbEntity
  8
L-ZISSEN
100
AcDbLine
 10
402.7997593227949
 20
-2711.346815972087
 30
0.0
 11
402.7997593227949
 21
-2675.846815972087
 31
0.0
  0
LINE
  5
9D72
330
2
100
AcDbEntity
  8
L-ZISSEN
100
AcDbLine
 10
400.399759322797
 20
-2714.846815972087
 30
0.0
 11
400.399759322797
 21
-2711.346815972087
 31
0.0
  0
LINE
  5
9D73
330
2
100
AcDbEntity
  8
L-ZISSEN
100
AcDbLine
 10
402.7997593227949
 20
-2714.846815972087
 30
0.0
 11
400.399759322797
 21
-2714.846815972087
 31
0.0
  0
LINE
  5
9D74
330
2
100
AcDbEntity
  8
L-ZISSEN
100
AcDbLine
 10
402.7997593227949
 20
-2711.346815972087
 30
0.0
 11
400.399759322797
 21
-2711.346815972087
 31
0.0
  0
LINE
  5
9D75
330
2
100
AcDbEntity
  8
L-ZISSEN
100
AcDbLine
 10
402.7997593227949
 20
-2726.846815972087
 30
0.0
 11
402.7997593227949
 21
-2714.846815972087
 31
0.0
  0
LINE
  5
9D76
330
2
100
AcDbEntity
  8
L-ZISSEN
100
AcDbLine
 10
399.2997593227935
 20
-2726.846815972087
 30
0.0
 11
399.2997593227935
 21
-2705.346815972086
 31
0.0
  0
LINE
  5
9D78
330
2
100
AcDbEntity
  8
L-ZISSEN
100
AcDbLine
 10
397.7997593227925
 20
-2813.250500016076
 30
0.0
 11
397.7997593227949
 21
-2726.846815972086
 31
0.0
  0
LINE
  5
9D79
330
2
100
AcDbEntity
  8
L-ZISSEN
100
AcDbLine
 10
384.6497593227943
 20
-2737.185554883718
 30
0.0
 11
384.6497593227943
 21
-2805.185554883718
 31
0.0
  0
LINE
  5
9D7A
330
2
100
AcDbEntity
  8
L-ZISSEN
100
AcDbLine
 10
393.079759322795
 20
-2737.185554883718
 30
0.0
 11
393.079759322795
 21
-2805.185554883718
 31
0.0
  0
ARC
  5
9D7B
330
2
100
AcDbEntity
  8
L-ZISSEN
100
AcDbCircle
 10
367.7997593227962
 20
-2724.394104890604
 30
0.0
 40
99.53938471878553
100
AcDbArc
 50
275.3320776948647
 51
283.9062370650588
  0
LINE
  5
9D7C
330
2
100
AcDbEntity
  8
L-ZISSEN
100
AcDbLine
 10
384.6497593227943
 20
-2805.185554883718
 30
0.0
 11
388.8647593227958
 21
-2807.185554883718
 31
0.0
  0
LINE
  5
9D7D
330
2
100
AcDbEntity
  8
L-ZISSEN
100
AcDbLine
 10
388.8647593227958
 20
-2807.185554883718
 30
0.0
 11
393.079759322795
 21
-2805.185554883718
 31
0.0
  0
ARC
  5
9D7E
330
2
100
AcDbEntity
  8
L-ZISSEN
100
AcDbCircle
 10
389.7997593227943
 20
-2813.250500016076
 30
0.0
 40
8.000000000000113
100
AcDbArc
 50
283.9062370652484
 51
0.0
  0
LINE
  5
9D8D
330
2
100
AcDbEntity
  8
L-ZISSEN
100
AcDbLine
 10
350.9497593227954
 20
-2805.185554883718
 30
0.0
 11
346.7347593227939
 21
-2807.185554883718
 31
0.0
  0
ARC
  5
9D8E
330
2
100
AcDbEntity
  8
L-ZISSEN
100
AcDbCircle
 10
367.7997593227962
 20
-2724.394104890604
 30
0.0
 40
99.53938471878538
100
AcDbArc
 50
256.0937629349537
 51
264.6679223051352
  0
LINE
  5
9D8F
330
2
100
AcDbEntity
  8
L-ZISSEN
100
AcDbLine
 10
346.7347593227939
 20
-2807.185554883718
 30
0.0
 11
342.5197593227947
 21
-2805.185554883718
 31
0.0
  0
ARC
  5
9D90
330
2
100
AcDbEntity
  8
L-ZISSEN
100
AcDbCircle
 10
345.7997593227957
 20
-2813.250500016075
 30
0.0
 40
8.000000000000113
100
AcDbArc
 50
180.0
 51
256.0937629349411
  0
LINE
  5
9D91
330
2
100
AcDbEntity
  8
L-ZISSEN
100
AcDbLine
 10
376.7997593227971
 20
-2824.706367172651
 30
0.0
 11
373.7997593227952
 21
-2824.706367172651
 31
0.0
  0
LINE
  5
9D92
330
2
100
AcDbEntity
  8
L-ZISSEN
100
AcDbLine
 10
376.7997593227971
 20
-2824.706367172651
 30
0.0
 11
373.7997593227952
 21
-2824.706367172651
 31
0.0
  0
ARC
  5
9D93
330
2
100
AcDbEntity
  8
L-ZISSEN
100
AcDbCircle
 10
374.5124773827898
 20
-2830.116728257868
 30
0.0
 40
5.271330170371789
100
AcDbArc
 50
64.28835488513906
 51
115.2591066834178
  0
LINE
  5
9D9A
330
2
100
AcDbEntity
  8
L-ZISSEN
100
AcDbLine
 10
373.7997593227952
 20
-2824.846815972087
 30
0.0
 11
374.6347323018914
 21
-2824.846815972087
 31
0.0
  0
LINE
  5
9D9B
330
2
100
AcDbEntity
  8
L-ZISSEN
100
AcDbLine
 10
370.7997593227957
 20
-2824.846815972087
 30
0.0
 11
370.7997593227957
 21
-2824.706367172651
 31
0.0
  0
LINE
  5
9D9D
330
2
100
AcDbEntity
  8
L-ZISSEN
100
AcDbLine
 10
372.2631349598133
 20
-2825.349404015773
 30
0.0
 11
372.2631349598133
 21
-2827.344227928401
 31
0.0
  0
LINE
  5
9D9F
330
2
100
AcDbEntity
  8
L-ZISSEN
100
AcDbLine
 10
377.0497593228002
 20
-2823.502765512137
 30
0.0
 11
376.7997593227971
 21
-2823.502765512138
 31
0.0
  0
LINE
  5
9DA0
330
2
100
AcDbEntity
  8
L-ZISSEN
100
AcDbLine
 10
376.7997593227971
 20
-2824.706367172651
 30
0.0
 11
376.7997593227971
 21
-2823.502765512138
 31
0.0
  0
LINE
  5
9DA1
330
2
100
AcDbEntity
  8
L-ZISSEN
100
AcDbLine
 10
376.7994029428825
 20
-2825.367318478992
 30
0.0
 11
376.7994029428825
 21
-2827.32631346518
 31
0.0
  0
LINE
  5
9DA2
330
2
100
AcDbEntity
  8
L-ZISSEN
100
AcDbLine
 10
376.7997593227971
 20
-2824.706367172651
 30
0.0
 11
376.7997593227971
 21
-2823.502765512138
 31
0.0
  0
LINE
  5
9DA4
330
2
100
AcDbEntity
  8
L-ZISSEN
100
AcDbLine
 10
358.7997593227953
 20
-2824.706367172651
 30
0.0
 11
358.7997593227953
 21
-2823.502765512137
 31
0.0
  0
LINE
  5
9DA8
330
2
100
AcDbEntity
  8
L-ZISSEN
100
AcDbLine
 10
358.8001157027121
 20
-2825.33708324203
 30
0.0
 11
358.8001157027121
 21
-2827.356548702143
 31
0.0
  0
LINE
  5
9DA9
330
2
100
AcDbEntity
  8
L-ZISSEN
100
AcDbLine
 10
358.7997593227953
 20
-2824.706367172651
 30
0.0
 11
358.7997593227953
 21
-2823.502765512137
 31
0.0
  0
LINE
  5
9DAB
330
2
100
AcDbEntity
  8
L-ZISSEN
100
AcDbLine
 10
363.2702230047777
 20
-2825.349935130036
 30
0.0
 11
363.2702230047845
 21
-2827.343696814139
 31
0.0
  0
ARC
  5
9DAC
330
2
100
AcDbEntity
  8
L-ZISSEN
100
AcDbCircle
 10
361.0214437062915
 20
-2830.117525027638
 30
0.0
 40
5.271330170370607
100
AcDbArc
 50
64.74766100341561
 51
114.9228807251748
  0
LINE
  5
9DAE
330
2
100
AcDbEntity
  8
L-ZISSEN
100
AcDbLine
 10
376.7997593227971
 20
-2823.502765512138
 30
0.0
 11
358.5497593227921
 21
-2823.502765512137
 31
0.0
  0
LINE
  5
9DB0
330
2
100
AcDbEntity
  8
L-ZISSEN
100
AcDbLine
 10
373.7997593227952
 20
-2824.706367172651
 30
0.0
 11
358.7997593227953
 21
-2824.706367172651
 31
0.0
  0
LINE
  5
9DB2
330
2
100
AcDbEntity
  8
L-ZISSEN
100
AcDbLine
 10
360.9405251250029
 20
-2824.846815972087
 30
0.0
 11
373.7997593227952
 21
-2824.846815972087
 31
0.0
  0
LINE
  5
9DB3
330
2
100
AcDbEntity
  8
L-ZISSEN
100
AcDbLine
 10
373.7997593227952
 20
-2824.706367172651
 30
0.0
 11
358.7997593227953
 21
-2824.706367172651
 31
0.0
  0
ARC
  5
9DB4
330
2
100
AcDbEntity
  8
L-ZISSEN
100
AcDbCircle
 10
367.7997593227962
 20
-2845.487878646004
 30
0.0
 40
20.64106267391679
100
AcDbArc
 50
77.50558048156747
 51
102.6763186877484
  0
LINE
  5
9DB6
330
2
100
AcDbEntity
  8
L-ZISSEN
100
AcDbLine
 10
350.9497593227954
 20
-2737.185554883718
 30
0.0
 11
350.9497593227954
 21
-2805.185554883718
 31
0.0
  0
LINE
  5
9DB7
330
2
100
AcDbEntity
  8
L-ZISSEN
100
AcDbLine
 10
337.7997593227949
 20
-2813.250500016075
 30
0.0
 11
337.7997593227949
 21
-2726.846815972087
 31
0.0
  0
LINE
  5
9DB8
330
2
100
AcDbEntity
  8
L-ZISSEN
100
AcDbLine
 10
342.5197593227947
 20
-2737.185554883718
 30
0.0
 11
342.5197593227947
 21
-2805.185554883718
 31
0.0
  0
LINE
  5
9DBA
330
2
100
AcDbEntity
  8
L-ZISSEN
100
AcDbLine
 10
369.0497593227971
 20
-2730.596815972086
 30
0.0
 11
369.0497593227971
 21
-2740.596815972086
 31
0.0
  0
LINE
  5
9DBB
330
2
100
AcDbEntity
  8
L-ZISSEN
100
AcDbLine
 10
369.0497593227971
 20
-2730.596815972086
 30
0.0
 11
369.0497593227971
 21
-2740.596815972086
 31
0.0
  0
LINE
  5
9DBC
330
2
100
AcDbEntity
  8
L-ZISSEN
100
AcDbLine
 10
366.5497593227971
 20
-2730.596815972086
 30
0.0
 11
366.5497593227971
 21
-2740.596815972086
 31
0.0
  0
LINE
  5
9DBD
330
2
100
AcDbEntity
  8
L-ZISSEN
100
AcDbLine
 10
366.5497593227971
 20
-2730.596815972086
 30
0.0
 11
366.5497593227971
 21
-2740.596815972086
 31
0.0
  0
LINE
  5
9DBE
330
2
100
AcDbEntity
  8
L-ZISSEN
100
AcDbLine
 10
353.7372593227926
 20
-2726.846815972087
 30
0.0
 11
353.7372593227926
 21
-2765.596815972087
 31
0.0
  0
LINE
  5
9DBF
330
2
100
AcDbEntity
  8
L-ZISSEN
100
AcDbLine
 10
353.7372593227926
 20
-2726.846815972087
 30
0.0
 11
353.7372593227926
 21
-2750.63609133922
 31
0.0
  0
LINE
  5
9DC0
330
2
100
AcDbEntity
  8
L-ZISSEN
100
AcDbLine
 10
354.6747593227926
 20
-2726.846815972087
 30
0.0
 11
354.6747593227926
 21
-2751.221815972087
 31
0.0
  0
LINE
  5
9DC1
330
2
100
AcDbEntity
  8
L-ZISSEN
100
AcDbLine
 10
381.8622593227926
 20
-2726.846815972087
 30
0.0
 11
381.8622593227926
 21
-2765.596815972087
 31
0.0
  0
LINE
  5
9DC2
330
2
100
AcDbEntity
  8
L-ZISSEN
100
AcDbLine
 10
380.9247593227926
 20
-2726.846815972087
 30
0.0
 11
380.9247593227926
 21
-2751.221815972087
 31
0.0
  0
LINE
  5
9DC3
330
2
100
AcDbEntity
  8
L-ZISSEN
100
AcDbLine
 10
381.8622593227926
 20
-2726.846815972087
 30
0.0
 11
381.8622593227926
 21
-2750.63609133922
 31
0.0
  0
LINE
  5
9DC4
330
2
100
AcDbEntity
  8
L-ZISSEN
100
AcDbLine
 10
369.0497593227971
 20
-2740.596815972086
 30
0.0
 11
371.5497593227971
 21
-2740.596815972086
 31
0.0
  0
LINE
  5
9DC5
330
2
100
AcDbEntity
  8
L-ZISSEN
100
AcDbLine
 10
366.5497593227971
 20
-2740.596815972086
 30
0.0
 11
364.0497593227971
 21
-2740.596815972086
 31
0.0
  0
LINE
  5
9DC6
330
2
100
AcDbEntity
  8
L-ZISSEN
100
AcDbLine
 10
367.7997593227948
 20
-2761.846815972087
 30
0.0
 11
381.8622593227926
 21
-2758.096815972087
 31
0.0
  0
LINE
  5
9DC7
330
2
100
AcDbEntity
  8
L-ZISSEN
100
AcDbLine
 10
379.7141924576292
 20
-2756.788841483132
 30
0.0
 11
367.7997593227948
 21
-2759.283199457562
 31
0.0
  0
LINE
  5
9DC8
330
2
100
AcDbEntity
  8
L-ZISSEN
100
AcDbLine
 10
367.7997593227948
 20
-2753.927988229314
 30
0.0
 11
379.7141924576292
 21
-2752.22592635291
 31
0.0
  0
LINE
  5
9DC9
330
2
100
AcDbEntity
  8
L-ZISSEN
100
AcDbLine
 10
367.7997593227948
 20
-2753.096815972087
 30
0.0
 11
380.9247593227926
 21
-2751.221815972087
 31
0.0
  0
LINE
  5
9DCA
330
2
100
AcDbEntity
  8
L-ZISSEN
100
AcDbLine
 10
369.0497593227949
 20
-2761.513482638753
 30
0.0
 11
369.0497593227949
 21
-2763.096815972087
 31
0.0
  0
LINE
  5
9DCB
330
2
100
AcDbEntity
  8
L-ZISSEN
100
AcDbLine
 10
367.7997593227948
 20
-2761.846815972087
 30
0.0
 11
367.7997593227948
 21
-2759.283199457562
 31
0.0
  0
LINE
  5
9DCC
330
2
100
AcDbEntity
  8
L-ZISSEN
100
AcDbLine
 10
367.7997593227948
 20
-2753.096815972087
 30
0.0
 11
367.7997593227948
 21
-2753.927988229314
 31
0.0
  0
LINE
  5
9DCD
330
2
100
AcDbEntity
  8
L-ZISSEN
100
AcDbLine
 10
377.1747593227926
 20
-2759.346815972087
 30
0.0
 11
377.1747593227926
 21
-2766.846815972087
 31
0.0
  0
LINE
  5
9DCE
330
2
100
AcDbEntity
  8
L-ZISSEN
100
AcDbLine
 10
381.8622593227926
 20
-2758.096815972087
 30
0.0
 11
379.7141924576292
 21
-2756.788841483132
 31
0.0
  0
LINE
  5
9DCF
330
2
100
AcDbEntity
  8
L-ZISSEN
100
AcDbLine
 10
379.7141924576292
 20
-2752.22592635291
 30
0.0
 11
380.9247593227926
 21
-2751.221815972087
 31
0.0
  0
LINE
  5
9DD0
330
2
100
AcDbEntity
  8
L-ZISSEN
100
AcDbLine
 10
379.7141924576292
 20
-2751.394754095682
 30
0.0
 11
380.9247593227926
 21
-2751.221815972087
 31
0.0
  0
LINE
  5
9DD1
330
2
100
AcDbEntity
  8
L-ZISSEN
100
AcDbLine
 10
379.7141924576292
 20
-2752.22592635291
 30
0.0
 11
379.7141924576292
 21
-2756.788841483132
 31
0.0
  0
ARC
  5
9DD2
330
2
100
AcDbEntity
  8
L-ZISSEN
100
AcDbCircle
 10
380.6122593227949
 20
-2765.596815972087
 30
0.0
 40
1.249999999999715
100
AcDbArc
 50
270.0
 51
0.0
  0
LINE
  5
9DD3
330
2
100
AcDbEntity
  8
L-ZISSEN
100
AcDbLine
 10
353.7372593227926
 20
-2758.096815972087
 30
0.0
 11
355.8853261879605
 21
-2756.788841483132
 31
0.0
  0
LINE
  5
9DD4
330
2
100
AcDbEntity
  8
L-ZISSEN
100
AcDbLine
 10
355.8853261879605
 20
-2751.394754095682
 30
0.0
 11
354.6747593227926
 21
-2751.221815972087
 31
0.0
  0
LINE
  5
9DD5
330
2
100
AcDbEntity
  8
L-ZISSEN
100
AcDbLine
 10
355.8853261879605
 20
-2752.22592635291
 30
0.0
 11
354.6747593227926
 21
-2751.221815972087
 31
0.0
  0
ARC
  5
9DD6
330
2
100
AcDbEntity
  8
L-ZISSEN
100
AcDbCircle
 10
354.9872593227949
 20
-2765.596815972087
 30
0.0
 40
1.250000000000568
100
AcDbArc
 50
180.0
 51
270.0
  0
LINE
  5
9DD7
330
2
100
AcDbEntity
  8
L-ZISSEN
100
AcDbLine
 10
358.4247593227948
 20
-2759.346815972086
 30
0.0
 11
358.4247593227926
 21
-2766.846815972087
 31
0.0
  0
LINE
  5
9DD8
330
2
100
AcDbEntity
  8
L-ZISSEN
100
AcDbLine
 10
366.5497593227926
 20
-2761.513482638753
 30
0.0
 11
366.5497593227949
 21
-2763.096815972087
 31
0.0
  0
LINE
  5
9DD9
330
2
100
AcDbEntity
  8
L-ZISSEN
100
AcDbLine
 10
355.8853261879605
 20
-2752.22592635291
 30
0.0
 11
355.8853261879605
 21
-2756.788841483132
 31
0.0
  0
LINE
  5
9DDA
330
2
100
AcDbEntity
  8
L-ZISSEN
100
AcDbLine
 10
367.7997593227948
 20
-2761.846815972087
 30
0.0
 11
353.7372593227926
 21
-2758.096815972087
 31
0.0
  0
LINE
  5
9DDB
330
2
100
AcDbEntity
  8
L-ZISSEN
100
AcDbLine
 10
367.7997593227948
 20
-2753.096815972087
 30
0.0
 11
354.6747593227926
 21
-2751.221815972087
 31
0.0
  0
LINE
  5
9DDC
330
2
100
AcDbEntity
  8
L-ZISSEN
100
AcDbLine
 10
354.9872593227949
 20
-2766.846815972087
 30
0.0
 11
380.6122593227949
 21
-2766.846815972087
 31
0.0
  0
ARC
  5
9DDD
330
2
100
AcDbEntity
  8
L-ZISSEN
100
AcDbCircle
 10
367.7997593227948
 20
-2763.096815972087
 30
0.0
 40
1.250000000000568
100
AcDbArc
 50
180.0
 51
0.0
  0
CIRCLE
  5
9DDE
330
2
100
AcDbEntity
  8
L-ZISSEN
100
AcDbCircle
 10
367.7997593227948
 20
-2756.843270673261
 30
0.0
 40
1.25
  0
LINE
  5
9DDF
330
2
100
AcDbEntity
  8
L-ZISSEN
100
AcDbLine
 10
355.8853261879605
 20
-2756.788841483132
 30
0.0
 11
367.7997593227948
 21
-2759.283199457562
 31
0.0
  0
LINE
  5
9DE0
330
2
100
AcDbEntity
  8
L-ZISSEN
100
AcDbLine
 10
367.7997593227948
 20
-2753.927988229314
 30
0.0
 11
355.8853261879605
 21
-2752.22592635291
 31
0.0
  0
LINE
  5
9DE1
330
2
100
AcDbEntity
  8
L-TYUSIN
100
AcDbLine
 10
365.6129657602398
 20
-2756.843270673261
 30
0.0
 11
369.8077457351516
 21
-2756.843270673261
 31
0.0
  0
LINE
  5
9DE2
330
2
100
AcDbEntity
  8
L-ZISSEN
100
AcDbLine
 10
364.0497593227971
 20
-2740.596815972086
 30
0.0
 11
367.7997593227971
 21
-2746.846815972086
 31
0.0
  0
LINE
  5
9DE3
330
2
100
AcDbEntity
  8
L-ZISSEN
100
AcDbLine
 10
371.5497593227971
 20
-2740.596815972086
 30
0.0
 11
367.7997593227971
 21
-2746.846815972086
 31
0.0
  0
LINE
  5
9DE4
330
2
100
AcDbEntity
  8
L-ZISSEN
100
AcDbLine
 10
342.5197593227947
 20
-2737.185554883718
 30
0.0
 11
350.9497593227954
 21
-2737.185554883718
 31
0.0
  0
LINE
  5
9DE6
330
2
100
AcDbEntity
  8
L-ZISSEN
100
AcDbLine
 10
370.9247593227948
 20
-2734.346815972086
 30
0.0
 11
375.9247593227949
 21
-2734.346815972086
 31
0.0
  0
LINE
  5
9DE7
330
2
100
AcDbEntity
  8
L-ZISSEN
100
AcDbLine
 10
370.9247593227948
 20
-2734.346815972086
 30
0.0
 11
375.9247593227949
 21
-2734.346815972086
 31
0.0
  0
LINE
  5
9DE8
330
2
100
AcDbEntity
  8
L-ZISSEN
100
AcDbLine
 10
370.9247593227948
 20
-2733.096815972086
 30
0.0
 11
375.9247593227949
 21
-2733.096815972086
 31
0.0
  0
LINE
  5
9DE9
330
2
100
AcDbEntity
  8
L-ZISSEN
100
AcDbLine
 10
370.9247593227948
 20
-2733.096815972086
 30
0.0
 11
375.9247593227949
 21
-2733.096815972086
 31
0.0
  0
LINE
  5
9DEA
330
2
100
AcDbEntity
  8
L-ZISSEN
100
AcDbLine
 10
370.9247593227948
 20
-2733.096815972086
 30
0.0
 11
370.9247593227948
 21
-2734.346815972086
 31
0.0
  0
LINE
  5
9DEB
330
2
100
AcDbEntity
  8
L-ZISSEN
100
AcDbLine
 10
375.9247593227949
 20
-2731.846815972086
 30
0.0
 11
379.0497593227949
 21
-2733.721815972086
 31
0.0
  0
LINE
  5
9DEC
330
2
100
AcDbEntity
  8
L-ZISSEN
100
AcDbLine
 10
375.9247593227949
 20
-2733.096815972086
 30
0.0
 11
375.9247593227949
 21
-2731.846815972086
 31
0.0
  0
LINE
  5
9DED
330
2
100
AcDbEntity
  8
L-ZISSEN
100
AcDbLine
 10
375.9247593227949
 20
-2735.596815972086
 30
0.0
 11
379.0497593227949
 21
-2733.721815972086
 31
0.0
  0
LINE
  5
9DEE
330
2
100
AcDbEntity
  8
L-ZISSEN
100
AcDbLine
 10
375.9247593227949
 20
-2734.346815972086
 30
0.0
 11
375.9247593227949
 21
-2735.596815972086
 31
0.0
  0
LINE
  5
9DEF
330
2
100
AcDbEntity
  8
L-ZISSEN
100
AcDbLine
 10
364.6747593227948
 20
-2733.096815972087
 30
0.0
 11
364.6747593227948
 21
-2734.346815972087
 31
0.0
  0
LINE
  5
9DF0
330
2
100
AcDbEntity
  8
L-ZISSEN
100
AcDbLine
 10
364.6747593227948
 20
-2734.346815972087
 30
0.0
 11
359.6747593227949
 21
-2734.346815972087
 31
0.0
  0
LINE
  5
9DF1
330
2
100
AcDbEntity
  8
L-ZISSEN
100
AcDbLine
 10
364.6747593227948
 20
-2734.346815972087
 30
0.0
 11
359.6747593227949
 21
-2734.346815972087
 31
0.0
  0
LINE
  5
9DF2
330
2
100
AcDbEntity
  8
L-ZISSEN
100
AcDbLine
 10
364.6747593227948
 20
-2733.096815972087
 30
0.0
 11
359.6747593227949
 21
-2733.096815972087
 31
0.0
  0
LINE
  5
9DF3
330
2
100
AcDbEntity
  8
L-ZISSEN
100
AcDbLine
 10
364.6747593227948
 20
-2733.096815972087
 30
0.0
 11
359.6747593227949
 21
-2733.096815972087
 31
0.0
  0
LINE
  5
9DF4
330
2
100
AcDbEntity
  8
L-ZISSEN
100
AcDbLine
 10
359.6747593227949
 20
-2731.846815972087
 30
0.0
 11
356.5497593227949
 21
-2733.721815972087
 31
0.0
  0
LINE
  5
9DF5
330
2
100
AcDbEntity
  8
L-ZISSEN
100
AcDbLine
 10
359.6747593227949
 20
-2733.096815972087
 30
0.0
 11
359.6747593227949
 21
-2731.846815972087
 31
0.0
  0
LINE
  5
9DF6
330
2
100
AcDbEntity
  8
L-ZISSEN
100
AcDbLine
 10
359.6747593227949
 20
-2735.596815972087
 30
0.0
 11
356.5497593227949
 21
-2733.721815972087
 31
0.0
  0
LINE
  5
9DF7
330
2
100
AcDbEntity
  8
L-ZISSEN
100
AcDbLine
 10
359.6747593227949
 20
-2734.346815972087
 30
0.0
 11
359.6747593227949
 21
-2735.596815972087
 31
0.0
  0
LINE
  5
9DFA
330
2
100
AcDbEntity
  8
L-ZISSEN
100
AcDbLine
 10
369.0497593227971
 20
-2730.596815972086
 30
0.0
 11
366.5497593227971
 21
-2730.596815972086
 31
0.0
  0
LINE
  5
9DFB
330
2
100
AcDbEntity
  8
L-ZISSEN
100
AcDbLine
 10
393.079759322795
 20
-2737.185554883718
 30
0.0
 11
384.6497593227943
 21
-2737.185554883718
 31
0.0
  0
LINE
  5
9E07
330
2
100
AcDbEntity
  8
L-ZISSEN
100
AcDbLine
 10
243.079759322795
 20
-2737.185554883718
 30
0.0
 11
243.0797593227928
 21
-2805.185554883717
 31
0.0
  0
LINE
  5
9E08
330
2
100
AcDbEntity
  8
L-ZISSEN
100
AcDbLine
 10
234.649759322792
 20
-2737.185554883718
 30
0.0
 11
234.649759322792
 21
-2805.185554883717
 31
0.0
  0
LINE
  5
9E09
330
2
100
AcDbEntity
  8
L-ZISSEN
100
AcDbLine
 10
247.7997593227926
 20
-2813.250500016075
 30
0.0
 11
247.7997593227949
 21
-2726.846815972086
 31
0.0
  0
LINE
  5
9E0A
330
2
100
AcDbEntity
  8
L-ZISSEN
100
AcDbLine
 10
238.8647593227958
 20
-2807.185554883718
 30
0.0
 11
243.0797593227928
 21
-2805.185554883717
 31
0.0
  0
ARC
  5
9E0B
330
2
100
AcDbEntity
  8
L-ZISSEN
100
AcDbCircle
 10
217.7997593227984
 20
-2724.394104890603
 30
0.0
 40
99.53938471878515
100
AcDbArc
 50
275.3320776948647
 51
283.9062370650462
  0
LINE
  5
9E0C
330
2
100
AcDbEntity
  8
L-ZISSEN
100
AcDbLine
 10
234.649759322792
 20
-2805.185554883717
 30
0.0
 11
238.8647593227958
 21
-2807.185554883718
 31
0.0
  0
ARC
  5
9E0D
330
2
100
AcDbEntity
  8
L-ZISSEN
100
AcDbCircle
 10
239.7997593228026
 20
-2813.250500016075
 30
0.0
 40
8.000000000000113
100
AcDbArc
 50
283.9062370650588
 51
0.0
  0
LINE
  5
9E0E
330
2
100
AcDbEntity
  8
L-ZISSEN
100
AcDbLine
 10
247.7997593227949
 20
-2726.846815972086
 30
0.0
 11
247.7997593227949
 21
-2768.170810426285
 31
0.0
  0
LINE
  5
9E0F
330
2
100
AcDbEntity
  8
L-ZISSEN
100
AcDbLine
 10
252.7997593227949
 20
-2726.846815972086
 30
0.0
 11
252.7997593227949
 21
-2747.846815972086
 31
0.0
  0
LINE
  5
9E10
330
2
100
AcDbEntity
  8
L-ZISSEN
100
AcDbLine
 10
251.1138546473464
 20
-2754.736301874097
 30
0.0
 11
251.1138546473464
 21
-2726.846815972086
 31
0.0
  0
LINE
  5
9E11
330
2
100
AcDbEntity
  8
L-ZISSEN
100
AcDbLine
 10
256.7997593227935
 20
-2748.511753777869
 30
0.0
 11
256.7997593227935
 21
-2752.795922760467
 31
0.0
  0
LINE
  5
9E12
330
2
100
AcDbEntity
  8
L-ZISSEN
100
AcDbLine
 10
249.3501805035746
 20
-2760.320298257545
 30
0.0
 11
247.7997593227949
 21
-2760.320298257545
 31
0.0
  0
LINE
  5
9E13
330
2
100
AcDbEntity
  8
L-ZISSEN
100
AcDbLine
 10
249.3501805035746
 20
-2760.320298257545
 30
0.0
 11
251.1138546473464
 21
-2752.840322510102
 31
0.0
  0
LINE
  5
9E14
330
2
100
AcDbEntity
  8
L-ZISSEN
100
AcDbLine
 10
247.8635966728186
 20
-2759.969782486722
 30
0.0
 11
249.6272708165904
 21
-2752.489806739278
 31
0.0
  0
LINE
  5
9E15
330
2
100
AcDbEntity
  8
L-ZISSEN
100
AcDbLine
 10
251.2997593227962
 20
-2754.736301874097
 30
0.0
 11
251.1138546473464
 21
-2754.736301874097
 31
0.0
  0
LINE
  5
9E16
330
2
100
AcDbEntity
  8
L-ZISSEN
100
AcDbLine
 10
251.1138546473464
 20
-2752.840322510102
 30
0.0
 11
251.1138546473464
 21
-2750.653838269167
 31
0.0
  0
LINE
  5
9E17
330
2
100
AcDbEntity
  8
L-ZISSEN
100
AcDbLine
 10
249.6272708165904
 20
-2750.653838269168
 30
0.0
 11
249.6272708165904
 21
-2752.489806739278
 31
0.0
  0
LINE
  5
9E18
330
2
100
AcDbEntity
  8
L-ZISSEN
100
AcDbLine
 10
251.1138546473464
 20
-2750.653838269167
 30
0.0
 11
247.7997593227949
 21
-2750.653838269167
 31
0.0
  0
LINE
  5
9E19
330
2
100
AcDbEntity
  8
L-ZISSEN
100
AcDbLine
 10
256.7997593227935
 20
-2752.795922760467
 30
0.0
 11
251.2997593227962
 21
-2754.736301874097
 31
0.0
  0
LINE
  5
9E1A
330
2
100
AcDbEntity
  8
L-ZISSEN
100
AcDbLine
 10
252.7997593227949
 20
-2747.846815972086
 30
0.0
 11
256.7997593227935
 21
-2748.511753777869
 31
0.0
  0
ARC
  5
9E1B
330
2
100
AcDbEntity
  8
L-ZISSEN
100
AcDbCircle
 10
217.7997593227984
 20
-2724.394104890603
 30
0.0
 40
99.53938471878538
100
AcDbArc
 50
256.0937629349411
 51
264.6679223051352
  0
LINE
  5
9E1C
330
2
100
AcDbEntity
  8
L-ZISSEN
100
AcDbLine
 10
200.9497593227954
 20
-2737.185554883718
 30
0.0
 11
200.9497593227954
 21
-2805.185554883717
 31
0.0
  0
LINE
  5
9E1D
330
2
100
AcDbEntity
  8
L-ZISSEN
100
AcDbLine
 10
192.5197593227924
 20
-2737.185554883718
 30
0.0
 11
192.5197593227947
 21
-2805.185554883717
 31
0.0
  0
LINE
  5
9E1E
330
2
100
AcDbEntity
  8
L-ZISSEN
100
AcDbLine
 10
200.9497593227954
 20
-2805.185554883717
 30
0.0
 11
196.7347593227939
 21
-2807.185554883718
 31
0.0
  0
LINE
  5
9E1F
330
2
100
AcDbEntity
  8
L-ZISSEN
100
AcDbLine
 10
196.7347593227939
 20
-2807.185554883718
 30
0.0
 11
192.5197593227947
 21
-2805.185554883717
 31
0.0
  0
ARC
  5
9E20
330
2
100
AcDbEntity
  8
L-ZISSEN
100
AcDbCircle
 10
195.7997593228039
 20
-2813.250500016075
 30
0.0
 40
8.000000000000113
100
AcDbArc
 50
180.0
 51
256.0937629347642
  0
LINE
  5
9E21
330
2
100
AcDbEntity
  8
L-ZISSEN
100
AcDbLine
 10
192.5197593227924
 20
-2737.185554883718
 30
0.0
 11
200.9497593227954
 21
-2737.185554883718
 31
0.0
  0
LINE
  5
9E31
330
2
100
AcDbEntity
  8
L-ZISSEN
100
AcDbLine
 10
227.049759322798
 20
-2823.502765512137
 30
0.0
 11
226.7997593227971
 21
-2823.502765512137
 31
0.0
  0
LINE
  5
9E37
330
2
100
AcDbEntity
  8
L-ZISSEN
100
AcDbLine
 10
226.6747593227966
 20
-2824.70636717265
 30
0.0
 11
226.6747593227966
 21
-2823.502765512137
 31
0.0
  0
LINE
  5
9E3E
330
2
100
AcDbEntity
  8
L-ZISSEN
100
AcDbLine
 10
208.7997593227953
 20
-2824.70636717265
 30
0.0
 11
208.7997593227953
 21
-2823.502765512137
 31
0.0
  0
LINE
  5
9E4F
330
2
100
AcDbEntity
  8
L-ZISSEN
100
AcDbLine
 10
226.7997593227971
 20
-2823.502765512137
 30
0.0
 11
208.5497593227966
 21
-2823.502765512137
 31
0.0
  0
LINE
  5
9E56
330
2
100
AcDbEntity
  8
L-ZISSEN
100
AcDbLine
 10
243.079759322795
 20
-2737.185554883718
 30
0.0
 11
234.649759322792
 21
-2737.185554883718
 31
0.0
  0
LINE
  5
9E57
330
2
100
AcDbEntity
  8
L-ZISSEN
100
AcDbLine
 10
187.7997593227926
 20
-2813.250500016075
 30
0.0
 11
187.7997593227949
 21
-2726.846815972086
 31
0.0
  0
LINE
  5
AD85
330
2
100
AcDbEntity
  8
L-SOUZOU
100
AcDbLine
 10
335.7997593227948
 20
-2655.346815972086
 30
0.0
 11
399.7997593227948
 21
-2655.346815972086
 31
0.0
  0
LINE
  5
AD86
330
2
100
AcDbEntity
  8
L-SOUZOU
100
AcDbLine
 10
332.7997593227948
 20
-2705.346815972086
 30
0.0
 11
402.7997593227949
 21
-2705.346815972086
 31
0.0
  0
LINE
  5
AD87
330
2
100
AcDbEntity
  8
L-SOUZOU
100
AcDbLine
 10
332.7997593227948
 20
-2703.546815972087
 30
0.0
 11
402.7997593227949
 21
-2703.546815972087
 31
0.0
  0
LINE
  5
AD89
330
2
100
AcDbEntity
  8
L-SOUZOU
100
AcDbLine
 10
402.7997593227948
 20
-2658.346815972087
 30
0.0
 11
402.7997593227949
 21
-2705.346815972086
 31
0.0
  0
ARC
  5
AD8A
330
2
100
AcDbEntity
  8
L-SOUZOU
100
AcDbCircle
 10
394.0497593227948
 20
-2663.846815972087
 30
0.0
 40
4.25
100
AcDbArc
 50
90.0
 51
270.0
  0
LINE
  5
AD8B
330
2
100
AcDbEntity
  8
L-TYUSIN
100
AcDbLine
 10
387.2997593227948
 20
-2663.846815972087
 30
0.0
 11
402.2997593227948
 21
-2663.846815972087
 31
0.0
  0
ARC
  5
AD8C
330
2
100
AcDbEntity
  8
L-SOUZOU
100
AcDbCircle
 10
395.5497593227948
 20
-2663.846815972087
 30
0.0
 40
4.25
100
AcDbArc
 50
270.0
 51
90.0
  0
LINE
  5
AD8D
330
2
100
AcDbEntity
  8
L-SOUZOU
100
AcDbLine
 10
394.0497593227948
 20
-2659.596815972086
 30
0.0
 11
395.5497593227948
 21
-2659.596815972086
 31
0.0
  0
LINE
  5
AD8E
330
2
100
AcDbEntity
  8
L-SOUZOU
100
AcDbLine
 10
394.0497593227948
 20
-2668.096815972087
 30
0.0
 11
395.5497593227948
 21
-2668.096815972087
 31
0.0
  0
LINE
  5
AD8F
330
2
100
AcDbEntity
  8
L-TYUSIN
100
AcDbLine
 10
394.7997593227948
 20
-2657.096815972087
 30
0.0
 11
394.7997593227948
 21
-2670.596815972086
 31
0.0
  0
LINE
  5
ADA1
330
2
100
AcDbEntity
  8
L-SOUZOU
100
AcDbLine
 10
335.7997593227948
 20
-2655.346815972086
 30
0.0
 11
332.7997593227948
 21
-2658.346815972087
 31
0.0
  0
LINE
  5
ADA2
330
2
100
AcDbEntity
  8
L-SOUZOU
100
AcDbLine
 10
399.7997593227948
 20
-2655.346815972086
 30
0.0
 11
402.7997593227948
 21
-2658.346815972087
 31
0.0
  0
LINE
  5
ADA5
330
2
100
AcDbEntity
  8
L-TYUSIN
100
AcDbLine
 10
333.2997593227948
 20
-2663.846815972087
 30
0.0
 11
348.2997593227948
 21
-2663.846815972087
 31
0.0
  0
LINE
  5
ADA6
330
2
100
AcDbEntity
  8
L-SOUZOU
100
AcDbLine
 10
340.0497593227948
 20
-2668.096815972087
 30
0.0
 11
341.5497593227948
 21
-2668.096815972087
 31
0.0
  0
ARC
  5
ADA7
330
2
100
AcDbEntity
  8
L-SOUZOU
100
AcDbCircle
 10
341.5497593227948
 20
-2663.846815972087
 30
0.0
 40
4.25
100
AcDbArc
 50
270.0
 51
90.0
  0
ARC
  5
ADA8
330
2
100
AcDbEntity
  8
L-SOUZOU
100
AcDbCircle
 10
340.0497593227948
 20
-2663.846815972087
 30
0.0
 40
4.25
100
AcDbArc
 50
90.0
 51
270.0
  0
LINE
  5
ADA9
330
2
100
AcDbEntity
  8
L-TYUSIN
100
AcDbLine
 10
340.7997593227948
 20
-2657.096815972087
 30
0.0
 11
340.7997593227948
 21
-2670.596815972086
 31
0.0
  0
LINE
  5
ADAA
330
2
100
AcDbEntity
  8
L-SOUZOU
100
AcDbLine
 10
340.0497593227948
 20
-2659.596815972086
 30
0.0
 11
341.5497593227948
 21
-2659.596815972086
 31
0.0
  0
LINE
  5
ADD2
330
2
100
AcDbEntity
  8
L-SOUZOU
100
AcDbLine
 10
198.7997593227948
 20
-2705.346815972086
 30
0.0
 11
198.7997593227948
 21
-2703.546815972086
 31
0.0
  0
LINE
  5
ADD3
330
2
100
AcDbEntity
  8
L-SOUZOU
100
AcDbLine
 10
198.7997593227948
 20
-2703.546815972086
 30
0.0
 11
170.5997593227949
 21
-2703.546815972087
 31
0.0
  0
LINE
  5
ADD4
330
2
100
AcDbEntity
  8
L-SOUZOU
100
AcDbLine
 10
198.7997593227948
 20
-2705.346815972086
 30
0.0
 11
168.7997593227948
 21
-2705.346815972086
 31
0.0
  0
LINE
  5
ADD6
330
2
100
AcDbEntity
  8
L-SOUZOU
100
AcDbLine
 10
168.7997593227948
 20
-2655.346815972086
 30
0.0
 11
168.7997593227948
 21
-2705.346815972086
 31
0.0
  0
LINE
  5
ADD7
330
2
100
AcDbEntity
  8
L-SOUZOU
100
AcDbLine
 10
170.5997593227949
 20
-2655.346815972086
 30
0.0
 11
170.5997593227949
 21
-2703.546815972087
 31
0.0
  0
LINE
  5
ADD8
330
2
100
AcDbEntity
  8
L-SOUZOU
100
AcDbLine
 10
168.7997593227948
 20
-2655.346815972086
 30
0.0
 11
170.5997593227949
 21
-2655.346815972086
 31
0.0
  0
LINE
  5
ADD9
330
2
100
AcDbEntity
  8
L-SOUZOU
100
AcDbLine
 10
198.7997593227948
 20
-2579.146815972087
 30
0.0
 11
168.7997593227948
 21
-2579.146815972087
 31
0.0
  0
LINE
  5
ADDA
330
2
100
AcDbEntity
  8
L-SOUZOU
100
AcDbLine
 10
198.7997593227948
 20
-2509.146815972087
 30
0.0
 11
168.7997593227948
 21
-2509.146815972087
 31
0.0
  0
LINE
  5
ADDB
330
2
100
AcDbEntity
  8
L-SOUZOU
100
AcDbLine
 10
168.7997593227948
 20
-2509.146815972087
 30
0.0
 11
168.7997593227948
 21
-2579.146815972087
 31
0.0
  0
LINE
  5
ADDC
330
2
100
AcDbEntity
  8
L-SOUZOU
100
AcDbLine
 10
170.5997593227949
 20
-2509.146815972087
 30
0.0
 11
170.5997593227949
 21
-2579.146815972087
 31
0.0
  0
LINE
  5
ADDF
330
2
100
AcDbEntity
  8
L-SOUZOU
100
AcDbLine
 10
198.7997593227948
 20
-2509.146815972087
 30
0.0
 11
198.7997593227948
 21
-2523.646815972087
 31
0.0
  0
LINE
  5
ADE1
330
2
100
AcDbEntity
  8
L-SOUZOU
100
AcDbLine
 10
198.7997593227948
 20
-2579.146815972087
 30
0.0
 11
198.7997593227948
 21
-2564.646815972087
 31
0.0
  0
LINE
  5
ADE2
330
2
100
AcDbEntity
  8
L-SOUZOU
100
AcDbLine
 10
188.7997593227948
 20
-2526.646815972087
 30
0.0
 11
188.7997593227948
 21
-2561.646815972087
 31
0.0
  0
LINE
  5
ADE4
330
2
100
AcDbEntity
  8
L-SOUZOU
100
AcDbLine
 10
188.7997593227948
 20
-2526.646815972087
 30
0.0
 11
198.7997593227948
 21
-2523.646815972087
 31
0.0
  0
LINE
  5
ADE5
330
2
100
AcDbEntity
  8
L-SOUZOU
100
AcDbLine
 10
188.7997593227948
 20
-2561.646815972087
 30
0.0
 11
198.7997593227948
 21
-2564.646815972087
 31
0.0
  0
CIRCLE
  5
AE1B
330
2
100
AcDbEntity
  8
L-ZISSEN
100
AcDbCircle
 10
187.7997593227949
 20
-2520.646815972087
 30
0.0
 40
2.0
  0
CIRCLE
  5
AE24
330
2
100
AcDbEntity
  8
L-ZISSEN
100
AcDbCircle
 10
187.7997593227949
 20
-2567.646815972087
 30
0.0
 40
2.0
  0
LINE
  5
AE4B
330
2
100
AcDbEntity
  8
L-TYUSIN
100
AcDbLine
 10
166.2997593227949
 20
-2663.846815972086
 30
0.0
 11
173.0997593227949
 21
-2663.846815972086
 31
0.0
  0
LINE
  5
AE50
330
2
100
AcDbEntity
  8
L-TYUSIN
100
AcDbLine
 10
162.6146749885779
 20
-2517.146815972087
 30
0.0
 11
176.1146749885779
 21
-2517.146815972087
 31
0.0
  0
LINE
  5
AE51
330
2
100
AcDbEntity
  8
L-TYUSIN
100
AcDbLine
 10
162.6146749885779
 20
-2571.146815972087
 30
0.0
 11
176.1146749885779
 21
-2571.146815972087
 31
0.0
  0
LINE
  5
B534
330
2
100
AcDbEntity
  8
L-ZISSEN
100
AcDbLine
 10
373.799759322794
 20
-2830.287981382578
 30
0.0
 11
373.799759322794
 21
-2839.546815972087
 31
0.0
  0
LINE
  5
B535
330
2
100
AcDbEntity
  8
L-ZISSEN
100
AcDbLine
 10
372.7997593227971
 20
-2829.787981382578
 30
0.0
 11
372.7997593227992
 21
-2839.846815972087
 31
0.0
  0
LINE
  5
B536
330
2
100
AcDbEntity
  8
L-ZISSEN
100
AcDbLine
 10
371.799759322798
 20
-2829.787981382578
 30
0.0
 11
371.7997593227981
 21
-2839.846815972087
 31
0.0
  0
LINE
  5
B537
330
2
100
AcDbEntity
  8
L-ZISSEN
100
AcDbLine
 10
370.7997593227944
 20
-2829.787981382578
 30
0.0
 11
370.7997593227944
 21
-2839.846815972087
 31
0.0
  0
LINE
  5
B538
330
2
100
AcDbEntity
  8
L-ZISSEN
100
AcDbLine
 10
369.7997593227953
 20
-2829.787981382578
 30
0.0
 11
369.7997593227954
 21
-2839.846815972087
 31
0.0
  0
LINE
  5
B539
330
2
100
AcDbEntity
  8
L-ZISSEN
100
AcDbLine
 10
368.7997593227962
 20
-2829.787981382578
 30
0.0
 11
368.7997593227963
 21
-2839.846815972087
 31
0.0
  0
LINE
  5
B53A
330
2
100
AcDbEntity
  8
L-ZISSEN
100
AcDbLine
 10
367.7997593227971
 20
-2829.787981382578
 30
0.0
 11
367.7997593227972
 21
-2839.846815972087
 31
0.0
  0
LINE
  5
B53B
330
2
100
AcDbEntity
  8
L-ZISSEN
100
AcDbLine
 10
366.7997593227958
 20
-2829.787981382578
 30
0.0
 11
366.7997593227959
 21
-2839.846815972087
 31
0.0
  0
LINE
  5
B53C
330
2
100
AcDbEntity
  8
L-ZISSEN
100
AcDbLine
 10
365.7997593227967
 20
-2829.787981382578
 30
0.0
 11
365.7997593227968
 21
-2839.846815972087
 31
0.0
  0
LINE
  5
B53D
330
2
100
AcDbEntity
  8
L-ZISSEN
100
AcDbLine
 10
373.4997593227942
 20
-2839.846815972087
 30
0.0
 11
373.799759322794
 21
-2839.546815972087
 31
0.0
  0
LINE
  5
B53E
330
2
100
AcDbEntity
  8
L-ZISSEN
100
AcDbLine
 10
372.7997593227986
 20
-2827.848162234509
 30
0.0
 11
372.7997593227944
 21
-2829.787981382578
 31
0.0
  0
LINE
  5
B53F
330
2
100
AcDbEntity
  8
L-ZISSEN
100
AcDbLine
 10
372.7997593227944
 20
-2829.787981382578
 30
0.0
 11
373.2997593227939
 21
-2829.287981382578
 31
0.0
  0
LINE
  5
B540
330
2
100
AcDbEntity
  8
L-ZISSEN
100
AcDbLine
 10
370.7997593227944
 20
-2829.787981382578
 30
0.0
 11
373.2997593227944
 21
-2829.787981382578
 31
0.0
  0
LINE
  5
B541
330
2
100
AcDbEntity
  8
L-ZISSEN
100
AcDbLine
 10
373.2997593227944
 20
-2829.787981382578
 30
0.0
 11
373.799759322794
 21
-2830.287981382578
 31
0.0
  0
ARC
  5
B542
330
2
100
AcDbEntity
  8
L-ZISSEN
100
AcDbCircle
 10
374.5124773827885
 20
-2822.576903686306
 30
0.0
 40
5.271330170371532
100
AcDbArc
 50
244.7408933165819
 51
295.711645114861
  0
LINE
  5
B543
330
2
100
AcDbEntity
  8
L-ZISSEN
100
AcDbLine
 10
373.2997593227941
 20
-2829.287981382578
 30
0.0
 11
373.2997593227939
 21
-2827.846815972087
 31
0.0
  0
LINE
  5
B544
330
2
100
AcDbEntity
  8
L-ZISSEN
100
AcDbLine
 10
362.799759322793
 20
-2829.787981382578
 30
0.0
 11
362.2997593227958
 21
-2829.287981382578
 31
0.0
  0
ARC
  5
B545
330
2
100
AcDbEntity
  8
L-ZISSEN
100
AcDbCircle
 10
361.0214437062902
 20
-2822.576106916536
 30
0.0
 40
5.271330170370607
100
AcDbArc
 50
245.0771192748252
 51
295.2523389966427
  0
LINE
  5
B546
330
2
100
AcDbEntity
  8
L-ZISSEN
100
AcDbLine
 10
361.7997593227956
 20
-2839.546815972087
 30
0.0
 11
361.7997593227958
 21
-2830.287981382578
 31
0.0
  0
LINE
  5
B547
330
2
100
AcDbEntity
  8
L-ZISSEN
100
AcDbLine
 10
362.0997593227955
 20
-2839.846815972087
 30
0.0
 11
361.7997593227958
 21
-2839.546815972087
 31
0.0
  0
LINE
  5
B548
330
2
100
AcDbEntity
  8
L-ZISSEN
100
AcDbLine
 10
362.2997593227931
 20
-2829.787981382578
 30
0.0
 11
361.7997593227958
 21
-2830.287981382578
 31
0.0
  0
LINE
  5
B549
330
2
100
AcDbEntity
  8
L-ZISSEN
100
AcDbLine
 10
362.2997593227958
 20
-2829.287981382578
 30
0.0
 11
362.2997593227958
 21
-2827.846815972087
 31
0.0
  0
LINE
  5
B54A
330
2
100
AcDbEntity
  8
L-ZISSEN
100
AcDbLine
 10
363.799759322794
 20
-2829.787981382578
 30
0.0
 11
363.799759322794
 21
-2839.846815972087
 31
0.0
  0
LINE
  5
B54B
330
2
100
AcDbEntity
  8
L-ZISSEN
100
AcDbLine
 10
362.7997593227949
 20
-2829.787981382578
 30
0.0
 11
362.799759322795
 21
-2839.846815972087
 31
0.0
  0
LINE
  5
B54C
330
2
100
AcDbEntity
  8
L-ZISSEN
100
AcDbLine
 10
364.7997593227953
 20
-2829.787981382578
 30
0.0
 11
364.7997593227954
 21
-2839.846815972087
 31
0.0
  0
LINE
  5
B54D
330
2
100
AcDbEntity
  8
L-ZISSEN
100
AcDbLine
 10
362.7997593227973
 20
-2827.847512583215
 30
0.0
 11
362.799759322793
 21
-2829.787981382578
 31
0.0
  0
LINE
  5
B54E
330
2
100
AcDbEntity
  8
L-ZISSEN
100
AcDbLine
 10
373.4997593227942
 20
-2839.846815972087
 30
0.0
 11
362.0997593227955
 21
-2839.846815972087
 31
0.0
  0
LINE
  5
B54F
330
2
100
AcDbEntity
  8
L-ZISSEN
100
AcDbLine
 10
362.2997593227931
 20
-2829.787981382578
 30
0.0
 11
370.7997593227944
 21
-2829.787981382578
 31
0.0
  0
LINE
  5
B550
330
2
100
AcDbEntity
  8
L-ZISSEN
100
AcDbLine
 10
361.0214437062902
 20
-2827.847437086906
 30
0.0
 11
374.5124773827885
 21
-2827.848233856678
 31
0.0
  0
ARC
  5
B551
330
2
100
AcDbEntity
  8
L-ZISSEN
100
AcDbCircle
 10
367.7997593227948
 20
-2807.20575329817
 30
0.0
 40
20.64106267391694
100
AcDbArc
 50
257.3236813122661
 51
282.4944195184307
  0
LINE
  5
B552
330
2
100
AcDbEntity
  8
L-ZISSEN
100
AcDbLine
 10
223.7997593227952
 20
-2824.70636717265
 30
0.0
 11
208.7997593227953
 21
-2824.70636717265
 31
0.0
  0
LINE
  5
B553
330
2
100
AcDbEntity
  8
L-ZISSEN
100
AcDbLine
 10
223.7997593227952
 20
-2824.70636717265
 30
0.0
 11
208.7997593227953
 21
-2824.70636717265
 31
0.0
  0
ARC
  5
B554
330
2
100
AcDbEntity
  8
L-ZISSEN
100
AcDbCircle
 10
211.0214437062915
 20
-2830.117525027638
 30
0.0
 40
5.271330170370607
100
AcDbArc
 50
64.74766100341561
 51
114.9228807251748
  0
ARC
  5
B555
330
2
100
AcDbEntity
  8
L-ZISSEN
100
AcDbCircle
 10
211.0214437062902
 20
-2822.576106916535
 30
0.0
 40
5.271330170370607
100
AcDbArc
 50
245.0771192748252
 51
295.2523389966427
  0
LINE
  5
B556
330
2
100
AcDbEntity
  8
L-ZISSEN
100
AcDbLine
 10
208.8001157027121
 20
-2825.33708324203
 30
0.0
 11
208.8001157027121
 21
-2827.356548702143
 31
0.0
  0
ARC
  5
B557
330
2
100
AcDbEntity
  8
L-ZISSEN
100
AcDbCircle
 10
217.7997593227962
 20
-2845.487878646003
 30
0.0
 40
20.64106267391679
100
AcDbArc
 50
77.50558048156747
 51
102.6763186877484
  0
LINE
  5
B558
330
2
100
AcDbEntity
  8
L-ZISSEN
100
AcDbLine
 10
210.9405251250029
 20
-2824.846815972086
 30
0.0
 11
223.7997593227952
 21
-2824.846815972086
 31
0.0
  0
LINE
  5
B559
330
2
100
AcDbEntity
  8
L-ZISSEN
100
AcDbLine
 10
213.2702230047777
 20
-2825.349935130035
 30
0.0
 11
213.2702230047845
 21
-2827.343696814138
 31
0.0
  0
LINE
  5
B55A
330
2
100
AcDbEntity
  8
L-ZISSEN
100
AcDbLine
 10
226.7994029428825
 20
-2825.367318478992
 30
0.0
 11
226.7994029428825
 21
-2827.32631346518
 31
0.0
  0
LINE
  5
B55B
330
2
100
AcDbEntity
  8
L-ZISSEN
100
AcDbLine
 10
222.2631349598133
 20
-2825.349404015772
 30
0.0
 11
222.2631349598133
 21
-2827.344227928401
 31
0.0
  0
LINE
  5
B55C
330
2
100
AcDbEntity
  8
L-ZISSEN
100
AcDbLine
 10
220.7997593227957
 20
-2824.846815972086
 30
0.0
 11
220.7997593227957
 21
-2824.70636717265
 31
0.0
  0
LINE
  5
B55D
330
2
100
AcDbEntity
  8
L-ZISSEN
100
AcDbLine
 10
223.7997593227952
 20
-2824.846815972086
 30
0.0
 11
224.6347323018914
 21
-2824.846815972086
 31
0.0
  0
ARC
  5
B55E
330
2
100
AcDbEntity
  8
L-ZISSEN
100
AcDbCircle
 10
224.5124773827898
 20
-2830.116728257867
 30
0.0
 40
5.271330170371789
100
AcDbArc
 50
64.28835488513906
 51
115.2591066834178
  0
LINE
  5
B55F
330
2
100
AcDbEntity
  8
L-ZISSEN
100
AcDbLine
 10
226.7997593227971
 20
-2824.70636717265
 30
0.0
 11
223.7997593227952
 21
-2824.70636717265
 31
0.0
  0
LINE
  5
B560
330
2
100
AcDbEntity
  8
L-ZISSEN
100
AcDbLine
 10
226.7997593227971
 20
-2824.70636717265
 30
0.0
 11
223.7997593227952
 21
-2824.70636717265
 31
0.0
  0
LINE
  5
B561
330
2
100
AcDbEntity
  8
L-ZISSEN
100
AcDbLine
 10
223.2997593227941
 20
-2829.287981382577
 30
0.0
 11
223.2997593227939
 21
-2827.846815972086
 31
0.0
  0
ARC
  5
B562
330
2
100
AcDbEntity
  8
L-ZISSEN
100
AcDbCircle
 10
224.5124773827885
 20
-2822.576903686306
 30
0.0
 40
5.271330170371532
100
AcDbArc
 50
244.7408933165819
 51
295.711645114861
  0
LINE
  5
B563
330
2
100
AcDbEntity
  8
L-ZISSEN
100
AcDbLine
 10
223.2997593227944
 20
-2829.787981382578
 30
0.0
 11
223.799759322794
 21
-2830.287981382578
 31
0.0
  0
LINE
  5
B564
330
2
100
AcDbEntity
  8
L-ZISSEN
100
AcDbLine
 10
220.7997593227944
 20
-2829.787981382578
 30
0.0
 11
223.2997593227944
 21
-2829.787981382578
 31
0.0
  0
LINE
  5
B565
330
2
100
AcDbEntity
  8
L-ZISSEN
100
AcDbLine
 10
222.7997593227944
 20
-2829.787981382578
 30
0.0
 11
223.2997593227939
 21
-2829.287981382578
 31
0.0
  0
LINE
  5
B566
330
2
100
AcDbEntity
  8
L-ZISSEN
100
AcDbLine
 10
222.7997593227986
 20
-2827.848162234509
 30
0.0
 11
222.7997593227944
 21
-2829.787981382578
 31
0.0
  0
LINE
  5
B567
330
2
100
AcDbEntity
  8
L-ZISSEN
100
AcDbLine
 10
223.4997593227942
 20
-2839.846815972086
 30
0.0
 11
223.799759322794
 21
-2839.546815972086
 31
0.0
  0
LINE
  5
B568
330
2
100
AcDbEntity
  8
L-ZISSEN
100
AcDbLine
 10
215.7997593227967
 20
-2829.787981382578
 30
0.0
 11
215.7997593227968
 21
-2839.846815972086
 31
0.0
  0
LINE
  5
B569
330
2
100
AcDbEntity
  8
L-ZISSEN
100
AcDbLine
 10
216.7997593227958
 20
-2829.787981382578
 30
0.0
 11
216.7997593227959
 21
-2839.846815972086
 31
0.0
  0
LINE
  5
B56A
330
2
100
AcDbEntity
  8
L-ZISSEN
100
AcDbLine
 10
217.7997593227971
 20
-2829.787981382578
 30
0.0
 11
217.7997593227972
 21
-2839.846815972086
 31
0.0
  0
LINE
  5
B56B
330
2
100
AcDbEntity
  8
L-ZISSEN
100
AcDbLine
 10
218.7997593227962
 20
-2829.787981382578
 30
0.0
 11
218.7997593227963
 21
-2839.846815972086
 31
0.0
  0
LINE
  5
B56C
330
2
100
AcDbEntity
  8
L-ZISSEN
100
AcDbLine
 10
219.7997593227953
 20
-2829.787981382578
 30
0.0
 11
219.7997593227954
 21
-2839.846815972086
 31
0.0
  0
LINE
  5
B56D
330
2
100
AcDbEntity
  8
L-ZISSEN
100
AcDbLine
 10
220.7997593227944
 20
-2829.787981382578
 30
0.0
 11
220.7997593227944
 21
-2839.846815972086
 31
0.0
  0
LINE
  5
B56E
330
2
100
AcDbEntity
  8
L-ZISSEN
100
AcDbLine
 10
221.799759322798
 20
-2829.787981382578
 30
0.0
 11
221.7997593227981
 21
-2839.846815972086
 31
0.0
  0
LINE
  5
B56F
330
2
100
AcDbEntity
  8
L-ZISSEN
100
AcDbLine
 10
222.7997593227971
 20
-2829.787981382578
 30
0.0
 11
222.7997593227992
 21
-2839.846815972086
 31
0.0
  0
LINE
  5
B570
330
2
100
AcDbEntity
  8
L-ZISSEN
100
AcDbLine
 10
223.799759322794
 20
-2830.287981382578
 30
0.0
 11
223.799759322794
 21
-2839.546815972086
 31
0.0
  0
LINE
  5
B571
330
2
100
AcDbEntity
  8
L-ZISSEN
100
AcDbLine
 10
212.7997593227973
 20
-2827.847512583215
 30
0.0
 11
212.799759322793
 21
-2829.787981382578
 31
0.0
  0
LINE
  5
B572
330
2
100
AcDbEntity
  8
L-ZISSEN
100
AcDbLine
 10
214.7997593227953
 20
-2829.787981382578
 30
0.0
 11
214.7997593227954
 21
-2839.846815972086
 31
0.0
  0
LINE
  5
B573
330
2
100
AcDbEntity
  8
L-ZISSEN
100
AcDbLine
 10
212.7997593227949
 20
-2829.787981382578
 30
0.0
 11
212.799759322795
 21
-2839.846815972086
 31
0.0
  0
LINE
  5
B574
330
2
100
AcDbEntity
  8
L-ZISSEN
100
AcDbLine
 10
213.799759322794
 20
-2829.787981382578
 30
0.0
 11
213.799759322794
 21
-2839.846815972086
 31
0.0
  0
LINE
  5
B575
330
2
100
AcDbEntity
  8
L-ZISSEN
100
AcDbLine
 10
212.2997593227958
 20
-2829.287981382578
 30
0.0
 11
212.2997593227958
 21
-2827.846815972086
 31
0.0
  0
LINE
  5
B576
330
2
100
AcDbEntity
  8
L-ZISSEN
100
AcDbLine
 10
212.2997593227931
 20
-2829.787981382578
 30
0.0
 11
211.7997593227958
 21
-2830.287981382578
 31
0.0
  0
LINE
  5
B577
330
2
100
AcDbEntity
  8
L-ZISSEN
100
AcDbLine
 10
212.0997593227955
 20
-2839.846815972086
 30
0.0
 11
211.7997593227958
 21
-2839.546815972086
 31
0.0
  0
LINE
  5
B578
330
2
100
AcDbEntity
  8
L-ZISSEN
100
AcDbLine
 10
211.7997593227956
 20
-2839.546815972086
 30
0.0
 11
211.7997593227958
 21
-2830.287981382578
 31
0.0
  0
LINE
  5
B579
330
2
100
AcDbEntity
  8
L-ZISSEN
100
AcDbLine
 10
212.799759322793
 20
-2829.787981382578
 30
0.0
 11
212.2997593227958
 21
-2829.287981382578
 31
0.0
  0
ARC
  5
B57A
330
2
100
AcDbEntity
  8
L-ZISSEN
100
AcDbCircle
 10
217.7997593227948
 20
-2807.205753298169
 30
0.0
 40
20.64106267391694
100
AcDbArc
 50
257.3236813122661
 51
282.4944195184307
  0
LINE
  5
B57B
330
2
100
AcDbEntity
  8
L-ZISSEN
100
AcDbLine
 10
211.0214437062902
 20
-2827.847437086906
 30
0.0
 11
224.5124773827885
 21
-2827.848233856677
 31
0.0
  0
LINE
  5
B57C
330
2
100
AcDbEntity
  8
L-ZISSEN
100
AcDbLine
 10
212.2997593227931
 20
-2829.787981382578
 30
0.0
 11
220.7997593227944
 21
-2829.787981382578
 31
0.0
  0
LINE
  5
B57D
330
2
100
AcDbEntity
  8
L-ZISSEN
100
AcDbLine
 10
223.4997593227942
 20
-2839.846815972086
 30
0.0
 11
212.0997593227955
 21
-2839.846815972086
 31
0.0
  0
LINE
  5
CA4E
330
2
100
AcDbEntity
  8
L-ZISSEN
100
AcDbLine
 10
200.2997593227949
 20
-2512.646815972087
 30
0.0
 11
202.9497593227949
 21
-2514.17679418544
 31
0.0
  0
LINE
  5
CA4F
330
2
100
AcDbEntity
  8
L-ZISSEN
100
AcDbLine
 10
200.2997593227951
 20
-2513.267159375836
 30
0.0
 11
182.7997593227949
 21
-2517.146815972086
 31
0.0
  0
LINE
  5
CA51
330
2
100
AcDbEntity
  8
L-ZISSEN
100
AcDbLine
 10
200.2997593227949
 20
-2509.146815972087
 30
0.0
 11
200.2997593227949
 21
-2513.267159375836
 31
0.0
  0
LINE
  5
CA52
330
2
100
AcDbEntity
  8
L-ZISSEN
100
AcDbLine
 10
200.2997593227949
 20
-2575.646815972087
 30
0.0
 11
202.9497593227949
 21
-2574.116837758734
 31
0.0
  0
LINE
  5
CA53
330
2
100
AcDbEntity
  8
L-ZISSEN
100
AcDbLine
 10
200.2997593227951
 20
-2575.026472568339
 30
0.0
 11
182.7997593227949
 21
-2571.146815972088
 31
0.0
  0
LINE
  5
CA55
330
2
100
AcDbEntity
  8
L-ZISSEN
100
AcDbLine
 10
200.2997593227949
 20
-2579.146815972087
 30
0.0
 11
200.2997593227949
 21
-2575.02647256834
 31
0.0
  0
LINE
  5
CA58
330
2
100
AcDbEntity
  8
L-ZISSEN
100
AcDbLine
 10
235.2997593227946
 20
-2513.267159375836
 30
0.0
 11
252.7997593227949
 21
-2517.146815972086
 31
0.0
  0
LINE
  5
CA59
330
2
100
AcDbEntity
  8
L-ZISSEN
100
AcDbLine
 10
235.2997593227946
 20
-2575.026472568339
 30
0.0
 11
252.7997593227949
 21
-2571.146815972088
 31
0.0
  0
CIRCLE
  5
CA5A
330
2
100
AcDbEntity
  8
L-ZISSEN
100
AcDbCircle
 10
247.7997593227949
 20
-2567.646815972087
 30
0.0
 40
2.0
  0
CIRCLE
  5
CA5B
330
2
100
AcDbEntity
  8
L-ZISSEN
100
AcDbCircle
 10
247.7997593227949
 20
-2520.646815972087
 30
0.0
 40
2.0
  0
LINE
  5
CA5C
330
2
100
AcDbEntity
  8
L-ZISSEN
100
AcDbLine
 10
252.7997593227948
 20
-2571.146815972088
 30
0.0
 11
252.7997593227948
 21
-2517.146815972087
 31
0.0
  0
LINE
  5
CA5D
330
2
100
AcDbEntity
  8
L-ZISSEN
100
AcDbLine
 10
244.7997593227948
 20
-2526.146815972087
 30
0.0
 11
232.6497593227947
 21
-2523.396815972088
 31
0.0
  0
LINE
  5
CA5F
330
2
100
AcDbEntity
  8
L-ZISSEN
100
AcDbLine
 10
232.6497593227948
 20
-2514.17679418544
 30
0.0
 11
232.6497593227947
 21
-2574.116837758734
 31
0.0
  0
LINE
  5
CA60
330
2
100
AcDbEntity
  8
L-ZISSEN
100
AcDbLine
 10
244.7997593227948
 20
-2562.146815972086
 30
0.0
 11
232.6497593227947
 21
-2564.896815972087
 31
0.0
  0
LINE
  5
CA63
330
2
100
AcDbEntity
  8
L-ZISSEN
100
AcDbLine
 10
244.7997593227948
 20
-2562.146815972086
 30
0.0
 11
244.7997593227948
 21
-2526.146815972087
 31
0.0
  0
LINE
  5
CA65
330
2
100
AcDbEntity
  8
L-ZISSEN
100
AcDbLine
 10
235.2997593227949
 20
-2579.146815972087
 30
0.0
 11
235.2997593227949
 21
-2575.026472568339
 31
0.0
  0
LINE
  5
CA66
330
2
100
AcDbEntity
  8
L-ZISSEN
100
AcDbLine
 10
235.2997593227949
 20
-2575.646815972087
 30
0.0
 11
232.6497593227947
 21
-2574.116837758734
 31
0.0
  0
LINE
  5
CA68
330
2
100
AcDbEntity
  8
L-ZISSEN
100
AcDbLine
 10
235.2997593227949
 20
-2512.646815972087
 30
0.0
 11
232.6497593227947
 21
-2514.17679418544
 31
0.0
  0
LINE
  5
CA6A
330
2
100
AcDbEntity
  8
L-ZISSEN
100
AcDbLine
 10
235.2997593227949
 20
-2509.146815972087
 30
0.0
 11
235.2997593227949
 21
-2513.267159375836
 31
0.0
  0
LINE
  5
CA9A
330
2
100
AcDbEntity
  8
L-SOUZOU
100
AcDbLine
 10
332.7997593227949
 20
-2658.346815972087
 30
0.0
 11
332.7997593227948
 21
-2705.346815972086
 31
0.0
  0
LINE
  5
CA9B
330
2
100
AcDbEntity
  8
L-ZISSEN
100
AcDbLine
 10
399.2997593227948
 20
-2681.846815972087
 30
0.0
 11
397.7697811094415
 21
-2677.846815972086
 31
0.0
  0
LINE
  5
CA9C
330
2
100
AcDbEntity
  8
L-ZISSEN
100
AcDbLine
 10
402.7997593227949
 20
-2681.846815972087
 30
0.0
 11
399.2997593227948
 21
-2681.846815972087
 31
0.0
  0
LINE
  5
CA9D
330
2
100
AcDbEntity
  8
L-ZISSEN
100
AcDbLine
 10
399.2997593227948
 20
-2681.846815972087
 30
0.0
 11
399.2997593227948
 21
-2705.346815972086
 31
0.0
  0
LINE
  5
CA9E
330
2
100
AcDbEntity
  8
L-ZISSEN
100
AcDbLine
 10
397.7697811094415
 20
-2677.846815972086
 30
0.0
 11
397.7697811094415
 21
-2705.346815972086
 31
0.0
  0
LINE
  5
D085
330
2
100
AcDbEntity
  8
L-TYUSIN
100
AcDbLine
 10
447.8780628503716
 20
-2634.110885932448
 30
0.0
 11
697.8780628503716
 21
-2634.110885932448
 31
0.0
  0
TEXT
  5
D086
330
2
100
AcDbEntity
  8
L-ZISSEN
100
AcDbText
 10
469.7869791516013
 20
-2666.722127519856
 30
0.0
 40
4.5
  1
MODEL NO. F64- 00-*210
100
AcDbText
  0
TEXT
  5
D087
330
2
100
AcDbEntity
  8
L-ZISSEN
100
AcDbText
 10
469.7869791516013
 20
-2424.943659966767
 30
0.0
 40
4.5
  1
MODEL NO. F64- 00-*020
100
AcDbText
  0
LINE
  5
D088
330
2
100
AcDbEntity
  8
L-ZISSEN
100
AcDbLine
 10
501.3416202911768
 20
-2466.83051713312
 30
0.0
 11
487.8780628503718
 21
-2455.610885932449
 31
0.0
  0
LINE
  5
D089
330
2
100
AcDbEntity
  8
L-ZISSEN
100
AcDbLine
 10
501.3416202911768
 20
-2716.566447172757
 30
0.0
 11
487.8780628503718
 21
-2705.346815972086
 31
0.0
  0
ARC
  5
D08A
330
2
100
AcDbEntity
  8
L-ZISSEN
100
AcDbCircle
 10
502.8780628503693
 20
-2484.597480413791
 30
0.0
 40
99.53938471878538
100
AcDbArc
 50
256.0937629349463
 51
263.0758486315294
  0
LINE
  5
D08B
330
2
100
AcDbEntity
  8
L-ZISSEN
100
AcDbLine
 10
484.3780628503723
 20
-2731.34579647238
 30
0.0
 11
499.1280628503716
 21
-2731.34579647238
 31
0.0
  0
LINE
  5
D08C
330
2
100
AcDbEntity
  8
L-ZISSEN
100
AcDbLine
 10
493.4428955821527
 20
-2821.345796472382
 30
0.0
 11
484.4860355185553
 21
-2820.296892106454
 31
0.0
  0
LINE
  5
D08D
330
2
100
AcDbEntity
  8
L-ZISSEN
100
AcDbLine
 10
473.6221957888906
 20
-2731.345796472381
 30
0.0
 11
475.3380567908672
 21
-2810.59138980332
 31
0.0
  0
LINE
  5
D08E
330
2
100
AcDbEntity
  8
L-TYUSIN
100
AcDbLine
 10
447.8780628503716
 20
-2863.002779838222
 30
0.0
 11
447.8780628503716
 21
-2413.002736611208
 31
0.0
  0
ARC
  5
D091
330
2
100
AcDbEntity
  8
L-ZISSEN
100
AcDbCircle
 10
485.3347171991124
 20
-2810.332970217706
 30
0.0
 40
10.0
100
AcDbArc
 50
181.0000000000278
 51
265.1315559371177
  0
LINE
  5
D092
330
2
100
AcDbEntity
  8
L-ZISSEN
100
AcDbLine
 10
472.8780628503689
 20
-2573.453875539263
 30
0.0
 11
472.8780628503716
 21
-2468.110885932448
 31
0.0
  0
LINE
  5
D093
330
2
100
AcDbEntity
  8
L-ZISSEN
100
AcDbLine
 10
477.5980628503691
 20
-2478.44962484408
 30
0.0
 11
477.5980628503718
 21
-2560.949624844081
 31
0.0
  0
LINE
  5
D094
330
2
100
AcDbEntity
  8
L-ZISSEN
100
AcDbLine
 10
486.0280628503722
 20
-2478.44962484408
 30
0.0
 11
486.0280628503722
 21
-2560.949624844079
 31
0.0
  0
TEXT
  5
D095
330
2
100
AcDbEntity
  8
L-ZISSEN
100
AcDbText
 10
474.8780628503718
 20
-2707.596815972086
 30
0.0
 40
4.5
  1
P.P
100
AcDbText
  0
LINE
  5
D096
330
2
100
AcDbEntity
  8
L-ZISSEN
100
AcDbLine
 10
472.9220782501447
 20
-2731.345796472381
 30
0.0
 11
476.3780628503723
 21
-2731.345796472381
 31
0.0
  0
LINE
  5
D097
330
2
100
AcDbEntity
  8
L-ZISSEN
100
AcDbLine
 10
472.6746919153376
 20
-2717.846815972086
 30
0.0
 11
472.9220782501447
 21
-2731.345796472381
 31
0.0
  0
LINE
  5
D098
330
2
100
AcDbEntity
  8
L-ZISSEN
100
AcDbLine
 10
476.3780628503723
 20
-2721.345796472382
 30
0.0
 11
484.3780628503723
 21
-2721.345796472382
 31
0.0
  0
LINE
  5
D099
330
2
100
AcDbEntity
  8
L-ZISSEN
100
AcDbLine
 10
476.3780628503723
 20
-2721.345796472382
 30
0.0
 11
476.3780628503723
 21
-2731.345796472381
 31
0.0
  0
LINE
  5
D09A
330
2
100
AcDbEntity
  8
L-ZISSEN
100
AcDbLine
 10
487.8780628503718
 20
-2705.346815972086
 30
0.0
 11
485.8780628503717
 21
-2705.346815972086
 31
0.0
  0
LINE
  5
D09B
330
2
100
AcDbEntity
  8
L-ZISSEN
100
AcDbLine
 10
484.3780628503723
 20
-2721.345796472382
 30
0.0
 11
484.3780628503723
 21
-2731.345796472381
 31
0.0
  0
ARC
  5
D09C
330
2
100
AcDbEntity
  8
L-ZISSEN
100
AcDbCircle
 10
480.8780628503689
 20
-2573.453875539263
 30
0.0
 40
8.000000000000113
100
AcDbArc
 50
180.0
 51
256.093762934765
  0
LINE
  5
D09D
330
2
100
AcDbEntity
  8
L-ZISSEN
100
AcDbLine
 10
486.0280628503699
 20
-2560.94962484408
 30
0.0
 11
481.8130628503683
 21
-2562.949624844081
 31
0.0
  0
LINE
  5
D09E
330
2
100
AcDbEntity
  8
L-ZISSEN
100
AcDbLine
 10
481.8130628503683
 20
-2562.949624844081
 30
0.0
 11
477.5980628503691
 21
-2560.94962484408
 31
0.0
  0
TEXT
  5
D09F
330
2
100
AcDbEntity
  8
L-ZISSEN
100
AcDbText
 10
474.8780628503718
 20
-2457.860885932449
 30
0.0
 40
4.5
  1
P.P
100
AcDbText
  0
LINE
  5
D0A0
330
2
100
AcDbEntity
  8
L-ZISSEN
100
AcDbLine
 10
477.5980628503691
 20
-2478.44962484408
 30
0.0
 11
486.0280628503722
 21
-2478.44962484408
 31
0.0
  0
LINE
  5
D0A1
330
2
100
AcDbEntity
  8
L-ZISSEN
100
AcDbLine
 10
487.8780628503718
 20
-2455.610885932449
 30
0.0
 11
485.8780628503717
 21
-2455.610885932449
 31
0.0
  0
LINE
  5
D0A2
330
2
100
AcDbEntity
  8
L-ZISSEN
100
AcDbLine
 10
500.3780628503716
 20
-2800.845796472382
 30
0.0
 11
500.3780628503716
 21
-2746.845796472381
 31
0.0
  0
LINE
  5
D0A3
330
2
100
AcDbEntity
  8
L-ZISSEN
100
AcDbLine
 10
494.1280628503716
 20
-2735.345796472381
 30
0.0
 11
494.1280628503734
 21
-2812.345796472381
 31
0.0
  0
LINE
  5
D0A4
330
2
100
AcDbEntity
  8
L-ZISSEN
100
AcDbLine
 10
505.3780628503716
 20
-2746.845796472381
 30
0.0
 11
505.3780628503716
 21
-2800.845796472382
 31
0.0
  0
LINE
  5
D0A5
330
2
100
AcDbEntity
  8
L-ZISSEN
100
AcDbLine
 10
511.6280628503716
 20
-2735.345796472381
 30
0.0
 11
511.6280628503734
 21
-2812.345796472381
 31
0.0
  0
LINE
  5
D0A6
330
2
100
AcDbEntity
  8
L-ZISSEN
100
AcDbLine
 10
532.133929911853
 20
-2731.345796472381
 30
0.0
 11
530.4180689098764
 21
-2810.59138980332
 31
0.0
  0
LINE
  5
D0A7
330
2
100
AcDbEntity
  8
L-ZISSEN
100
AcDbLine
 10
493.4428955821529
 20
-2824.845796472382
 30
0.0
 11
512.313230118591
 21
-2824.845796472382
 31
0.0
  0
LINE
  5
D0A8
330
2
100
AcDbEntity
  8
L-ZISSEN
100
AcDbLine
 10
493.4428955821524
 20
-2821.345796472382
 30
0.0
 11
512.313230118591
 21
-2821.345796472382
 31
0.0
  0
LINE
  5
D0A9
330
2
100
AcDbEntity
  8
L-TYUSIN
100
AcDbLine
 10
509.1280628503718
 20
-2807.095796472382
 30
0.0
 11
496.6280628503718
 21
-2807.095796472382
 31
0.0
  0
LINE
  5
D0AA
330
2
100
AcDbEntity
  8
L-ZISSEN
100
AcDbLine
 10
498.3427984907332
 20
-2827.847455893464
 30
0.0
 11
507.4114223484693
 21
-2827.847533056412
 31
0.0
  0
ARC
  5
D0AB
330
2
100
AcDbEntity
  8
L-ZISSEN
100
AcDbCircle
 10
498.9569612468897
 20
-2812.709649221863
 30
0.0
 40
15.15026028548078
100
AcDbArc
 50
255.1892479927985
 51
284.9997091106928
  0
ARC
  5
D0AC
330
2
100
AcDbEntity
  8
L-ZISSEN
100
AcDbCircle
 10
498.9563564790776
 20
-2840.350739107069
 30
0.0
 40
15.50496374778473
100
AcDbArc
 50
75.34890043484701
 51
104.4621424617026
  0
LINE
  5
D0AD
330
2
100
AcDbEntity
  8
L-ZISSEN
100
AcDbLine
 10
497.4108616286259
 20
-2829.787981382578
 30
0.0
 11
505.9108616286273
 21
-2829.787981382578
 31
0.0
  0
CIRCLE
  5
D0AE
330
2
100
AcDbEntity
  8
L-ZISSEN
100
AcDbCircle
 10
502.8780628503718
 20
-2807.095796472382
 30
0.0
 40
3.75
  0
LINE
  5
D0AF
330
2
100
AcDbEntity
  8
L-ZISSEN
100
AcDbLine
 10
508.6108616286272
 20
-2839.846815972087
 30
0.0
 11
497.2108616286284
 21
-2839.846815972087
 31
0.0
  0
LINE
  5
D0B0
330
2
100
AcDbEntity
  8
L-ZISSEN
100
AcDbLine
 10
494.1280628503716
 20
-2812.345796472381
 30
0.0
 11
511.6280628503716
 21
-2812.345796472382
 31
0.0
  0
LINE
  5
D0B1
330
2
100
AcDbEntity
  8
L-ZISSEN
100
AcDbLine
 10
495.0841428503718
 20
-2825.33708324203
 30
0.0
 11
495.0841428503718
 21
-2827.356548702143
 31
0.0
  0
LINE
  5
D0B2
330
2
100
AcDbEntity
  8
L-ZISSEN
100
AcDbLine
 10
497.4108616286259
 20
-2829.787981382578
 30
0.0
 11
496.9108616286287
 21
-2830.287981382578
 31
0.0
  0
LINE
  5
D0B3
330
2
100
AcDbEntity
  8
L-ZISSEN
100
AcDbLine
 10
497.4108616286287
 20
-2829.287981382578
 30
0.0
 11
497.4108616286287
 21
-2827.846815972087
 31
0.0
  0
LINE
  5
D0B4
330
2
100
AcDbEntity
  8
L-ZISSEN
100
AcDbLine
 10
497.9108616286301
 20
-2827.847512583215
 30
0.0
 11
497.910861628626
 21
-2829.787981382578
 31
0.0
  0
LINE
  5
D0B5
330
2
100
AcDbEntity
  8
L-ZISSEN
100
AcDbLine
 10
497.910861628626
 20
-2829.787981382578
 30
0.0
 11
497.4108616286287
 21
-2829.287981382578
 31
0.0
  0
LINE
  5
D0B6
330
2
100
AcDbEntity
  8
L-ZISSEN
100
AcDbLine
 10
497.2108616286284
 20
-2839.846815972087
 30
0.0
 11
496.9108616286287
 21
-2839.546815972086
 31
0.0
  0
LINE
  5
D0B7
330
2
100
AcDbEntity
  8
L-ZISSEN
100
AcDbLine
 10
499.9108616286283
 20
-2829.787981382578
 30
0.0
 11
499.9108616286283
 21
-2839.846815972087
 31
0.0
  0
LINE
  5
D0B8
330
2
100
AcDbEntity
  8
L-ZISSEN
100
AcDbLine
 10
498.9108616286269
 20
-2829.787981382578
 30
0.0
 11
498.9108616286269
 21
-2839.846815972087
 31
0.0
  0
LINE
  5
D0B9
330
2
100
AcDbEntity
  8
L-ZISSEN
100
AcDbLine
 10
497.9108616286278
 20
-2829.787981382578
 30
0.0
 11
497.9108616286278
 21
-2839.846815972087
 31
0.0
  0
LINE
  5
D0BA
330
2
100
AcDbEntity
  8
L-ZISSEN
100
AcDbLine
 10
496.9108616286287
 20
-2839.546815972086
 30
0.0
 11
496.9108616286287
 21
-2830.287981382578
 31
0.0
  0
LINE
  5
D0BB
330
2
100
AcDbEntity
  8
L-ZISSEN
100
AcDbLine
 10
493.4428955821527
 20
-2821.345796472382
 30
0.0
 11
493.4428955821529
 21
-2824.845796472382
 31
0.0
  0
ARC
  5
D0BC
330
2
100
AcDbEntity
  8
L-ZISSEN
100
AcDbCircle
 10
506.799769221667
 20
-2840.350739107069
 30
0.0
 40
15.50496374778473
100
AcDbArc
 50
75.53785753829742
 51
104.6510995651527
  0
ARC
  5
D0BD
330
2
100
AcDbEntity
  8
L-ZISSEN
100
AcDbCircle
 10
506.7991644538549
 20
-2812.709649221863
 30
0.0
 40
15.15026028548078
100
AcDbArc
 50
255.0002908893071
 51
284.8107520072012
  0
LINE
  5
D0BE
330
2
100
AcDbEntity
  8
L-ZISSEN
100
AcDbLine
 10
505.9108616286273
 20
-2829.787981382578
 30
0.0
 11
508.4108616286273
 21
-2829.787981382578
 31
0.0
  0
LINE
  5
D0BF
330
2
100
AcDbEntity
  8
L-ZISSEN
100
AcDbLine
 10
502.8780628503723
 20
-2825.349935130033
 30
0.0
 11
502.8780628503723
 21
-2827.344759042661
 31
0.0
  0
LINE
  5
D0C0
330
2
100
AcDbEntity
  8
L-ZISSEN
100
AcDbLine
 10
502.8780628503723
 20
-2825.349935130033
 30
0.0
 11
502.8780628503723
 21
-2827.344759042661
 31
0.0
  0
LINE
  5
D0C1
330
2
100
AcDbEntity
  8
L-ZISSEN
100
AcDbLine
 10
502.8780628503723
 20
-2825.349935130033
 30
0.0
 11
502.8780628503723
 21
-2827.344759042661
 31
0.0
  0
LINE
  5
D0C2
330
2
100
AcDbEntity
  8
L-ZISSEN
100
AcDbLine
 10
502.8780628503723
 20
-2825.349935130033
 30
0.0
 11
502.8780628503723
 21
-2827.344759042661
 31
0.0
  0
LINE
  5
D0C3
330
2
100
AcDbEntity
  8
L-ZISSEN
100
AcDbLine
 10
500.9108616286296
 20
-2829.787981382578
 30
0.0
 11
500.9108616286296
 21
-2839.846815972087
 31
0.0
  0
LINE
  5
D0C4
330
2
100
AcDbEntity
  8
L-ZISSEN
100
AcDbLine
 10
505.9108616286273
 20
-2829.787981382578
 30
0.0
 11
505.9108616286273
 21
-2839.846815972087
 31
0.0
  0
LINE
  5
D0C5
330
2
100
AcDbEntity
  8
L-ZISSEN
100
AcDbLine
 10
504.9108616286282
 20
-2829.787981382578
 30
0.0
 11
504.9108616286282
 21
-2839.846815972087
 31
0.0
  0
LINE
  5
D0C6
330
2
100
AcDbEntity
  8
L-ZISSEN
100
AcDbLine
 10
503.9108616286291
 20
-2829.787981382578
 30
0.0
 11
503.9108616286291
 21
-2839.846815972087
 31
0.0
  0
LINE
  5
D0C7
330
2
100
AcDbEntity
  8
L-ZISSEN
100
AcDbLine
 10
502.9108616286301
 20
-2829.787981382578
 30
0.0
 11
502.9108616286301
 21
-2839.846815972087
 31
0.0
  0
LINE
  5
D0C8
330
2
100
AcDbEntity
  8
L-ZISSEN
100
AcDbLine
 10
501.9108616286287
 20
-2829.787981382578
 30
0.0
 11
501.9108616286287
 21
-2839.846815972087
 31
0.0
  0
LINE
  5
D0C9
330
2
100
AcDbEntity
  8
L-ZISSEN
100
AcDbLine
 10
510.6719828503728
 20
-2825.33708324203
 30
0.0
 11
510.6719828503728
 21
-2827.356548702143
 31
0.0
  0
LINE
  5
D0CA
330
2
100
AcDbEntity
  8
L-ZISSEN
100
AcDbLine
 10
508.4108616286273
 20
-2829.787981382578
 30
0.0
 11
508.9108616286268
 21
-2830.287981382578
 31
0.0
  0
LINE
  5
D0CB
330
2
100
AcDbEntity
  8
L-ZISSEN
100
AcDbLine
 10
508.4108616286268
 20
-2829.287981382578
 30
0.0
 11
508.4108616286268
 21
-2827.846815972087
 31
0.0
  0
LINE
  5
D0CC
330
2
100
AcDbEntity
  8
L-ZISSEN
100
AcDbLine
 10
507.9108616286314
 20
-2827.848162234509
 30
0.0
 11
507.9108616286273
 21
-2829.787981382578
 31
0.0
  0
LINE
  5
D0CD
330
2
100
AcDbEntity
  8
L-ZISSEN
100
AcDbLine
 10
507.9108616286273
 20
-2829.787981382578
 30
0.0
 11
508.4108616286268
 21
-2829.287981382578
 31
0.0
  0
LINE
  5
D0CE
330
2
100
AcDbEntity
  8
L-ZISSEN
100
AcDbLine
 10
508.6108616286272
 20
-2839.846815972087
 30
0.0
 11
508.9108616286268
 21
-2839.546815972086
 31
0.0
  0
LINE
  5
D0CF
330
2
100
AcDbEntity
  8
L-ZISSEN
100
AcDbLine
 10
508.9108616286268
 20
-2830.287981382578
 30
0.0
 11
508.9108616286268
 21
-2839.546815972086
 31
0.0
  0
LINE
  5
D0D0
330
2
100
AcDbEntity
  8
L-ZISSEN
100
AcDbLine
 10
507.91086162863
 20
-2829.787981382578
 30
0.0
 11
507.9108616286321
 21
-2839.846815972087
 31
0.0
  0
LINE
  5
D0D1
330
2
100
AcDbEntity
  8
L-ZISSEN
100
AcDbLine
 10
506.9108616286309
 20
-2829.787981382578
 30
0.0
 11
506.9108616286309
 21
-2839.846815972087
 31
0.0
  0
LINE
  5
D0D2
330
2
100
AcDbEntity
  8
L-ZISSEN
100
AcDbLine
 10
505.3780628503716
 20
-2800.845796472382
 30
0.0
 11
500.3780628503716
 21
-2800.845796472382
 31
0.0
  0
POLYLINE
  5
D0D3
330
2
100
AcDbEntity
  8
L-ZISSEN
100
AcDb2dPolyline
 66
     1
 10
0.0
 20
0.0
 30
0.0
 70
     1
  0
VERTEX
  5
D50B
330
D0D3
100
AcDbEntity
  8
L-ZISSEN
100
AcDbVertex
100
AcDb2dVertex
 10
501.6280628503718
 20
-2806.374108635895
 30
0.0
  0
VERTEX
  5
D50C
330
D0D3
100
AcDbEntity
  8
L-ZISSEN
100
AcDbVertex
100
AcDb2dVertex
 10
502.8780628503718
 20
-2805.652420799408
 30
0.0
  0
VERTEX
  5
D50D
330
D0D3
100
AcDbEntity
  8
L-ZISSEN
100
AcDbVertex
100
AcDb2dVertex
 10
504.1280628503718
 20
-2806.374108635895
 30
0.0
  0
VERTEX
  5
D50E
330
D0D3
100
AcDbEntity
  8
L-ZISSEN
100
AcDbVertex
100
AcDb2dVertex
 10
504.1280628503718
 20
-2807.817484308869
 30
0.0
  0
VERTEX
  5
D50F
330
D0D3
100
AcDbEntity
  8
L-ZISSEN
100
AcDbVertex
100
AcDb2dVertex
 10
502.8780628503718
 20
-2808.539172145356
 30
0.0
  0
VERTEX
  5
D510
330
D0D3
100
AcDbEntity
  8
L-ZISSEN
100
AcDbVertex
100
AcDb2dVertex
 10
501.6280628503718
 20
-2807.817484308869
 30
0.0
  0
SEQEND
  5
D511
330
D0D3
100
AcDbEntity
  8
L-ZISSEN
  0
ARC
  5
D0D4
330
2
100
AcDbEntity
  8
L-ZISSEN
100
AcDbCircle
 10
520.4214085016312
 20
-2810.332970217706
 30
0.0
 40
10.0
100
AcDbArc
 50
274.868444062882
 51
358.9999999999721
  0
LINE
  5
D0D5
330
2
100
AcDbEntity
  8
L-ZISSEN
100
AcDbLine
 10
512.313230118591
 20
-2821.345796472382
 30
0.0
 11
521.2700901821883
 21
-2820.296892106454
 31
0.0
  0
LINE
  5
D0D6
330
2
100
AcDbEntity
  8
L-ZISSEN
100
AcDbLine
 10
512.313230118591
 20
-2821.345796472382
 30
0.0
 11
512.3132301185908
 21
-2824.845796472382
 31
0.0
  0
LINE
  5
D0D7
330
2
100
AcDbEntity
  8
L-ZISSEN
100
AcDbLine
 10
536.1921581749231
 20
-2491.917908229529
 30
0.0
 11
532.8780628503716
 21
-2491.917908229529
 31
0.0
  0
LINE
  5
D0D8
330
2
100
AcDbEntity
  8
L-ZISSEN
100
AcDbLine
 10
534.4284840311513
 20
-2501.584368217908
 30
0.0
 11
536.1921581749231
 21
-2494.104392470464
 31
0.0
  0
LINE
  5
D0D9
330
2
100
AcDbEntity
  8
L-ZISSEN
100
AcDbLine
 10
536.6821912600423
 20
-2718.145796472381
 30
0.0
 11
534.4821912600421
 21
-2718.145796472381
 31
0.0
  0
ARC
  5
D0DA
330
2
100
AcDbEntity
  8
L-ZISSEN
100
AcDbCircle
 10
533.7140094418598
 20
-2751.945796472381
 30
0.0
 40
2.368181818181991
100
AcDbArc
 50
302.3784125140503
 51
57.62158748594965
  0
LINE
  5
D0DB
330
2
100
AcDbEntity
  8
L-ZISSEN
100
AcDbLine
 10
542.482191260042
 20
-2742.50541735875
 30
0.0
 11
534.4821912600421
 21
-2744.445796472381
 31
0.0
  0
LINE
  5
D0DC
330
2
100
AcDbEntity
  8
L-ZISSEN
100
AcDbLine
 10
532.8780628503716
 20
-2468.110885932448
 30
0.0
 11
532.8780628503716
 21
-2509.434880386647
 31
0.0
  0
LINE
  5
D0DD
330
2
100
AcDbEntity
  8
L-ZISSEN
100
AcDbLine
 10
532.8780628503688
 20
-2573.453875539263
 30
0.0
 11
532.8780628503716
 21
-2468.110885932448
 31
0.0
  0
LINE
  5
D0DE
330
2
100
AcDbEntity
  8
L-ZISSEN
100
AcDbLine
 10
519.7280628503688
 20
-2478.44962484408
 30
0.0
 11
519.7280628503688
 21
-2560.949624844081
 31
0.0
  0
LINE
  5
D0DF
330
2
100
AcDbEntity
  8
L-ZISSEN
100
AcDbLine
 10
528.1580628503718
 20
-2478.44962484408
 30
0.0
 11
528.1580628503689
 21
-2560.949624844079
 31
0.0
  0
LINE
  5
D0E0
330
2
100
AcDbEntity
  8
L-ZISSEN
100
AcDbLine
 10
513.8780628503716
 20
-2596.410885932448
 30
0.0
 11
491.8780628503716
 21
-2596.410885932448
 31
0.0
  0
LINE
  5
D0E1
330
2
100
AcDbEntity
  8
L-ZISSEN
100
AcDbLine
 10
492.8780628503716
 20
-2599.910885932448
 30
0.0
 11
512.8780628503716
 21
-2599.910885932448
 31
0.0
  0
LINE
  5
D0E2
330
2
100
AcDbEntity
  8
L-ZISSEN
100
AcDbLine
 10
492.8780628503716
 20
-2600.610885932448
 30
0.0
 11
512.8780628503716
 21
-2600.610885932448
 31
0.0
  0
LINE
  5
D0E3
330
2
100
AcDbEntity
  8
L-ZISSEN
100
AcDbLine
 10
492.8780628503716
 20
-2614.110885932448
 30
0.0
 11
512.8780628503716
 21
-2614.110885932448
 31
0.0
  0
LINE
  5
D0E4
330
2
100
AcDbEntity
  8
L-ZISSEN
100
AcDbLine
 10
490.8780628503716
 20
-2584.910885932448
 30
0.0
 11
514.8780628503716
 21
-2584.910885932448
 31
0.0
  0
LINE
  5
D0E5
330
2
100
AcDbEntity
  8
L-ZISSEN
100
AcDbLine
 10
490.8780628503716
 20
-2583.410885932448
 30
0.0
 11
514.8780628503716
 21
-2583.410885932448
 31
0.0
  0
LINE
  5
D0E6
330
2
100
AcDbEntity
  8
L-ZISSEN
100
AcDbLine
 10
490.8780628503716
 20
-2587.410885932448
 30
0.0
 11
514.8780628503716
 21
-2587.410885932448
 31
0.0
  0
LINE
  5
D0E7
330
2
100
AcDbEntity
  8
L-ZISSEN
100
AcDbLine
 10
521.3780628503723
 20
-2731.34579647238
 30
0.0
 11
506.6280628503712
 21
-2731.345796472381
 31
0.0
  0
LINE
  5
D0E8
330
2
100
AcDbEntity
  8
L-ZISSEN
100
AcDbLine
 10
506.6280628503716
 20
-2721.345796472382
 30
0.0
 11
499.1280628503716
 21
-2721.345796472382
 31
0.0
  0
CIRCLE
  5
D0E9
330
2
100
AcDbEntity
  8
L-ZISSEN
100
AcDbCircle
 10
502.8780628503718
 20
-2740.595796472381
 30
0.0
 40
3.75
  0
LINE
  5
D0EA
330
2
100
AcDbEntity
  8
L-TYUSIN
100
AcDbLine
 10
509.1280628503718
 20
-2740.595796472381
 30
0.0
 11
496.6280628503718
 21
-2740.595796472381
 31
0.0
  0
LINE
  5
D0EB
330
2
100
AcDbEntity
  8
L-ZISSEN
100
AcDbLine
 10
494.1280628503716
 20
-2735.345796472381
 30
0.0
 11
511.6280628503716
 21
-2735.345796472381
 31
0.0
  0
LINE
  5
D0EC
330
2
100
AcDbEntity
  8
L-ZISSEN
100
AcDbLine
 10
499.1280628503716
 20
-2721.345796472382
 30
0.0
 11
499.1280628503716
 21
-2731.34579647238
 31
0.0
  0
SOLID
  5
D0ED
330
2
100
AcDbEntity
  8
L-ZISSEN
100
AcDbTrace
 10
501.1282254912887
 20
-2716.822520932623
 30
0.0
 11
501.555015091065
 21
-2716.310373412892
 31
0.0
 12
502.8780628503716
 22
-2717.846815972086
 32
0.0
 13
502.8780628503716
 23
-2717.846815972086
 33
0.0
  0
LINE
  5
D0EE
330
2
100
AcDbEntity
  8
L-ZISSEN
100
AcDbLine
 10
500.3780628503716
 20
-2746.845796472381
 30
0.0
 11
505.3780628503716
 21
-2746.845796472381
 31
0.0
  0
POLYLINE
  5
D0EF
330
2
100
AcDbEntity
  8
L-ZISSEN
100
AcDb2dPolyline
 66
     1
 10
0.0
 20
0.0
 30
0.0
 70
     1
  0
VERTEX
  5
D512
330
D0EF
100
AcDbEntity
  8
L-ZISSEN
100
AcDbVertex
100
AcDb2dVertex
 10
501.6280628503718
 20
-2741.317484308868
 30
0.0
  0
VERTEX
  5
D513
330
D0EF
100
AcDbEntity
  8
L-ZISSEN
100
AcDbVertex
100
AcDb2dVertex
 10
502.8780628503718
 20
-2742.039172145355
 30
0.0
  0
VERTEX
  5
D514
330
D0EF
100
AcDbEntity
  8
L-ZISSEN
100
AcDbVertex
100
AcDb2dVertex
 10
504.1280628503718
 20
-2741.317484308868
 30
0.0
  0
VERTEX
  5
D515
330
D0EF
100
AcDbEntity
  8
L-ZISSEN
100
AcDbVertex
100
AcDb2dVertex
 10
504.1280628503718
 20
-2739.874108635894
 30
0.0
  0
VERTEX
  5
D516
330
D0EF
100
AcDbEntity
  8
L-ZISSEN
100
AcDbVertex
100
AcDb2dVertex
 10
502.8780628503718
 20
-2739.152420799407
 30
0.0
  0
VERTEX
  5
D517
330
D0EF
100
AcDbEntity
  8
L-ZISSEN
100
AcDbVertex
100
AcDb2dVertex
 10
501.6280628503718
 20
-2739.874108635894
 30
0.0
  0
SEQEND
  5
D518
330
D0EF
100
AcDbEntity
  8
L-ZISSEN
  0
LINE
  5
D0F0
330
2
100
AcDbEntity
  8
L-ZISSEN
100
AcDbLine
 10
506.6280628503713
 20
-2721.345796472382
 30
0.0
 11
506.6280628503712
 21
-2731.34579647238
 31
0.0
  0
LINE
  5
D0F1
330
2
100
AcDbEntity
  8
L-ZISSEN
100
AcDbLine
 10
491.8780628503716
 20
-2587.410885932448
 30
0.0
 11
491.8780628503716
 21
-2596.410885932448
 31
0.0
  0
LINE
  5
D0F2
330
2
100
AcDbEntity
  8
L-ZISSEN
100
AcDbLine
 10
493.8780628503716
 20
-2600.610885932448
 30
0.0
 11
493.878062850372
 21
-2599.910885932448
 31
0.0
  0
LINE
  5
D0F3
330
2
100
AcDbEntity
  8
L-ZISSEN
100
AcDbLine
 10
492.8780628503716
 20
-2599.910885932448
 30
0.0
 11
492.8780628503716
 21
-2596.410885932448
 31
0.0
  0
LINE
  5
D0F4
330
2
100
AcDbEntity
  8
L-ZISSEN
100
AcDbLine
 10
492.8780628503716
 20
-2614.110885932448
 30
0.0
 11
492.8780628503716
 21
-2600.610885932448
 31
0.0
  0
LINE
  5
D0F5
330
2
100
AcDbEntity
  8
L-ZISSEN
100
AcDbLine
 10
490.8780628503716
 20
-2587.410885932448
 30
0.0
 11
490.8780628503716
 21
-2583.410885932448
 31
0.0
  0
LINE
  5
D0F6
330
2
100
AcDbEntity
  8
L-ZISSEN
100
AcDbLine
 10
511.8780628503721
 20
-2600.610885932448
 30
0.0
 11
511.8780628503716
 21
-2599.910885932448
 31
0.0
  0
LINE
  5
D0F7
330
2
100
AcDbEntity
  8
L-ZISSEN
100
AcDbLine
 10
521.3780628503713
 20
-2721.34579647238
 30
0.0
 11
526.8894172886298
 21
-2721.345796472382
 31
0.0
  0
LINE
  5
D0F8
330
2
100
AcDbEntity
  8
L-ZISSEN
100
AcDbLine
 10
521.3780628503723
 20
-2721.34579647238
 30
0.0
 11
521.3780628503723
 21
-2731.34579647238
 31
0.0
  0
LINE
  5
D0F9
330
2
100
AcDbEntity
  8
L-ZISSEN
100
AcDbLine
 10
526.8894172886298
 20
-2731.34579647238
 30
0.0
 11
532.133929911853
 21
-2731.34579647238
 31
0.0
  0
LINE
  5
D0FA
330
2
100
AcDbEntity
  8
L-ZISSEN
100
AcDbLine
 10
526.8894172886298
 20
-2721.345796472382
 30
0.0
 11
526.8894172886298
 21
-2731.34579647238
 31
0.0
  0
LINE
  5
D0FB
330
2
100
AcDbEntity
  8
L-ZISSEN
100
AcDbLine
 10
534.4821912600421
 20
-2722.845796472382
 30
0.0
 11
534.4821912600421
 21
-2718.145796472381
 31
0.0
  0
LINE
  5
D0FC
330
2
100
AcDbEntity
  8
L-ZISSEN
100
AcDbLine
 10
534.9700789457361
 20
-2722.845796472382
 30
0.0
 11
532.9475773115505
 21
-2722.845796472382
 31
0.0
  0
LINE
  5
D0FD
330
2
100
AcDbEntity
  8
L-ZISSEN
100
AcDbLine
 10
534.4821912600421
 20
-2717.846815972086
 30
0.0
 11
534.4821912600421
 21
-2718.145796472381
 31
0.0
  0
LINE
  5
D0FE
330
2
100
AcDbEntity
  8
L-ZISSEN
100
AcDbLine
 10
534.4821912600416
 20
-2758.445796472382
 30
0.0
 11
534.4821912600425
 21
-2735.126841056122
 31
0.0
  0
LINE
  5
D0FF
330
2
100
AcDbEntity
  8
L-ZISSEN
100
AcDbLine
 10
531.4821912600416
 20
-2761.445796472381
 30
0.0
 11
534.4821912600416
 21
-2758.445796472382
 31
0.0
  0
LINE
  5
D100
330
2
100
AcDbEntity
  8
L-ZISSEN
100
AcDbLine
 10
534.4821912600421
 20
-2753.945796472381
 30
0.0
 11
534.9821912600421
 21
-2753.945796472381
 31
0.0
  0
LINE
  5
D101
330
2
100
AcDbEntity
  8
L-ZISSEN
100
AcDbLine
 10
534.4821912600421
 20
-2749.945796472381
 30
0.0
 11
534.9821912600421
 21
-2749.945796472381
 31
0.0
  0
LINE
  5
D102
330
2
100
AcDbEntity
  8
L-ZISSEN
100
AcDbLine
 10
533.2821912600422
 20
-2747.445796472382
 30
0.0
 11
533.2821912600422
 21
-2741.645796472381
 31
0.0
  0
LINE
  5
D103
330
2
100
AcDbEntity
  8
L-ZISSEN
100
AcDbLine
 10
534.4821912600421
 20
-2744.445796472381
 30
0.0
 11
534.4821912600421
 21
-2731.34579647238
 31
0.0
  0
LINE
  5
D104
330
2
100
AcDbEntity
  8
L-ZISSEN
100
AcDbLine
 10
532.3526502785751
 20
-2741.645796472381
 30
0.0
 11
532.3526502785751
 21
-2731.345796472381
 31
0.0
  0
LINE
  5
D105
330
2
100
AcDbEntity
  8
L-ZISSEN
100
AcDbLine
 10
532.3526502785743
 20
-2740.363332867451
 30
0.0
 11
532.3526502785751
 21
-2731.345796472381
 31
0.0
  0
LINE
  5
D106
330
2
100
AcDbEntity
  8
L-ZISSEN
100
AcDbLine
 10
534.4821912600421
 20
-2741.645796472381
 30
0.0
 11
532.3526502785751
 21
-2741.645796472381
 31
0.0
  0
LINE
  5
D107
330
2
100
AcDbEntity
  8
L-ZISSEN
100
AcDbLine
 10
534.9700789457361
 20
-2731.34579647238
 30
0.0
 11
532.3073393441677
 21
-2731.34579647238
 31
0.0
  0
LINE
  5
D108
330
2
100
AcDbEntity
  8
L-ZISSEN
100
AcDbLine
 10
531.7853255166981
 20
-2747.445796472382
 30
0.0
 11
534.4821912600425
 21
-2747.445796472382
 31
0.0
  0
LINE
  5
D109
330
2
100
AcDbEntity
  8
L-ZISSEN
100
AcDbLine
 10
532.133929911853
 20
-2731.345796472381
 30
0.0
 11
532.8340474505989
 21
-2731.345796472381
 31
0.0
  0
LINE
  5
D10A
330
2
100
AcDbEntity
  8
L-ZISSEN
100
AcDbLine
 10
532.9475773115505
 20
-2722.845796472382
 30
0.0
 11
532.9475773115505
 21
-2731.34579647238
 31
0.0
  0
LINE
  5
D10B
330
2
100
AcDbEntity
  8
L-ZISSEN
100
AcDbLine
 10
534.9700789457361
 20
-2722.845796472382
 30
0.0
 11
534.9700789457361
 21
-2731.34579647238
 31
0.0
  0
TEXT
  5
D10C
330
2
100
AcDbEntity
  8
L-ZISSEN
100
AcDbText
 10
529.8859118599043
 20
-2663.365682482842
 30
0.0
 40
4.5
  1
3
100
AcDbText
  0
TEXT
  5
D10D
330
2
100
AcDbEntity
  8
L-ZISSEN
100
AcDbText
 10
529.8859118599043
 20
-2669.876546153041
 30
0.0
 40
4.5
  1
4
100
AcDbText
  0
LINE
  5
D10E
330
2
100
AcDbEntity
  8
L-ZISSEN
100
AcDbLine
 10
519.7280628503665
 20
-2560.94962484408
 30
0.0
 11
523.9430628503703
 21
-2562.949624844081
 31
0.0
  0
ARC
  5
D10F
330
2
100
AcDbEntity
  8
L-ZISSEN
100
AcDbCircle
 10
502.8780628503693
 20
-2484.597480413791
 30
0.0
 40
99.53938471878515
100
AcDbArc
 50
276.9241513684729
 51
283.9062370650422
  0
LINE
  5
D110
330
2
100
AcDbEntity
  8
L-ZISSEN
100
AcDbLine
 10
513.8780628503716
 20
-2587.410885932448
 30
0.0
 11
513.8780628503716
 21
-2596.410885932448
 31
0.0
  0
LINE
  5
D111
330
2
100
AcDbEntity
  8
L-ZISSEN
100
AcDbLine
 10
512.8780628503716
 20
-2599.910885932448
 30
0.0
 11
512.8780628503718
 21
-2596.410885932448
 31
0.0
  0
LINE
  5
D112
330
2
100
AcDbEntity
  8
L-ZISSEN
100
AcDbLine
 10
512.8780628503716
 20
-2614.110885932448
 30
0.0
 11
512.8780628503716
 21
-2600.610885932448
 31
0.0
  0
LINE
  5
D113
330
2
100
AcDbEntity
  8
L-ZISSEN
100
AcDbLine
 10
514.8780628503716
 20
-2587.410885932448
 30
0.0
 11
514.8780628503716
 21
-2583.410885932448
 31
0.0
  0
ARC
  5
D114
330
2
100
AcDbEntity
  8
L-ZISSEN
100
AcDbCircle
 10
524.8780628503675
 20
-2573.453875539263
 30
0.0
 40
8.000000000000113
100
AcDbArc
 50
283.9062370650535
 51
0.0
  0
LINE
  5
D115
330
2
100
AcDbEntity
  8
L-ZISSEN
100
AcDbLine
 10
523.9430628503703
 20
-2562.949624844081
 30
0.0
 11
528.1580628503673
 21
-2560.94962484408
 31
0.0
  0
SOLID
  5
D116
330
2
100
AcDbEntity
  8
L-ZISSEN
100
AcDbTrace
 10
501.1282254912887
 20
-2467.086590892986
 30
0.0
 11
501.555015091065
 21
-2466.574443373254
 31
0.0
 12
502.8780628503716
 22
-2468.110885932449
 32
0.0
 13
502.8780628503716
 23
-2468.110885932449
 33
0.0
  0
LINE
  5
D117
330
2
100
AcDbEntity
  8
L-ZISSEN
100
AcDbLine
 10
528.1580628503718
 20
-2478.44962484408
 30
0.0
 11
519.7280628503688
 21
-2478.44962484408
 31
0.0
  0
LINE
  5
D118
330
2
100
AcDbEntity
  8
L-ZISSEN
100
AcDbLine
 10
534.7055743441671
 20
-2491.91790822953
 30
0.0
 11
534.7055743441671
 21
-2493.75387669964
 31
0.0
  0
LINE
  5
D119
330
2
100
AcDbEntity
  8
L-ZISSEN
100
AcDbLine
 10
532.9419002003954
 20
-2501.233852447084
 30
0.0
 11
534.7055743441671
 21
-2493.75387669964
 31
0.0
  0
LINE
  5
D11A
330
2
100
AcDbEntity
  8
L-ZISSEN
100
AcDbLine
 10
534.4284840311513
 20
-2501.584368217908
 30
0.0
 11
532.8780628503716
 21
-2501.584368217908
 31
0.0
  0
TEXT
  5
D11B
330
2
100
AcDbEntity
  8
L-ZISSEN
100
AcDbText
 10
529.8859118599043
 20
-2428.098078599953
 30
0.0
 40
4.5
  1
4
100
AcDbText
  0
TEXT
  5
D11C
330
2
100
AcDbEntity
  8
L-ZISSEN
100
AcDbText
 10
529.8859118599043
 20
-2421.587214929752
 30
0.0
 40
4.5
  1
3
100
AcDbText
  0
LINE
  5
D11D
330
2
100
AcDbEntity
  8
L-ZISSEN
100
AcDbLine
 10
536.6821912600423
 20
-2737.610449983777
 30
0.0
 11
542.482191260042
 21
-2738.221248376152
 31
0.0
  0
LINE
  5
D11E
330
2
100
AcDbEntity
  8
L-ZISSEN
100
AcDbLine
 10
536.6821912600423
 20
-2718.145796472381
 30
0.0
 11
536.6821912600423
 21
-2737.610449983777
 31
0.0
  0
LINE
  5
D11F
330
2
100
AcDbEntity
  8
L-ZISSEN
100
AcDbLine
 10
542.482191260042
 20
-2738.221248376152
 30
0.0
 11
542.482191260042
 21
-2742.50541735875
 31
0.0
  0
LINE
  5
D120
330
2
100
AcDbEntity
  8
L-ZISSEN
100
AcDbLine
 10
537.8780628503716
 20
-2489.110885932448
 30
0.0
 11
541.8780628503703
 21
-2489.775823738231
 31
0.0
  0
LINE
  5
D121
330
2
100
AcDbEntity
  8
L-ZISSEN
100
AcDbLine
 10
541.8780628503703
 20
-2494.059992720829
 30
0.0
 11
536.378062850373
 21
-2496.000371834459
 31
0.0
  0
LINE
  5
D122
330
2
100
AcDbEntity
  8
L-ZISSEN
100
AcDbLine
 10
537.8780628503716
 20
-2468.110885932449
 30
0.0
 11
537.8780628503716
 21
-2489.110885932448
 31
0.0
  0
LINE
  5
D123
330
2
100
AcDbEntity
  8
L-ZISSEN
100
AcDbLine
 10
536.1921581749231
 20
-2496.000371834459
 30
0.0
 11
536.1921581749231
 21
-2468.110885932449
 31
0.0
  0
LINE
  5
D124
330
2
100
AcDbEntity
  8
L-ZISSEN
100
AcDbLine
 10
536.1921581749231
 20
-2494.104392470464
 30
0.0
 11
536.1921581749231
 21
-2491.917908229529
 31
0.0
  0
LINE
  5
D125
330
2
100
AcDbEntity
  8
L-ZISSEN
100
AcDbLine
 10
536.378062850373
 20
-2496.000371834459
 30
0.0
 11
536.1921581749231
 21
-2496.000371834459
 31
0.0
  0
LINE
  5
D126
330
2
100
AcDbEntity
  8
L-ZISSEN
100
AcDbLine
 10
541.8780628503703
 20
-2489.775823738231
 30
0.0
 11
541.8780628503703
 21
-2494.059992720829
 31
0.0
  0
ARC
  5
D129
330
2
100
AcDbEntity
  8
L-ZISSEN
100
AcDbCircle
 10
674.8780628503675
 20
-2573.453875539263
 30
0.0
 40
8.000000000000113
100
AcDbArc
 50
283.9062370650535
 51
0.0
  0
LINE
  5
D12A
330
2
100
AcDbEntity
  8
L-ZISSEN
100
AcDbLine
 10
676.8894172886298
 20
-2731.345796472379
 30
0.0
 11
682.133929911853
 21
-2731.345796472379
 31
0.0
  0
ARC
  5
D12B
330
2
100
AcDbEntity
  8
L-ZISSEN
100
AcDbCircle
 10
670.4214085016315
 20
-2810.332970217705
 30
0.0
 40
10.0
100
AcDbArc
 50
274.868444062882
 51
358.9999999999721
  0
LINE
  5
D12C
330
2
100
AcDbEntity
  8
L-ZISSEN
100
AcDbLine
 10
620.6334719700048
 20
-2735.345796472381
 30
0.0
 11
620.6334719700066
 21
-2812.345796472381
 31
0.0
  0
LINE
  5
D12D
330
2
100
AcDbEntity
  8
L-ZISSEN
 48
0.3
100
AcDbLine
 10
625.7312551655218
 20
-2812.345796472381
 30
0.0
 11
625.7312551655218
 21
-2735.345796472381
 31
0.0
  0
LINE
  5
D12E
330
2
100
AcDbEntity
  8
L-ZISSEN
100
AcDbLine
 10
611.1334719700048
 20
-2735.345796472381
 30
0.0
 11
611.1334719700066
 21
-2812.345796472381
 31
0.0
  0
ARC
  5
D12F
330
2
100
AcDbEntity
  8
L-ZISSEN
100
AcDbCircle
 10
635.3347171991122
 20
-2810.332970217705
 30
0.0
 40
10.0
100
AcDbArc
 50
191.6119735011067
 51
265.1315559371177
  0
LINE
  5
D130
330
2
100
AcDbEntity
  8
L-TYUSIN
100
AcDbLine
 10
627.2743476792215
 20
-2807.345796472381
 30
0.0
 11
604.2334719700051
 21
-2807.345796472381
 31
0.0
  0
LINE
  5
D131
330
2
100
AcDbEntity
  8
L-ZISSEN
100
AcDbLine
 10
611.1334719700048
 20
-2812.345796472381
 30
0.0
 11
620.6334719700048
 21
-2812.345796472381
 31
0.0
  0
ARC
  5
D132
330
2
100
AcDbEntity
  8
L-ZISSEN
100
AcDbCircle
 10
611.5454745377824
 20
-2805.621009956564
 30
0.0
 40
2.312215931624567
100
AcDbArc
 50
100.2640683722085
 51
180.7783719766075
  0
ARC
  5
D133
330
2
100
AcDbEntity
  8
L-ZISSEN
100
AcDbCircle
 10
611.5454745377824
 20
-2808.570582988199
 30
0.0
 40
2.312215931624567
100
AcDbArc
 50
179.2216280233924
 51
259.7359316277914
  0
LINE
  5
D134
330
2
100
AcDbEntity
  8
L-ZISSEN
100
AcDbLine
 10
609.2334719700052
 20
-2808.539172145355
 30
0.0
 11
609.2334719700049
 21
-2805.652420799408
 31
0.0
  0
LINE
  5
D135
330
2
100
AcDbEntity
  8
L-ZISSEN
 48
0.3
100
AcDbLine
 10
624.4312551655216
 20
-2812.345796472381
 30
0.0
 11
625.7312551655218
 21
-2812.345796472381
 31
0.0
  0
LINE
  5
D136
330
2
100
AcDbEntity
  8
L-ZISSEN
100
AcDbLine
 10
620.6334719700066
 20
-2812.345796472381
 30
0.0
 11
624.4312551655216
 21
-2812.345796472381
 31
0.0
  0
LINE
  5
D137
330
2
100
AcDbEntity
  8
L-ZISSEN
100
AcDbLine
 10
643.442895582154
 20
-2824.845796472382
 30
0.0
 11
662.313230118591
 21
-2824.845796472382
 31
0.0
  0
LINE
  5
D138
330
2
100
AcDbEntity
  8
L-ZISSEN
100
AcDbLine
 10
643.4428955821536
 20
-2821.345796472382
 30
0.0
 11
662.313230118591
 21
-2821.345796472382
 31
0.0
  0
LINE
  5
D139
330
2
100
AcDbEntity
  8
L-ZISSEN
100
AcDbLine
 10
658.6108616286272
 20
-2839.846815972086
 30
0.0
 11
647.2108616286284
 21
-2839.846815972086
 31
0.0
  0
ARC
  5
D13A
330
2
100
AcDbEntity
  8
L-ZISSEN
100
AcDbCircle
 10
652.9108616286277
 20
-2845.487878646003
 30
0.0
 40
20.64106267391679
100
AcDbArc
 50
77.50558048157245
 51
102.6763186877432
  0
ARC
  5
D13B
330
2
100
AcDbEntity
  8
L-ZISSEN
100
AcDbCircle
 10
652.9108616286277
 20
-2807.205753298169
 30
0.0
 40
20.64106267391694
100
AcDbArc
 50
257.3236813122694
 51
282.4944195184275
  0
LINE
  5
D13C
330
2
100
AcDbEntity
  8
L-ZISSEN
100
AcDbLine
 10
647.4108616286259
 20
-2829.787981382578
 30
0.0
 11
655.9108616286273
 21
-2829.787981382578
 31
0.0
  0
LINE
  5
D13D
330
2
100
AcDbEntity
  8
L-ZISSEN
100
AcDbLine
 10
646.1325460121231
 20
-2824.846194857268
 30
0.0
 11
659.6235796886214
 21
-2824.845398087497
 31
0.0
  0
LINE
  5
D13E
330
2
100
AcDbEntity
  8
L-ZISSEN
100
AcDbLine
 10
646.1325460121231
 20
-2827.847437086906
 30
0.0
 11
659.6235796886214
 21
-2827.848233856677
 31
0.0
  0
LINE
  5
D13F
330
2
100
AcDbEntity
  8
L-ZISSEN
100
AcDbLine
 10
643.4428955821527
 20
-2821.345796472382
 30
0.0
 11
634.4860355185551
 21
-2820.296892106453
 31
0.0
  0
ARC
  5
D140
330
2
100
AcDbEntity
  8
L-ZISSEN
100
AcDbCircle
 10
646.1325460121231
 20
-2830.117525027638
 30
0.0
 40
5.271330170370607
100
AcDbArc
 50
64.74766100341156
 51
114.9228807251722
  0
LINE
  5
D141
330
2
100
AcDbEntity
  8
L-ZISSEN
100
AcDbLine
 10
647.9108616286302
 20
-2827.847512583215
 30
0.0
 11
647.910861628626
 21
-2829.787981382578
 31
0.0
  0
LINE
  5
D142
330
2
100
AcDbEntity
  8
L-ZISSEN
100
AcDbLine
 10
648.3813253106093
 20
-2825.349935130035
 30
0.0
 11
648.3813253106161
 21
-2827.343696814138
 31
0.0
  0
LINE
  5
D143
330
2
100
AcDbEntity
  8
L-ZISSEN
100
AcDbLine
 10
647.4108616286259
 20
-2829.787981382578
 30
0.0
 11
646.9108616286287
 21
-2830.287981382578
 31
0.0
  0
LINE
  5
D144
330
2
100
AcDbEntity
  8
L-ZISSEN
100
AcDbLine
 10
643.9112180085437
 20
-2825.33708324203
 30
0.0
 11
643.9112180085437
 21
-2827.356548702143
 31
0.0
  0
LINE
  5
D145
330
2
100
AcDbEntity
  8
L-ZISSEN
100
AcDbLine
 10
647.4108616286287
 20
-2829.287981382578
 30
0.0
 11
647.4108616286287
 21
-2827.846815972086
 31
0.0
  0
LINE
  5
D146
330
2
100
AcDbEntity
  8
L-ZISSEN
100
AcDbLine
 10
647.910861628626
 20
-2829.787981382578
 30
0.0
 11
647.4108616286287
 21
-2829.287981382578
 31
0.0
  0
ARC
  5
D147
330
2
100
AcDbEntity
  8
L-ZISSEN
100
AcDbCircle
 10
646.1325460121231
 20
-2822.576106916535
 30
0.0
 40
5.271330170370607
100
AcDbArc
 50
245.0771192748277
 51
295.2523389966474
  0
LINE
  5
D148
330
2
100
AcDbEntity
  8
L-ZISSEN
100
AcDbLine
 10
647.2108616286284
 20
-2839.846815972086
 30
0.0
 11
646.9108616286287
 21
-2839.546815972086
 31
0.0
  0
LINE
  5
D149
330
2
100
AcDbEntity
  8
L-ZISSEN
100
AcDbLine
 10
648.9108616286269
 20
-2829.787981382578
 30
0.0
 11
648.9108616286269
 21
-2839.846815972086
 31
0.0
  0
LINE
  5
D14A
330
2
100
AcDbEntity
  8
L-ZISSEN
100
AcDbLine
 10
647.9108616286278
 20
-2829.787981382578
 30
0.0
 11
647.910861628628
 21
-2839.846815972086
 31
0.0
  0
LINE
  5
D14B
330
2
100
AcDbEntity
  8
L-ZISSEN
100
AcDbLine
 10
646.9108616286284
 20
-2839.546815972086
 30
0.0
 11
646.9108616286287
 21
-2830.287981382578
 31
0.0
  0
LINE
  5
D14C
330
2
100
AcDbEntity
  8
L-ZISSEN
100
AcDbLine
 10
654.9108616286282
 20
-2829.787981382578
 30
0.0
 11
654.9108616286284
 21
-2839.846815972086
 31
0.0
  0
LINE
  5
D14D
330
2
100
AcDbEntity
  8
L-ZISSEN
100
AcDbLine
 10
653.9108616286291
 20
-2829.787981382578
 30
0.0
 11
653.9108616286293
 21
-2839.846815972086
 31
0.0
  0
LINE
  5
D14E
330
2
100
AcDbEntity
  8
L-ZISSEN
100
AcDbLine
 10
652.9108616286301
 20
-2829.787981382578
 30
0.0
 11
652.9108616286302
 21
-2839.846815972086
 31
0.0
  0
LINE
  5
D14F
330
2
100
AcDbEntity
  8
L-ZISSEN
100
AcDbLine
 10
651.9108616286287
 20
-2829.787981382578
 30
0.0
 11
651.9108616286289
 21
-2839.846815972086
 31
0.0
  0
LINE
  5
D150
330
2
100
AcDbEntity
  8
L-ZISSEN
100
AcDbLine
 10
650.9108616286296
 20
-2829.787981382578
 30
0.0
 11
650.9108616286298
 21
-2839.846815972086
 31
0.0
  0
LINE
  5
D151
330
2
100
AcDbEntity
  8
L-ZISSEN
100
AcDbLine
 10
649.9108616286283
 20
-2829.787981382578
 30
0.0
 11
649.9108616286284
 21
-2839.846815972086
 31
0.0
  0
LINE
  5
D152
330
2
100
AcDbEntity
  8
L-ZISSEN
100
AcDbLine
 10
643.4428955821536
 20
-2821.345796472382
 30
0.0
 11
643.442895582154
 21
-2824.845796472382
 31
0.0
  0
LINE
  5
D153
330
2
100
AcDbEntity
  8
L-ZISSEN
100
AcDbLine
 10
662.313230118591
 20
-2821.345796472382
 30
0.0
 11
671.2700901821886
 21
-2820.296892106453
 31
0.0
  0
ARC
  5
D154
330
2
100
AcDbEntity
  8
L-ZISSEN
100
AcDbCircle
 10
659.6235796886214
 20
-2830.116728257867
 30
0.0
 40
5.271330170371789
100
AcDbArc
 50
64.28835488513612
 51
115.2591066834208
  0
ARC
  5
D155
330
2
100
AcDbEntity
  8
L-ZISSEN
100
AcDbCircle
 10
659.6235796886214
 20
-2822.576903686306
 30
0.0
 40
5.271330170371532
100
AcDbArc
 50
244.7408933165791
 51
295.7116451148636
  0
LINE
  5
D156
330
2
100
AcDbEntity
  8
L-ZISSEN
100
AcDbLine
 10
657.9108616286316
 20
-2827.848162234509
 30
0.0
 11
657.9108616286273
 21
-2829.787981382578
 31
0.0
  0
LINE
  5
D157
330
2
100
AcDbEntity
  8
L-ZISSEN
100
AcDbLine
 10
657.9108616286273
 20
-2829.787981382578
 30
0.0
 11
658.4108616286268
 21
-2829.287981382578
 31
0.0
  0
LINE
  5
D158
330
2
100
AcDbEntity
  8
L-ZISSEN
100
AcDbLine
 10
655.9108616286273
 20
-2829.787981382578
 30
0.0
 11
658.4108616286273
 21
-2829.787981382578
 31
0.0
  0
LINE
  5
D159
330
2
100
AcDbEntity
  8
L-ZISSEN
100
AcDbLine
 10
658.4108616286273
 20
-2829.787981382578
 30
0.0
 11
658.9108616286268
 21
-2830.287981382578
 31
0.0
  0
LINE
  5
D15A
330
2
100
AcDbEntity
  8
L-ZISSEN
100
AcDbLine
 10
657.3742372656449
 20
-2825.349404015772
 30
0.0
 11
657.3742372656449
 21
-2827.344227928401
 31
0.0
  0
LINE
  5
D15B
330
2
100
AcDbEntity
  8
L-ZISSEN
100
AcDbLine
 10
658.4108616286271
 20
-2829.287981382577
 30
0.0
 11
658.4108616286268
 21
-2827.846815972086
 31
0.0
  0
LINE
  5
D15C
330
2
100
AcDbEntity
  8
L-ZISSEN
100
AcDbLine
 10
658.6108616286272
 20
-2839.846815972086
 30
0.0
 11
658.9108616286268
 21
-2839.546815972086
 31
0.0
  0
LINE
  5
D15D
330
2
100
AcDbEntity
  8
L-ZISSEN
100
AcDbLine
 10
658.9108616286268
 20
-2830.287981382578
 30
0.0
 11
658.9108616286268
 21
-2839.546815972086
 31
0.0
  0
LINE
  5
D15E
330
2
100
AcDbEntity
  8
L-ZISSEN
100
AcDbLine
 10
657.91086162863
 20
-2829.787981382578
 30
0.0
 11
657.9108616286321
 21
-2839.846815972086
 31
0.0
  0
LINE
  5
D15F
330
2
100
AcDbEntity
  8
L-ZISSEN
100
AcDbLine
 10
656.9108616286309
 20
-2829.787981382578
 30
0.0
 11
656.9108616286312
 21
-2839.846815972086
 31
0.0
  0
LINE
  5
D160
330
2
100
AcDbEntity
  8
L-ZISSEN
100
AcDbLine
 10
655.9108616286273
 20
-2829.787981382578
 30
0.0
 11
655.9108616286273
 21
-2839.846815972086
 31
0.0
  0
LINE
  5
D161
330
2
100
AcDbEntity
  8
L-ZISSEN
100
AcDbLine
 10
661.9105052487141
 20
-2825.367318478992
 30
0.0
 11
661.9105052487141
 21
-2827.32631346518
 31
0.0
  0
LINE
  5
D162
330
2
100
AcDbEntity
  8
L-ZISSEN
100
AcDbLine
 10
662.313230118591
 20
-2821.345796472382
 30
0.0
 11
662.3132301185905
 21
-2824.845796472382
 31
0.0
  0
TEXT
  5
D163
330
2
100
AcDbEntity
  8
L-ZISSEN
100
AcDbText
 10
624.8780628503718
 20
-2457.860885932449
 30
0.0
 40
4.5
  1
P.P
100
AcDbText
  0
TEXT
  5
D164
330
2
100
AcDbEntity
  8
L-ZISSEN
100
AcDbText
 10
624.8780628503718
 20
-2707.596815972086
 30
0.0
 40
4.5
  1
P.P
100
AcDbText
  0
LINE
  5
D165
330
2
100
AcDbEntity
  8
L-ZISSEN
100
AcDbLine
 10
627.5980628503714
 20
-2478.44962484408
 30
0.0
 11
636.0280628503722
 21
-2478.44962484408
 31
0.0
  0
ARC
  5
D166
330
2
100
AcDbEntity
  8
L-ZISSEN
100
AcDbCircle
 10
652.8780628503693
 20
-2484.597480413791
 30
0.0
 40
99.53938471878538
100
AcDbArc
 50
256.0937629349463
 51
263.0758486315294
  0
LINE
  5
D167
330
2
100
AcDbEntity
  8
L-ZISSEN
100
AcDbLine
 10
631.8130628503706
 20
-2562.949624844081
 30
0.0
 11
627.5980628503714
 21
-2560.949624844081
 31
0.0
  0
LINE
  5
D168
330
2
100
AcDbEntity
  8
L-ZISSEN
100
AcDbLine
 10
626.3780628503723
 20
-2721.345796472382
 30
0.0
 11
634.3780628503723
 21
-2721.345796472382
 31
0.0
  0
LINE
  5
D169
330
2
100
AcDbEntity
  8
L-ZISSEN
100
AcDbLine
 10
627.5980628503714
 20
-2478.44962484408
 30
0.0
 11
627.5980628503714
 21
-2560.949624844081
 31
0.0
  0
LINE
  5
D16A
330
2
100
AcDbEntity
  8
L-ZISSEN
100
AcDbLine
 10
622.8780628503716
 20
-2573.453875539263
 30
0.0
 11
622.8780628503716
 21
-2468.110885932449
 31
0.0
  0
LINE
  5
D16B
330
2
100
AcDbEntity
  8
L-TYUSIN
100
AcDbLine
 10
604.2334719700051
 20
-2740.345796472381
 30
0.0
 11
628.7551466796553
 21
-2740.345796472381
 31
0.0
  0
LINE
  5
D16C
330
2
100
AcDbEntity
  8
L-ZISSEN
100
AcDbLine
 10
618.9220782501447
 20
-2735.345796472381
 30
0.0
 11
622.3780628503723
 21
-2735.345796472381
 31
0.0
  0
LINE
  5
D16D
330
2
100
AcDbEntity
  8
L-ZISSEN
100
AcDbLine
 10
611.1334719700048
 20
-2735.345796472381
 30
0.0
 11
620.6334719700048
 21
-2735.345796472381
 31
0.0
  0
LINE
  5
D16E
330
2
100
AcDbEntity
  8
L-ZISSEN
100
AcDbLine
 10
609.2334719700052
 20
-2739.152420799407
 30
0.0
 11
609.2334719700049
 21
-2742.039172145355
 31
0.0
  0
ARC
  5
D16F
330
2
100
AcDbEntity
  8
L-ZISSEN
100
AcDbCircle
 10
611.5454745377824
 20
-2739.121009956563
 30
0.0
 40
2.312215931624567
100
AcDbArc
 50
100.2640683722081
 51
180.7783719766075
  0
ARC
  5
D170
330
2
100
AcDbEntity
  8
L-ZISSEN
100
AcDbCircle
 10
611.5454745377824
 20
-2742.070582988199
 30
0.0
 40
2.312215931624567
100
AcDbArc
 50
179.2216280233924
 51
259.7359316277914
  0
LINE
  5
D171
330
2
100
AcDbEntity
  8
L-ZISSEN
100
AcDbLine
 10
622.9220782501447
 20
-2731.345796472381
 30
0.0
 11
626.3780628503723
 21
-2731.345796472381
 31
0.0
  0
LINE
  5
D172
330
2
100
AcDbEntity
  8
L-ZISSEN
 48
0.3
100
AcDbLine
 10
625.7312551655218
 20
-2735.345796472381
 30
0.0
 11
623.7335895087512
 21
-2735.345796472381
 31
0.0
  0
LINE
  5
D173
330
2
100
AcDbEntity
  8
L-ZISSEN
100
AcDbLine
 10
622.6746919153379
 20
-2717.846815972086
 30
0.0
 11
622.9220782501447
 21
-2731.345796472381
 31
0.0
  0
LINE
  5
D174
330
2
100
AcDbEntity
  8
L-ZISSEN
100
AcDbLine
 10
623.6221957888915
 20
-2731.345796472381
 30
0.0
 11
623.6600495875798
 21
-2735.345796472381
 31
0.0
  0
LINE
  5
D175
330
2
100
AcDbEntity
  8
L-ZISSEN
100
AcDbLine
 10
620.6334719700048
 20
-2735.345796472381
 30
0.0
 11
623.7335895087512
 21
-2735.345796472381
 31
0.0
  0
LINE
  5
D176
330
2
100
AcDbEntity
  8
L-ZISSEN
100
AcDbLine
 10
626.3780628503723
 20
-2721.345796472382
 30
0.0
 11
626.3780628503723
 21
-2731.345796472381
 31
0.0
  0
ARC
  5
D177
330
2
100
AcDbEntity
  8
L-ZISSEN
100
AcDbCircle
 10
630.8780628503689
 20
-2573.453875539263
 30
0.0
 40
8.000000000000113
100
AcDbArc
 50
180.0
 51
256.093762934765
  0
ARC
  5
D178
330
2
100
AcDbEntity
  8
L-ZISSEN
100
AcDbCircle
 10
665.6905628503716
 20
-2506.860885932449
 30
0.0
 40
1.249999999999715
100
AcDbArc
 50
270.0
 51
0.0
  0
LINE
  5
D179
330
2
100
AcDbEntity
  8
L-ZISSEN
100
AcDbLine
 10
662.2530628503693
 20
-2500.610885932449
 30
0.0
 11
662.2530628503693
 21
-2508.110885932449
 31
0.0
  0
LINE
  5
D17A
330
2
100
AcDbEntity
  8
L-ZISSEN
100
AcDbLine
 10
643.5030628503716
 20
-2500.610885932448
 30
0.0
 11
643.5030628503693
 21
-2508.110885932449
 31
0.0
  0
ARC
  5
D17B
330
2
100
AcDbEntity
  8
L-ZISSEN
100
AcDbCircle
 10
640.0655628503716
 20
-2506.860885932449
 30
0.0
 40
1.250000000000568
100
AcDbArc
 50
180.0
 51
270.0
  0
LINE
  5
D17C
330
2
100
AcDbEntity
  8
L-ZISSEN
100
AcDbLine
 10
636.0280628503722
 20
-2478.44962484408
 30
0.0
 11
636.0280628503722
 21
-2560.949624844081
 31
0.0
  0
LINE
  5
D17D
330
2
100
AcDbEntity
  8
L-ZISSEN
100
AcDbLine
 10
678.1580628503718
 20
-2478.44962484408
 30
0.0
 11
678.1580628503718
 21
-2560.949624844081
 31
0.0
  0
LINE
  5
D17E
330
2
100
AcDbEntity
  8
L-ZISSEN
100
AcDbLine
 10
669.7280628503711
 20
-2478.44962484408
 30
0.0
 11
669.7280628503711
 21
-2560.949624844081
 31
0.0
  0
LINE
  5
D17F
330
2
100
AcDbEntity
  8
L-ZISSEN
100
AcDbLine
 10
640.0655628503716
 20
-2508.110885932449
 30
0.0
 11
665.6905628503716
 21
-2508.110885932449
 31
0.0
  0
LINE
  5
D180
330
2
100
AcDbEntity
  8
L-ZISSEN
100
AcDbLine
 10
640.8780628503716
 20
-2584.910885932448
 30
0.0
 11
664.8780628503716
 21
-2584.910885932448
 31
0.0
  0
LINE
  5
D181
330
2
100
AcDbEntity
  8
L-ZISSEN
100
AcDbLine
 10
640.8780628503716
 20
-2583.410885932448
 30
0.0
 11
664.8780628503716
 21
-2583.410885932448
 31
0.0
  0
LINE
  5
D182
330
2
100
AcDbEntity
  8
L-ZISSEN
100
AcDbLine
 10
640.8780628503716
 20
-2587.410885932448
 30
0.0
 11
664.8780628503716
 21
-2587.410885932448
 31
0.0
  0
LINE
  5
D183
330
2
100
AcDbEntity
  8
L-ZISSEN
100
AcDbLine
 10
663.8780628503716
 20
-2596.410885932448
 30
0.0
 11
641.8780628503716
 21
-2596.410885932448
 31
0.0
  0
LINE
  5
D184
330
2
100
AcDbEntity
  8
L-ZISSEN
100
AcDbLine
 10
642.8780628503716
 20
-2599.910885932448
 30
0.0
 11
662.8780628503716
 21
-2599.910885932448
 31
0.0
  0
LINE
  5
D185
330
2
100
AcDbEntity
  8
L-ZISSEN
100
AcDbLine
 10
642.8780628503716
 20
-2600.610885932448
 30
0.0
 11
662.8780628503716
 21
-2600.610885932448
 31
0.0
  0
LINE
  5
D186
330
2
100
AcDbEntity
  8
L-ZISSEN
100
AcDbLine
 10
642.8780628503716
 20
-2614.110885932448
 30
0.0
 11
662.8780628503716
 21
-2614.110885932448
 31
0.0
  0
LINE
  5
D187
330
2
100
AcDbEntity
  8
L-ZISSEN
100
AcDbLine
 10
655.7573128503734
 20
-2728.130046472379
 30
0.0
 11
652.8780628503731
 21
-2732.92879647238
 31
0.0
  0
LINE
  5
D188
330
2
100
AcDbEntity
  8
L-ZISSEN
100
AcDbLine
 10
653.8378128503731
 20
-2728.130046472379
 30
0.0
 11
655.7573128503734
 21
-2728.130046472379
 31
0.0
  0
LINE
  5
D189
330
2
100
AcDbEntity
  8
L-ZISSEN
100
AcDbLine
 10
652.8780628503716
 20
-2744.44579647238
 30
0.0
 11
663.6752503503698
 21
-2741.56654647238
 31
0.0
  0
LINE
  5
D18A
330
2
100
AcDbEntity
  8
L-ZISSEN
100
AcDbLine
 10
662.0259646112974
 20
-2740.562283659761
 30
0.0
 11
652.8780628503716
 21
-2742.477451712529
 31
0.0
  0
LINE
  5
D18B
330
2
100
AcDbEntity
  8
L-ZISSEN
100
AcDbLine
 10
652.8780628503716
 20
-2738.365720531479
 30
0.0
 11
662.0259646112974
 21
-2737.058877422776
 31
0.0
  0
LINE
  5
D18C
330
2
100
AcDbEntity
  8
L-ZISSEN
100
AcDbLine
 10
652.8780628503716
 20
-2737.727546472381
 30
0.0
 11
662.9554378503699
 21
-2736.28792147238
 31
0.0
  0
LINE
  5
D18D
330
2
100
AcDbEntity
  8
L-ZISSEN
100
AcDbLine
 10
664.8780628503716
 20
-2718.145796472381
 30
0.0
 11
640.8780628503716
 21
-2718.145796472381
 31
0.0
  0
LINE
  5
D18E
330
2
100
AcDbEntity
  8
L-ZISSEN
100
AcDbLine
 10
643.2780628503719
 20
-2758.445796472381
 30
0.0
 11
662.4780628503717
 21
-2758.445796472381
 31
0.0
  0
LINE
  5
D18F
330
2
100
AcDbEntity
  8
L-ZISSEN
100
AcDbLine
 10
642.8780628503714
 20
-2761.445796472381
 30
0.0
 11
662.8780628503713
 21
-2761.445796472381
 31
0.0
  0
LINE
  5
D190
330
2
100
AcDbEntity
  8
L-ZISSEN
100
AcDbLine
 10
645.2780628503719
 20
-2756.44579647238
 30
0.0
 11
660.4780628503718
 21
-2756.44579647238
 31
0.0
  0
LINE
  5
D191
330
2
100
AcDbEntity
  8
L-ZISSEN
100
AcDbLine
 10
645.2780628503719
 20
-2755.44579647238
 30
0.0
 11
660.4780628503718
 21
-2755.44579647238
 31
0.0
  0
LINE
  5
D192
330
2
100
AcDbEntity
  8
L-TYUSIN
100
AcDbLine
 10
645.2780628503719
 20
-2751.94579647238
 30
0.0
 11
660.4780628503718
 21
-2751.94579647238
 31
0.0
  0
LINE
  5
D193
330
2
100
AcDbEntity
  8
L-ZISSEN
100
AcDbLine
 10
651.3416202911769
 20
-2716.566447172757
 30
0.0
 11
637.8780628503719
 21
-2705.346815972086
 31
0.0
  0
LINE
  5
D194
330
2
100
AcDbEntity
  8
L-ZISSEN
100
AcDbLine
 10
642.3780628503713
 20
-2747.445796472381
 30
0.0
 11
645.2780628503715
 21
-2747.445796472382
 31
0.0
  0
LINE
  5
D195
330
2
100
AcDbEntity
  8
L-ZISSEN
100
AcDbLine
 10
642.0808753503697
 20
-2741.56654647238
 30
0.0
 11
643.7301610894458
 21
-2740.562283659761
 31
0.0
  0
LINE
  5
D196
330
2
100
AcDbEntity
  8
L-ZISSEN
100
AcDbLine
 10
643.2780628503719
 20
-2758.44579647238
 30
0.0
 11
642.8780628503714
 21
-2761.445796472381
 31
0.0
  0
LINE
  5
D197
330
2
100
AcDbEntity
  8
L-ZISSEN
100
AcDbLine
 10
643.7301610894458
 20
-2736.420703363677
 30
0.0
 11
642.8006878503697
 21
-2736.28792147238
 31
0.0
  0
LINE
  5
D198
330
2
100
AcDbEntity
  8
L-ZISSEN
100
AcDbLine
 10
643.7301610894458
 20
-2737.058877422776
 30
0.0
 11
642.8006878503697
 21
-2736.28792147238
 31
0.0
  0
LINE
  5
D199
330
2
100
AcDbEntity
  8
L-ZISSEN
100
AcDbLine
 10
652.8780628503716
 20
-2744.44579647238
 30
0.0
 11
642.0808753503697
 21
-2741.56654647238
 31
0.0
  0
LINE
  5
D19A
330
2
100
AcDbEntity
  8
L-ZISSEN
100
AcDbLine
 10
652.8780628503716
 20
-2737.727546472381
 30
0.0
 11
642.8006878503697
 21
-2736.28792147238
 31
0.0
  0
LINE
  5
D19B
330
2
100
AcDbEntity
  8
L-ZISSEN
100
AcDbLine
 10
637.8780628503719
 20
-2705.346815972086
 30
0.0
 11
635.8780628503718
 21
-2705.346815972086
 31
0.0
  0
LINE
  5
D19C
330
2
100
AcDbEntity
  8
L-ZISSEN
100
AcDbLine
 10
634.3780628503723
 20
-2731.34579647238
 30
0.0
 11
641.3780628503722
 21
-2731.34579647238
 31
0.0
  0
LINE
  5
D19D
330
2
100
AcDbEntity
  8
L-ZISSEN
100
AcDbLine
 10
634.3780628503723
 20
-2721.345796472382
 30
0.0
 11
634.3780628503723
 21
-2731.345796472381
 31
0.0
  0
LINE
  5
D19E
330
2
100
AcDbEntity
  8
L-ZISSEN
100
AcDbLine
 10
641.8780628503713
 20
-2718.145796472381
 30
0.0
 11
641.8780628503713
 21
-2746.945796472381
 31
0.0
  0
LINE
  5
D19F
330
2
100
AcDbEntity
  8
L-ZISSEN
100
AcDbLine
 10
642.0808753503699
 20
-2718.145796472381
 30
0.0
 11
642.0808753503697
 21
-2741.56654647238
 31
0.0
  0
LINE
  5
D1A0
330
2
100
AcDbEntity
  8
L-ZISSEN
100
AcDbLine
 10
642.8780628503714
 20
-2747.44579647238
 30
0.0
 11
642.8780628503714
 21
-2761.445796472381
 31
0.0
  0
LINE
  5
D1A1
330
2
100
AcDbEntity
  8
L-ZISSEN
100
AcDbLine
 10
642.8006878503697
 20
-2718.145796472381
 30
0.0
 11
642.8006878503697
 21
-2736.28792147238
 31
0.0
  0
LINE
  5
D1A2
330
2
100
AcDbEntity
  8
L-ZISSEN
100
AcDbLine
 10
640.8780628503718
 20
-2717.846815972086
 30
0.0
 11
640.8780628503716
 21
-2718.145796472381
 31
0.0
  0
LINE
  5
D1A3
330
2
100
AcDbEntity
  8
L-ZISSEN
100
AcDbLine
 10
640.5780628503721
 20
-2722.845796472382
 30
0.0
 11
640.5780628503721
 21
-2731.34579647238
 31
0.0
  0
LINE
  5
D1A4
330
2
100
AcDbEntity
  8
L-ZISSEN
100
AcDbLine
 10
640.5780628503721
 20
-2722.845796472382
 30
0.0
 11
641.8780628503713
 21
-2722.845796472382
 31
0.0
  0
ARC
  5
D1A5
330
2
100
AcDbEntity
  8
L-ZISSEN
100
AcDbCircle
 10
642.3780628503713
 20
-2746.945796472381
 30
0.0
 40
0.5
100
AcDbArc
 50
180.0
 51
270.0
  0
LINE
  5
D1A6
330
2
100
AcDbEntity
  8
L-ZISSEN
100
AcDbLine
 10
640.5780628503721
 20
-2731.34579647238
 30
0.0
 11
641.8780628503713
 21
-2731.34579647238
 31
0.0
  0
LINE
  5
D1A7
330
2
100
AcDbEntity
  8
L-ZISSEN
100
AcDbLine
 10
650.4786878503717
 20
-2723.33129647238
 30
0.0
 11
646.6396878503715
 21
-2723.33129647238
 31
0.0
  0
LINE
  5
D1A8
330
2
100
AcDbEntity
  8
L-ZISSEN
100
AcDbLine
 10
650.4786878503717
 20
-2723.33129647238
 30
0.0
 11
646.6396878503715
 21
-2723.33129647238
 31
0.0
  0
LINE
  5
D1A9
330
2
100
AcDbEntity
  8
L-ZISSEN
100
AcDbLine
 10
650.4786878503717
 20
-2722.37154647238
 30
0.0
 11
646.6396878503715
 21
-2722.37154647238
 31
0.0
  0
LINE
  5
D1AA
330
2
100
AcDbEntity
  8
L-ZISSEN
100
AcDbLine
 10
650.4786878503717
 20
-2722.37154647238
 30
0.0
 11
646.6396878503715
 21
-2722.37154647238
 31
0.0
  0
CIRCLE
  5
D1AB
330
2
100
AcDbEntity
  8
L-ZISSEN
100
AcDbCircle
 10
648.6280628503713
 20
-2751.94579647238
 30
0.0
 40
2.0
  0
LINE
  5
D1AC
330
2
100
AcDbEntity
  8
L-ZISSEN
100
AcDbLine
 10
643.7301610894458
 20
-2740.562283659761
 30
0.0
 11
652.8780628503716
 21
-2742.477451712529
 31
0.0
  0
LINE
  5
D1AD
330
2
100
AcDbEntity
  8
L-ZISSEN
100
AcDbLine
 10
652.8780628503716
 20
-2738.365720531479
 30
0.0
 11
643.7301610894458
 21
-2737.058877422776
 31
0.0
  0
LINE
  5
D1AE
330
2
100
AcDbEntity
  8
L-ZISSEN
100
AcDbLine
 10
646.6396878503715
 20
-2721.411796472381
 30
0.0
 11
644.2403128503715
 21
-2722.85142147238
 31
0.0
  0
LINE
  5
D1AF
330
2
100
AcDbEntity
  8
L-ZISSEN
100
AcDbLine
 10
646.6396878503715
 20
-2722.37154647238
 30
0.0
 11
646.6396878503715
 21
-2721.411796472381
 31
0.0
  0
LINE
  5
D1B0
330
2
100
AcDbEntity
  8
L-ZISSEN
100
AcDbLine
 10
646.6396878503715
 20
-2724.291046472381
 30
0.0
 11
644.2403128503715
 21
-2722.85142147238
 31
0.0
  0
LINE
  5
D1B1
330
2
100
AcDbEntity
  8
L-ZISSEN
100
AcDbLine
 10
646.6396878503715
 20
-2723.33129647238
 30
0.0
 11
646.6396878503715
 21
-2724.291046472381
 31
0.0
  0
LINE
  5
D1B2
330
2
100
AcDbEntity
  8
L-TYUSIN
100
AcDbLine
 10
648.6280628503713
 20
-2748.695796472381
 30
0.0
 11
648.6280628503713
 21
-2755.19579647238
 31
0.0
  0
LINE
  5
D1B3
330
2
100
AcDbEntity
  8
L-ZISSEN
100
AcDbLine
 10
643.278062850371
 20
-2747.44579647238
 30
0.0
 11
643.2780628503719
 21
-2758.44579647238
 31
0.0
  0
LINE
  5
D1B4
330
2
100
AcDbEntity
  8
L-ZISSEN
100
AcDbLine
 10
645.2780628503715
 20
-2742.419129805715
 30
0.0
 11
645.2780628503719
 21
-2756.44579647238
 31
0.0
  0
LINE
  5
D1B5
330
2
100
AcDbEntity
  8
L-ZISSEN
100
AcDbLine
 10
643.7301610894458
 20
-2737.058877422776
 30
0.0
 11
643.7301610894458
 21
-2740.562283659761
 31
0.0
  0
SOLID
  5
D1B6
330
2
100
AcDbEntity
  8
L-ZISSEN
100
AcDbTrace
 10
651.1282254912887
 20
-2716.822520932623
 30
0.0
 11
651.5550150910651
 21
-2716.310373412892
 31
0.0
 12
652.8780628503716
 22
-2717.846815972086
 32
0.0
 13
652.8780628503716
 23
-2717.846815972086
 33
0.0
  0
LINE
  5
D1B7
330
2
100
AcDbEntity
  8
L-ZISSEN
100
AcDbLine
 10
653.8378128503731
 20
-2720.45204647238
 30
0.0
 11
651.9183128503732
 21
-2720.45204647238
 31
0.0
  0
ARC
  5
D1B8
330
2
100
AcDbEntity
  8
L-ZISSEN
100
AcDbCircle
 10
652.8780628503718
 20
-2746.195796472381
 30
0.0
 40
1.25
100
AcDbArc
 50
180.0
 51
0.0
  0
LINE
  5
D1B9
330
2
100
AcDbEntity
  8
L-ZISSEN
100
AcDbLine
 10
651.6280628503718
 20
-2746.195796472381
 30
0.0
 11
651.6280628503718
 21
-2744.112463139047
 31
0.0
  0
LINE
  5
D1BA
330
2
100
AcDbEntity
  8
L-ZISSEN
100
AcDbLine
 10
651.9183128503732
 20
-2720.45204647238
 30
0.0
 11
651.9183128503732
 21
-2728.130046472379
 31
0.0
  0
LINE
  5
D1BB
330
2
100
AcDbEntity
  8
L-ZISSEN
100
AcDbLine
 10
651.9183128503732
 20
-2720.45204647238
 30
0.0
 11
651.9183128503732
 21
-2728.130046472379
 31
0.0
  0
LINE
  5
D1BC
330
2
100
AcDbEntity
  8
L-ZISSEN
100
AcDbLine
 10
652.8780628503716
 20
-2737.727546472381
 30
0.0
 11
652.8780628503716
 21
-2738.365720531479
 31
0.0
  0
LINE
  5
D1BD
330
2
100
AcDbEntity
  8
L-ZISSEN
100
AcDbLine
 10
654.1280628503718
 20
-2746.195796472381
 30
0.0
 11
654.1280628503718
 21
-2744.112463139047
 31
0.0
  0
LINE
  5
D1BE
330
2
100
AcDbEntity
  8
L-ZISSEN
100
AcDbLine
 10
653.8378128503731
 20
-2720.45204647238
 30
0.0
 11
653.8378128503731
 21
-2728.130046472379
 31
0.0
  0
LINE
  5
D1BF
330
2
100
AcDbEntity
  8
L-ZISSEN
100
AcDbLine
 10
653.8378128503731
 20
-2720.45204647238
 30
0.0
 11
653.8378128503731
 21
-2728.130046472379
 31
0.0
  0
LINE
  5
D1C0
330
2
100
AcDbEntity
  8
L-ZISSEN
100
AcDbLine
 10
650.4786878503717
 20
-2722.37154647238
 30
0.0
 11
650.4786878503717
 21
-2723.33129647238
 31
0.0
  0
LINE
  5
D1C1
330
2
100
AcDbEntity
  8
L-ZISSEN
100
AcDbLine
 10
649.9988128503733
 20
-2728.130046472379
 30
0.0
 11
652.8780628503731
 21
-2732.92879647238
 31
0.0
  0
LINE
  5
D1C2
330
2
100
AcDbEntity
  8
L-ZISSEN
100
AcDbLine
 10
651.9183128503732
 20
-2728.130046472379
 30
0.0
 11
649.9988128503733
 21
-2728.130046472379
 31
0.0
  0
LINE
  5
D1C3
330
2
100
AcDbEntity
  8
L-ZISSEN
100
AcDbLine
 10
640.8780628503716
 20
-2587.410885932448
 30
0.0
 11
640.8780628503716
 21
-2583.410885932448
 31
0.0
  0
LINE
  5
D1C4
330
2
100
AcDbEntity
  8
L-ZISSEN
100
AcDbLine
 10
642.8780628503716
 20
-2599.910885932448
 30
0.0
 11
642.8780628503716
 21
-2596.410885932448
 31
0.0
  0
LINE
  5
D1C5
330
2
100
AcDbEntity
  8
L-ZISSEN
100
AcDbLine
 10
642.8780628503716
 20
-2614.110885932448
 30
0.0
 11
642.8780628503716
 21
-2600.610885932448
 31
0.0
  0
LINE
  5
D1C6
330
2
100
AcDbEntity
  8
L-ZISSEN
100
AcDbLine
 10
641.8780628503716
 20
-2587.410885932448
 30
0.0
 11
641.8780628503716
 21
-2596.410885932448
 31
0.0
  0
LINE
  5
D1C7
330
2
100
AcDbEntity
  8
L-ZISSEN
100
AcDbLine
 10
636.0280628503722
 20
-2560.949624844081
 30
0.0
 11
631.8130628503706
 21
-2562.949624844081
 31
0.0
  0
LINE
  5
D1C8
330
2
100
AcDbEntity
  8
L-ZISSEN
100
AcDbLine
 10
643.8780628503716
 20
-2600.610885932448
 30
0.0
 11
643.8780628503721
 21
-2599.910885932448
 31
0.0
  0
LINE
  5
D1C9
330
2
100
AcDbEntity
  8
L-ZISSEN
100
AcDbLine
 10
671.3780628503723
 20
-2731.345796472379
 30
0.0
 11
664.3780628503723
 21
-2731.34579647238
 31
0.0
  0
LINE
  5
D1CA
330
2
100
AcDbEntity
  8
L-ZISSEN
100
AcDbLine
 10
660.4780628503718
 20
-2747.445796472382
 30
0.0
 11
663.3780628503714
 21
-2747.445796472381
 31
0.0
  0
LINE
  5
D1CB
330
2
100
AcDbEntity
  8
L-ZISSEN
100
AcDbLine
 10
659.1164378503718
 20
-2721.41179647238
 30
0.0
 11
661.5158128503717
 21
-2722.85142147238
 31
0.0
  0
LINE
  5
D1CC
330
2
100
AcDbEntity
  8
L-ZISSEN
100
AcDbLine
 10
659.1164378503718
 20
-2724.29104647238
 30
0.0
 11
661.5158128503717
 21
-2722.85142147238
 31
0.0
  0
LINE
  5
D1CD
330
2
100
AcDbEntity
  8
L-ZISSEN
100
AcDbLine
 10
659.1164378503718
 20
-2722.37154647238
 30
0.0
 11
659.1164378503718
 21
-2721.41179647238
 31
0.0
  0
LINE
  5
D1CE
330
2
100
AcDbEntity
  8
L-ZISSEN
100
AcDbLine
 10
659.1164378503718
 20
-2723.33129647238
 30
0.0
 11
659.1164378503718
 21
-2724.29104647238
 31
0.0
  0
LINE
  5
D1CF
330
2
100
AcDbEntity
  8
L-ZISSEN
100
AcDbLine
 10
655.2774378503715
 20
-2722.37154647238
 30
0.0
 11
655.2774378503715
 21
-2723.33129647238
 31
0.0
  0
LINE
  5
D1D0
330
2
100
AcDbEntity
  8
L-ZISSEN
100
AcDbLine
 10
655.2774378503715
 20
-2723.33129647238
 30
0.0
 11
659.1164378503718
 21
-2723.33129647238
 31
0.0
  0
LINE
  5
D1D1
330
2
100
AcDbEntity
  8
L-ZISSEN
100
AcDbLine
 10
655.2774378503715
 20
-2723.33129647238
 30
0.0
 11
659.1164378503718
 21
-2723.33129647238
 31
0.0
  0
LINE
  5
D1D2
330
2
100
AcDbEntity
  8
L-ZISSEN
100
AcDbLine
 10
655.2774378503715
 20
-2722.37154647238
 30
0.0
 11
659.1164378503718
 21
-2722.37154647238
 31
0.0
  0
LINE
  5
D1D3
330
2
100
AcDbEntity
  8
L-ZISSEN
100
AcDbLine
 10
655.2774378503715
 20
-2722.37154647238
 30
0.0
 11
659.1164378503718
 21
-2722.37154647238
 31
0.0
  0
LINE
  5
D1D4
330
2
100
AcDbEntity
  8
L-ZISSEN
100
AcDbLine
 10
660.4780628503718
 20
-2742.419129805714
 30
0.0
 11
660.4780628503718
 21
-2756.44579647238
 31
0.0
  0
LINE
  5
D1D5
330
2
100
AcDbEntity
  8
L-TYUSIN
100
AcDbLine
 10
657.1280628503723
 20
-2748.695796472381
 30
0.0
 11
657.1280628503723
 21
-2755.19579647238
 31
0.0
  0
CIRCLE
  5
D1D6
330
2
100
AcDbEntity
  8
L-ZISSEN
100
AcDbCircle
 10
657.1280628503723
 20
-2751.94579647238
 30
0.0
 40
2.0
  0
LINE
  5
D1D7
330
2
100
AcDbEntity
  8
L-ZISSEN
100
AcDbLine
 10
664.8780628503714
 20
-2717.846815972086
 30
0.0
 11
664.8780628503714
 21
-2718.145796472381
 31
0.0
  0
LINE
  5
D1D8
330
2
100
AcDbEntity
  8
L-ZISSEN
100
AcDbLine
 10
665.1780628503725
 20
-2722.845796472382
 30
0.0
 11
663.8780628503714
 21
-2722.845796472382
 31
0.0
  0
LINE
  5
D1D9
330
2
100
AcDbEntity
  8
L-ZISSEN
100
AcDbLine
 10
662.4780628503717
 20
-2747.44579647238
 30
0.0
 11
662.4780628503717
 21
-2758.445796472381
 31
0.0
  0
LINE
  5
D1DA
330
2
100
AcDbEntity
  8
L-ZISSEN
100
AcDbLine
 10
662.8780628503723
 20
-2747.44579647238
 30
0.0
 11
662.8780628503723
 21
-2761.445796472381
 31
0.0
  0
LINE
  5
D1DB
330
2
100
AcDbEntity
  8
L-ZISSEN
100
AcDbLine
 10
662.4780628503717
 20
-2758.445796472381
 30
0.0
 11
662.8780628503723
 21
-2761.445796472381
 31
0.0
  0
ARC
  5
D1DC
330
2
100
AcDbEntity
  8
L-ZISSEN
100
AcDbCircle
 10
663.3780628503714
 20
-2746.945796472381
 30
0.0
 40
0.5
100
AcDbArc
 50
270.0
 51
0.0
  0
LINE
  5
D1DD
330
2
100
AcDbEntity
  8
L-ZISSEN
100
AcDbLine
 10
665.1780628503716
 20
-2731.34579647238
 30
0.0
 11
663.8780628503714
 21
-2731.34579647238
 31
0.0
  0
LINE
  5
D1DE
330
2
100
AcDbEntity
  8
L-ZISSEN
100
AcDbLine
 10
665.1780628503716
 20
-2731.34579647238
 30
0.0
 11
663.8780628503714
 21
-2731.345796472381
 31
0.0
  0
LINE
  5
D1DF
330
2
100
AcDbEntity
  8
L-ZISSEN
100
AcDbLine
 10
662.0259646112974
 20
-2737.058877422776
 30
0.0
 11
662.0259646112974
 21
-2740.562283659761
 31
0.0
  0
LINE
  5
D1E0
330
2
100
AcDbEntity
  8
L-ZISSEN
100
AcDbLine
 10
663.6752503503698
 20
-2741.56654647238
 30
0.0
 11
662.0259646112974
 21
-2740.562283659761
 31
0.0
  0
LINE
  5
D1E1
330
2
100
AcDbEntity
  8
L-ZISSEN
100
AcDbLine
 10
662.0259646112974
 20
-2737.058877422776
 30
0.0
 11
662.9554378503699
 21
-2736.28792147238
 31
0.0
  0
LINE
  5
D1E2
330
2
100
AcDbEntity
  8
L-ZISSEN
100
AcDbLine
 10
662.0259646112974
 20
-2736.420703363677
 30
0.0
 11
662.9554378503699
 21
-2736.28792147238
 31
0.0
  0
LINE
  5
D1E3
330
2
100
AcDbEntity
  8
L-ZISSEN
100
AcDbLine
 10
663.8780628503714
 20
-2718.145796472381
 30
0.0
 11
663.8780628503714
 21
-2746.945796472381
 31
0.0
  0
LINE
  5
D1E4
330
2
100
AcDbEntity
  8
L-ZISSEN
100
AcDbLine
 10
663.6752503503698
 20
-2718.145796472381
 30
0.0
 11
663.6752503503698
 21
-2741.56654647238
 31
0.0
  0
LINE
  5
D1E5
330
2
100
AcDbEntity
  8
L-ZISSEN
100
AcDbLine
 10
662.9554378503699
 20
-2718.145796472381
 30
0.0
 11
662.9554378503699
 21
-2736.28792147238
 31
0.0
  0
LINE
  5
D1E6
330
2
100
AcDbEntity
  8
L-ZISSEN
100
AcDbLine
 10
665.1780628503725
 20
-2722.845796472382
 30
0.0
 11
665.1780628503716
 21
-2731.34579647238
 31
0.0
  0
LINE
  5
D1E7
330
2
100
AcDbEntity
  8
L-ZISSEN
100
AcDbLine
 10
671.3780628503713
 20
-2721.34579647238
 30
0.0
 11
676.8894172886298
 21
-2721.345796472382
 31
0.0
  0
LINE
  5
D1E8
330
2
100
AcDbEntity
  8
L-ZISSEN
100
AcDbLine
 10
671.3780628503723
 20
-2721.34579647238
 30
0.0
 11
671.3780628503723
 21
-2731.345796472379
 31
0.0
  0
LINE
  5
D1E9
330
2
100
AcDbEntity
  8
L-ZISSEN
100
AcDbLine
 10
676.8894172886298
 20
-2721.345796472382
 30
0.0
 11
676.8894172886298
 21
-2731.345796472379
 31
0.0
  0
ARC
  5
D1EA
330
2
100
AcDbEntity
  8
L-ZISSEN
100
AcDbCircle
 10
652.8780628503693
 20
-2484.597480413791
 30
0.0
 40
99.53938471878515
100
AcDbArc
 50
276.9241513684729
 51
283.9062370650422
  0
LINE
  5
D1EB
330
2
100
AcDbEntity
  8
L-ZISSEN
100
AcDbLine
 10
664.8780628503716
 20
-2587.410885932448
 30
0.0
 11
664.8780628503716
 21
-2583.410885932448
 31
0.0
  0
LINE
  5
D1EC
330
2
100
AcDbEntity
  8
L-ZISSEN
100
AcDbLine
 10
661.8780628503721
 20
-2600.610885932448
 30
0.0
 11
661.8780628503716
 21
-2599.910885932448
 31
0.0
  0
LINE
  5
D1ED
330
2
100
AcDbEntity
  8
L-ZISSEN
100
AcDbLine
 10
662.8780628503716
 20
-2599.910885932448
 30
0.0
 11
662.8780628503719
 21
-2596.410885932448
 31
0.0
  0
LINE
  5
D1EE
330
2
100
AcDbEntity
  8
L-ZISSEN
100
AcDbLine
 10
662.8780628503716
 20
-2614.110885932448
 30
0.0
 11
662.8780628503716
 21
-2600.610885932448
 31
0.0
  0
LINE
  5
D1EF
330
2
100
AcDbEntity
  8
L-ZISSEN
100
AcDbLine
 10
663.8780628503716
 20
-2587.410885932448
 30
0.0
 11
663.8780628503716
 21
-2596.410885932448
 31
0.0
  0
LINE
  5
D1F0
330
2
100
AcDbEntity
  8
L-ZISSEN
100
AcDbLine
 10
669.7280628503711
 20
-2560.949624844081
 30
0.0
 11
673.9430628503725
 21
-2562.949624844081
 31
0.0
  0
LINE
  5
D1F1
330
2
100
AcDbEntity
  8
L-ZISSEN
100
AcDbLine
 10
673.9430628503725
 20
-2562.949624844081
 30
0.0
 11
678.1580628503718
 21
-2560.949624844081
 31
0.0
  0
LINE
  5
D1F2
330
2
100
AcDbEntity
  8
L-ZISSEN
100
AcDbLine
 10
656.6280628503739
 20
-2481.860885932448
 30
0.0
 11
652.8780628503739
 21
-2488.110885932448
 31
0.0
  0
LINE
  5
D1F3
330
2
100
AcDbEntity
  8
L-ZISSEN
100
AcDbLine
 10
654.1280628503739
 20
-2481.860885932448
 30
0.0
 11
656.6280628503739
 21
-2481.860885932448
 31
0.0
  0
LINE
  5
D1F4
330
2
100
AcDbEntity
  8
L-ZISSEN
100
AcDbLine
 10
652.8780628503716
 20
-2494.360885932449
 30
0.0
 11
666.0030628503693
 21
-2492.485885932449
 31
0.0
  0
LINE
  5
D1F5
330
2
100
AcDbEntity
  8
L-ZISSEN
100
AcDbLine
 10
652.8780628503716
 20
-2495.192058189676
 30
0.0
 11
664.7924959852059
 21
-2493.489996313272
 31
0.0
  0
LINE
  5
D1F6
330
2
100
AcDbEntity
  8
L-ZISSEN
100
AcDbLine
 10
664.7924959852059
 20
-2498.052911443493
 30
0.0
 11
652.8780628503716
 21
-2500.547269417924
 31
0.0
  0
LINE
  5
D1F7
330
2
100
AcDbEntity
  8
L-ZISSEN
100
AcDbLine
 10
652.8780628503716
 20
-2503.110885932449
 30
0.0
 11
666.9405628503693
 21
-2499.360885932449
 31
0.0
  0
LINE
  5
D1F8
330
2
100
AcDbEntity
  8
L-ZISSEN
100
AcDbLine
 10
651.3416202911769
 20
-2466.83051713312
 30
0.0
 11
637.8780628503719
 21
-2455.610885932449
 31
0.0
  0
LINE
  5
D1F9
330
2
100
AcDbEntity
  8
L-ZISSEN
100
AcDbLine
 10
644.7530628503716
 20
-2476.860885932449
 30
0.0
 11
641.6280628503716
 21
-2474.985885932449
 31
0.0
  0
LINE
  5
D1FA
330
2
100
AcDbEntity
  8
L-ZISSEN
100
AcDbLine
 10
644.7530628503716
 20
-2473.110885932449
 30
0.0
 11
641.6280628503716
 21
-2474.985885932449
 31
0.0
  0
LINE
  5
D1FB
330
2
100
AcDbEntity
  8
L-ZISSEN
100
AcDbLine
 10
652.8780628503716
 20
-2503.110885932449
 30
0.0
 11
638.8155628503693
 21
-2499.360885932449
 31
0.0
  0
LINE
  5
D1FC
330
2
100
AcDbEntity
  8
L-ZISSEN
100
AcDbLine
 10
652.8780628503716
 20
-2495.192058189676
 30
0.0
 11
640.9636297155373
 21
-2493.489996313272
 31
0.0
  0
LINE
  5
D1FD
330
2
100
AcDbEntity
  8
L-ZISSEN
100
AcDbLine
 10
640.9636297155373
 20
-2498.052911443493
 30
0.0
 11
652.8780628503716
 21
-2500.547269417924
 31
0.0
  0
LINE
  5
D1FE
330
2
100
AcDbEntity
  8
L-ZISSEN
100
AcDbLine
 10
652.8780628503716
 20
-2494.360885932449
 30
0.0
 11
639.7530628503694
 21
-2492.485885932449
 31
0.0
  0
LINE
  5
D1FF
330
2
100
AcDbEntity
  8
L-ZISSEN
100
AcDbLine
 10
637.8780628503719
 20
-2455.610885932449
 30
0.0
 11
635.8780628503718
 21
-2455.610885932449
 31
0.0
  0
LINE
  5
D200
330
2
100
AcDbEntity
  8
L-ZISSEN
100
AcDbLine
 10
639.7530628503694
 20
-2468.110885932449
 30
0.0
 11
639.7530628503694
 21
-2492.485885932449
 31
0.0
  0
LINE
  5
D201
330
2
100
AcDbEntity
  8
L-ZISSEN
100
AcDbLine
 10
640.9636297155373
 20
-2493.489996313272
 30
0.0
 11
640.9636297155373
 21
-2498.052911443493
 31
0.0
  0
LINE
  5
D202
330
2
100
AcDbEntity
  8
L-ZISSEN
100
AcDbLine
 10
640.9636297155373
 20
-2493.489996313272
 30
0.0
 11
639.7530628503694
 21
-2492.485885932449
 31
0.0
  0
LINE
  5
D203
330
2
100
AcDbEntity
  8
L-ZISSEN
100
AcDbLine
 10
640.9636297155373
 20
-2492.658824056044
 30
0.0
 11
639.7530628503694
 21
-2492.485885932449
 31
0.0
  0
LINE
  5
D204
330
2
100
AcDbEntity
  8
L-ZISSEN
100
AcDbLine
 10
638.8155628503693
 20
-2468.110885932449
 30
0.0
 11
638.8155628503693
 21
-2491.900161299581
 31
0.0
  0
LINE
  5
D205
330
2
100
AcDbEntity
  8
L-ZISSEN
100
AcDbLine
 10
638.8155628503693
 20
-2468.110885932449
 30
0.0
 11
638.8155628503693
 21
-2506.860885932449
 31
0.0
  0
LINE
  5
D206
330
2
100
AcDbEntity
  8
L-ZISSEN
100
AcDbLine
 10
638.8155628503693
 20
-2499.360885932449
 30
0.0
 11
640.9636297155373
 21
-2498.052911443493
 31
0.0
  0
LINE
  5
D207
330
2
100
AcDbEntity
  8
L-ZISSEN
100
AcDbLine
 10
649.7530628503716
 20
-2474.360885932449
 30
0.0
 11
644.7530628503716
 21
-2474.360885932449
 31
0.0
  0
LINE
  5
D208
330
2
100
AcDbEntity
  8
L-ZISSEN
100
AcDbLine
 10
649.7530628503716
 20
-2474.360885932449
 30
0.0
 11
644.7530628503716
 21
-2474.360885932449
 31
0.0
  0
LINE
  5
D209
330
2
100
AcDbEntity
  8
L-ZISSEN
100
AcDbLine
 10
649.7530628503716
 20
-2475.610885932449
 30
0.0
 11
644.7530628503716
 21
-2475.610885932449
 31
0.0
  0
LINE
  5
D20A
330
2
100
AcDbEntity
  8
L-ZISSEN
100
AcDbLine
 10
649.7530628503716
 20
-2475.610885932449
 30
0.0
 11
644.7530628503716
 21
-2475.610885932449
 31
0.0
  0
LINE
  5
D20B
330
2
100
AcDbEntity
  8
L-ZISSEN
100
AcDbLine
 10
644.7530628503716
 20
-2475.610885932449
 30
0.0
 11
644.7530628503716
 21
-2476.860885932449
 31
0.0
  0
LINE
  5
D20C
330
2
100
AcDbEntity
  8
L-ZISSEN
100
AcDbLine
 10
644.7530628503716
 20
-2474.360885932449
 30
0.0
 11
644.7530628503716
 21
-2473.110885932449
 31
0.0
  0
SOLID
  5
D20D
330
2
100
AcDbEntity
  8
L-ZISSEN
100
AcDbTrace
 10
651.1282254912887
 20
-2467.086590892986
 30
0.0
 11
651.5550150910651
 21
-2466.574443373254
 31
0.0
 12
652.8780628503716
 22
-2468.110885932449
 32
0.0
 13
652.8780628503716
 23
-2468.110885932449
 33
0.0
  0
LINE
  5
D20E
330
2
100
AcDbEntity
  8
L-ZISSEN
100
AcDbLine
 10
651.6280628503738
 20
-2481.860885932448
 30
0.0
 11
649.1280628503739
 21
-2481.860885932448
 31
0.0
  0
LINE
  5
D20F
330
2
100
AcDbEntity
  8
L-ZISSEN
100
AcDbLine
 10
649.1280628503739
 20
-2481.860885932448
 30
0.0
 11
652.8780628503739
 21
-2488.110885932448
 31
0.0
  0
LINE
  5
D210
330
2
100
AcDbEntity
  8
L-ZISSEN
100
AcDbLine
 10
652.8780628503716
 20
-2494.360885932449
 30
0.0
 11
652.8780628503716
 21
-2495.192058189676
 31
0.0
  0
LINE
  5
D211
330
2
100
AcDbEntity
  8
L-ZISSEN
100
AcDbLine
 10
652.8780628503716
 20
-2503.110885932449
 30
0.0
 11
652.8780628503716
 21
-2500.547269417924
 31
0.0
  0
LINE
  5
D212
330
2
100
AcDbEntity
  8
L-ZISSEN
100
AcDbLine
 10
654.1280628503716
 20
-2502.777552599115
 30
0.0
 11
654.1280628503716
 21
-2504.360885932449
 31
0.0
  0
LINE
  5
D213
330
2
100
AcDbEntity
  8
L-ZISSEN
100
AcDbLine
 10
654.1280628503739
 20
-2471.860885932447
 30
0.0
 11
654.1280628503739
 21
-2481.860885932448
 31
0.0
  0
LINE
  5
D214
330
2
100
AcDbEntity
  8
L-ZISSEN
100
AcDbLine
 10
654.1280628503739
 20
-2471.860885932447
 30
0.0
 11
654.1280628503739
 21
-2481.860885932448
 31
0.0
  0
LINE
  5
D215
330
2
100
AcDbEntity
  8
L-ZISSEN
100
AcDbLine
 10
651.6280628503693
 20
-2502.777552599114
 30
0.0
 11
651.6280628503716
 21
-2504.360885932449
 31
0.0
  0
LINE
  5
D216
330
2
100
AcDbEntity
  8
L-ZISSEN
100
AcDbLine
 10
649.7530628503716
 20
-2474.360885932449
 30
0.0
 11
649.7530628503716
 21
-2475.610885932449
 31
0.0
  0
LINE
  5
D217
330
2
100
AcDbEntity
  8
L-ZISSEN
100
AcDbLine
 10
651.6280628503738
 20
-2471.860885932447
 30
0.0
 11
651.6280628503738
 21
-2481.860885932448
 31
0.0
  0
LINE
  5
D218
330
2
100
AcDbEntity
  8
L-ZISSEN
100
AcDbLine
 10
651.6280628503738
 20
-2471.860885932447
 30
0.0
 11
651.6280628503738
 21
-2481.860885932448
 31
0.0
  0
LINE
  5
D219
330
2
100
AcDbEntity
  8
L-ZISSEN
100
AcDbLine
 10
654.1280628503739
 20
-2471.860885932447
 30
0.0
 11
651.6280628503738
 21
-2471.860885932447
 31
0.0
  0
LINE
  5
D21A
330
2
100
AcDbEntity
  8
L-TYUSIN
100
AcDbLine
 10
650.6912692878166
 20
-2498.107340633622
 30
0.0
 11
654.8860492627284
 21
-2498.107340633622
 31
0.0
  0
CIRCLE
  5
D21B
330
2
100
AcDbEntity
  8
L-ZISSEN
100
AcDbCircle
 10
652.8780628503716
 20
-2498.107340633622
 30
0.0
 40
1.25
  0
ARC
  5
D21C
330
2
100
AcDbEntity
  8
L-ZISSEN
100
AcDbCircle
 10
652.8780628503716
 20
-2504.360885932449
 30
0.0
 40
1.250000000000568
100
AcDbArc
 50
180.0
 51
0.0
  0
LINE
  5
D21D
330
2
100
AcDbEntity
  8
L-ZISSEN
100
AcDbLine
 10
666.9405628503693
 20
-2499.360885932449
 30
0.0
 11
664.7924959852059
 21
-2498.052911443493
 31
0.0
  0
LINE
  5
D21E
330
2
100
AcDbEntity
  8
L-ZISSEN
100
AcDbLine
 10
656.0030628503716
 20
-2474.360885932448
 30
0.0
 11
661.0030628503716
 21
-2474.360885932448
 31
0.0
  0
LINE
  5
D21F
330
2
100
AcDbEntity
  8
L-ZISSEN
100
AcDbLine
 10
656.0030628503716
 20
-2474.360885932448
 30
0.0
 11
661.0030628503716
 21
-2474.360885932448
 31
0.0
  0
LINE
  5
D220
330
2
100
AcDbEntity
  8
L-ZISSEN
100
AcDbLine
 10
656.0030628503716
 20
-2475.610885932448
 30
0.0
 11
661.0030628503716
 21
-2475.610885932448
 31
0.0
  0
LINE
  5
D221
330
2
100
AcDbEntity
  8
L-ZISSEN
100
AcDbLine
 10
656.0030628503716
 20
-2475.610885932448
 30
0.0
 11
661.0030628503716
 21
-2475.610885932448
 31
0.0
  0
LINE
  5
D222
330
2
100
AcDbEntity
  8
L-ZISSEN
100
AcDbLine
 10
656.0030628503716
 20
-2474.360885932448
 30
0.0
 11
656.0030628503716
 21
-2475.610885932448
 31
0.0
  0
LINE
  5
D223
330
2
100
AcDbEntity
  8
L-ZISSEN
100
AcDbLine
 10
666.0030628503693
 20
-2468.110885932449
 30
0.0
 11
666.0030628503693
 21
-2492.485885932449
 31
0.0
  0
LINE
  5
D224
330
2
100
AcDbEntity
  8
L-ZISSEN
100
AcDbLine
 10
664.7924959852059
 20
-2493.489996313272
 30
0.0
 11
664.7924959852059
 21
-2498.052911443493
 31
0.0
  0
LINE
  5
D225
330
2
100
AcDbEntity
  8
L-ZISSEN
100
AcDbLine
 10
664.7924959852059
 20
-2492.658824056044
 30
0.0
 11
666.0030628503693
 21
-2492.485885932449
 31
0.0
  0
LINE
  5
D226
330
2
100
AcDbEntity
  8
L-ZISSEN
100
AcDbLine
 10
664.7924959852059
 20
-2493.489996313272
 30
0.0
 11
666.0030628503693
 21
-2492.485885932449
 31
0.0
  0
LINE
  5
D227
330
2
100
AcDbEntity
  8
L-ZISSEN
100
AcDbLine
 10
661.0030628503716
 20
-2475.610885932448
 30
0.0
 11
661.0030628503716
 21
-2476.860885932448
 31
0.0
  0
LINE
  5
D228
330
2
100
AcDbEntity
  8
L-ZISSEN
100
AcDbLine
 10
661.0030628503716
 20
-2476.860885932448
 30
0.0
 11
664.1280628503716
 21
-2474.985885932448
 31
0.0
  0
LINE
  5
D229
330
2
100
AcDbEntity
  8
L-ZISSEN
100
AcDbLine
 10
661.0030628503716
 20
-2474.360885932448
 30
0.0
 11
661.0030628503716
 21
-2473.110885932448
 31
0.0
  0
LINE
  5
D22A
330
2
100
AcDbEntity
  8
L-ZISSEN
100
AcDbLine
 10
661.0030628503716
 20
-2473.110885932448
 30
0.0
 11
664.1280628503716
 21
-2474.985885932448
 31
0.0
  0
LINE
  5
D22B
330
2
100
AcDbEntity
  8
L-ZISSEN
100
AcDbLine
 10
678.1580628503718
 20
-2478.44962484408
 30
0.0
 11
669.7280628503711
 21
-2478.44962484408
 31
0.0
  0
LINE
  5
D22C
330
2
100
AcDbEntity
  8
L-ZISSEN
100
AcDbLine
 10
666.9405628503693
 20
-2468.110885932449
 30
0.0
 11
666.9405628503693
 21
-2491.900161299581
 31
0.0
  0
LINE
  5
D22D
330
2
100
AcDbEntity
  8
L-ZISSEN
100
AcDbLine
 10
666.9405628503693
 20
-2468.110885932449
 30
0.0
 11
666.9405628503693
 21
-2506.860885932449
 31
0.0
  0
LINE
  5
D22E
330
2
100
AcDbEntity
  8
L-ZISSEN
100
AcDbLine
 10
682.133929911853
 20
-2731.345796472381
 30
0.0
 11
680.4180689098761
 21
-2810.59138980332
 31
0.0
  0
LINE
  5
D22F
330
2
100
AcDbEntity
  8
L-ZISSEN
100
AcDbLine
 10
682.8780628503689
 20
-2573.453875539263
 30
0.0
 11
682.8780628503716
 21
-2468.110885932448
 31
0.0
  0
LINE
  5
D230
330
2
100
AcDbEntity
  8
L-ZISSEN
100
AcDbLine
 10
682.133929911853
 20
-2731.345796472381
 30
0.0
 11
682.8340474505989
 21
-2731.345796472381
 31
0.0
  0
LINE
  5
D231
330
2
100
AcDbEntity
  8
L-ZISSEN
100
AcDbLine
 10
683.0143459657975
 20
-2717.846815972086
 30
0.0
 11
682.8340474505989
 21
-2731.345796472381
 31
0.0
  0
TEXT
  5
D253
330
2
100
AcDbEntity
  8
L-ZISSEN
100
AcDbText
 10
312.9481704869372
 20
-2515.966200824936
 30
0.0
 40
4.5
  1
MODEL NO. F64- 00-*0 0
100
AcDbText
  0
TEXT
  5
D255
330
2
100
AcDbEntity
  8
L-ZISSEN
100
AcDbText
 10
373.0471031952402
 20
-2512.609755787922
 30
0.0
 40
4.5
  1
3
100
AcDbText
  0
TEXT
  5
D256
330
2
100
AcDbEntity
  8
L-ZISSEN
100
AcDbText
 10
373.0471031952402
 20
-2519.120619458122
 30
0.0
 40
4.5
  1
4
100
AcDbText
  0
LINE
  5
D258
330
2
100
AcDbEntity
  8
L-ZISSEN
100
AcDbLine
 10
216.1724024535428
 20
-2728.009446446527
 30
0.0
 11
170.7755132646665
 21
-2760.442287584843
 31
0.0
  0
TEXT
  5
D259
330
2
100
AcDbEntity
  8
L-ZISSEN
100
AcDbText
 10
157.9051241967632
 20
-2762.688961812794
 30
0.0
 40
4.5
  1
P.P
100
AcDbText
  0
LINE
  5
D25A
330
2
100
AcDbEntity
  8
L-ZISSEN
100
AcDbLine
 10
170.7755132646665
 20
-2760.442287584843
 30
0.0
 11
168.7755132646665
 21
-2760.442287584843
 31
0.0
  0
SOLID
  5
D25B
330
2
100
AcDbEntity
  8
L-ZISSEN
100
AcDbTrace
 10
215.9786307078027
 20
-2727.738220301652
 30
0.0
 11
216.366174199283
 21
-2728.280672591402
 31
0.0
 12
217.7997593227948
 22
-2726.846815972086
 32
0.0
 13
217.7997593227948
 23
-2726.846815972086
 33
0.0
  0
TEXT
  5
D25C
330
2
100
AcDbEntity
  8
L-ZISSEN
100
AcDbText
 10
307.9051241967632
 20
-2762.688961812794
 30
0.0
 40
4.5
  1
P.P
100
AcDbText
  0
LINE
  5
D25D
330
2
100
AcDbEntity
  8
L-ZISSEN
100
AcDbLine
 10
366.1724024535428
 20
-2728.009446446528
 30
0.0
 11
320.7755132646665
 21
-2760.442287584843
 31
0.0
  0
LINE
  5
D25E
330
2
100
AcDbEntity
  8
L-ZISSEN
100
AcDbLine
 10
320.7755132646665
 20
-2760.442287584843
 30
0.0
 11
318.7755132646665
 21
-2760.442287584843
 31
0.0
  0
SOLID
  5
D25F
330
2
100
AcDbEntity
  8
L-ZISSEN
100
AcDbTrace
 10
365.9786307078027
 20
-2727.738220301652
 30
0.0
 11
366.366174199283
 21
-2728.280672591403
 31
0.0
 12
367.7997593227948
 22
-2726.846815972087
 32
0.0
 13
367.7997593227948
 23
-2726.846815972087
 33
0.0
  0
TEXT
  5
D3DF
330
2
100
AcDbEntity
  8
L-ZISSEN
100
AcDbText
 10
292.1640698633277
 20
-2680.60278175661
 30
0.0
 40
4.5
  1
Rc1/2
100
AcDbText
  0
TEXT
  5
D3E0
330
2
100
AcDbEntity
  8
L-ZISSEN
100
AcDbText
 10
292.1640698633277
 20
-2673.10278175661
 30
0.0
 40
4.5
  1
Rc3/8
100
AcDbText
  0
LINE
  5
D3E1
330
2
100
AcDbEntity
  8
L-ZISSEN
100
AcDbLine
 10
291.6172468012289
 20
-2666.613307559429
 30
0.0
 11
315.7125304695814
 21
-2666.613307559429
 31
0.0
  0
TEXT
  5
D3E2
330
2
100
AcDbEntity
  8
L-ZISSEN
100
AcDbText
 10
292.1640698633277
 20
-2665.60278175661
 30
0.0
 40
4.5
  1
IN
100
AcDbText
  0
LINE
  5
D3E3
330
2
100
AcDbEntity
  8
L-ZISSEN
100
AcDbLine
 10
331.745146546712
 20
-2692.447465539562
 30
0.0
 11
315.7125304695814
 21
-2666.613307559429
 31
0.0
  0
SOLID
  5
D3E4
330
2
100
AcDbEntity
  8
L-ZISSEN
100
AcDbTrace
 10
331.4619214746248
 20
-2692.623234335576
 30
0.0
 11
332.0283716187998
 21
-2692.271696743548
 31
0.0
 12
332.7997593227948
 22
-2694.146815972087
 32
0.0
 13
332.7997593227948
 23
-2694.146815972087
 33
0.0
  0
TEXT
  5
D479
330
2
100
AcDbEntity
  8
L-ZISSEN
100
AcDbText
 10
397.8178322298192
 20
-2519.120619458122
 30
0.0
 40
4.5
  1
5
100
AcDbText
  0
TEXT
  5
D47A
330
2
100
AcDbEntity
  8
L-ZISSEN
100
AcDbText
 10
398.4863794753048
 20
-2512.609755787922
 30
0.0
 40
4.5
  1
1
100
AcDbText
  0
ENDSEC
  0
SECTION
  2
OBJECTS
  0
DICTIONARY
  5
9
330
0
100
AcDbDictionary
  3
ACAD_GROUP
350
23
  3
ACAD_LAYOUT
350
E
  3
ACAD_MLINESTYLE
350
24
  3
ACAD_PLOTSETTINGS
350
25
1001
ACAD
1000
TREAT_AS_HARD
1070
     0
  0
DICTIONARY
  5
8E1
330
15
100
AcDbDictionary
  3
ACAD_LAYERSTATES
350
8E2
1001
ACAD
1000
TREAT_AS_HARD
1070
     1
  0
DICTIONARY
  5
3
330
2
100
AcDbDictionary
  3
ACAD_LAYOUTSELFREF
350
D509
1001
ACAD
1000
TREAT_AS_HARD
1070
     1
  0
DICTIONARY
  5
10
330
F
100
AcDbDictionary
  3
ACAD_LAYOUTSELFREF
350
D50A
1001
ACAD
1000
TREAT_AS_HARD
1070
     1
  0
DICTIONARY
  5
23
102
{ACAD_REACTORS
330
9
102
}
330
9
100
AcDbDictionary
1001
ACAD
1000
TREAT_AS_HARD
1070
     0
  0
DICTIONARY
  5
E
102
{ACAD_REACTORS
330
9
102
}
330
9
100
AcDbDictionary
1001
ACAD
1000
TREAT_AS_HARD
1070
     0
  0
DICTIONARY
  5
24
102
{ACAD_REACTORS
330
9
102
}
330
9
100
AcDbDictionary
  3
STANDARD
350
27
1001
ACAD
1000
TREAT_AS_HARD
1070
     0
  0
DICTIONARY
  5
25
102
{ACAD_REACTORS
330
9
102
}
330
9
100
AcDbDictionary
1001
ACAD
1000
TREAT_AS_HARD
1070
     0
  0
DICTIONARY
  5
8E2
102
{ACAD_REACTORS
330
8E1
102
}
330
8E1
100
AcDbDictionary
1001
ACAD
1000
TREAT_AS_HARD
1070
     0
  0
XRECORD
  5
D509
102
{ACAD_REACTORS
330
3
102
}
330
3
100
AcDbXrecord
340
2
  0
XRECORD
  5
D50A
102
{ACAD_REACTORS
330
10
102
}
330
10
100
AcDbXrecord
340
F
  0
MLINESTYLE
  5
27
102
{ACAD_REACTORS
330
24
102
}
330
24
100
AcDbMlineStyle
  2
STANDARD
 70
     0
  3

 62
   256
 51
90.0
 52
90.0
 71
     2
 49
0.5
 62
   256
  6
BYLAYER
 49
-0.5
 62
   256
  6
BYLAYER
  0
ENDSEC
  0
EOF
