  0
SECTION
  2
HEADER
  9
$ACADVER
  1
AC1006
  9
$INSBASE
 10
0.0
 20
0.0
 30
0.0
  9
$EXTMIN
 10
23.0
 20
15.0
  9
$EXTMAX
 10
445.0
 20
296.071918
  9
$LIMMIN
 10
0.0
 20
0.0
  9
$LIMMAX
 10
420.0
 20
297.0
  9
$ORTHOMODE
 70
     0
  9
$REGENMODE
 70
     1
  9
$FILLMODE
 70
     1
  9
$QTEXTMODE
 70
     0
  9
$MIRRTEXT
 70
     1
  9
$DRAGMODE
 70
     2
  9
$LTSCALE
 40
1.0
  9
$OSMODE
 70
     0
  9
$ATTMODE
 70
     1
  9
$TEXTSIZE
 40
4.5
  9
$TRACEWID
 40
0.05
  9
$TEXTSTYLE
  7
STANDARD
  9
$CLAYER
  8
L-ZISSEN
  9
$CELTYPE
  6
BYLAYER
  9
$CECOLOR
 62
   256
  9
$DIMSCALE
 40
1.0
  9
$DIMASZ
 40
2.0
  9
$DIMEXO
 40
1.0
  9
$DIMDLI
 40
0.38
  9
$DIMRND
 40
0.0
  9
$DIMDLE
 40
1.0
  9
$DIMEXE
 40
1.0
  9
$DIMTP
 40
0.0
  9
$DIMTM
 40
0.0
  9
$DIMTXT
 40
4.5
  9
$DIMCEN
 40
0.09
  9
$DIMTSZ
 40
0.0
  9
$DIMTOL
 70
     0
  9
$DIMLIM
 70
     0
  9
$DIMTIH
 70
     0
  9
$DIMTOH
 70
     0
  9
$DIMSE1
 70
     0
  9
$DIMSE2
 70
     0
  9
$DIMTAD
 70
     1
  9
$DIMZIN
 70
     0
  9
$DIMBLK
  1

  9
$DIMASO
 70
     0
  9
$DIMSHO
 70
     0
  9
$DIMPOST
  1

  9
$DIMAPOST
  1

  9
$DIMALT
 70
     0
  9
$DIMALTD
 70
     2
  9
$DIMALTF
 40
25.4
  9
$DIMLFAC
 40
1.0
  9
$DIMTOFL
 70
     1
  9
$DIMTVP
 40
0.0
  9
$DIMTIX
 70
     1
  9
$DIMSOXD
 70
     0
  9
$DIMSAH
 70
     0
  9
$DIMBLK1
  1

  9
$DIMBLK2
  1

  9
$LUNITS
 70
     2
  9
$LUPREC
 70
     4
  9
$AXISMODE
 70
     0
  9
$AXISUNIT
 10
0.0
 20
0.0
  9
$SKETCHINC
 40
0.1
  9
$FILLETRAD
 40
22.5
  9
$AUNITS
 70
     0
  9
$AUPREC
 70
     0
  9
$MENU
  1
acad
  9
$ELEVATION
 40
0.0
  9
$THICKNESS
 40
0.0
  9
$LIMCHECK
 70
     0
  9
$BLIPMODE
 70
     1
  9
$CHAMFERA
 40
0.0
  9
$CHAMFERB
 40
0.0
  9
$SKPOLY
 70
     0
  9
$TDCREATE
 40
2449577.4621496527
  9
$TDUPDATE
 40
2449577.4621496527
  9
$TDINDWG
 40
0.0000000000
  9
$TDUSRTIMER
 40
0.0000000000
  9
$USRTIMER
 70
     1
  9
$ANGBASE
 50
0.0
  9
$ANGDIR
 70
     0
  9
$PDMODE
 70
     0
  9
$PDSIZE
 40
0.0
  9
$PLINEWID
 40
0.0
  9
$COORDS
 70
     2
  9
$SPLFRAME
 70
     0
  9
$SPLINETYPE
 70
     6
  9
$SPLINESEGS
 70
     8
  9
$ATTDIA
 70
     0
  9
$ATTREQ
 70
     1
  9
$HANDLING
 70
     0
  9
$HANDSEED
  5
0
  9
$SURFTAB1
 70
     6
  9
$SURFTAB2
 70
     6
  9
$SURFTYPE
 70
     6
  9
$SURFU
 70
     6
  9
$SURFV
 70
     6
  9
$FLATLAND
 70
     0
  9
$UCSNAME
  2

  9
$UCSORG
 10
0.0
 20
0.0
 30
0.0
  9
$UCSXDIR
 10
1.0
 20
0.0
 30
0.0
  9
$UCSYDIR
 10
0.0
 20
1.0
 30
0.0
  9
$USERI1
 70
     0
  9
$USERI2
 70
     0
  9
$USERI3
 70
     0
  9
$USERI4
 70
     0
  9
$USERI5
 70
     0
  9
$USERR1
 40
0.0
  9
$USERR2
 40
0.0
  9
$USERR3
 40
0.0
  9
$USERR4
 40
0.0
  9
$USERR5
 40
0.0
  9
$WORLDVIEW
 70
     1
  0
ENDSEC
  0
SECTION
  2
TABLES
  0
TABLE
  2
VPORT
 70
     2
  0
VPORT
  2
*ACTIVE
 70
     0
 10
0.0
 20
0.0
 11
1.0
 21
1.0
 12
238.227989
 22
153.824519
 13
0.0
 23
0.0
 14
5.0
 24
5.0
 15
0.0
 25
0.0
 16
0.0
 26
0.0
 36
1.0
 17
0.0
 27
0.0
 37
0.0
 40
307.649038
 41
1.5487
 42
50.0
 43
0.0
 44
0.0
 50
0.0
 51
0.0
 71
     0
 72
   100
 73
     1
 74
     0
 75
     0
 76
     0
 77
     0
 78
     0
  0
ENDTAB
  0
TABLE
  2
LTYPE
 70
     2
  0
LTYPE
  2
CONTINUOUS
 70
    64
  3
Solid line
 72
    65
 73
     0
 40
0.0
  0
LTYPE
  2
CENTER
 70
    64
  3
____ _ ____ _ ____ _ ____ _ 
 72
    65
 73
     4
 40
60.0
 49
45.0
 49
-5.0
 49
5.0
 49
-5.0
  0
ENDTAB
  0
TABLE
  2
LAYER
 70
     3
  0
LAYER
  2
0
 70
     0
 62
     7
  6
CONTINUOUS
  0
LAYER
  2
L-ZISSEN
 70
    64
 62
     7
  6
CONTINUOUS
  0
LAYER
  2
L-TYUSIN
 70
    64
 62
     1
  6
CENTER
  0
ENDTAB
  0
TABLE
  2
STYLE
 70
     1
  0
STYLE
  2
STANDARD
 70
    64
 40
0.0
 41
1.0
 50
0.0
 71
     0
 42
4.5
  3
txt
  4

  0
ENDTAB
  0
TABLE
  2
VIEW
 70
     0
  0
ENDTAB
  0
TABLE
  2
UCS
 70
     0
  0
ENDTAB
  0
TABLE
  2
DWGMGR
 70
     0
  0
ENDTAB
  0
ENDSEC
  0
SECTION
  2
BLOCKS
  0
ENDSEC
  0
SECTION
  2
ENTITIES
  0
LINE
  8
L-ZISSEN
 10
194.5
 20
65.5
 30
0.0
 11
194.5
 21
96.706753
 31
0.0
  0
LINE
  8
L-ZISSEN
 10
135.5
 20
65.5
 30
0.0
 11
135.5
 21
96.706753
 31
0.0
  0
LINE
  8
L-ZISSEN
 10
196.803848
 20
117.0
 30
0.0
 11
133.196152
 21
117.0
 31
0.0
  0
LINE
  8
L-ZISSEN
 10
173.0
 20
43.0
 30
0.0
 11
157.0
 21
43.0
 31
0.0
  0
ARC
  8
L-ZISSEN
 10
172.0
 20
65.5
 30
0.0
 40
22.5
 50
270.0
 51
0.0
  0
ARC
  8
L-ZISSEN
 10
158.0
 20
65.5
 30
0.0
 40
22.5
 50
180.0
 51
270.0
  0
LINE
  8
L-ZISSEN
 10
202.0
 20
114.0
 30
0.0
 11
128.0
 21
114.0
 31
0.0
  0
LINE
  8
L-ZISSEN
 10
202.0
 20
103.0
 30
0.0
 11
128.0
 21
103.0
 31
0.0
  0
LINE
  8
L-ZISSEN
 10
128.0
 20
114.0
 30
0.0
 11
128.0
 21
103.0
 31
0.0
  0
LINE
  8
L-ZISSEN
 10
128.0
 20
103.0
 30
0.0
 11
135.5
 21
96.706753
 31
0.0
  0
LINE
  8
L-ZISSEN
 10
135.5
 20
96.706753
 30
0.0
 11
194.5
 21
96.706753
 31
0.0
  0
LINE
  8
L-ZISSEN
 10
128.0
 20
114.0
 30
0.0
 11
133.196152
 21
117.0
 31
0.0
  0
LINE
  8
L-ZISSEN
 10
202.0
 20
114.0
 30
0.0
 11
196.803848
 21
117.0
 31
0.0
  0
LINE
  8
L-ZISSEN
 10
202.0
 20
114.0
 30
0.0
 11
202.0
 21
103.0
 31
0.0
  0
LINE
  8
L-ZISSEN
 10
202.0
 20
103.0
 30
0.0
 11
194.5
 21
96.706753
 31
0.0
  0
LINE
  8
L-ZISSEN
 10
188.339746
 20
123.0
 30
0.0
 11
141.660254
 21
123.0
 31
0.0
  0
LINE
  8
L-ZISSEN
 10
197.0
 20
118.0
 30
0.0
 11
133.0
 21
118.0
 31
0.0
  0
LINE
  8
L-ZISSEN
 10
133.0
 20
118.0
 30
0.0
 11
141.660254
 21
123.0
 31
0.0
  0
LINE
  8
L-ZISSEN
 10
197.0
 20
118.0
 30
0.0
 11
188.339746
 21
123.0
 31
0.0
  0
LINE
  8
L-ZISSEN
 10
133.0
 20
118.0
 30
0.0
 11
133.0
 21
116.886751
 31
0.0
  0
LINE
  8
L-ZISSEN
 10
197.0
 20
118.0
 30
0.0
 11
197.0
 21
116.886751
 31
0.0
  0
LINE
  8
L-ZISSEN
 10
181.0
 20
133.0
 30
0.0
 11
149.0
 21
133.0
 31
0.0
  0
LINE
  8
L-ZISSEN
 10
149.0
 20
133.0
 30
0.0
 11
149.0
 21
123.0
 31
0.0
  0
LINE
  8
L-ZISSEN
 10
181.0
 20
133.0
 30
0.0
 11
181.0
 21
123.0
 31
0.0
  0
LINE
  8
L-ZISSEN
 10
80.0
 20
133.0
 30
0.0
 11
50.0
 21
133.0
 31
0.0
  0
LINE
  8
L-ZISSEN
 10
97.0
 20
118.0
 30
0.0
 11
97.0
 21
116.886751
 31
0.0
  0
LINE
  8
L-ZISSEN
 10
33.0
 20
118.0
 30
0.0
 11
33.0
 21
116.886751
 31
0.0
  0
LINE
  8
L-ZISSEN
 10
97.0
 20
118.0
 30
0.0
 11
88.339746
 21
123.0
 31
0.0
  0
LINE
  8
L-ZISSEN
 10
33.0
 20
118.0
 30
0.0
 11
41.660254
 21
123.0
 31
0.0
  0
LINE
  8
L-ZISSEN
 10
97.0
 20
118.0
 30
0.0
 11
33.0
 21
118.0
 31
0.0
  0
LINE
  8
L-ZISSEN
 10
88.339746
 20
123.0
 30
0.0
 11
41.660254
 21
123.0
 31
0.0
  0
LINE
  8
L-ZISSEN
 10
102.0
 20
103.0
 30
0.0
 11
94.5
 21
96.706753
 31
0.0
  0
LINE
  8
L-ZISSEN
 10
102.0
 20
114.0
 30
0.0
 11
102.0
 21
103.0
 31
0.0
  0
LINE
  8
L-ZISSEN
 10
102.0
 20
114.0
 30
0.0
 11
96.803848
 21
117.0
 31
0.0
  0
LINE
  8
L-ZISSEN
 10
28.0
 20
114.0
 30
0.0
 11
33.196152
 21
117.0
 31
0.0
  0
LINE
  8
L-ZISSEN
 10
35.5
 20
96.706753
 30
0.0
 11
94.5
 21
96.706753
 31
0.0
  0
LINE
  8
L-ZISSEN
 10
28.0
 20
103.0
 30
0.0
 11
35.5
 21
96.706753
 31
0.0
  0
LINE
  8
L-ZISSEN
 10
28.0
 20
114.0
 30
0.0
 11
28.0
 21
103.0
 31
0.0
  0
LINE
  8
L-ZISSEN
 10
102.0
 20
103.0
 30
0.0
 11
28.0
 21
103.0
 31
0.0
  0
LINE
  8
L-ZISSEN
 10
102.0
 20
114.0
 30
0.0
 11
28.0
 21
114.0
 31
0.0
  0
ARC
  8
L-ZISSEN
 10
58.0
 20
65.5
 30
0.0
 40
22.5
 50
180.0
 51
270.0
  0
ARC
  8
L-ZISSEN
 10
72.0
 20
65.5
 30
0.0
 40
22.5
 50
270.0
 51
0.0
  0
LINE
  8
L-ZISSEN
 10
74.237604
 20
43.0
 30
0.0
 11
55.762396
 21
43.0
 31
0.0
  0
LINE
  8
L-ZISSEN
 10
96.803848
 20
117.0
 30
0.0
 11
33.196152
 21
117.0
 31
0.0
  0
LINE
  8
L-ZISSEN
 10
35.5
 20
65.5
 30
0.0
 11
35.5
 21
96.706753
 31
0.0
  0
LINE
  8
L-ZISSEN
 10
94.5
 20
65.5
 30
0.0
 11
94.5
 21
96.706753
 31
0.0
  0
LINE
  8
L-ZISSEN
 10
50.0
 20
133.0
 30
0.0
 11
50.0
 21
123.0
 31
0.0
  0
LINE
  8
L-ZISSEN
 10
80.0
 20
133.0
 30
0.0
 11
80.0
 21
123.0
 31
0.0
  0
LINE
  8
L-ZISSEN
 10
71.928203
 20
33.0
 30
0.0
 11
58.071797
 21
33.0
 31
0.0
  0
LINE
  8
L-ZISSEN
 10
74.237604
 20
40.0
 30
0.0
 11
55.762396
 21
40.0
 31
0.0
  0
LINE
  8
L-ZISSEN
 10
58.071797
 20
33.0
 30
0.0
 11
58.071797
 21
40.0
 31
0.0
  0
LINE
  8
L-ZISSEN
 10
55.762396
 20
40.0
 30
0.0
 11
55.762396
 21
43.0
 31
0.0
  0
LINE
  8
L-ZISSEN
 10
71.928203
 20
33.0
 30
0.0
 11
71.928203
 21
40.0
 31
0.0
  0
LINE
  8
L-ZISSEN
 10
74.237604
 20
40.0
 30
0.0
 11
74.237604
 21
43.0
 31
0.0
  0
LINE
  8
L-ZISSEN
 10
171.0
 20
33.0
 30
0.0
 11
159.0
 21
33.0
 31
0.0
  0
LINE
  8
L-ZISSEN
 10
173.0
 20
40.0
 30
0.0
 11
157.0
 21
40.0
 31
0.0
  0
LINE
  8
L-ZISSEN
 10
159.0
 20
33.0
 30
0.0
 11
159.0
 21
40.0
 31
0.0
  0
LINE
  8
L-ZISSEN
 10
157.0
 20
40.0
 30
0.0
 11
157.0
 21
43.0
 31
0.0
  0
LINE
  8
L-ZISSEN
 10
171.0
 20
33.0
 30
0.0
 11
171.0
 21
40.0
 31
0.0
  0
LINE
  8
L-ZISSEN
 10
173.0
 20
40.0
 30
0.0
 11
173.0
 21
43.0
 31
0.0
  0
LINE
  8
L-TYUSIN
 10
65.0
 20
138.0
 30
0.0
 11
65.0
 21
28.0
 31
0.0
  0
LINE
  8
L-TYUSIN
 10
165.0
 20
138.0
 30
0.0
 11
165.0
 21
28.0
 31
0.0
  0
LINE
  8
L-TYUSIN
 10
65.0
 20
262.0
 30
0.0
 11
65.0
 21
178.0
 31
0.0
  0
LINE
  8
L-TYUSIN
 10
23.0
 20
220.0
 30
0.0
 11
107.0
 21
220.0
 31
0.0
  0
ARC
  8
L-ZISSEN
 10
65.0
 20
220.0
 30
0.0
 40
16.0
 50
200.364135
 51
219.635865
  0
LINE
  8
L-ZISSEN
 10
52.678175
 20
209.793501
 30
0.0
 11
62.321825
 21
204.225737
 31
0.0
  0
LINE
  8
L-ZISSEN
 10
67.678175
 20
204.225737
 30
0.0
 11
77.321825
 21
209.793501
 31
0.0
  0
LINE
  8
L-ZISSEN
 10
80.0
 20
214.432236
 30
0.0
 11
80.0
 21
225.567764
 31
0.0
  0
LINE
  8
L-ZISSEN
 10
77.321825
 20
230.206499
 30
0.0
 11
67.678175
 21
235.774263
 31
0.0
  0
LINE
  8
L-ZISSEN
 10
62.321825
 20
235.774263
 30
0.0
 11
52.678175
 21
230.206499
 31
0.0
  0
LINE
  8
L-ZISSEN
 10
50.0
 20
225.567764
 30
0.0
 11
50.0
 21
214.432236
 31
0.0
  0
ARC
  8
L-ZISSEN
 10
65.0
 20
220.0
 30
0.0
 40
16.0
 50
140.364135
 51
159.635865
  0
ARC
  8
L-ZISSEN
 10
65.0
 20
220.0
 30
0.0
 40
16.0
 50
80.364135
 51
99.635865
  0
ARC
  8
L-ZISSEN
 10
65.0
 20
220.0
 30
0.0
 40
16.0
 50
20.364135
 51
39.635865
  0
ARC
  8
L-ZISSEN
 10
65.0
 20
220.0
 30
0.0
 40
16.0
 50
320.364135
 51
339.635865
  0
ARC
  8
L-ZISSEN
 10
65.0
 20
220.0
 30
0.0
 40
16.0
 50
260.364135
 51
279.635865
  0
CIRCLE
  8
L-ZISSEN
 10
65.0
 20
220.0
 30
0.0
 40
23.339746
  0
CIRCLE
  8
L-ZISSEN
 10
65.0
 20
220.0
 30
0.0
 40
32.0
  0
CIRCLE
  8
L-ZISSEN
 10
65.0
 20
220.0
 30
0.0
 40
37.0
  0
CIRCLE
  8
L-ZISSEN
 10
65.0
 20
220.0
 30
0.0
 40
5.7225
  0
LINE
  8
L-ZISSEN
 10
315.0
 20
33.0
 30
0.0
 11
255.0
 21
33.0
 31
0.0
  0
ARC
  8
L-ZISSEN
 10
285.0
 20
120.0
 30
0.0
 40
17.5
 50
95.455473
 51
264.544527
  0
LINE
  8
L-ZISSEN
 10
315.0
 20
180.0
 30
0.0
 11
255.0
 21
180.0
 31
0.0
  0
LINE
  8
L-ZISSEN
 10
277.0
 20
96.0
 30
0.0
 11
293.0
 21
96.0
 31
0.0
  0
LINE
  8
L-ZISSEN
 10
315.0
 20
177.7
 30
0.0
 11
255.0
 21
177.7
 31
0.0
  0
LINE
  8
L-ZISSEN
 10
255.0
 20
180.0
 30
0.0
 11
255.0
 21
154.0
 31
0.0
  0
LINE
  8
L-ZISSEN
 10
315.0
 20
180.0
 30
0.0
 11
315.0
 21
154.0
 31
0.0
  0
LINE
  8
L-ZISSEN
 10
293.0
 20
96.0
 30
0.0
 11
305.282431
 21
108.282431
 31
0.0
  0
LINE
  8
L-ZISSEN
 10
315.0
 20
154.0
 30
0.0
 11
305.282431
 21
108.282431
 31
0.0
  0
LINE
  8
L-ZISSEN
 10
255.0
 20
154.0
 30
0.0
 11
264.717569
 21
108.282431
 31
0.0
  0
LINE
  8
L-ZISSEN
 10
277.0
 20
96.0
 30
0.0
 11
264.717569
 21
108.282431
 31
0.0
  0
CIRCLE
  8
L-ZISSEN
 10
285.0
 20
140.5
 30
0.0
 40
3.5
  0
CIRCLE
  8
L-ZISSEN
 10
285.0
 20
99.5
 30
0.0
 40
3.5
  0
ARC
  8
L-ZISSEN
 10
285.0
 20
120.0
 30
0.0
 40
17.5
 50
275.455473
 51
84.544527
  0
SOLID
  8
L-ZISSEN
 10
286.543487
 20
118.685178
 30
0.0
 11
286.886484
 21
119.256839
 31
0.0
 12
285.0
 22
120.0
 32
0.0
 13
285.0
 23
120.0
 33
0.0
  0
LINE
  8
L-ZISSEN
 10
286.714986
 20
118.971008
 30
0.0
 11
310.0
 21
105.0
 31
0.0
  0
LINE
  8
L-ZISSEN
 10
310.0
 20
105.0
 30
0.0
 11
312.0
 21
105.0
 31
0.0
  0
TEXT
  8
L-ZISSEN
 10
314.0
 20
102.75
 30
0.0
 40
4.5
  1
P.P
  0
LINE
  8
L-ZISSEN
 10
255.0
 20
62.0
 30
0.0
 11
255.0
 21
33.0
 31
0.0
  0
LINE
  8
L-ZISSEN
 10
315.0
 20
62.0
 30
0.0
 11
315.0
 21
33.0
 31
0.0
  0
LINE
  8
L-ZISSEN
 10
315.0
 20
62.0
 30
0.0
 11
255.0
 21
62.0
 31
0.0
  0
LINE
  8
L-ZISSEN
 10
315.0
 20
35.3
 30
0.0
 11
255.0
 21
35.3
 31
0.0
  0
LINE
  8
L-TYUSIN
 10
317.5
 20
53.0
 30
0.0
 11
297.5
 21
53.0
 31
0.0
  0
LINE
  8
L-TYUSIN
 10
307.5
 20
63.0
 30
0.0
 11
307.5
 21
43.0
 31
0.0
  0
ARC
  8
L-ZISSEN
 10
309.0
 20
53.0
 30
0.0
 40
4.0
 50
270.0
 51
90.0
  0
ARC
  8
L-ZISSEN
 10
306.0
 20
53.0
 30
0.0
 40
4.0
 50
90.0
 51
270.0
  0
LINE
  8
L-ZISSEN
 10
306.0
 20
57.0
 30
0.0
 11
309.0
 21
57.0
 31
0.0
  0
LINE
  8
L-ZISSEN
 10
306.0
 20
49.0
 30
0.0
 11
309.0
 21
49.0
 31
0.0
  0
LINE
  8
L-ZISSEN
 10
264.0
 20
49.0
 30
0.0
 11
261.0
 21
49.0
 31
0.0
  0
LINE
  8
L-ZISSEN
 10
264.0
 20
57.0
 30
0.0
 11
261.0
 21
57.0
 31
0.0
  0
ARC
  8
L-ZISSEN
 10
264.0
 20
53.0
 30
0.0
 40
4.0
 50
270.0
 51
90.0
  0
ARC
  8
L-ZISSEN
 10
261.0
 20
53.0
 30
0.0
 40
4.0
 50
90.0
 51
270.0
  0
LINE
  8
L-TYUSIN
 10
262.5
 20
63.0
 30
0.0
 11
262.5
 21
43.0
 31
0.0
  0
LINE
  8
L-TYUSIN
 10
252.5
 20
53.0
 30
0.0
 11
272.5
 21
53.0
 31
0.0
  0
SOLID
  8
L-ZISSEN
 10
286.353506
 20
31.49032
 30
0.0
 11
286.769969
 21
32.0109
 31
0.0
 12
285.0
 22
33.0
 32
0.0
 13
285.0
 23
33.0
 33
0.0
  0
LINE
  8
L-ZISSEN
 10
286.561738
 20
31.75061
 30
0.0
 11
295.0
 21
25.0
 31
0.0
  0
LINE
  8
L-ZISSEN
 10
295.0
 20
25.0
 30
0.0
 11
297.0
 21
25.0
 31
0.0
  0
TEXT
  8
L-ZISSEN
 10
299.0
 20
22.75
 30
0.0
 40
4.5
  1
P.P
  0
SOLID
  8
L-ZISSEN
 10
66.573189
 20
124.279135
 30
0.0
 11
66.073297
 21
124.720216
 31
0.0
 12
65.0
 22
123.0
 32
0.0
 13
65.0
 23
123.0
 33
0.0
  0
LINE
  8
L-ZISSEN
 10
66.323243
 20
124.499676
 30
0.0
 11
80.0
 21
140.0
 31
0.0
  0
LINE
  8
L-ZISSEN
 10
80.0
 20
140.0
 30
0.0
 11
82.0
 21
140.0
 31
0.0
  0
TEXT
  8
L-ZISSEN
 10
84.0
 20
137.75
 30
0.0
 40
4.5
  1
P.P
  0
SOLID
  8
L-ZISSEN
 10
66.178511
 20
218.350084
 30
0.0
 11
66.649916
 21
218.821489
 31
0.0
 12
65.0
 22
220.0
 32
0.0
 13
65.0
 23
220.0
 33
0.0
  0
LINE
  8
L-ZISSEN
 10
66.414214
 20
218.585786
 30
0.0
 11
95.0
 21
190.0
 31
0.0
  0
LINE
  8
L-ZISSEN
 10
95.0
 20
190.0
 30
0.0
 11
97.0
 21
190.0
 31
0.0
  0
TEXT
  8
L-ZISSEN
 10
99.0
 20
187.75
 30
0.0
 40
4.5
  1
P.P
  0
LINE
  8
L-ZISSEN
 10
288.5
 20
37.9
 30
0.0
 11
288.5
 21
35.3
 31
0.0
  0
LINE
  8
L-ZISSEN
 10
281.5
 20
37.9
 30
0.0
 11
281.5
 21
35.3
 31
0.0
  0
LINE
  8
L-ZISSEN
 10
288.5
 20
37.9
 30
0.0
 11
281.5
 21
37.9
 31
0.0
  0
LINE
  8
L-ZISSEN
 10
430.0
 20
33.0
 30
0.0
 11
346.0
 21
33.0
 31
0.0
  0
LINE
  8
L-ZISSEN
 10
427.7
 20
35.3
 30
0.0
 11
346.0
 21
35.3
 31
0.0
  0
LINE
  8
L-ZISSEN
 10
430.0
 20
62.0
 30
0.0
 11
427.7
 21
62.0
 31
0.0
  0
LINE
  8
L-ZISSEN
 10
427.7
 20
35.3
 30
0.0
 11
427.7
 21
62.0
 31
0.0
  0
LINE
  8
L-ZISSEN
 10
346.0
 20
35.3
 30
0.0
 11
346.0
 21
33.0
 31
0.0
  0
LINE
  8
L-ZISSEN
 10
430.0
 20
33.0
 30
0.0
 11
430.0
 21
62.0
 31
0.0
  0
LINE
  8
L-ZISSEN
 10
394.0
 20
37.9
 30
0.0
 11
394.0
 21
35.3
 31
0.0
  0
LINE
  8
L-ZISSEN
 10
387.0
 20
37.9
 30
0.0
 11
387.0
 21
35.3
 31
0.0
  0
LINE
  8
L-ZISSEN
 10
394.0
 20
37.9
 30
0.0
 11
387.0
 21
37.9
 31
0.0
  0
LINE
  8
L-ZISSEN
 10
353.0
 20
37.9
 30
0.0
 11
346.0
 21
37.9
 31
0.0
  0
LINE
  8
L-ZISSEN
 10
346.0
 20
37.9
 30
0.0
 11
346.0
 21
35.3
 31
0.0
  0
LINE
  8
L-ZISSEN
 10
353.0
 20
37.9
 30
0.0
 11
353.0
 21
35.3
 31
0.0
  0
SOLID
  8
L-ZISSEN
 10
371.353506
 20
31.49032
 30
0.0
 11
371.769969
 21
32.0109
 31
0.0
 12
370.0
 22
33.0
 32
0.0
 13
370.0
 23
33.0
 33
0.0
  0
LINE
  8
L-ZISSEN
 10
371.561738
 20
31.75061
 30
0.0
 11
380.0
 21
25.0
 31
0.0
  0
LINE
  8
L-ZISSEN
 10
380.0
 20
25.0
 30
0.0
 11
382.0
 21
25.0
 31
0.0
  0
TEXT
  8
L-ZISSEN
 10
384.0
 20
22.75
 30
0.0
 40
4.5
  1
P.P
  0
LINE
  8
L-TYUSIN
 10
435.0
 20
53.0
 30
0.0
 11
422.7
 21
53.0
 31
0.0
  0
LINE
  8
L-TYUSIN
 10
307.5
 20
185.0
 30
0.0
 11
307.5
 21
172.7
 31
0.0
  0
LINE
  8
L-TYUSIN
 10
262.5
 20
185.0
 30
0.0
 11
262.5
 21
172.7
 31
0.0
  0
LINE
  8
L-TYUSIN
 10
230.0
 20
230.0
 30
0.0
 11
230.0
 21
15.0
 31
0.0
  0
TEXT
  8
L-ZISSEN
 10
30.0
 20
280.0
 30
0.0
 40
4.5
  1
MODEL NO. : SDU-202
  0
TEXT
  8
L-ZISSEN
 10
255.0
 20
215.0
 30
0.0
 40
4.5
  1
BRACKET
  0
TEXT
  8
L-ZISSEN
 10
255.0
 20
205.0
 30
0.0
 40
4.5
  1
MODEL NO. : SDU-202B
  0
SOLID
  8
L-ZISSEN
 10
66.262672
 20
134.586434
 30
0.0
 11
65.6799
 21
134.910196
 31
0.0
 12
65.0
 22
133.0
 32
0.0
 13
65.0
 23
133.0
 33
0.0
  0
LINE
  8
L-ZISSEN
 10
65.971286
 20
134.748315
 30
0.0
 11
80.0
 21
160.0
 31
0.0
  0
LINE
  8
L-ZISSEN
 10
80.0
 20
160.0
 30
0.0
 11
82.0
 21
160.0
 31
0.0
  0
TEXT
  8
L-ZISSEN
 10
84.0
 20
157.75
 30
0.0
 40
4.5
  1
DRAIN IN
  0
TEXT
  8
L-ZISSEN
 10
85.0
 20
150.0
 30
0.0
 40
4.5
  1
Rc 1/4
  0
ENDSEC
  0
EOF
