  0
SECTION
  2
HEADER
  9
$ACADVER
  1
AC1012
  9
$DWGCODEPAGE
  3
dos932
  9
$INSBASE
 10
0.0
 20
0.0
 30
0.0
  9
$EXTMIN
 10
-639.5778540657134
 20
-4044.384213834223
 30
-0.000000000000013
  9
$EXTMAX
 10
113.0229714100301
 20
-3543.891338271467
 30
0.0000000000000023
  9
$LIMMIN
 10
0.0
 20
0.0
  9
$LIMMAX
 10
297.0
 20
210.0
  9
$ORTHOMODE
 70
     1
  9
$REGENMODE
 70
     1
  9
$FILLMODE
 70
     1
  9
$QTEXTMODE
 70
     0
  9
$MIRRTEXT
 70
     1
  9
$DRAGMODE
 70
     2
  9
$LTSCALE
 40
1.0
  9
$OSMODE
 70
    39
  9
$ATTMODE
 70
     1
  9
$TEXTSIZE
 40
5.599999999999999
  9
$TRACEWID
 40
0.05
  9
$TEXTSTYLE
  7
STANDARD
  9
$CLAYER
  8
L-TYUSIN
  9
$CELTYPE
  6
BYLAYER
  9
$CECOLOR
 62
   256
  9
$CELTSCALE
 40
1.0
  9
$DELOBJ
 70
     1
  9
$DISPSILH
 70
     0
  9
$DIMSCALE
 40
2.0
  9
$DIMASZ
 40
2.0
  9
$DIMEXO
 40
1.0
  9
$DIMDLI
 40
8.0
  9
$DIMRND
 40
0.0
  9
$DIMDLE
 40
0.0
  9
$DIMEXE
 40
0.8
  9
$DIMTP
 40
0.0
  9
$DIMTM
 40
0.0
  9
$DIMTXT
 40
2.799999999999999
  9
$DIMCEN
 40
0.0
  9
$DIMTSZ
 40
0.0
  9
$DIMTOL
 70
     0
  9
$DIMLIM
 70
     0
  9
$DIMTIH
 70
     0
  9
$DIMTOH
 70
     0
  9
$DIMSE1
 70
     0
  9
$DIMSE2
 70
     0
  9
$DIMTAD
 70
     0
  9
$DIMZIN
 70
    12
  9
$DIMBLK
  1

  9
$DIMASO
 70
     1
  9
$DIMSHO
 70
     0
  9
$DIMPOST
  1

  9
$DIMAPOST
  1

  9
$DIMALT
 70
     0
  9
$DIMALTD
 70
     2
  9
$DIMALTF
 40
25.4
  9
$DIMLFAC
 40
1.0
  9
$DIMTOFL
 70
     1
  9
$DIMTVP
 40
1.0
  9
$DIMTIX
 70
     1
  9
$DIMSOXD
 70
     0
  9
$DIMSAH
 70
     0
  9
$DIMBLK1
  1

  9
$DIMBLK2
  1

  9
$DIMSTYLE
  2
STANDARD
  9
$DIMCLRD
 70
     0
  9
$DIMCLRE
 70
     0
  9
$DIMCLRT
 70
     0
  9
$DIMTFAC
 40
1.0
  9
$DIMGAP
 40
0.8
  9
$DIMJUST
 70
     0
  9
$DIMSD1
 70
     0
  9
$DIMSD2
 70
     0
  9
$DIMTOLJ
 70
     1
  9
$DIMTZIN
 70
     0
  9
$DIMALTZ
 70
     0
  9
$DIMALTTZ
 70
     0
  9
$DIMFIT
 70
     3
  9
$DIMUPT
 70
     0
  9
$DIMUNIT
 70
     2
  9
$DIMDEC
 70
     8
  9
$DIMTDEC
 70
     8
  9
$DIMALTU
 70
     2
  9
$DIMALTTD
 70
     2
  9
$DIMTXSTY
  7
STANDARD
  9
$DIMAUNIT
 70
     0
  9
$LUNITS
 70
     2
  9
$LUPREC
 70
     4
  9
$SKETCHINC
 40
0.1
  9
$FILLETRAD
 40
1.5
  9
$AUNITS
 70
     0
  9
$AUPREC
 70
     0
  9
$MENU
  1
.
  9
$ELEVATION
 40
0.0
  9
$PELEVATION
 40
0.0
  9
$THICKNESS
 40
0.0
  9
$LIMCHECK
 70
     0
  9
$BLIPMODE
 70
     0
  9
$CHAMFERA
 40
3.0
  9
$CHAMFERB
 40
3.0
  9
$CHAMFERC
 40
0.0
  9
$CHAMFERD
 40
0.0
  9
$SKPOLY
 70
     0
  9
$TDCREATE
 40
2453354.092125822
  9
$TDUPDATE
 40
2455065.663728830
  9
$TDINDWG
 40
12.0699561690
  9
$TDUSRTIMER
 40
12.0699561690
  9
$USRTIMER
 70
     1
  9
$ANGBASE
 50
0.0
  9
$ANGDIR
 70
     0
  9
$PDMODE
 70
     0
  9
$PDSIZE
 40
0.0
  9
$PLINEWID
 40
0.0
  9
$COORDS
 70
     2
  9
$SPLFRAME
 70
     0
  9
$SPLINETYPE
 70
     6
  9
$SPLINESEGS
 70
     8
  9
$ATTDIA
 70
     0
  9
$ATTREQ
 70
     1
  9
$HANDLING
 70
-16383
  9
$HANDSEED
  5
10E2D
  9
$SURFTAB1
 70
     6
  9
$SURFTAB2
 70
     6
  9
$SURFTYPE
 70
     6
  9
$SURFU
 70
     6
  9
$SURFV
 70
     6
  9
$UCSNAME
  2

  9
$UCSORG
 10
0.0
 20
0.0
 30
0.0
  9
$UCSXDIR
 10
1.0
 20
0.0
 30
0.0
  9
$UCSYDIR
 10
0.0
 20
1.0
 30
0.0
  9
$PUCSNAME
  2

  9
$PUCSORG
 10
0.0
 20
0.0
 30
0.0
  9
$PUCSXDIR
 10
1.0
 20
0.0
 30
0.0
  9
$PUCSYDIR
 10
0.0
 20
1.0
 30
0.0
  9
$USERI1
 70
     0
  9
$USERI2
 70
     0
  9
$USERI3
 70
     0
  9
$USERI4
 70
     0
  9
$USERI5
 70
     0
  9
$USERR1
 40
0.0
  9
$USERR2
 40
0.0
  9
$USERR3
 40
0.0
  9
$USERR4
 40
0.0
  9
$USERR5
 40
0.0
  9
$WORLDVIEW
 70
     1
  9
$SHADEDGE
 70
     3
  9
$SHADEDIF
 70
    70
  9
$TILEMODE
 70
     1
  9
$MAXACTVP
 70
    48
  9
$PINSBASE
 10
0.0
 20
0.0
 30
0.0
  9
$PLIMCHECK
 70
     0
  9
$PEXTMIN
 10
0.0
 20
0.0
 30
0.0
  9
$PEXTMAX
 10
0.0
 20
0.0
 30
0.0
  9
$PLIMMIN
 10
0.0
 20
0.0
  9
$PLIMMAX
 10
0.0
 20
0.0
  9
$UNITMODE
 70
     0
  9
$VISRETAIN
 70
     0
  9
$PLINEGEN
 70
     0
  9
$PSLTSCALE
 70
     0
  9
$TREEDEPTH
 70
  3020
  9
$PICKSTYLE
 70
     1
  9
$CMLSTYLE
  2
STANDARD
  9
$CMLJUST
 70
     0
  9
$CMLSCALE
 40
1.0
  9
$SAVEIMAGES
 70
     1
  0
ENDSEC
  0
SECTION
  2
CLASSES
  0
CLASS
  1
ACDBDICTIONARYWDFLT
  2
AcDbDictionaryWithDefault
  3
AutoCAD 2000
 90
    32768
280
     0
281
     0
  0
CLASS
  1
ACDBPLACEHOLDER
  2
AcDbPlaceHolder
  3
AutoCAD 2000
 90
    32768
280
     0
281
     0
  0
CLASS
  1
LAYOUT
  2
AcDbLayout
  3
AutoCAD 2000
 90
    32768
280
     0
281
     0
  0
CLASS
  1
DICTIONARYVAR
  2
AcDbDictionaryVar
  3
AutoCAD 2000
 90
    32768
280
     0
281
     0
  0
CLASS
  1
TABLESTYLE
  2
AcDbTableStyle
  3
ObjectDBX Classes
 90
    34815
280
     1
281
     0
  0
CLASS
  1
ACAD_PROXY_OBJECT_WRAPPER
  2
AcDbProxyObjectWrapper
  3
AutoCAD 2000
 90
    32768
280
     0
281
     0
  0
CLASS
  1
LONG_TRANSACTION
  2
AcDbLongTransaction
  3
AutoCAD 2000
 90
    32768
280
     0
281
     0
  0
CLASS
  1
LWPOLYLINE
  2
AcDbPolyline
  3
AutoCAD 2000
 90
    32768
280
     0
281
     1
  0
CLASS
  1
HATCH
  2
AcDbHatch
  3
AutoCAD 2000
 90
    32768
280
     0
281
     1
  0
CLASS
  1
XRECORD
  2
AcDbXrecord
  3
AutoCAD 2000
 90
    32768
280
     0
281
     0
  0
CLASS
  1
LONG_TRANSACTION
  2
AcDbLongTransaction
  3
AutoCAD 2000
 90
    32768
280
     0
281
     0
  0
CLASS
  1
LWPOLYLINE
  2
AcDbPolyline
  3
AutoCAD 2000
 90
    32768
280
     0
281
     1
  0
CLASS
  1
HATCH
  2
AcDbHatch
  3
AutoCAD 2000
 90
    32768
280
     0
281
     1
  0
CLASS
  1
XRECORD
  2
AcDbXrecord
  3
AutoCAD 2000
 90
    32768
280
     0
281
     0
  0
CLASS
  1
LONG_TRANSACTION
  2
AcDbLongTransaction
  3
AutoCAD 2000
 90
    32768
280
     0
281
     0
  0
CLASS
  1
LWPOLYLINE
  2
AcDbPolyline
  3
AutoCAD 2000
 90
    32768
280
     0
281
     1
  0
CLASS
  1
HATCH
  2
AcDbHatch
  3
AutoCAD 2000
 90
    32768
280
     0
281
     1
  0
CLASS
  1
XRECORD
  2
AcDbXrecord
  3
AutoCAD 2000
 90
    32768
280
     0
281
     0
  0
CLASS
  1
LONG_TRANSACTION
  2
AcDbLongTransaction
  3
AutoCAD 2000
 90
    32768
280
     0
281
     0
  0
CLASS
  1
LWPOLYLINE
  2
AcDbPolyline
  3
AutoCAD 2000
 90
    32768
280
     0
281
     1
  0
CLASS
  1
HATCH
  2
AcDbHatch
  3
AutoCAD 2000
 90
    32768
280
     0
281
     1
  0
CLASS
  1
XRECORD
  2
AcDbXrecord
  3
AutoCAD 2000
 90
    32768
280
     0
281
     0
  0
CLASS
  1
LONG_TRANSACTION
  2
AcDbLongTransaction
  3
AutoCAD 2000
 90
    32768
280
     0
281
     0
  0
CLASS
  1
LWPOLYLINE
  2
AcDbPolyline
  3
AutoCAD 2000
 90
    32768
280
     0
281
     1
  0
CLASS
  1
HATCH
  2
AcDbHatch
  3
AutoCAD 2000
 90
    32768
280
     0
281
     1
  0
CLASS
  1
XRECORD
  2
AcDbXrecord
  3
AutoCAD 2000
 90
    32768
280
     0
281
     0
  0
CLASS
  1
LONG_TRANSACTION
  2
AcDbLongTransaction
  3
AutoCAD 2000
 90
    32768
280
     0
281
     0
  0
CLASS
  1
LWPOLYLINE
  2
AcDbPolyline
  3
AutoCAD 2000
 90
    32768
280
     0
281
     1
  0
CLASS
  1
HATCH
  2
AcDbHatch
  3
AutoCAD 2000
 90
    32768
280
     0
281
     1
  0
CLASS
  1
XRECORD
  2
AcDbXrecord
  3
AutoCAD 2000
 90
    32768
280
     0
281
     0
  0
CLASS
  1
LONG_TRANSACTION
  2
AcDbLongTransaction
  3
AutoCAD 2000
 90
    32768
280
     0
281
     0
  0
CLASS
  1
LWPOLYLINE
  2
AcDbPolyline
  3
AutoCAD 2000
 90
    32768
280
     0
281
     1
  0
CLASS
  1
HATCH
  2
AcDbHatch
  3
AutoCAD 2000
 90
    32768
280
     0
281
     1
  0
CLASS
  1
XRECORD
  2
AcDbXrecord
  3
AutoCAD 2000
 90
    32768
280
     0
281
     0
  0
CLASS
  1
LONG_TRANSACTION
  2
AcDbLongTransaction
  3
AutoCAD 2000
 90
    32768
280
     0
281
     0
  0
CLASS
  1
LWPOLYLINE
  2
AcDbPolyline
  3
AutoCAD 2000
 90
    32768
280
     0
281
     1
  0
CLASS
  1
HATCH
  2
AcDbHatch
  3
AutoCAD 2000
 90
    32768
280
     0
281
     1
  0
CLASS
  1
XRECORD
  2
AcDbXrecord
  3
AutoCAD 2000
 90
    32768
280
     0
281
     0
  0
CLASS
  1
LONG_TRANSACTION
  2
AcDbLongTransaction
  3
AutoCAD 2000
 90
    32768
280
     0
281
     0
  0
CLASS
  1
LWPOLYLINE
  2
AcDbPolyline
  3
AutoCAD 2000
 90
    32768
280
     0
281
     1
  0
CLASS
  1
HATCH
  2
AcDbHatch
  3
AutoCAD 2000
 90
    32768
280
     0
281
     1
  0
CLASS
  1
XRECORD
  2
AcDbXrecord
  3
AutoCAD 2000
 90
    32768
280
     0
281
     0
  0
CLASS
  1
LONG_TRANSACTION
  2
AcDbLongTransaction
  3
AutoCAD 2000
 90
    32768
280
     0
281
     0
  0
CLASS
  1
LWPOLYLINE
  2
AcDbPolyline
  3
AutoCAD 2000
 90
    32768
280
     0
281
     1
  0
CLASS
  1
HATCH
  2
AcDbHatch
  3
AutoCAD 2000
 90
    32768
280
     0
281
     1
  0
CLASS
  1
XRECORD
  2
AcDbXrecord
  3
AutoCAD 2000
 90
    32768
280
     0
281
     0
  0
CLASS
  1
LONG_TRANSACTION
  2
AcDbLongTransaction
  3
AutoCAD 2000
 90
    32768
280
     0
281
     0
  0
CLASS
  1
LWPOLYLINE
  2
AcDbPolyline
  3
AutoCAD 2000
 90
    32768
280
     0
281
     1
  0
CLASS
  1
HATCH
  2
AcDbHatch
  3
AutoCAD 2000
 90
    32768
280
     0
281
     1
  0
CLASS
  1
XRECORD
  2
AcDbXrecord
  3
AutoCAD 2000
 90
    32768
280
     0
281
     0
  0
CLASS
  1
LONG_TRANSACTION
  2
AcDbLongTransaction
  3
AutoCAD 2000
 90
    32768
280
     0
281
     0
  0
CLASS
  1
LWPOLYLINE
  2
AcDbPolyline
  3
AutoCAD 2000
 90
    32768
280
     0
281
     1
  0
CLASS
  1
HATCH
  2
AcDbHatch
  3
AutoCAD 2000
 90
    32768
280
     0
281
     1
  0
CLASS
  1
XRECORD
  2
AcDbXrecord
  3
AutoCAD 2000
 90
    32768
280
     0
281
     0
  0
CLASS
  1
LONG_TRANSACTION
  2
AcDbLongTransaction
  3
AutoCAD 2000
 90
    32768
280
     0
281
     0
  0
CLASS
  1
LWPOLYLINE
  2
AcDbPolyline
  3
AutoCAD 2000
 90
    32768
280
     0
281
     1
  0
CLASS
  1
HATCH
  2
AcDbHatch
  3
AutoCAD 2000
 90
    32768
280
     0
281
     1
  0
CLASS
  1
XRECORD
  2
AcDbXrecord
  3
AutoCAD 2000
 90
    32768
280
     0
281
     0
  0
CLASS
  1
LONG_TRANSACTION
  2
AcDbLongTransaction
  3
AutoCAD 2000
 90
    32768
280
     0
281
     0
  0
CLASS
  1
LWPOLYLINE
  2
AcDbPolyline
  3
AutoCAD 2000
 90
    32768
280
     0
281
     1
  0
CLASS
  1
HATCH
  2
AcDbHatch
  3
AutoCAD 2000
 90
    32768
280
     0
281
     1
  0
CLASS
  1
XRECORD
  2
AcDbXrecord
  3
AutoCAD 2000
 90
    32768
280
     0
281
     0
  0
CLASS
  1
LONG_TRANSACTION
  2
AcDbLongTransaction
  3
AutoCAD 2000
 90
    32768
280
     0
281
     0
  0
CLASS
  1
LWPOLYLINE
  2
AcDbPolyline
  3
AutoCAD 2000
 90
    32768
280
     0
281
     1
  0
CLASS
  1
HATCH
  2
AcDbHatch
  3
AutoCAD 2000
 90
    32768
280
     0
281
     1
  0
CLASS
  1
XRECORD
  2
AcDbXrecord
  3
AutoCAD 2000
 90
    32768
280
     0
281
     0
  0
CLASS
  1
LONG_TRANSACTION
  2
AcDbLongTransaction
  3
AutoCAD 2000
 90
    32768
280
     0
281
     0
  0
CLASS
  1
LWPOLYLINE
  2
AcDbPolyline
  3
AutoCAD 2000
 90
    32768
280
     0
281
     1
  0
CLASS
  1
HATCH
  2
AcDbHatch
  3
AutoCAD 2000
 90
    32768
280
     0
281
     1
  0
CLASS
  1
XRECORD
  2
AcDbXrecord
  3
AutoCAD 2000
 90
    32768
280
     0
281
     0
  0
ENDSEC
  0
SECTION
  2
TABLES
  0
TABLE
  2
VPORT
  5
1E
330
0
100
AcDbSymbolTable
 70
     3
  0
VPORT
  5
10E05
330
1E
100
AcDbSymbolTableRecord
100
AcDbViewportTableRecord
  2
*ACTIVE
 70
     0
 10
0.0
 20
0.0
 11
1.0
 21
1.0
 12
-263.2774413278416
 22
-3794.137776052844
 13
0.0
 23
0.0
 14
1.0
 24
1.0
 15
4.0
 25
4.0
 16
0.0
 26
0.0
 36
1.0
 17
0.0
 27
0.0
 37
0.0
 40
503.6572140805382
 41
1.60759493670886
 42
50.0
 43
0.0
 44
0.0
 50
0.0
 51
0.0
 71
    16
 72
   100
 73
     1
 74
     0
 75
     0
 76
     0
 77
     0
 78
     0
  0
ENDTAB
  0
TABLE
  2
LTYPE
  5
19
330
0
100
AcDbSymbolTable
 70
     3
  0
LTYPE
  5
1A
330
19
100
AcDbSymbolTableRecord
100
AcDbLinetypeTableRecord
  2
BYBLOCK
 70
     0
  3

 72
    65
 73
     0
 40
0.0
  0
LTYPE
  5
1B
330
19
100
AcDbSymbolTableRecord
100
AcDbLinetypeTableRecord
  2
BYLAYER
 70
     0
  3

 72
    65
 73
     0
 40
0.0
  0
LTYPE
  5
B
330
19
100
AcDbSymbolTableRecord
100
AcDbLinetypeTableRecord
  2
CONTINUOUS
 70
     0
  3
Solid line
 72
    65
 73
     0
 40
0.0
  0
LTYPE
  5
32
330
19
100
AcDbSymbolTableRecord
100
AcDbLinetypeTableRecord
  2
CENTER
 70
     0
  3

 72
    65
 73
     4
 40
18.0
 49
15.0
 74
     4
 75
     0
340
0
 46
1.0
 50
0.0
 44
0.0
 45
0.0
 49
-1.0
 74
     4
 75
     0
340
0
 46
1.0
 50
0.0
 44
0.0
 45
0.0
 49
1.0
 74
     4
 75
     0
340
0
 46
1.0
 50
0.0
 44
0.0
 45
0.0
 49
-1.0
 74
     4
 75
     0
340
0
 46
1.0
 50
0.0
 44
0.0
 45
0.0
  0
LTYPE
  5
A348
330
19
100
AcDbSymbolTableRecord
100
AcDbLinetypeTableRecord
  2
PHANTOM
 70
     0
  3
----- - - ----- - - ----- - - ----- - - -----
 72
    65
 73
     6
 40
22.5
 49
15.0
 74
     4
 75
     0
340
0
 46
1.0
 50
0.0
 44
0.0
 45
0.0
 49
-1.5
 74
     4
 75
     0
340
0
 46
1.0
 50
0.0
 44
0.0
 45
0.0
 49
1.5
 74
     4
 75
     0
340
0
 46
1.0
 50
0.0
 44
0.0
 45
0.0
 49
-1.5
 74
     4
 75
     0
340
0
 46
1.0
 50
0.0
 44
0.0
 45
0.0
 49
1.5
 74
     4
 75
     0
340
0
 46
1.0
 50
0.0
 44
0.0
 45
0.0
 49
-1.5
 74
     4
 75
     0
340
0
 46
1.0
 50
0.0
 44
0.0
 45
0.0
  0
ENDTAB
  0
TABLE
  2
LAYER
  5
15
102
{ACAD_XDICTIONARY
360
8E1
102
}
330
0
100
AcDbSymbolTable
 70
     6
  0
LAYER
  5
6
330
15
100
AcDbSymbolTableRecord
100
AcDbLayerTableRecord
  2
0
 70
     0
 62
     7
  6
CONTINUOUS
  0
LAYER
  5
34
330
15
100
AcDbSymbolTableRecord
100
AcDbLayerTableRecord
  2
L-ZISSEN
 70
     0
 62
     7
  6
CONTINUOUS
  0
LAYER
  5
31
330
15
100
AcDbSymbolTableRecord
100
AcDbLayerTableRecord
  2
L-TYUSIN
 70
     0
 62
     1
  6
CENTER
  0
LAYER
  5
26
330
15
100
AcDbSymbolTableRecord
100
AcDbLayerTableRecord
  2
SUNPOU
 70
     0
 62
     3
  6
CONTINUOUS
  0
LAYER
  5
9E
330
15
100
AcDbSymbolTableRecord
100
AcDbLayerTableRecord
  2
L-SAISEN
 70
     0
 62
     6
  6
CONTINUOUS
  0
LAYER
  5
A349
330
15
100
AcDbSymbolTableRecord
100
AcDbLayerTableRecord
  2
L-SOUZOU
 70
     0
 62
     2
  6
PHANTOM
  0
ENDTAB
  0
TABLE
  2
STYLE
  5
16
330
0
100
AcDbSymbolTable
 70
     1
  0
STYLE
  5
17
330
16
100
AcDbSymbolTableRecord
100
AcDbTextStyleTableRecord
  2
STANDARD
 70
     0
 40
0.0
 41
1.0
 50
0.0
 71
     0
 42
5.599999999999999
  3
txt.shx
  4

  0
ENDTAB
  0
TABLE
  2
VIEW
  5
1C
330
0
100
AcDbSymbolTable
 70
     0
  0
ENDTAB
  0
TABLE
  2
UCS
  5
1D
330
0
100
AcDbSymbolTable
 70
     0
  0
ENDTAB
  0
TABLE
  2
APPID
  5
20
330
0
100
AcDbSymbolTable
 70
     1
  0
APPID
  5
A
330
20
100
AcDbSymbolTableRecord
100
AcDbRegAppTableRecord
  2
ACAD
 70
     0
  0
ENDTAB
  0
TABLE
  2
DIMSTYLE
  5
21
330
0
100
AcDbSymbolTable
 70
     1
  0
DIMSTYLE
105
28
330
21
100
AcDbSymbolTableRecord
100
AcDbDimStyleTableRecord
  2
STANDARD
 70
     0
  3

  4

  5

  6

  7

 40
1.0
 41
0.18
 42
0.0625
 43
0.38
 44
0.18
 45
0.0
 46
0.0
 47
0.0
 48
0.0
140
0.18
141
0.09
142
0.0
143
25.4
144
1.0
145
0.0
146
1.0
147
0.09
 71
     0
 72
     0
 73
     1
 74
     1
 75
     0
 76
     0
 77
     0
 78
     0
170
     0
171
     2
172
     0
173
     0
174
     0
175
     0
176
     0
177
     0
178
     0
270
     2
271
     4
272
     4
273
     2
274
     2
340
17
275
     0
280
     0
281
     0
282
     0
283
     1
284
     0
285
     0
286
     0
287
     3
288
     0
  0
ENDTAB
  0
TABLE
  2
BLOCK_RECORD
  5
1
330
0
100
AcDbSymbolTable
 70
     0
  0
BLOCK_RECORD
  5
2
102
{ACAD_XDICTIONARY
360
3
102
}
330
1
100
AcDbSymbolTableRecord
100
AcDbBlockTableRecord
  2
*MODEL_SPACE
  0
BLOCK_RECORD
  5
F
102
{ACAD_XDICTIONARY
360
10
102
}
330
1
100
AcDbSymbolTableRecord
100
AcDbBlockTableRecord
  2
*PAPER_SPACE
  0
ENDTAB
  0
ENDSEC
  0
SECTION
  2
BLOCKS
  0
BLOCK
  5
5
330
2
100
AcDbEntity
  8
0
100
AcDbBlockBegin
  2
*MODEL_SPACE
 70
     0
 10
0.0
 20
0.0
 30
0.0
  3
*MODEL_SPACE
  1

  0
ENDBLK
  5
C
330
2
100
AcDbEntity
  8
0
100
AcDbBlockEnd
  0
BLOCK
  5
12
330
F
100
AcDbEntity
 67
     1
  8
0
100
AcDbBlockBegin
  2
*PAPER_SPACE
 70
     0
 10
0.0
 20
0.0
 30
0.0
  3
*PAPER_SPACE
  1

  0
ENDBLK
  5
13
330
F
100
AcDbEntity
 67
     1
  8
0
100
AcDbBlockEnd
  0
ENDSEC
  0
SECTION
  2
ENTITIES
  0
TEXT
  5
F4F3
330
2
100
AcDbEntity
  8
L-ZISSEN
100
AcDbText
 10
-617.2755404117593
 20
-3580.072378182974
 30
0.0
 40
4.5
  1
MODEL NO. CJ4-*00-*01*
100
AcDbText
  0
LINE
  5
FDA5
330
2
100
AcDbEntity
  8
L-ZISSEN
100
AcDbLine
 10
-544.6635348675524
 20
-3913.162749686897
 30
0.0
 11
-544.6635348675524
 21
-3892.162749686897
 31
0.0
  0
LINE
  5
FDA6
330
2
100
AcDbEntity
  8
L-ZISSEN
100
AcDbLine
 10
-561.663534867556
 20
-3855.462749686893
 30
0.0
 11
-561.6635348675503
 21
-3913.162749686897
 31
0.0
  0
LINE
  5
FDA7
330
2
100
AcDbEntity
  8
L-ZISSEN
100
AcDbLine
 10
-597.6635348675543
 20
-3855.462749686893
 30
0.0
 11
-597.6635348675543
 21
-3913.162749686897
 31
0.0
  0
LINE
  5
FDA8
330
2
100
AcDbEntity
  8
L-ZISSEN
100
AcDbLine
 10
-614.6635348675524
 20
-3913.162749686897
 30
0.0
 11
-614.6635348675524
 21
-3892.162749686897
 31
0.0
  0
LINE
  5
FDA9
330
2
100
AcDbEntity
  8
L-TYUSIN
100
AcDbLine
 10
-579.6635348675525
 20
-4031.162749686896
 30
0.0
 11
-579.6635348675525
 21
-3762.462749686893
 31
0.0
  0
LINE
  5
FDAA
330
2
100
AcDbEntity
  8
L-ZISSEN
100
AcDbLine
 10
-581.2908917368044
 20
-3914.325380161337
 30
0.0
 11
-626.6877809256808
 21
-3946.758221299653
 31
0.0
  0
LINE
  5
FDAB
330
2
100
AcDbEntity
  8
L-ZISSEN
100
AcDbLine
 10
-626.6877809256808
 20
-3946.758221299653
 30
0.0
 11
-628.6877809256808
 21
-3946.758221299653
 31
0.0
  0
TEXT
  5
FDAC
330
2
100
AcDbEntity
  8
L-ZISSEN
100
AcDbText
 10
-639.558169993584
 20
-3949.004895527604
 30
0.0
 40
4.5
  1
P.P
100
AcDbText
  0
LINE
  5
FDAD
330
2
100
AcDbEntity
  8
L-ZISSEN
100
AcDbLine
 10
-614.6635348675524
 20
-3913.162749686897
 30
0.0
 11
-544.6635348675524
 21
-3913.162749686897
 31
0.0
  0
LINE
  5
FDAE
330
2
100
AcDbEntity
  8
L-ZISSEN
100
AcDbLine
 10
-585.1635348675542
 20
-4016.103915097388
 30
0.0
 11
-576.6635348675529
 21
-4016.103915097388
 31
0.0
  0
ARC
  5
FDAF
330
2
100
AcDbEntity
  8
L-ZISSEN
100
AcDbCircle
 10
-579.6635348675525
 20
-3993.521687012979
 30
0.0
 40
20.64106267391694
100
AcDbArc
 50
257.3236813122706
 51
282.4944195184261
  0
ARC
  5
FDB0
330
2
100
AcDbEntity
  8
L-ZISSEN
100
AcDbCircle
 10
-579.663534867551
 20
-4031.803812360813
 30
0.0
 40
20.64106267391679
100
AcDbArc
 50
77.50558048157383
 51
102.6763186877356
  0
LINE
  5
FDB1
330
2
100
AcDbEntity
  8
L-ZISSEN
100
AcDbLine
 10
-573.963534867553
 20
-4026.162749686896
 30
0.0
 11
-585.3635348675518
 21
-4026.162749686896
 31
0.0
  0
LINE
  5
FDB2
330
2
100
AcDbEntity
  8
L-ZISSEN
100
AcDbLine
 10
-586.5227690653443
 20
-4011.162749686896
 30
0.0
 11
-573.663534867552
 21
-4011.162749686896
 31
0.0
  0
LINE
  5
FDB3
330
2
100
AcDbEntity
  8
L-ZISSEN
100
AcDbLine
 10
-573.663534867552
 20
-4011.02230088746
 30
0.0
 11
-588.663534867552
 21
-4011.02230088746
 31
0.0
  0
LINE
  5
FDB4
330
2
100
AcDbEntity
  8
L-ZISSEN
100
AcDbLine
 10
-573.663534867552
 20
-4011.02230088746
 30
0.0
 11
-588.663534867552
 21
-4011.02230088746
 31
0.0
  0
LINE
  5
FDB5
330
2
100
AcDbEntity
  8
L-ZISSEN
100
AcDbLine
 10
-586.441850484057
 20
-4014.163370801716
 30
0.0
 11
-572.9508168075588
 21
-4014.164167571488
 31
0.0
  0
LINE
  5
FDB6
330
2
100
AcDbEntity
  8
L-ZISSEN
100
AcDbLine
 10
-570.6635348675502
 20
-4009.818699226946
 30
0.0
 11
-588.9135348675506
 21
-4009.818699226946
 31
0.0
  0
LINE
  5
FDB7
330
2
100
AcDbEntity
  8
L-ZISSEN
100
AcDbLine
 10
-604.9435348675549
 20
-3923.501488598528
 30
0.0
 11
-604.9435348675526
 21
-3991.501488598527
 31
0.0
  0
LINE
  5
FDB8
330
2
100
AcDbEntity
  8
L-ZISSEN
100
AcDbLine
 10
-596.5135348675519
 20
-3923.501488598528
 30
0.0
 11
-596.5135348675519
 21
-3991.501488598527
 31
0.0
  0
LINE
  5
FDB9
330
2
100
AcDbEntity
  8
L-ZISSEN
100
AcDbLine
 10
-609.6635348675548
 20
-3999.566433730885
 30
0.0
 11
-609.6635348675524
 21
-3913.162749686895
 31
0.0
  0
LINE
  5
FDBA
330
2
100
AcDbEntity
  8
L-ZISSEN
100
AcDbLine
 10
-600.7285348675534
 20
-3993.501488598528
 30
0.0
 11
-604.9435348675526
 21
-3991.501488598527
 31
0.0
  0
ARC
  5
FDBB
330
2
100
AcDbEntity
  8
L-ZISSEN
100
AcDbCircle
 10
-579.6635348675488
 20
-3910.710038605412
 30
0.0
 40
99.53938471878538
100
AcDbArc
 50
256.0937629349537
 51
264.6679223051352
  0
ARC
  5
FDBC
330
2
100
AcDbEntity
  8
L-ZISSEN
100
AcDbCircle
 10
-601.6635348675434
 20
-3999.566433730885
 30
0.0
 40
8.000000000000113
100
AcDbArc
 50
180.0
 51
256.0937629347642
  0
LINE
  5
FDBD
330
2
100
AcDbEntity
  8
L-ZISSEN
100
AcDbLine
 10
-584.6635348675524
 20
-4016.103915097388
 30
0.0
 11
-584.6635348675524
 21
-4026.162749686896
 31
0.0
  0
LINE
  5
FDBE
330
2
100
AcDbEntity
  8
L-ZISSEN
100
AcDbLine
 10
-584.6635348675542
 20
-4016.103915097388
 30
0.0
 11
-585.1635348675515
 21
-4015.603915097388
 31
0.0
  0
LINE
  5
FDBF
330
2
100
AcDbEntity
  8
L-ZISSEN
100
AcDbLine
 10
-585.1635348675515
 20
-4015.603915097388
 30
0.0
 11
-585.1635348675515
 21
-4014.162749686896
 31
0.0
  0
LINE
  5
FDC0
330
2
100
AcDbEntity
  8
L-ZISSEN
100
AcDbLine
 10
-584.66353486755
 20
-4014.163446298025
 30
0.0
 11
-584.6635348675542
 21
-4016.103915097388
 31
0.0
  0
LINE
  5
FDC1
330
2
100
AcDbEntity
  8
L-ZISSEN
100
AcDbLine
 10
-583.6635348675534
 20
-4016.103915097388
 30
0.0
 11
-583.6635348675534
 21
-4026.162749686896
 31
0.0
  0
LINE
  5
FDC2
330
2
100
AcDbEntity
  8
L-ZISSEN
100
AcDbLine
 10
-582.663534867552
 20
-4016.103915097388
 30
0.0
 11
-582.6635348675519
 21
-4026.162749686896
 31
0.0
  0
LINE
  5
FDC3
330
2
100
AcDbEntity
  8
L-ZISSEN
100
AcDbLine
 10
-579.6635348675502
 20
-4016.103915097388
 30
0.0
 11
-579.6635348675501
 21
-4026.162749686896
 31
0.0
  0
LINE
  5
FDC4
330
2
100
AcDbEntity
  8
L-ZISSEN
100
AcDbLine
 10
-580.6635348675516
 20
-4016.103915097388
 30
0.0
 11
-580.6635348675514
 21
-4026.162749686896
 31
0.0
  0
LINE
  5
FDC5
330
2
100
AcDbEntity
  8
L-ZISSEN
100
AcDbLine
 10
-581.6635348675506
 20
-4016.103915097388
 30
0.0
 11
-581.6635348675505
 21
-4026.162749686896
 31
0.0
  0
LINE
  5
FDC6
330
2
100
AcDbEntity
  8
L-ZISSEN
100
AcDbLine
 10
-584.1930711855695
 20
-4011.665868844846
 30
0.0
 11
-584.1930711855627
 21
-4013.659630528948
 31
0.0
  0
LINE
  5
FDC7
330
2
100
AcDbEntity
  8
L-ZISSEN
100
AcDbLine
 10
-585.6635348675516
 20
-4025.862749686896
 30
0.0
 11
-585.6635348675515
 21
-4016.603915097388
 31
0.0
  0
LINE
  5
FDC8
330
2
100
AcDbEntity
  8
L-ZISSEN
100
AcDbLine
 10
-585.3635348675518
 20
-4026.162749686896
 30
0.0
 11
-585.6635348675515
 21
-4025.862749686896
 31
0.0
  0
LINE
  5
FDC9
330
2
100
AcDbEntity
  8
L-ZISSEN
100
AcDbLine
 10
-588.6631784876351
 20
-4011.65301695684
 30
0.0
 11
-588.6631784876351
 21
-4013.672482416953
 31
0.0
  0
LINE
  5
FDCA
330
2
100
AcDbEntity
  8
L-ZISSEN
100
AcDbLine
 10
-588.663534867552
 20
-4011.02230088746
 30
0.0
 11
-588.663534867552
 21
-4009.818699226946
 31
0.0
  0
ARC
  5
FDCB
330
2
100
AcDbEntity
  8
L-ZISSEN
100
AcDbCircle
 10
-586.441850484057
 20
-4008.892040631345
 30
0.0
 40
5.271330170370607
100
AcDbArc
 50
245.0771192748311
 51
295.2523389966485
  0
ARC
  5
FDCC
330
2
100
AcDbEntity
  8
L-ZISSEN
100
AcDbCircle
 10
-586.4418504840557
 20
-4016.433458742447
 30
0.0
 40
5.271330170370607
100
AcDbArc
 50
64.74766100340973
 51
114.9228807251688
  0
LINE
  5
FDCD
330
2
100
AcDbEntity
  8
L-ZISSEN
100
AcDbLine
 10
-585.1635348675542
 20
-4016.103915097388
 30
0.0
 11
-585.6635348675515
 21
-4016.603915097388
 31
0.0
  0
LINE
  5
FDCE
330
2
100
AcDbEntity
  8
L-ZISSEN
100
AcDbLine
 10
-596.5135348675519
 20
-3991.501488598527
 30
0.0
 11
-600.7285348675534
 21
-3993.501488598528
 31
0.0
  0
LINE
  5
FDCF
330
2
100
AcDbEntity
  8
L-ZISSEN
100
AcDbLine
 10
-604.9435348675549
 20
-3923.501488598528
 30
0.0
 11
-596.5135348675519
 21
-3923.501488598528
 31
0.0
  0
SOLID
  5
FDD0
330
2
100
AcDbEntity
  8
L-ZISSEN
100
AcDbTrace
 10
-581.4846634825446
 20
-3914.054154016462
 30
0.0
 11
-581.0971199910643
 21
-3914.596606306212
 31
0.0
 12
-579.6635348675525
 22
-3913.162749686897
 32
0.0
 13
-579.6635348675525
 23
-3913.162749686897
 33
0.0
  0
LINE
  5
FDD1
330
2
100
AcDbEntity
  8
L-ZISSEN
100
AcDbLine
 10
-562.8135348675552
 20
-3923.501488598528
 30
0.0
 11
-562.8135348675552
 21
-3991.501488598527
 31
0.0
  0
LINE
  5
FDD2
330
2
100
AcDbEntity
  8
L-ZISSEN
100
AcDbLine
 10
-554.3835348675522
 20
-3923.501488598528
 30
0.0
 11
-554.3835348675545
 21
-3991.501488598527
 31
0.0
  0
LINE
  5
FDD3
330
2
100
AcDbEntity
  8
L-ZISSEN
100
AcDbLine
 10
-549.6635348675547
 20
-3999.566433730885
 30
0.0
 11
-549.6635348675524
 21
-3913.162749686895
 31
0.0
  0
LINE
  5
FDD4
330
2
100
AcDbEntity
  8
L-ZISSEN
100
AcDbLine
 10
-558.5985348675515
 20
-3993.501488598528
 30
0.0
 11
-554.3835348675545
 21
-3991.501488598527
 31
0.0
  0
ARC
  5
FDD5
330
2
100
AcDbEntity
  8
L-ZISSEN
100
AcDbCircle
 10
-579.6635348675488
 20
-3910.710038605412
 30
0.0
 40
99.53938471878515
100
AcDbArc
 50
275.3320776948647
 51
283.9062370650399
  0
LINE
  5
FDD6
330
2
100
AcDbEntity
  8
L-ZISSEN
100
AcDbLine
 10
-570.6638912474647
 20
-4011.683252193802
 30
0.0
 11
-570.6638912474647
 21
-4013.64224717999
 31
0.0
  0
LINE
  5
FDD7
330
2
100
AcDbEntity
  8
L-ZISSEN
100
AcDbLine
 10
-570.7885348675506
 20
-4011.02230088746
 30
0.0
 11
-570.7885348675506
 21
-4009.818699226946
 31
0.0
  0
LINE
  5
FDD8
330
2
100
AcDbEntity
  8
L-ZISSEN
100
AcDbLine
 10
-570.4135348675492
 20
-4009.818699226946
 30
0.0
 11
-570.6635348675502
 21
-4009.818699226946
 31
0.0
  0
LINE
  5
FDD9
330
2
100
AcDbEntity
  8
L-ZISSEN
100
AcDbLine
 10
-562.8135348675552
 20
-3991.501488598527
 30
0.0
 11
-558.5985348675515
 21
-3993.501488598528
 31
0.0
  0
LINE
  5
FDDA
330
2
100
AcDbEntity
  8
L-ZISSEN
100
AcDbLine
 10
-573.6635348675533
 20
-4016.603915097388
 30
0.0
 11
-573.6635348675533
 21
-4025.862749686896
 31
0.0
  0
LINE
  5
FDDB
330
2
100
AcDbEntity
  8
L-ZISSEN
100
AcDbLine
 10
-574.6635348675502
 20
-4016.103915097388
 30
0.0
 11
-574.6635348675481
 21
-4026.162749686896
 31
0.0
  0
LINE
  5
FDDC
330
2
100
AcDbEntity
  8
L-ZISSEN
100
AcDbLine
 10
-575.6635348675493
 20
-4016.103915097388
 30
0.0
 11
-575.6635348675492
 21
-4026.162749686896
 31
0.0
  0
LINE
  5
FDDD
330
2
100
AcDbEntity
  8
L-ZISSEN
100
AcDbLine
 10
-576.6635348675529
 20
-4016.103915097388
 30
0.0
 11
-576.6635348675529
 21
-4026.162749686896
 31
0.0
  0
LINE
  5
FDDE
330
2
100
AcDbEntity
  8
L-ZISSEN
100
AcDbLine
 10
-577.663534867552
 20
-4016.103915097388
 30
0.0
 11
-577.6635348675519
 21
-4026.162749686896
 31
0.0
  0
LINE
  5
FDDF
330
2
100
AcDbEntity
  8
L-ZISSEN
100
AcDbLine
 10
-578.6635348675511
 20
-4016.103915097388
 30
0.0
 11
-578.663534867551
 21
-4026.162749686896
 31
0.0
  0
LINE
  5
FDE0
330
2
100
AcDbEntity
  8
L-ZISSEN
100
AcDbLine
 10
-573.963534867553
 20
-4026.162749686896
 30
0.0
 11
-573.6635348675533
 21
-4025.862749686896
 31
0.0
  0
LINE
  5
FDE1
330
2
100
AcDbEntity
  8
L-ZISSEN
100
AcDbLine
 10
-574.6635348675529
 20
-4016.103915097388
 30
0.0
 11
-574.1635348675534
 21
-4015.603915097388
 31
0.0
  0
LINE
  5
FDE2
330
2
100
AcDbEntity
  8
L-ZISSEN
100
AcDbLine
 10
-576.6635348675529
 20
-4016.103915097388
 30
0.0
 11
-574.1635348675528
 21
-4016.103915097388
 31
0.0
  0
LINE
  5
FDE3
330
2
100
AcDbEntity
  8
L-ZISSEN
100
AcDbLine
 10
-574.6635348675487
 20
-4014.164095949318
 30
0.0
 11
-574.6635348675529
 21
-4016.103915097388
 31
0.0
  0
LINE
  5
FDE4
330
2
100
AcDbEntity
  8
L-ZISSEN
100
AcDbLine
 10
-576.6635348675515
 20
-4011.162749686896
 30
0.0
 11
-576.6635348675515
 21
-4011.02230088746
 31
0.0
  0
LINE
  5
FDE5
330
2
100
AcDbEntity
  8
L-ZISSEN
100
AcDbLine
 10
-575.2001592305339
 20
-4011.665337730582
 30
0.0
 11
-575.2001592305339
 21
-4013.660161643211
 31
0.0
  0
LINE
  5
FDE6
330
2
100
AcDbEntity
  8
L-ZISSEN
100
AcDbLine
 10
-574.1635348675528
 20
-4016.103915097388
 30
0.0
 11
-573.6635348675533
 21
-4016.603915097388
 31
0.0
  0
LINE
  5
FDE7
330
2
100
AcDbEntity
  8
L-ZISSEN
100
AcDbLine
 10
-574.1635348675532
 20
-4015.603915097387
 30
0.0
 11
-574.1635348675534
 21
-4014.162749686896
 31
0.0
  0
ARC
  5
FDE8
330
2
100
AcDbEntity
  8
L-ZISSEN
100
AcDbCircle
 10
-572.9508168075588
 20
-4008.892837401115
 30
0.0
 40
5.271330170371532
100
AcDbArc
 50
244.7408933165762
 51
295.7116451148668
  0
ARC
  5
FDE9
330
2
100
AcDbEntity
  8
L-ZISSEN
100
AcDbCircle
 10
-572.9508168075574
 20
-4016.432661972677
 30
0.0
 40
5.271330170371789
100
AcDbArc
 50
64.28835488513318
 51
115.2591066834237
  0
LINE
  5
FDEA
330
2
100
AcDbEntity
  8
L-ZISSEN
100
AcDbLine
 10
-570.6635348675502
 20
-4011.02230088746
 30
0.0
 11
-573.663534867552
 21
-4011.02230088746
 31
0.0
  0
LINE
  5
FDEB
330
2
100
AcDbEntity
  8
L-ZISSEN
100
AcDbLine
 10
-570.6635348675502
 20
-4011.02230088746
 30
0.0
 11
-573.663534867552
 21
-4011.02230088746
 31
0.0
  0
LINE
  5
FDEC
330
2
100
AcDbEntity
  8
L-ZISSEN
100
AcDbLine
 10
-573.663534867552
 20
-4011.162749686896
 30
0.0
 11
-572.8285618884558
 21
-4011.162749686896
 31
0.0
  0
ARC
  5
FDED
330
2
100
AcDbEntity
  8
L-ZISSEN
100
AcDbCircle
 10
-557.6635348675447
 20
-3999.566433730885
 30
0.0
 40
8.000000000000113
100
AcDbArc
 50
283.9062370650462
 51
0.0
  0
LINE
  5
FDEE
330
2
100
AcDbEntity
  8
L-ZISSEN
100
AcDbLine
 10
-554.3835348675522
 20
-3923.501488598528
 30
0.0
 11
-562.8135348675552
 21
-3923.501488598528
 31
0.0
  0
LINE
  5
FDEF
330
2
100
AcDbEntity
  8
L-ZISSEN
100
AcDbLine
 10
-540.6635348675538
 20
-3934.827687492679
 30
0.0
 11
-540.6635348675538
 21
-3939.111856475277
 31
0.0
  0
LINE
  5
FDF0
330
2
100
AcDbEntity
  8
L-ZISSEN
100
AcDbLine
 10
-546.163534867551
 20
-3941.052235588907
 30
0.0
 11
-546.3494395430009
 21
-3941.052235588907
 31
0.0
  0
LINE
  5
FDF1
330
2
100
AcDbEntity
  8
L-ZISSEN
100
AcDbLine
 10
-548.1131136867727
 20
-3946.636231972355
 30
0.0
 11
-546.3494395430009
 21
-3939.156256224912
 31
0.0
  0
LINE
  5
FDF2
330
2
100
AcDbEntity
  8
L-ZISSEN
100
AcDbLine
 10
-547.8360233737569
 20
-3936.969771983978
 30
0.0
 11
-547.8360233737569
 21
-3938.805740454089
 31
0.0
  0
LINE
  5
FDF3
330
2
100
AcDbEntity
  8
L-ZISSEN
100
AcDbLine
 10
-546.3494395430009
 20
-3939.156256224912
 30
0.0
 11
-546.3494395430009
 21
-3936.969771983977
 31
0.0
  0
LINE
  5
FDF4
330
2
100
AcDbEntity
  8
L-ZISSEN
100
AcDbLine
 10
-540.6635348675538
 20
-3939.111856475277
 30
0.0
 11
-546.163534867551
 21
-3941.052235588907
 31
0.0
  0
LINE
  5
FDF5
330
2
100
AcDbEntity
  8
L-ZISSEN
100
AcDbLine
 10
-544.6635348675524
 20
-3934.162749686896
 30
0.0
 11
-540.6635348675538
 21
-3934.827687492679
 31
0.0
  0
LINE
  5
FDF6
330
2
100
AcDbEntity
  8
L-ZISSEN
100
AcDbLine
 10
-549.5996975175287
 20
-3946.285716201532
 30
0.0
 11
-547.8360233737569
 21
-3938.805740454089
 31
0.0
  0
LINE
  5
FDF7
330
2
100
AcDbEntity
  8
L-ZISSEN
100
AcDbLine
 10
-548.1131136867727
 20
-3946.636231972355
 30
0.0
 11
-549.6635348675524
 21
-3946.636231972355
 31
0.0
  0
LINE
  5
FDF8
330
2
100
AcDbEntity
  8
L-ZISSEN
100
AcDbLine
 10
-546.3494395430009
 20
-3936.969771983977
 30
0.0
 11
-549.6635348675524
 21
-3936.969771983977
 31
0.0
  0
LINE
  5
FDF9
330
2
100
AcDbEntity
  8
L-ZISSEN
100
AcDbLine
 10
-546.3494395430009
 20
-3941.052235588907
 30
0.0
 11
-546.3494395430009
 21
-3913.162749686897
 31
0.0
  0
LINE
  5
FDFA
330
2
100
AcDbEntity
  8
L-ZISSEN
100
AcDbLine
 10
-549.6635348675524
 20
-3913.162749686895
 30
0.0
 11
-549.6635348675524
 21
-3954.486744141095
 31
0.0
  0
LINE
  5
FDFB
330
2
100
AcDbEntity
  8
L-ZISSEN
100
AcDbLine
 10
-544.6635348675524
 20
-3913.162749686897
 30
0.0
 11
-544.6635348675524
 21
-3934.162749686896
 31
0.0
  0
LINE
  5
FE03
330
2
100
AcDbEntity
  8
L-TYUSIN
100
AcDbLine
 10
-616.6635348675525
 20
-3879.462749686897
 30
0.0
 11
-505.6635348675524
 21
-3879.462749686892
 31
0.0
  0
LINE
  5
FE04
330
2
100
AcDbEntity
  8
L-SOUZOU
100
AcDbLine
 10
-534.1635348675525
 20
-3899.862749686894
 30
0.0
 11
-519.6635348675524
 21
-3899.862749686894
 31
0.0
  0
LINE
  5
FE05
330
2
100
AcDbEntity
  8
L-SOUZOU
100
AcDbLine
 10
-534.1635348675525
 20
-3859.062749686894
 30
0.0
 11
-519.6635348675524
 21
-3859.062749686894
 31
0.0
  0
LINE
  5
FE06
330
2
100
AcDbEntity
  8
L-ZISSEN
100
AcDbLine
 10
-561.663534867556
 20
-3861.962749686894
 30
0.0
 11
-597.6635348675543
 21
-3861.962749686894
 31
0.0
  0
CIRCLE
  5
FE07
330
2
100
AcDbEntity
  8
L-SAISEN
100
AcDbCircle
 10
-579.6635348675525
 20
-3879.462749686897
 30
0.0
 40
10.48
  0
CIRCLE
  5
FE08
330
2
100
AcDbEntity
  8
L-ZISSEN
100
AcDbCircle
 10
-579.6635348675525
 20
-3879.462749686897
 30
0.0
 40
9.314999999999999
  0
LINE
  5
FE09
330
2
100
AcDbEntity
  8
L-ZISSEN
100
AcDbLine
 10
-558.4503314319561
 20
-3841.462749686893
 30
0.0
 11
-600.8767383031488
 21
-3841.462749686893
 31
0.0
  0
LINE
  5
FE0A
330
2
100
AcDbEntity
  8
L-ZISSEN
100
AcDbLine
 10
-558.4503314319561
 20
-3835.462749686893
 30
0.0
 11
-600.8767383031488
 21
-3835.462749686893
 31
0.0
  0
LINE
  5
FE0B
330
2
100
AcDbEntity
  8
L-ZISSEN
100
AcDbLine
 10
-601.1635348675524
 20
-3821.462749686892
 30
0.0
 11
-558.1635348675525
 21
-3821.462749686892
 31
0.0
  0
LINE
  5
FE0C
330
2
100
AcDbEntity
  8
L-ZISSEN
100
AcDbLine
 10
-603.9748761407507
 20
-3830.462749686893
 30
0.0
 11
-555.3521935943597
 21
-3830.462749686893
 31
0.0
  0
LINE
  5
FE0D
330
2
100
AcDbEntity
  8
L-ZISSEN
100
AcDbLine
 10
-557.2241247317719
 20
-3819.462749686893
 30
0.0
 11
-602.1029450033402
 21
-3819.462749686893
 31
0.0
  0
LINE
  5
FE0E
330
2
100
AcDbEntity
  8
L-ZISSEN
100
AcDbLine
 10
-614.6635348675543
 20
-3855.462749686893
 30
0.0
 11
-544.6635348675543
 21
-3855.462749686893
 31
0.0
  0
LINE
  5
FE0F
330
2
100
AcDbEntity
  8
L-ZISSEN
100
AcDbLine
 10
-544.6635348675543
 20
-3843.462749686892
 30
0.0
 11
-614.6635348675543
 21
-3843.462749686892
 31
0.0
  0
LINE
  5
FE10
330
2
100
AcDbEntity
  8
L-ZISSEN
100
AcDbLine
 10
-557.6635348675526
 20
-3767.462749686893
 30
0.0
 11
-601.6635348675542
 21
-3767.462749686893
 31
0.0
  0
LINE
  5
FE11
330
2
100
AcDbEntity
  8
L-ZISSEN
100
AcDbLine
 10
-597.6635348675543
 20
-3858.462749686893
 30
0.0
 11
-561.663534867556
 21
-3858.462749686893
 31
0.0
  0
ARC
  5
FE12
330
2
100
AcDbEntity
  8
L-ZISSEN
100
AcDbCircle
 10
-579.6635348675525
 20
-3773.774043581245
 30
0.0
 40
67.68870610564736
100
AcDbArc
 50
259.4215471024246
 51
280.5784528975753
  0
ARC
  5
FE13
330
2
100
AcDbEntity
  8
L-ZISSEN
100
AcDbCircle
 10
-579.6635348675525
 20
-3903.15145579254
 30
0.0
 40
67.68870610564736
100
AcDbArc
 50
79.42154710242468
 51
100.5784528975753
  0
LINE
  5
FE14
330
2
100
AcDbEntity
  8
L-ZISSEN
100
AcDbLine
 10
-561.663534867556
 20
-3896.962749686901
 30
0.0
 11
-597.6635348675543
 21
-3896.962749686901
 31
0.0
  0
LINE
  5
FE15
330
2
100
AcDbEntity
  8
L-ZISSEN
100
AcDbLine
 10
-597.6635348675543
 20
-3900.462749686901
 30
0.0
 11
-561.663534867556
 21
-3900.462749686901
 31
0.0
  0
LINE
  5
FE17
330
2
100
AcDbEntity
  8
L-ZISSEN
100
AcDbLine
 10
-601.1635348675524
 20
-3821.462749686892
 30
0.0
 11
-601.1635348675524
 21
-3830.446469887568
 31
0.0
  0
LINE
  5
FE18
330
2
100
AcDbEntity
  8
L-ZISSEN
100
AcDbLine
 10
-614.1635348675542
 20
-3867.462749686893
 30
0.0
 11
-597.6635348675543
 21
-3867.462749686893
 31
0.0
  0
LINE
  5
FE19
330
2
100
AcDbEntity
  8
L-ZISSEN
100
AcDbLine
 10
-614.1635348675529
 20
-3891.662749686896
 30
0.0
 11
-597.663534867552
 21
-3891.662749686896
 31
0.0
  0
ARC
  5
FE1A
330
2
100
AcDbEntity
  8
L-ZISSEN
100
AcDbCircle
 10
-600.8767383031488
 20
-3807.330795069406
 30
0.0
 40
34.1319546174875
100
AcDbArc
 50
255.082017639271
 51
284.9179823607288
  0
ARC
  5
FE1B
330
2
100
AcDbEntity
  8
L-ZISSEN
100
AcDbCircle
 10
-600.8767383031488
 20
-3869.594704304381
 30
0.0
 40
34.1319546174875
100
AcDbArc
 50
75.0820176392711
 51
104.9179823607288
  0
LINE
  5
FE1C
330
2
100
AcDbEntity
  8
L-ZISSEN
100
AcDbLine
 10
-604.5866604504851
 20
-3843.462749686892
 30
0.0
 11
-604.5866604504851
 21
-3849.457076695374
 31
0.0
  0
ARC
  5
FE1D
330
2
100
AcDbEntity
  8
L-ZISSEN
100
AcDbCircle
 10
-608.9587236411378
 20
-3848.07265627568
 30
0.0
 40
2.715501624969247
100
AcDbArc
 50
354.9022474682888
 51
91.24326520780831
  0
LINE
  5
FE1E
330
2
100
AcDbEntity
  8
L-ZISSEN
100
AcDbLine
 10
-606.2539630427588
 20
-3848.313942787271
 30
0.0
 11
-606.2539630427607
 21
-3849.457076695374
 31
0.0
  0
LINE
  5
FE1F
330
2
100
AcDbEntity
  8
L-ZISSEN
100
AcDbLine
 10
-609.0176428807142
 20
-3845.357793922186
 30
0.0
 11
-609.0176428807142
 21
-3846.342807654156
 31
0.0
  0
LINE
  5
FE20
330
2
100
AcDbEntity
  8
L-SAISEN
100
AcDbLine
 10
-603.9748761407507
 20
-3841.321850774539
 30
0.0
 11
-603.9748761407507
 21
-3843.462749686892
 31
0.0
  0
LINE
  5
FE21
330
2
100
AcDbEntity
  8
L-ZISSEN
100
AcDbLine
 10
-605.6635348675524
 20
-3841.125423409738
 30
0.0
 11
-605.6635348675524
 21
-3843.462749686892
 31
0.0
  0
LINE
  5
FE22
330
2
100
AcDbEntity
  8
L-ZISSEN
100
AcDbLine
 10
-603.9748761407507
 20
-3830.462749686893
 30
0.0
 11
-605.6635348675524
 21
-3831.194187545927
 31
0.0
  0
LINE
  5
FE23
330
2
100
AcDbEntity
  8
L-ZISSEN
100
AcDbLine
 10
-605.6635348675524
 20
-3831.177907746602
 30
0.0
 11
-605.6635348675524
 21
-3835.800075964047
 31
0.0
  0
LINE
  5
FE24
330
2
100
AcDbEntity
  8
L-SAISEN
100
AcDbLine
 10
-603.9748761407507
 20
-3830.446469887568
 30
0.0
 11
-603.9748761407507
 21
-3835.603648599247
 31
0.0
  0
LINE
  5
FE25
330
2
100
AcDbEntity
  8
L-ZISSEN
100
AcDbLine
 10
-614.6635348675543
 20
-3843.462749686892
 30
0.0
 11
-614.6635348675543
 21
-3855.462749686893
 31
0.0
  0
ARC
  5
FE26
330
2
100
AcDbEntity
  8
L-ZISSEN
100
AcDbCircle
 10
-610.2914716769053
 20
-3848.07265627568
 30
0.0
 40
2.715501624969813
100
AcDbArc
 50
88.75673479208749
 51
185.0977525317111
  0
LINE
  5
FE27
330
2
100
AcDbEntity
  8
L-ZISSEN
100
AcDbLine
 10
-614.6635348675543
 20
-3849.457076695374
 30
0.0
 11
-614.6635348675543
 21
-3844.446469887568
 31
0.0
  0
LINE
  5
FE28
330
2
100
AcDbEntity
  8
L-ZISSEN
100
AcDbLine
 10
-612.9962322752842
 20
-3849.457076695374
 30
0.0
 11
-612.9962322752842
 21
-3848.313942787271
 31
0.0
  0
LINE
  5
FE29
330
2
100
AcDbEntity
  8
L-ZISSEN
100
AcDbLine
 10
-610.2325524373252
 20
-3846.342807654156
 30
0.0
 11
-610.2325524373252
 21
-3845.357793922186
 31
0.0
  0
LINE
  5
FE2A
330
2
100
AcDbEntity
  8
L-ZISSEN
100
AcDbLine
 10
-609.6635348675524
 20
-3836.613155945548
 30
0.0
 11
-609.6635348675524
 21
-3840.312343428238
 31
0.0
  0
ARC
  5
FE2B
330
2
100
AcDbEntity
  8
L-ZISSEN
100
AcDbCircle
 10
-614.1635348675542
 20
-3866.962749686893
 30
0.0
 40
0.5000000000001137
100
AcDbArc
 50
180.0
 51
270.0
  0
ARC
  5
FE2C
330
2
100
AcDbEntity
  8
L-ZISSEN
100
AcDbCircle
 10
-614.1635348675542
 20
-3866.962749686893
 30
0.0
 40
0.5000000000001137
100
AcDbArc
 50
180.0
 51
270.0
  0
LINE
  5
FE2D
330
2
100
AcDbEntity
  8
L-ZISSEN
100
AcDbLine
 10
-611.6635348675524
 20
-3867.462749686893
 30
0.0
 11
-611.6635348675524
 21
-3891.462749686894
 31
0.0
  0
ARC
  5
FE2E
330
2
100
AcDbEntity
  8
L-ZISSEN
100
AcDbCircle
 10
-614.1635348675529
 20
-3892.162749686897
 30
0.0
 40
0.5000000000001137
100
AcDbArc
 50
90.0
 51
180.0
  0
ARC
  5
FE2F
330
2
100
AcDbEntity
  8
L-ZISSEN
100
AcDbCircle
 10
-614.1635348675529
 20
-3892.162749686897
 30
0.0
 40
0.5000000000001137
100
AcDbArc
 50
90.0
 51
180.0
  0
LINE
  5
FE30
330
2
100
AcDbEntity
  8
L-ZISSEN
100
AcDbLine
 10
-614.6635348675543
 20
-3855.446469887568
 30
0.0
 11
-614.6635348675543
 21
-3866.946469887568
 31
0.0
  0
LINE
  5
FE31
330
2
100
AcDbEntity
  8
L-ZISSEN
100
AcDbLine
 10
-609.0176428807142
 20
-3846.342807654156
 30
0.0
 11
-610.2325524373252
 21
-3846.342807654156
 31
0.0
  0
LINE
  5
FE32
330
2
100
AcDbEntity
  8
L-ZISSEN
100
AcDbLine
 10
-612.9962322752842
 20
-3848.313942787271
 30
0.0
 11
-606.2539630427588
 21
-3848.313942787271
 31
0.0
  0
LINE
  5
FE33
330
2
100
AcDbEntity
  8
L-ZISSEN
100
AcDbLine
 10
-606.2539630427607
 20
-3849.457076695374
 30
0.0
 11
-612.9962322752842
 21
-3849.457076695374
 31
0.0
  0
LINE
  5
FE34
330
2
100
AcDbEntity
  8
L-ZISSEN
100
AcDbLine
 10
-604.5866604504851
 20
-3849.457076695374
 30
0.0
 11
-614.6635348675543
 21
-3849.457076695374
 31
0.0
  0
LINE
  5
FE35
330
2
100
AcDbEntity
  8
L-ZISSEN
100
AcDbLine
 10
-592.0899417387452
 20
-3836.613155945548
 30
0.0
 11
-592.0899417387452
 21
-3840.312343428238
 31
0.0
  0
LINE
  5
FE36
330
2
100
AcDbEntity
  8
L-ZISSEN
100
AcDbLine
 10
-597.6635348675543
 20
-3861.962749686894
 30
0.0
 11
-597.6635348675543
 21
-3858.462749686893
 31
0.0
  0
LINE
  5
FE37
330
2
100
AcDbEntity
  8
L-ZISSEN
100
AcDbLine
 10
-603.663534867556
 20
-3769.862749686893
 30
0.0
 11
-601.6635348675542
 21
-3767.462749686893
 31
0.0
  0
ARC
  5
FE38
330
2
100
AcDbEntity
  8
L-ZISSEN
100
AcDbCircle
 10
-602.1029450033402
 20
-3817.162749686893
 30
0.0
 40
2.299999999999999
100
AcDbArc
 50
179.1040647226661
 51
270.0
  0
LINE
  5
FE39
330
2
100
AcDbEntity
  8
L-ZISSEN
100
AcDbLine
 10
-603.663534867556
 20
-3769.862749686893
 30
0.0
 11
-604.4026638151993
 21
-3817.126786005463
 31
0.0
  0
LINE
  5
FE3A
330
2
100
AcDbEntity
  8
L-ZISSEN
100
AcDbLine
 10
-599.9135348675561
 20
-3819.462749686893
 30
0.0
 11
-599.9135348675561
 21
-3821.462749686892
 31
0.0
  0
LINE
  5
FE3B
330
2
100
AcDbEntity
  8
L-ZISSEN
100
AcDbLine
 10
-558.1635348675525
 20
-3821.462749686892
 30
0.0
 11
-558.1635348675525
 21
-3830.446469887568
 31
0.0
  0
ARC
  5
FE3C
330
2
100
AcDbEntity
  8
L-ZISSEN
100
AcDbCircle
 10
-558.4503314319561
 20
-3869.594704304381
 30
0.0
 40
34.1319546174875
100
AcDbArc
 50
75.0820176392711
 51
104.9179823607288
  0
ARC
  5
FE3D
330
2
100
AcDbEntity
  8
L-ZISSEN
100
AcDbCircle
 10
-558.4503314319561
 20
-3807.330795069406
 30
0.0
 40
34.1319546174875
100
AcDbArc
 50
255.082017639271
 51
284.9179823607288
  0
LINE
  5
FE3E
330
2
100
AcDbEntity
  8
L-ZISSEN
100
AcDbLine
 10
-545.1635348675543
 20
-3867.462749686893
 30
0.0
 11
-561.6635348675524
 21
-3867.462749686893
 31
0.0
  0
LINE
  5
FE3F
330
2
100
AcDbEntity
  8
L-ZISSEN
100
AcDbLine
 10
-545.1635348675543
 20
-3891.662749686896
 30
0.0
 11
-561.6635348675528
 21
-3891.662749686896
 31
0.0
  0
LINE
  5
FE40
330
2
100
AcDbEntity
  8
L-ZISSEN
100
AcDbLine
 10
-561.663534867556
 20
-3858.462749686893
 30
0.0
 11
-561.663534867556
 21
-3861.962749686894
 31
0.0
  0
LINE
  5
FE41
330
2
100
AcDbEntity
  8
L-ZISSEN
100
AcDbLine
 10
-567.2371279963596
 20
-3836.613155945548
 30
0.0
 11
-567.2371279963596
 21
-3840.312343428238
 31
0.0
  0
ARC
  5
FE42
330
2
100
AcDbEntity
  8
L-SOUZOU
100
AcDbCircle
 10
-534.1635348675525
 20
-3860.562749686894
 30
0.0
 40
1.5
100
AcDbArc
 50
90.0
 51
180.0
  0
ARC
  5
FE43
330
2
100
AcDbEntity
  8
L-SOUZOU
100
AcDbCircle
 10
-534.1635348675525
 20
-3898.362749686894
 30
0.0
 40
1.5
100
AcDbArc
 50
180.0
 51
270.0
  0
LINE
  5
FE44
330
2
100
AcDbEntity
  8
L-SOUZOU
100
AcDbLine
 10
-535.6635348675524
 20
-3860.562749686894
 30
0.0
 11
-535.6635348675524
 21
-3898.362749686894
 31
0.0
  0
LINE
  5
FE45
330
2
100
AcDbEntity
  8
L-ZISSEN
100
AcDbLine
 10
-544.6635348675543
 20
-3843.462749686892
 30
0.0
 11
-544.6635348675543
 21
-3854.446469887568
 31
0.0
  0
LINE
  5
FE46
330
2
100
AcDbEntity
  8
L-ZISSEN
100
AcDbLine
 10
-544.6635348675543
 20
-3849.457076695374
 30
0.0
 11
-544.6635348675543
 21
-3844.446469887568
 31
0.0
  0
ARC
  5
FE47
330
2
100
AcDbEntity
  8
L-ZISSEN
100
AcDbCircle
 10
-549.0355980582032
 20
-3848.07265627568
 30
0.0
 40
2.715501624968398
100
AcDbArc
 50
354.9022474682888
 51
91.24326520780831
  0
LINE
  5
FE48
330
2
100
AcDbEntity
  8
L-ZISSEN
100
AcDbLine
 10
-546.330837459828
 20
-3848.313942787271
 30
0.0
 11
-546.330837459828
 21
-3849.457076695374
 31
0.0
  0
LINE
  5
FE49
330
2
100
AcDbEntity
  8
L-ZISSEN
100
AcDbLine
 10
-549.0945172977833
 20
-3845.357793922186
 30
0.0
 11
-549.0945172977833
 21
-3846.342807654156
 31
0.0
  0
LINE
  5
FE4B
330
2
100
AcDbEntity
  8
L-SOUZOU
100
AcDbLine
 10
-543.1635348675524
 20
-3872.662749686894
 30
0.0
 11
-543.1635348675524
 21
-3886.262749686894
 31
0.0
  0
LINE
  5
FE4C
330
2
100
AcDbEntity
  8
L-SOUZOU
100
AcDbLine
 10
-547.6635348675524
 20
-3885.247440294685
 30
0.0
 11
-544.6635348675524
 21
-3885.341194979798
 31
0.0
  0
LINE
  5
FE4D
330
2
100
AcDbEntity
  8
L-SOUZOU
100
AcDbLine
 10
-547.6635348675524
 20
-3873.678059079103
 30
0.0
 11
-544.6635348675524
 21
-3873.584304393991
 31
0.0
  0
LINE
  5
FE4E
330
2
100
AcDbEntity
  8
L-ZISSEN
100
AcDbLine
 10
-547.6635348675524
 20
-3867.462749686893
 30
0.0
 11
-547.6635348675524
 21
-3891.462749686894
 31
0.0
  0
LINE
  5
FE4F
330
2
100
AcDbEntity
  8
L-SOUZOU
100
AcDbLine
 10
-544.6635348675524
 20
-3873.584304393991
 30
0.0
 11
-543.7799205398682
 21
-3872.700690066306
 31
0.0
  0
LINE
  5
FE50
330
2
100
AcDbEntity
  8
L-SOUZOU
100
AcDbLine
 10
-544.6635348675524
 20
-3885.341194979798
 30
0.0
 11
-543.7799205398682
 21
-3886.224809307482
 31
0.0
  0
LINE
  5
FE51
330
2
100
AcDbEntity
  8
L-SOUZOU
100
AcDbLine
 10
-544.6635348675524
 20
-3872.72830439399
 30
0.0
 11
-544.6635348675523
 21
-3886.197194979798
 31
0.0
  0
ARC
  5
FE52
330
2
100
AcDbEntity
  8
L-ZISSEN
100
AcDbCircle
 10
-545.1635348675506
 20
-3866.962749686893
 30
0.0
 40
0.5000000000001137
100
AcDbArc
 50
270.0
 51
0.0
  0
ARC
  5
FE53
330
2
100
AcDbEntity
  8
L-ZISSEN
100
AcDbCircle
 10
-545.1635348675506
 20
-3866.962749686893
 30
0.0
 40
0.5000000000001137
100
AcDbArc
 50
270.0
 51
0.0
  0
ARC
  5
FE54
330
2
100
AcDbEntity
  8
L-ZISSEN
100
AcDbCircle
 10
-545.1635348675543
 20
-3892.162749686897
 30
0.0
 40
0.500000000001819
100
AcDbArc
 50
0.0
 51
90.0
  0
ARC
  5
FE55
330
2
100
AcDbEntity
  8
L-ZISSEN
100
AcDbCircle
 10
-545.1635348675543
 20
-3892.162749686897
 30
0.0
 40
0.500000000001819
100
AcDbArc
 50
0.0
 51
90.0
  0
LINE
  5
FE56
330
2
100
AcDbEntity
  8
L-SOUZOU
100
AcDbLine
 10
-547.6635348675524
 20
-3872.822059079103
 30
0.0
 11
-543.1635348675525
 21
-3872.681427051434
 31
0.0
  0
LINE
  5
FE57
330
2
100
AcDbEntity
  8
L-SOUZOU
100
AcDbLine
 10
-547.6635348675524
 20
-3886.103440294685
 30
0.0
 11
-543.1635348675525
 21
-3886.244072322354
 31
0.0
  0
LINE
  5
FE58
330
2
100
AcDbEntity
  8
L-ZISSEN
100
AcDbLine
 10
-544.6635348675543
 20
-3854.446469887568
 30
0.0
 11
-544.6635348675543
 21
-3866.962749686893
 31
0.0
  0
LINE
  5
FE59
330
2
100
AcDbEntity
  8
L-SOUZOU
100
AcDbLine
 10
-543.1635348675524
 20
-3872.662749686894
 30
0.0
 11
-535.6635348675524
 21
-3872.662749686894
 31
0.0
  0
LINE
  5
FE5A
330
2
100
AcDbEntity
  8
L-SOUZOU
100
AcDbLine
 10
-543.1635348675524
 20
-3886.262749686894
 30
0.0
 11
-535.6635348675524
 21
-3886.262749686894
 31
0.0
  0
ARC
  5
FE5B
330
2
100
AcDbEntity
  8
L-ZISSEN
100
AcDbCircle
 10
-550.3683460939708
 20
-3848.07265627568
 30
0.0
 40
2.715501624969813
100
AcDbArc
 50
88.7567347921917
 51
185.0977525317111
  0
LINE
  5
FE5C
330
2
100
AcDbEntity
  8
L-ZISSEN
100
AcDbLine
 10
-554.7404092846234
 20
-3843.462749686892
 30
0.0
 11
-554.7404092846234
 21
-3849.457076695374
 31
0.0
  0
LINE
  5
FE5D
330
2
100
AcDbEntity
  8
L-ZISSEN
100
AcDbLine
 10
-553.0731066923497
 20
-3849.457076695374
 30
0.0
 11
-553.0731066923497
 21
-3848.313942787271
 31
0.0
  0
LINE
  5
FE5E
330
2
100
AcDbEntity
  8
L-SAISEN
100
AcDbLine
 10
-555.3521935943543
 20
-3841.321850774539
 30
0.0
 11
-555.3521935943543
 21
-3843.462749686892
 31
0.0
  0
LINE
  5
FE5F
330
2
100
AcDbEntity
  8
L-ZISSEN
100
AcDbLine
 10
-553.6635348675524
 20
-3841.125423409738
 30
0.0
 11
-553.6635348675524
 21
-3843.462749686892
 31
0.0
  0
LINE
  5
FE60
330
2
100
AcDbEntity
  8
L-ZISSEN
100
AcDbLine
 10
-555.3521935943597
 20
-3830.462749686893
 30
0.0
 11
-553.6635348675524
 21
-3831.194187545927
 31
0.0
  0
LINE
  5
FE61
330
2
100
AcDbEntity
  8
L-ZISSEN
100
AcDbLine
 10
-553.6635348675524
 20
-3831.194187545927
 30
0.0
 11
-553.6635348675524
 21
-3835.800075964047
 31
0.0
  0
LINE
  5
FE62
330
2
100
AcDbEntity
  8
L-SAISEN
100
AcDbLine
 10
-555.3521935943597
 20
-3830.462749686893
 30
0.0
 11
-555.3521935943597
 21
-3835.603648599247
 31
0.0
  0
LINE
  5
FE63
330
2
100
AcDbEntity
  8
L-ZISSEN
100
AcDbLine
 10
-549.6635348675524
 20
-3836.613155945548
 30
0.0
 11
-549.6635348675524
 21
-3840.312343428238
 31
0.0
  0
LINE
  5
FE64
330
2
100
AcDbEntity
  8
L-ZISSEN
100
AcDbLine
 10
-550.3094268543907
 20
-3846.342807654156
 30
0.0
 11
-550.3094268543907
 21
-3845.357793922186
 31
0.0
  0
LINE
  5
FE65
330
2
100
AcDbEntity
  8
L-ZISSEN
100
AcDbLine
 10
-553.0731066923497
 20
-3848.313942787271
 30
0.0
 11
-546.330837459828
 21
-3848.313942787271
 31
0.0
  0
LINE
  5
FE66
330
2
100
AcDbEntity
  8
L-ZISSEN
100
AcDbLine
 10
-546.330837459828
 20
-3849.457076695374
 30
0.0
 11
-553.0731066923497
 21
-3849.457076695374
 31
0.0
  0
LINE
  5
FE67
330
2
100
AcDbEntity
  8
L-ZISSEN
100
AcDbLine
 10
-554.7404092846234
 20
-3849.457076695374
 30
0.0
 11
-544.6635348675543
 21
-3849.457076695374
 31
0.0
  0
LINE
  5
FE68
330
2
100
AcDbEntity
  8
L-ZISSEN
100
AcDbLine
 10
-549.0945172977833
 20
-3846.342807654156
 30
0.0
 11
-550.3094268543907
 21
-3846.342807654156
 31
0.0
  0
LINE
  5
FE69
330
2
100
AcDbEntity
  8
L-ZISSEN
100
AcDbLine
 10
-555.6635348675561
 20
-3769.862749686893
 30
0.0
 11
-557.6635348675524
 21
-3767.462749686893
 31
0.0
  0
ARC
  5
FE6A
330
2
100
AcDbEntity
  8
L-ZISSEN
100
AcDbCircle
 10
-557.2241247317719
 20
-3817.162749686893
 30
0.0
 40
2.299999999999999
100
AcDbArc
 50
270.0
 51
0.8959352773337991
  0
LINE
  5
FE6B
330
2
100
AcDbEntity
  8
L-ZISSEN
100
AcDbLine
 10
-559.413534867556
 20
-3819.462749686893
 30
0.0
 11
-559.413534867556
 21
-3821.462749686892
 31
0.0
  0
LINE
  5
FE6C
330
2
100
AcDbEntity
  8
L-ZISSEN
100
AcDbLine
 10
-555.6635348675561
 20
-3769.862749686893
 30
0.0
 11
-554.9244059199129
 21
-3817.126786005463
 31
0.0
  0
ARC
  5
FE6D
330
2
100
AcDbEntity
  8
L-SOUZOU
100
AcDbCircle
 10
-512.1635348675524
 20
-3859.962749686894
 30
0.0
 40
1.5
100
AcDbArc
 50
0.0
 51
90.0
  0
ARC
  5
FE6E
330
2
100
AcDbEntity
  8
L-SOUZOU
100
AcDbCircle
 10
-512.1635348675524
 20
-3898.962749686894
 30
0.0
 40
1.5
100
AcDbArc
 50
270.0
 51
0.0
  0
LINE
  5
FE6F
330
2
100
AcDbEntity
  8
L-SOUZOU
100
AcDbLine
 10
-519.6635348675524
 20
-3858.462749686895
 30
0.0
 11
-519.6635348675524
 21
-3900.462749686894
 31
0.0
  0
LINE
  5
FE70
330
2
100
AcDbEntity
  8
L-SOUZOU
100
AcDbLine
 10
-519.6635348675524
 20
-3900.462749686894
 30
0.0
 11
-512.1635348675524
 21
-3900.462749686894
 31
0.0
  0
LINE
  5
FE71
330
2
100
AcDbEntity
  8
L-SOUZOU
100
AcDbLine
 10
-519.6635348675524
 20
-3858.462749686895
 30
0.0
 11
-512.1635348675524
 21
-3858.462749686895
 31
0.0
  0
LINE
  5
FE72
330
2
100
AcDbEntity
  8
L-SOUZOU
100
AcDbLine
 10
-510.6635348675524
 20
-3859.962749686894
 30
0.0
 11
-510.6635348675524
 21
-3898.962749686894
 31
0.0
  0
LINE
  5
FE73
330
2
100
AcDbEntity
  8
L-ZISSEN
100
AcDbLine
 10
-344.6635348675524
 20
-3913.162749686897
 30
0.0
 11
-344.6635348675525
 21
-3900.162749686894
 31
0.0
  0
LINE
  5
FE74
330
2
100
AcDbEntity
  8
L-ZISSEN
100
AcDbLine
 10
-348.1635348675504
 20
-3891.369646805458
 30
0.0
 11
-348.1635348675504
 21
-3913.162749686896
 31
0.0
  0
LINE
  5
FE75
330
2
100
AcDbEntity
  8
L-TYUSIN
100
AcDbLine
 10
-379.6635348675524
 20
-3921.462749686897
 30
0.0
 11
-379.6635348675524
 21
-3766.209706459882
 31
0.0
  0
LINE
  5
FE76
330
2
100
AcDbEntity
  8
L-ZISSEN
100
AcDbLine
 10
-411.1635348675522
 20
-3891.369646805458
 30
0.0
 11
-411.1635348675521
 21
-3913.162749686896
 31
0.0
  0
LINE
  5
FE77
330
2
100
AcDbEntity
  8
L-ZISSEN
100
AcDbLine
 10
-414.6635348675525
 20
-3900.162749686895
 30
0.0
 11
-414.6635348675523
 21
-3913.162749686897
 31
0.0
  0
LINE
  5
FE79
330
2
100
AcDbEntity
  8
L-ZISSEN
100
AcDbLine
 10
-344.6635348675525
 20
-3913.162749686896
 30
0.0
 11
-414.6635348675524
 21
-3913.162749686897
 31
0.0
  0
ARC
  5
FE7A
330
2
100
AcDbEntity
  8
L-ZISSEN
100
AcDbCircle
 10
-357.6635348675529
 20
-3999.566433730885
 30
0.0
 40
8.000000000000113
100
AcDbArc
 50
283.906237065242
 51
0.0
  0
LINE
  5
FE7B
330
2
100
AcDbEntity
  8
L-ZISSEN
100
AcDbLine
 10
-404.9435348675526
 20
-3923.501488598528
 30
0.0
 11
-396.5135348675519
 21
-3923.501488598528
 31
0.0
  0
LINE
  5
FE7C
330
2
100
AcDbEntity
  8
L-ZISSEN
100
AcDbLine
 10
-396.5135348675519
 20
-3991.501488598528
 30
0.0
 11
-400.7285348675534
 21
-3993.501488598528
 31
0.0
  0
ARC
  5
FE7D
330
2
100
AcDbEntity
  8
L-ZISSEN
100
AcDbCircle
 10
-379.6635348675511
 20
-3910.710038605414
 30
0.0
 40
99.53938471878538
100
AcDbArc
 50
256.0937629349601
 51
264.6679223051352
  0
LINE
  5
FE7E
330
2
100
AcDbEntity
  8
L-ZISSEN
100
AcDbLine
 10
-409.6635348675524
 20
-3999.566433730884
 30
0.0
 11
-409.6635348675524
 21
-3913.162749686897
 31
0.0
  0
LINE
  5
FE7F
330
2
100
AcDbEntity
  8
L-ZISSEN
100
AcDbLine
 10
-404.9435348675526
 20
-3923.501488598528
 30
0.0
 11
-404.9435348675526
 21
-3991.501488598527
 31
0.0
  0
LINE
  5
FE80
330
2
100
AcDbEntity
  8
L-ZISSEN
100
AcDbLine
 10
-400.7285348675534
 20
-3993.501488598528
 30
0.0
 11
-404.9435348675526
 21
-3991.501488598527
 31
0.0
  0
ARC
  5
FE81
330
2
100
AcDbEntity
  8
L-ZISSEN
100
AcDbCircle
 10
-401.6635348675516
 20
-3999.566433730884
 30
0.0
 40
8.000000000000113
100
AcDbArc
 50
180.0
 51
256.0937629349537
  0
LINE
  5
FE82
330
2
100
AcDbEntity
  8
L-ZISSEN
100
AcDbLine
 10
-396.5135348675519
 20
-3923.501488598528
 30
0.0
 11
-396.5135348675519
 21
-3991.501488598528
 31
0.0
  0
LINE
  5
FE83
330
2
100
AcDbEntity
  8
L-ZISSEN
100
AcDbLine
 10
-362.813534867553
 20
-3923.501488598528
 30
0.0
 11
-362.813534867553
 21
-3991.501488598528
 31
0.0
  0
LINE
  5
FE84
330
2
100
AcDbEntity
  8
L-ZISSEN
100
AcDbLine
 10
-354.3835348675522
 20
-3923.501488598528
 30
0.0
 11
-354.3835348675522
 21
-3991.501488598527
 31
0.0
  0
ARC
  5
FE85
330
2
100
AcDbEntity
  8
L-ZISSEN
100
AcDbCircle
 10
-372.9508168075574
 20
-4016.432661972677
 30
0.0
 40
5.271330170371789
100
AcDbArc
 50
64.28835488513318
 51
115.2591066834237
  0
ARC
  5
FE86
330
2
100
AcDbEntity
  8
L-ZISSEN
100
AcDbCircle
 10
-372.9508168075588
 20
-4008.892837401115
 30
0.0
 40
5.271330170371532
100
AcDbArc
 50
244.7408933165762
 51
295.7116451148668
  0
LINE
  5
FE87
330
2
100
AcDbEntity
  8
L-ZISSEN
100
AcDbLine
 10
-374.6635348675529
 20
-4016.103915097388
 30
0.0
 11
-374.1635348675533
 21
-4015.603915097388
 31
0.0
  0
LINE
  5
FE88
330
2
100
AcDbEntity
  8
L-ZISSEN
100
AcDbLine
 10
-376.6635348675529
 20
-4016.103915097388
 30
0.0
 11
-374.1635348675529
 21
-4016.103915097388
 31
0.0
  0
LINE
  5
FE89
330
2
100
AcDbEntity
  8
L-ZISSEN
100
AcDbLine
 10
-370.6635348675502
 20
-4009.818699226947
 30
0.0
 11
-388.9135348675551
 21
-4009.818699226946
 31
0.0
  0
LINE
  5
FE8A
330
2
100
AcDbEntity
  8
L-ZISSEN
100
AcDbLine
 10
-373.963534867553
 20
-4026.162749686896
 30
0.0
 11
-385.3635348675518
 21
-4026.162749686896
 31
0.0
  0
LINE
  5
FE8B
330
2
100
AcDbEntity
  8
L-ZISSEN
100
AcDbLine
 10
-373.663534867552
 20
-4011.02230088746
 30
0.0
 11
-388.663534867552
 21
-4011.02230088746
 31
0.0
  0
LINE
  5
FE8C
330
2
100
AcDbEntity
  8
L-ZISSEN
100
AcDbLine
 10
-386.5227690653444
 20
-4011.162749686896
 30
0.0
 11
-373.663534867552
 21
-4011.162749686896
 31
0.0
  0
LINE
  5
FE8D
330
2
100
AcDbEntity
  8
L-ZISSEN
100
AcDbLine
 10
-373.663534867552
 20
-4011.02230088746
 30
0.0
 11
-388.663534867552
 21
-4011.02230088746
 31
0.0
  0
LINE
  5
FE8E
330
2
100
AcDbEntity
  8
L-ZISSEN
100
AcDbLine
 10
-386.4418504840571
 20
-4014.163370801716
 30
0.0
 11
-372.9508168075588
 21
-4014.164167571488
 31
0.0
  0
LINE
  5
FE8F
330
2
100
AcDbEntity
  8
L-ZISSEN
100
AcDbLine
 10
-374.6635348675502
 20
-4016.103915097388
 30
0.0
 11
-374.6635348675481
 21
-4026.162749686896
 31
0.0
  0
LINE
  5
FE90
330
2
100
AcDbEntity
  8
L-ZISSEN
100
AcDbLine
 10
-375.6635348675493
 20
-4016.103915097388
 30
0.0
 11
-375.6635348675491
 21
-4026.162749686896
 31
0.0
  0
LINE
  5
FE91
330
2
100
AcDbEntity
  8
L-ZISSEN
100
AcDbLine
 10
-375.2001592305339
 20
-4011.665337730582
 30
0.0
 11
-375.2001592305339
 21
-4013.660161643211
 31
0.0
  0
LINE
  5
FE92
330
2
100
AcDbEntity
  8
L-ZISSEN
100
AcDbLine
 10
-374.6635348675487
 20
-4014.164095949318
 30
0.0
 11
-374.6635348675529
 21
-4016.103915097388
 31
0.0
  0
LINE
  5
FE93
330
2
100
AcDbEntity
  8
L-ZISSEN
100
AcDbLine
 10
-377.663534867552
 20
-4016.103915097388
 30
0.0
 11
-377.6635348675519
 21
-4026.162749686896
 31
0.0
  0
LINE
  5
FE94
330
2
100
AcDbEntity
  8
L-ZISSEN
100
AcDbLine
 10
-378.6635348675511
 20
-4016.103915097388
 30
0.0
 11
-378.663534867551
 21
-4026.162749686896
 31
0.0
  0
LINE
  5
FE95
330
2
100
AcDbEntity
  8
L-ZISSEN
100
AcDbLine
 10
-379.6635348675502
 20
-4016.103915097388
 30
0.0
 11
-379.6635348675501
 21
-4026.162749686896
 31
0.0
  0
LINE
  5
FE96
330
2
100
AcDbEntity
  8
L-ZISSEN
100
AcDbLine
 10
-380.6635348675515
 20
-4016.103915097388
 30
0.0
 11
-380.6635348675514
 21
-4026.162749686896
 31
0.0
  0
LINE
  5
FE97
330
2
100
AcDbEntity
  8
L-ZISSEN
100
AcDbLine
 10
-381.6635348675506
 20
-4016.103915097388
 30
0.0
 11
-381.6635348675505
 21
-4026.162749686896
 31
0.0
  0
LINE
  5
FE98
330
2
100
AcDbEntity
  8
L-ZISSEN
100
AcDbLine
 10
-376.6635348675529
 20
-4016.103915097388
 30
0.0
 11
-376.6635348675529
 21
-4026.162749686896
 31
0.0
  0
LINE
  5
FE99
330
2
100
AcDbEntity
  8
L-ZISSEN
100
AcDbLine
 10
-376.6635348675515
 20
-4011.162749686896
 30
0.0
 11
-376.6635348675515
 21
-4011.02230088746
 31
0.0
  0
LINE
  5
FE9A
330
2
100
AcDbEntity
  8
L-ZISSEN
100
AcDbLine
 10
-385.6635348675516
 20
-4025.862749686896
 30
0.0
 11
-385.6635348675515
 21
-4016.603915097388
 31
0.0
  0
LINE
  5
FE9B
330
2
100
AcDbEntity
  8
L-ZISSEN
100
AcDbLine
 10
-383.6635348675534
 20
-4016.103915097388
 30
0.0
 11
-383.6635348675534
 21
-4026.162749686896
 31
0.0
  0
LINE
  5
FE9C
330
2
100
AcDbEntity
  8
L-ZISSEN
100
AcDbLine
 10
-384.6635348675524
 20
-4016.103915097388
 30
0.0
 11
-384.6635348675523
 21
-4026.162749686896
 31
0.0
  0
LINE
  5
FE9D
330
2
100
AcDbEntity
  8
L-ZISSEN
100
AcDbLine
 10
-382.663534867552
 20
-4016.103915097388
 30
0.0
 11
-382.6635348675519
 21
-4026.162749686896
 31
0.0
  0
LINE
  5
FE9E
330
2
100
AcDbEntity
  8
L-ZISSEN
100
AcDbLine
 10
-385.3635348675518
 20
-4026.162749686896
 30
0.0
 11
-385.6635348675515
 21
-4025.862749686896
 31
0.0
  0
LINE
  5
FE9F
330
2
100
AcDbEntity
  8
L-ZISSEN
100
AcDbLine
 10
-384.1930711855695
 20
-4011.665868844846
 30
0.0
 11
-384.1930711855627
 21
-4013.659630528948
 31
0.0
  0
LINE
  5
FEA0
330
2
100
AcDbEntity
  8
L-ZISSEN
100
AcDbLine
 10
-384.6635348675543
 20
-4016.103915097388
 30
0.0
 11
-385.1635348675515
 21
-4015.603915097388
 31
0.0
  0
LINE
  5
FEA1
330
2
100
AcDbEntity
  8
L-ZISSEN
100
AcDbLine
 10
-385.1635348675543
 20
-4016.103915097388
 30
0.0
 11
-385.6635348675515
 21
-4016.603915097388
 31
0.0
  0
LINE
  5
FEA2
330
2
100
AcDbEntity
  8
L-ZISSEN
100
AcDbLine
 10
-385.1635348675515
 20
-4015.603915097388
 30
0.0
 11
-385.1635348675515
 21
-4014.162749686896
 31
0.0
  0
LINE
  5
FEA3
330
2
100
AcDbEntity
  8
L-ZISSEN
100
AcDbLine
 10
-384.66353486755
 20
-4014.163446298025
 30
0.0
 11
-384.6635348675543
 21
-4016.103915097388
 31
0.0
  0
LINE
  5
FEA4
330
2
100
AcDbEntity
  8
L-ZISSEN
100
AcDbLine
 10
-388.663534867552
 20
-4011.02230088746
 30
0.0
 11
-388.663534867552
 21
-4009.818699226946
 31
0.0
  0
LINE
  5
FEA5
330
2
100
AcDbEntity
  8
L-ZISSEN
100
AcDbLine
 10
-388.6631784876351
 20
-4011.65301695684
 30
0.0
 11
-388.6631784876351
 21
-4013.672482416953
 31
0.0
  0
LINE
  5
FEA6
330
2
100
AcDbEntity
  8
L-ZISSEN
100
AcDbLine
 10
-388.663534867552
 20
-4011.02230088746
 30
0.0
 11
-388.663534867552
 21
-4009.818699226946
 31
0.0
  0
ARC
  5
FEA7
330
2
100
AcDbEntity
  8
L-ZISSEN
100
AcDbCircle
 10
-386.4418504840557
 20
-4016.433458742447
 30
0.0
 40
5.271330170370607
100
AcDbArc
 50
64.74766100340973
 51
114.9228807251688
  0
ARC
  5
FEA8
330
2
100
AcDbEntity
  8
L-ZISSEN
100
AcDbCircle
 10
-386.4418504840571
 20
-4008.892040631345
 30
0.0
 40
5.271330170370607
100
AcDbArc
 50
245.0771192748311
 51
295.2523389966485
  0
ARC
  5
FEA9
330
2
100
AcDbEntity
  8
L-ZISSEN
100
AcDbCircle
 10
-379.6635348675511
 20
-4031.803812360813
 30
0.0
 40
20.64106267391679
100
AcDbArc
 50
77.50558048157383
 51
102.6763186877356
  0
LINE
  5
FEAA
330
2
100
AcDbEntity
  8
L-ZISSEN
100
AcDbLine
 10
-385.1635348675543
 20
-4016.103915097388
 30
0.0
 11
-376.6635348675529
 21
-4016.103915097388
 31
0.0
  0
ARC
  5
FEAB
330
2
100
AcDbEntity
  8
L-ZISSEN
100
AcDbCircle
 10
-379.6635348675524
 20
-3993.521687012979
 30
0.0
 40
20.64106267391694
100
AcDbArc
 50
257.3236813122706
 51
282.4944195184261
  0
LINE
  5
FEAC
330
2
100
AcDbEntity
  8
L-ZISSEN
100
AcDbLine
 10
-358.5985348675515
 20
-3993.501488598528
 30
0.0
 11
-354.3835348675522
 21
-3991.501488598527
 31
0.0
  0
LINE
  5
FEAD
330
2
100
AcDbEntity
  8
L-ZISSEN
100
AcDbLine
 10
-370.6635348675502
 20
-4011.02230088746
 30
0.0
 11
-373.663534867552
 21
-4011.02230088746
 31
0.0
  0
LINE
  5
FEAE
330
2
100
AcDbEntity
  8
L-ZISSEN
100
AcDbLine
 10
-370.6635348675502
 20
-4011.02230088746
 30
0.0
 11
-373.663534867552
 21
-4011.02230088746
 31
0.0
  0
LINE
  5
FEAF
330
2
100
AcDbEntity
  8
L-ZISSEN
100
AcDbLine
 10
-373.6635348675533
 20
-4016.603915097388
 30
0.0
 11
-373.6635348675533
 21
-4025.862749686896
 31
0.0
  0
LINE
  5
FEB0
330
2
100
AcDbEntity
  8
L-ZISSEN
100
AcDbLine
 10
-373.963534867553
 20
-4026.162749686896
 30
0.0
 11
-373.6635348675533
 21
-4025.862749686896
 31
0.0
  0
LINE
  5
FEB1
330
2
100
AcDbEntity
  8
L-ZISSEN
100
AcDbLine
 10
-373.663534867552
 20
-4011.162749686896
 30
0.0
 11
-372.8285618884558
 21
-4011.162749686896
 31
0.0
  0
LINE
  5
FEB2
330
2
100
AcDbEntity
  8
L-ZISSEN
100
AcDbLine
 10
-374.1635348675529
 20
-4016.103915097388
 30
0.0
 11
-373.6635348675533
 21
-4016.603915097388
 31
0.0
  0
LINE
  5
FEB3
330
2
100
AcDbEntity
  8
L-ZISSEN
100
AcDbLine
 10
-374.1635348675532
 20
-4015.603915097387
 30
0.0
 11
-374.1635348675533
 21
-4014.162749686896
 31
0.0
  0
LINE
  5
FEB4
330
2
100
AcDbEntity
  8
L-ZISSEN
100
AcDbLine
 10
-370.6635348675502
 20
-4011.02230088746
 30
0.0
 11
-370.6635348675502
 21
-4009.818699226947
 31
0.0
  0
LINE
  5
FEB5
330
2
100
AcDbEntity
  8
L-ZISSEN
100
AcDbLine
 10
-370.6638912474648
 20
-4011.683252193802
 30
0.0
 11
-370.6638912474648
 21
-4013.64224717999
 31
0.0
  0
LINE
  5
FEB6
330
2
100
AcDbEntity
  8
L-ZISSEN
100
AcDbLine
 10
-370.6635348675502
 20
-4011.02230088746
 30
0.0
 11
-370.6635348675502
 21
-4009.818699226947
 31
0.0
  0
LINE
  5
FEB7
330
2
100
AcDbEntity
  8
L-ZISSEN
100
AcDbLine
 10
-370.413534867547
 20
-4009.818699226946
 30
0.0
 11
-370.6635348675502
 21
-4009.818699226947
 31
0.0
  0
LINE
  5
FEB8
330
2
100
AcDbEntity
  8
L-ZISSEN
100
AcDbLine
 10
-362.813534867553
 20
-3991.501488598528
 30
0.0
 11
-358.5985348675515
 21
-3993.501488598528
 31
0.0
  0
ARC
  5
FEB9
330
2
100
AcDbEntity
  8
L-ZISSEN
100
AcDbCircle
 10
-379.6635348675511
 20
-3910.710038605414
 30
0.0
 40
99.53938471878553
100
AcDbArc
 50
275.3320776948647
 51
283.9062370650462
  0
LINE
  5
FEBA
330
2
100
AcDbEntity
  8
L-ZISSEN
100
AcDbLine
 10
-376.5385348675524
 20
-3920.662749686896
 30
0.0
 11
-371.5385348675524
 21
-3920.662749686896
 31
0.0
  0
LINE
  5
FEBB
330
2
100
AcDbEntity
  8
L-ZISSEN
100
AcDbLine
 10
-376.5385348675524
 20
-3920.662749686896
 30
0.0
 11
-371.5385348675524
 21
-3920.662749686896
 31
0.0
  0
LINE
  5
FEBC
330
2
100
AcDbEntity
  8
L-ZISSEN
100
AcDbLine
 10
-376.5385348675524
 20
-3919.412749686896
 30
0.0
 11
-371.5385348675524
 21
-3919.412749686896
 31
0.0
  0
LINE
  5
FEBD
330
2
100
AcDbEntity
  8
L-ZISSEN
100
AcDbLine
 10
-376.5385348675524
 20
-3919.412749686896
 30
0.0
 11
-371.5385348675524
 21
-3919.412749686896
 31
0.0
  0
LINE
  5
FEBE
330
2
100
AcDbEntity
  8
L-ZISSEN
100
AcDbLine
 10
-379.6635348675524
 20
-3939.412749686896
 30
0.0
 11
-366.5385348675547
 21
-3937.537749686897
 31
0.0
  0
LINE
  5
FEBF
330
2
100
AcDbEntity
  8
L-ZISSEN
100
AcDbLine
 10
-379.6635348675524
 20
-3948.162749686897
 30
0.0
 11
-365.6010348675547
 21
-3944.412749686897
 31
0.0
  0
LINE
  5
FEC0
330
2
100
AcDbEntity
  8
L-ZISSEN
100
AcDbLine
 10
-367.7491017327181
 20
-3943.104775197941
 30
0.0
 11
-379.6635348675524
 21
-3945.599133172372
 31
0.0
  0
LINE
  5
FEC1
330
2
100
AcDbEntity
  8
L-ZISSEN
100
AcDbLine
 10
-379.6635348675524
 20
-3940.243921944124
 30
0.0
 11
-367.7491017327181
 21
-3938.54186006772
 31
0.0
  0
LINE
  5
FEC2
330
2
100
AcDbEntity
  8
L-ZISSEN
100
AcDbLine
 10
-392.4760348675524
 20
-3953.162749686897
 30
0.0
 11
-366.8510348675524
 21
-3953.162749686897
 31
0.0
  0
LINE
  5
FEC3
330
2
100
AcDbEntity
  8
L-ZISSEN
100
AcDbLine
 10
-376.5385348675524
 20
-3919.412749686896
 30
0.0
 11
-376.5385348675524
 21
-3920.662749686896
 31
0.0
  0
LINE
  5
FEC4
330
2
100
AcDbEntity
  8
L-ZISSEN
100
AcDbLine
 10
-378.4135348675501
 20
-3916.912749686895
 30
0.0
 11
-380.9135348675502
 21
-3916.912749686895
 31
0.0
  0
LINE
  5
FEC5
330
2
100
AcDbEntity
  8
L-ZISSEN
100
AcDbLine
 10
-380.9135348675502
 20
-3916.912749686895
 30
0.0
 11
-380.9135348675502
 21
-3926.912749686895
 31
0.0
  0
LINE
  5
FEC6
330
2
100
AcDbEntity
  8
L-ZISSEN
100
AcDbLine
 10
-380.9135348675502
 20
-3916.912749686895
 30
0.0
 11
-380.9135348675502
 21
-3926.912749686895
 31
0.0
  0
LINE
  5
FEC7
330
2
100
AcDbEntity
  8
L-ZISSEN
100
AcDbLine
 10
-378.4135348675501
 20
-3916.912749686895
 30
0.0
 11
-378.4135348675501
 21
-3926.912749686895
 31
0.0
  0
LINE
  5
FEC8
330
2
100
AcDbEntity
  8
L-ZISSEN
100
AcDbLine
 10
-378.4135348675501
 20
-3916.912749686895
 30
0.0
 11
-378.4135348675501
 21
-3926.912749686895
 31
0.0
  0
LINE
  5
FECA
330
2
100
AcDbEntity
  8
L-ZISSEN
100
AcDbLine
 10
-378.4135348675501
 20
-3926.912749686895
 30
0.0
 11
-375.9135348675501
 21
-3926.912749686895
 31
0.0
  0
LINE
  5
FECB
330
2
100
AcDbEntity
  8
L-ZISSEN
100
AcDbLine
 10
-382.7885348675524
 20
-3919.412749686897
 30
0.0
 11
-382.7885348675524
 21
-3920.662749686897
 31
0.0
  0
LINE
  5
FECC
330
2
100
AcDbEntity
  8
L-ZISSEN
100
AcDbLine
 10
-387.7885348675524
 20
-3919.412749686897
 30
0.0
 11
-387.7885348675524
 21
-3918.162749686897
 31
0.0
  0
LINE
  5
FECD
330
2
100
AcDbEntity
  8
L-ZISSEN
100
AcDbLine
 10
-387.7885348675524
 20
-3920.662749686897
 30
0.0
 11
-387.7885348675524
 21
-3921.912749686897
 31
0.0
  0
LINE
  5
FECE
330
2
100
AcDbEntity
  8
L-ZISSEN
100
AcDbLine
 10
-382.7885348675524
 20
-3920.662749686897
 30
0.0
 11
-387.7885348675524
 21
-3920.662749686897
 31
0.0
  0
LINE
  5
FECF
330
2
100
AcDbEntity
  8
L-ZISSEN
100
AcDbLine
 10
-382.7885348675524
 20
-3920.662749686897
 30
0.0
 11
-387.7885348675524
 21
-3920.662749686897
 31
0.0
  0
LINE
  5
FED0
330
2
100
AcDbEntity
  8
L-ZISSEN
100
AcDbLine
 10
-382.7885348675524
 20
-3919.412749686897
 30
0.0
 11
-387.7885348675524
 21
-3919.412749686897
 31
0.0
  0
LINE
  5
FED1
330
2
100
AcDbEntity
  8
L-ZISSEN
100
AcDbLine
 10
-382.7885348675524
 20
-3919.412749686897
 30
0.0
 11
-387.7885348675524
 21
-3919.412749686897
 31
0.0
  0
LINE
  5
FED2
330
2
100
AcDbEntity
  8
L-ZISSEN
100
AcDbLine
 10
-387.7885348675524
 20
-3918.162749686897
 30
0.0
 11
-390.9135348675524
 21
-3920.037749686896
 31
0.0
  0
LINE
  5
FED3
330
2
100
AcDbEntity
  8
L-ZISSEN
100
AcDbLine
 10
-387.7885348675524
 20
-3921.912749686897
 30
0.0
 11
-390.9135348675524
 21
-3920.037749686896
 31
0.0
  0
LINE
  5
FED4
330
2
100
AcDbEntity
  8
L-ZISSEN
100
AcDbLine
 10
-380.9135348675502
 20
-3926.912749686895
 30
0.0
 11
-383.4135348675502
 21
-3926.912749686895
 31
0.0
  0
ARC
  5
FED5
330
2
100
AcDbEntity
  8
L-ZISSEN
100
AcDbCircle
 10
-379.6635348675524
 20
-3949.412749686897
 30
0.0
 40
1.250000000000568
100
AcDbArc
 50
180.0
 51
0.0
  0
CIRCLE
  5
FED6
330
2
100
AcDbEntity
  8
L-ZISSEN
100
AcDbCircle
 10
-379.6635348675524
 20
-3943.15920438807
 30
0.0
 40
1.25
  0
LINE
  5
FED7
330
2
100
AcDbEntity
  8
L-TYUSIN
100
AcDbLine
 10
-381.8503284301075
 20
-3943.15920438807
 30
0.0
 11
-377.6555484551956
 21
-3943.15920438807
 31
0.0
  0
LINE
  5
FED8
330
2
100
AcDbEntity
  8
L-ZISSEN
100
AcDbLine
 10
-380.9135348675547
 20
-3947.829416353562
 30
0.0
 11
-380.9135348675524
 21
-3949.412749686897
 31
0.0
  0
LINE
  5
FED9
330
2
100
AcDbEntity
  8
L-ZISSEN
100
AcDbLine
 10
-378.4135348675524
 20
-3947.829416353563
 30
0.0
 11
-378.4135348675524
 21
-3949.412749686897
 31
0.0
  0
LINE
  5
FEDA
330
2
100
AcDbEntity
  8
L-ZISSEN
100
AcDbLine
 10
-379.6635348675524
 20
-3948.162749686897
 30
0.0
 11
-379.6635348675524
 21
-3945.599133172372
 31
0.0
  0
LINE
  5
FEDB
330
2
100
AcDbEntity
  8
L-ZISSEN
100
AcDbLine
 10
-379.6635348675524
 20
-3939.412749686896
 30
0.0
 11
-379.6635348675524
 21
-3940.243921944124
 31
0.0
  0
LINE
  5
FEDC
330
2
100
AcDbEntity
  8
L-ZISSEN
100
AcDbLine
 10
-391.5779680023868
 20
-3937.710687810492
 30
0.0
 11
-392.7885348675547
 21
-3937.537749686897
 31
0.0
  0
LINE
  5
FEDD
330
2
100
AcDbEntity
  8
L-ZISSEN
100
AcDbLine
 10
-391.5779680023868
 20
-3938.54186006772
 30
0.0
 11
-392.7885348675547
 21
-3937.537749686897
 31
0.0
  0
LINE
  5
FEDE
330
2
100
AcDbEntity
  8
L-ZISSEN
100
AcDbLine
 10
-391.5779680023868
 20
-3938.54186006772
 30
0.0
 11
-391.5779680023868
 21
-3943.104775197941
 31
0.0
  0
LINE
  5
FEDF
330
2
100
AcDbEntity
  8
L-ZISSEN
100
AcDbLine
 10
-393.7260348675547
 20
-3944.412749686897
 30
0.0
 11
-391.5779680023868
 21
-3943.104775197941
 31
0.0
  0
ARC
  5
FEE0
330
2
100
AcDbEntity
  8
L-ZISSEN
100
AcDbCircle
 10
-392.4760348675524
 20
-3951.912749686897
 30
0.0
 40
1.250000000000568
100
AcDbArc
 50
180.0
 51
270.0
  0
LINE
  5
FEE1
330
2
100
AcDbEntity
  8
L-ZISSEN
100
AcDbLine
 10
-389.0385348675524
 20
-3945.662749686896
 30
0.0
 11
-389.0385348675547
 21
-3953.162749686897
 31
0.0
  0
LINE
  5
FEE2
330
2
100
AcDbEntity
  8
L-ZISSEN
100
AcDbLine
 10
-379.6635348675524
 20
-3939.412749686896
 30
0.0
 11
-392.7885348675547
 21
-3937.537749686897
 31
0.0
  0
LINE
  5
FEE3
330
2
100
AcDbEntity
  8
L-ZISSEN
100
AcDbLine
 10
-391.5779680023868
 20
-3943.104775197941
 30
0.0
 11
-379.6635348675524
 21
-3945.599133172372
 31
0.0
  0
LINE
  5
FEE4
330
2
100
AcDbEntity
  8
L-ZISSEN
100
AcDbLine
 10
-379.6635348675524
 20
-3940.243921944124
 30
0.0
 11
-391.5779680023868
 21
-3938.54186006772
 31
0.0
  0
LINE
  5
FEE5
330
2
100
AcDbEntity
  8
L-ZISSEN
100
AcDbLine
 10
-379.6635348675524
 20
-3948.162749686897
 30
0.0
 11
-393.7260348675547
 21
-3944.412749686897
 31
0.0
  0
LINE
  5
FEE6
330
2
100
AcDbEntity
  8
L-ZISSEN
100
AcDbLine
 10
-392.7885348675547
 20
-3913.162749686897
 30
0.0
 11
-392.7885348675547
 21
-3937.537749686897
 31
0.0
  0
LINE
  5
FEE7
330
2
100
AcDbEntity
  8
L-ZISSEN
100
AcDbLine
 10
-393.7260348675547
 20
-3913.162749686897
 30
0.0
 11
-393.7260348675547
 21
-3936.952025054029
 31
0.0
  0
LINE
  5
FEE8
330
2
100
AcDbEntity
  8
L-ZISSEN
100
AcDbLine
 10
-393.7260348675547
 20
-3913.162749686897
 30
0.0
 11
-393.7260348675547
 21
-3951.912749686897
 31
0.0
  0
LINE
  5
FEE9
330
2
100
AcDbEntity
  8
L-ZISSEN
100
AcDbLine
 10
-383.4135348675502
 20
-3926.912749686895
 30
0.0
 11
-379.6635348675502
 21
-3933.162749686895
 31
0.0
  0
LINE
  5
FEEA
330
2
100
AcDbEntity
  8
L-ZISSEN
100
AcDbLine
 10
-375.9135348675501
 20
-3926.912749686895
 30
0.0
 11
-379.6635348675502
 21
-3933.162749686895
 31
0.0
  0
LINE
  5
FEEB
330
2
100
AcDbEntity
  8
L-ZISSEN
100
AcDbLine
 10
-371.5385348675524
 20
-3919.412749686896
 30
0.0
 11
-371.5385348675524
 21
-3918.162749686896
 31
0.0
  0
LINE
  5
FEEC
330
2
100
AcDbEntity
  8
L-ZISSEN
100
AcDbLine
 10
-371.5385348675524
 20
-3920.662749686896
 30
0.0
 11
-371.5385348675524
 21
-3921.912749686896
 31
0.0
  0
LINE
  5
FEED
330
2
100
AcDbEntity
  8
L-ZISSEN
100
AcDbLine
 10
-371.5385348675524
 20
-3918.162749686896
 30
0.0
 11
-368.4135348675524
 21
-3920.037749686896
 31
0.0
  0
LINE
  5
FEEE
330
2
100
AcDbEntity
  8
L-ZISSEN
100
AcDbLine
 10
-371.5385348675524
 20
-3921.912749686896
 30
0.0
 11
-368.4135348675524
 21
-3920.037749686896
 31
0.0
  0
LINE
  5
FEEF
330
2
100
AcDbEntity
  8
L-ZISSEN
100
AcDbLine
 10
-354.3835348675522
 20
-3923.501488598528
 30
0.0
 11
-362.813534867553
 21
-3923.501488598528
 31
0.0
  0
LINE
  5
FEF0
330
2
100
AcDbEntity
  8
L-ZISSEN
100
AcDbLine
 10
-367.7491017327181
 20
-3938.54186006772
 30
0.0
 11
-366.5385348675547
 21
-3937.537749686897
 31
0.0
  0
LINE
  5
FEF1
330
2
100
AcDbEntity
  8
L-ZISSEN
100
AcDbLine
 10
-367.7491017327181
 20
-3937.710687810492
 30
0.0
 11
-366.5385348675547
 21
-3937.537749686897
 31
0.0
  0
LINE
  5
FEF2
330
2
100
AcDbEntity
  8
L-ZISSEN
100
AcDbLine
 10
-365.6010348675547
 20
-3944.412749686897
 30
0.0
 11
-367.7491017327181
 21
-3943.104775197941
 31
0.0
  0
LINE
  5
FEF3
330
2
100
AcDbEntity
  8
L-ZISSEN
100
AcDbLine
 10
-370.2885348675547
 20
-3945.662749686897
 30
0.0
 11
-370.2885348675547
 21
-3953.162749686897
 31
0.0
  0
LINE
  5
FEF4
330
2
100
AcDbEntity
  8
L-ZISSEN
100
AcDbLine
 10
-367.7491017327181
 20
-3938.54186006772
 30
0.0
 11
-367.7491017327181
 21
-3943.104775197941
 31
0.0
  0
ARC
  5
FEF5
330
2
100
AcDbEntity
  8
L-ZISSEN
100
AcDbCircle
 10
-366.8510348675524
 20
-3951.912749686897
 30
0.0
 40
1.249999999999715
100
AcDbArc
 50
270.0
 51
0.0
  0
LINE
  5
FEF6
330
2
100
AcDbEntity
  8
L-ZISSEN
100
AcDbLine
 10
-366.5385348675547
 20
-3913.162749686897
 30
0.0
 11
-366.5385348675547
 21
-3937.537749686897
 31
0.0
  0
LINE
  5
FEF7
330
2
100
AcDbEntity
  8
L-ZISSEN
100
AcDbLine
 10
-365.6010348675547
 20
-3913.162749686897
 30
0.0
 11
-365.6010348675547
 21
-3936.952025054029
 31
0.0
  0
LINE
  5
FEF8
330
2
100
AcDbEntity
  8
L-ZISSEN
100
AcDbLine
 10
-365.6010348675547
 20
-3913.162749686897
 30
0.0
 11
-365.6010348675547
 21
-3951.912749686897
 31
0.0
  0
LINE
  5
FEF9
330
2
100
AcDbEntity
  8
L-ZISSEN
100
AcDbLine
 10
-349.6635348675547
 20
-3999.566433730885
 30
0.0
 11
-349.6635348675524
 21
-3913.162749686895
 31
0.0
  0
ARC
  5
FEFD
330
2
100
AcDbEntity
  8
L-ZISSEN
100
AcDbCircle
 10
-350.3683460939689
 20
-3848.088936075009
 30
0.0
 40
2.715501624970328
100
AcDbArc
 50
88.7567347921917
 51
185.0977525317111
  0
LINE
  5
FEFE
330
2
100
AcDbEntity
  8
L-ZISSEN
100
AcDbLine
 10
-353.0731066923479
 20
-3848.3302225866
 30
0.0
 11
-346.3308374598243
 21
-3848.330222586601
 31
0.0
  0
LINE
  5
FEFF
330
2
100
AcDbEntity
  8
L-ZISSEN
100
AcDbLine
 10
-346.3308374598243
 20
-3849.473356494704
 30
0.0
 11
-353.0731066923479
 21
-3849.473356494704
 31
0.0
  0
LINE
  5
FF00
330
2
100
AcDbEntity
  8
L-ZISSEN
100
AcDbLine
 10
-354.7404092846179
 20
-3849.473356494704
 30
0.0
 11
-344.6635348675524
 21
-3849.473356494704
 31
0.0
  0
ARC
  5
FF02
330
2
100
AcDbEntity
  8
L-ZISSEN
100
AcDbCircle
 10
-358.4503314319559
 20
-3807.330795069406
 30
0.0
 40
34.1319546174875
100
AcDbArc
 50
255.082017639271
 51
284.9179823607288
  0
ARC
  5
FF04
330
2
100
AcDbEntity
  8
L-ZISSEN
100
AcDbCircle
 10
-358.4503314319559
 20
-3869.594704304381
 30
0.0
 40
34.1319546174875
100
AcDbArc
 50
75.0820176392711
 51
104.9179823607288
  0
LINE
  5
FF06
330
2
100
AcDbEntity
  8
L-ZISSEN
100
AcDbLine
 10
-344.6635348675524
 20
-3843.462749686892
 30
0.0
 11
-414.6635348675525
 21
-3843.462749686892
 31
0.0
  0
LINE
  5
FF07
330
2
100
AcDbEntity
  8
L-ZISSEN
100
AcDbLine
 10
-347.6635348675506
 20
-3867.462749686893
 30
0.0
 11
-411.6635348675488
 21
-3867.462749686893
 31
0.0
  0
LINE
  5
FF09
330
2
100
AcDbEntity
  8
L-ZISSEN
100
AcDbLine
 10
-344.6635348675524
 20
-3855.462749686893
 30
0.0
 11
-414.6635348675524
 21
-3855.462749686893
 31
0.0
  0
LINE
  5
FF0C
330
2
100
AcDbEntity
  8
L-ZISSEN
100
AcDbLine
 10
-347.6635348675506
 20
-3891.369646805458
 30
0.0
 11
-411.6635348675488
 21
-3891.369646805458
 31
0.0
  0
ARC
  5
FF0D
330
2
100
AcDbEntity
  8
L-ZISSEN
100
AcDbCircle
 10
-400.8767383031489
 20
-3807.330795069406
 30
0.0
 40
34.1319546174875
100
AcDbArc
 50
255.082017639271
 51
284.9179823607288
  0
ARC
  5
FF0E
330
2
100
AcDbEntity
  8
L-ZISSEN
100
AcDbCircle
 10
-400.8767383031489
 20
-3869.594704304381
 30
0.0
 40
34.1319546174875
100
AcDbArc
 50
75.0820176392711
 51
104.9179823607288
  0
LINE
  5
FF0F
330
2
100
AcDbEntity
  8
L-ZISSEN
100
AcDbLine
 10
-357.6635348675524
 20
-3767.462749686893
 30
0.0
 11
-401.6635348675542
 21
-3767.462749686893
 31
0.0
  0
LINE
  5
FF10
330
2
100
AcDbEntity
  8
L-ZISSEN
100
AcDbLine
 10
-402.1029450033402
 20
-3819.462749686893
 30
0.0
 11
-357.2241247317719
 21
-3819.462749686893
 31
0.0
  0
LINE
  5
FF11
330
2
100
AcDbEntity
  8
L-ZISSEN
100
AcDbLine
 10
-401.1635348675524
 20
-3821.462749686892
 30
0.0
 11
-358.1635348675506
 21
-3821.462749686892
 31
0.0
  0
LINE
  5
FF12
330
2
100
AcDbEntity
  8
L-ZISSEN
100
AcDbLine
 10
-358.4503314319559
 20
-3835.462749686893
 30
0.0
 11
-400.8767383031489
 21
-3835.462749686893
 31
0.0
  0
LINE
  5
FF13
330
2
100
AcDbEntity
  8
L-ZISSEN
100
AcDbLine
 10
-358.4503314319559
 20
-3841.462749686893
 30
0.0
 11
-400.8767383031489
 21
-3841.462749686893
 31
0.0
  0
CIRCLE
  5
FF16
330
2
100
AcDbEntity
  8
L-SOUZOU
100
AcDbCircle
 10
-379.6635348675524
 20
-3879.462749686897
 30
0.0
 40
18.0
  0
CIRCLE
  5
FF17
330
2
100
AcDbEntity
  8
L-SOUZOU
100
AcDbCircle
 10
-379.6635348675524
 20
-3879.462749686897
 30
0.0
 40
21.0
  0
LINE
  5
FF18
330
2
100
AcDbEntity
  8
L-ZISSEN
100
AcDbLine
 10
-403.974876140747
 20
-3831.462749686897
 30
0.0
 11
-355.3521935943579
 21
-3831.462749686897
 31
0.0
  0
LINE
  5
FF19
330
2
100
AcDbEntity
  8
L-ZISSEN
100
AcDbLine
 10
-401.1635348675524
 20
-3821.462749686897
 30
0.0
 11
-401.1635348675524
 21
-3831.462749686897
 31
0.0
  0
LINE
  5
FF20
330
2
100
AcDbEntity
  8
L-SAISEN
100
AcDbLine
 10
-403.9748761407507
 20
-3841.321850774539
 30
0.0
 11
-403.9748761407507
 21
-3843.462749686892
 31
0.0
  0
LINE
  5
FF21
330
2
100
AcDbEntity
  8
L-ZISSEN
100
AcDbLine
 10
-405.6635348675524
 20
-3841.125423409738
 30
0.0
 11
-405.6635348675524
 21
-3843.462749686892
 31
0.0
  0
LINE
  5
FF22
330
2
100
AcDbEntity
  8
L-ZISSEN
100
AcDbLine
 10
-406.2539630427588
 20
-3848.330222586601
 30
0.0
 11
-406.2539630427588
 21
-3849.473356494704
 31
0.0
  0
LINE
  5
FF23
330
2
100
AcDbEntity
  8
L-ZISSEN
100
AcDbLine
 10
-404.5866604504852
 20
-3843.462749686892
 30
0.0
 11
-404.5866604504851
 21
-3849.473356494704
 31
0.0
  0
LINE
  5
FF24
330
2
100
AcDbEntity
  8
L-ZISSEN
100
AcDbLine
 10
-403.974876140747
 20
-3831.462749686897
 30
0.0
 11
-405.6635348675506
 21
-3832.194187545931
 31
0.0
  0
LINE
  5
FF25
330
2
100
AcDbEntity
  8
L-ZISSEN
100
AcDbLine
 10
-405.6635348675506
 20
-3832.194187545931
 30
0.0
 11
-405.6635348675506
 21
-3835.800075964047
 31
0.0
  0
LINE
  5
FF26
330
2
100
AcDbEntity
  8
L-SAISEN
100
AcDbLine
 10
-403.974876140747
 20
-3831.462749686897
 30
0.0
 11
-403.974876140747
 21
-3835.603648599247
 31
0.0
  0
LINE
  5
FF27
330
2
100
AcDbEntity
  8
L-ZISSEN
100
AcDbLine
 10
-400.4135348675524
 20
-3867.462749686893
 30
0.0
 11
-400.4135348675524
 21
-3891.369646805459
 31
0.0
  0
LINE
  5
FF28
330
2
100
AcDbEntity
  8
L-ZISSEN
100
AcDbLine
 10
-409.6635348675524
 20
-3836.613155945548
 30
0.0
 11
-409.6635348675524
 21
-3840.312343428238
 31
0.0
  0
LINE
  5
FF29
330
2
100
AcDbEntity
  8
L-ZISSEN
100
AcDbLine
 10
-409.0176428807142
 20
-3845.374073721515
 30
0.0
 11
-409.0176428807142
 21
-3846.359087453485
 31
0.0
  0
LINE
  5
FF2A
330
2
100
AcDbEntity
  8
L-ZISSEN
100
AcDbLine
 10
-410.2325524373234
 20
-3846.359087453485
 30
0.0
 11
-410.2325524373234
 21
-3845.374073721515
 31
0.0
  0
LINE
  5
FF2B
330
2
100
AcDbEntity
  8
L-ZISSEN
100
AcDbLine
 10
-409.0176428807142
 20
-3846.359087453485
 30
0.0
 11
-410.2325524373234
 21
-3846.359087453485
 31
0.0
  0
LINE
  5
FF2D
330
2
100
AcDbEntity
  8
L-ZISSEN
100
AcDbLine
 10
-412.9962322752787
 20
-3849.473356494704
 30
0.0
 11
-412.9962322752787
 21
-3848.3302225866
 31
0.0
  0
LINE
  5
FF2E
330
2
100
AcDbEntity
  8
L-ZISSEN
100
AcDbLine
 10
-414.6635348675525
 20
-3843.462749686892
 30
0.0
 11
-414.6635348675523
 21
-3857.462749686892
 31
0.0
  0
ARC
  5
FF2F
330
2
100
AcDbEntity
  8
L-ZISSEN
100
AcDbCircle
 10
-410.2914716769016
 20
-3848.088936075009
 30
0.0
 40
2.715501624969762
100
AcDbArc
 50
88.7567347921917
 51
185.0977525317111
  0
LINE
  5
FF32
330
2
100
AcDbEntity
  8
L-ZISSEN
100
AcDbLine
 10
-409.6635348675524
 20
-3891.369646805459
 30
0.0
 11
-409.6635348675524
 21
-3867.462749686893
 31
0.0
  0
LINE
  5
FF33
330
2
100
AcDbEntity
  8
L-ZISSEN
100
AcDbLine
 10
-411.6635348675488
 20
-3891.369646805459
 30
0.0
 11
-411.6635348675488
 21
-3867.462749686893
 31
0.0
  0
LINE
  5
FF38
330
2
100
AcDbEntity
  8
L-ZISSEN
100
AcDbLine
 10
-414.6635348675524
 20
-3860.962749686893
 30
0.0
 11
-414.6635348675525
 21
-3896.662749686893
 31
0.0
  0
LINE
  5
FF39
330
2
100
AcDbEntity
  8
L-ZISSEN
100
AcDbLine
 10
-407.1635348675524
 20
-3855.462749686893
 30
0.0
 11
-407.1635348675524
 21
-3866.462749686898
 31
0.0
  0
LINE
  5
FF3A
330
2
100
AcDbEntity
  8
L-ZISSEN
100
AcDbLine
 10
-407.1635348675524
 20
-3867.462749686893
 30
0.0
 11
-407.1635348675524
 21
-3855.462749686893
 31
0.0
  0
LINE
  5
FF3B
330
2
100
AcDbEntity
  8
L-ZISSEN
100
AcDbLine
 10
-411.1635348675524
 20
-3855.462749686893
 30
0.0
 11
-411.1635348675524
 21
-3867.462749686893
 31
0.0
  0
ARC
  5
FF3C
330
2
100
AcDbEntity
  8
L-ZISSEN
100
AcDbCircle
 10
-408.9587236411341
 20
-3848.088936075009
 30
0.0
 40
2.715501624969247
100
AcDbArc
 50
354.9022474682888
 51
91.24326520780831
  0
LINE
  5
FF3D
330
2
100
AcDbEntity
  8
L-ZISSEN
100
AcDbLine
 10
-412.9962322752787
 20
-3848.3302225866
 30
0.0
 11
-406.2539630427588
 21
-3848.330222586601
 31
0.0
  0
LINE
  5
FF3E
330
2
100
AcDbEntity
  8
L-ZISSEN
100
AcDbLine
 10
-406.2539630427588
 20
-3849.473356494704
 30
0.0
 11
-412.9962322752787
 21
-3849.473356494704
 31
0.0
  0
LINE
  5
FF3F
330
2
100
AcDbEntity
  8
L-ZISSEN
100
AcDbLine
 10
-404.5866604504851
 20
-3849.473356494704
 30
0.0
 11
-414.6635348675524
 21
-3849.473356494704
 31
0.0
  0
LINE
  5
FF41
330
2
100
AcDbEntity
  8
L-ZISSEN
100
AcDbLine
 10
-403.663534867556
 20
-3769.862749686893
 30
0.0
 11
-401.6635348675542
 21
-3767.462749686893
 31
0.0
  0
LINE
  5
FF42
330
2
100
AcDbEntity
  8
L-ZISSEN
100
AcDbLine
 10
-399.9135348675506
 20
-3819.462749686893
 30
0.0
 11
-399.9135348675506
 21
-3821.462749686897
 31
0.0
  0
ARC
  5
FF43
330
2
100
AcDbEntity
  8
L-ZISSEN
100
AcDbCircle
 10
-402.1029450033402
 20
-3817.162749686893
 30
0.0
 40
2.299999999999999
100
AcDbArc
 50
179.1040647226661
 51
270.0
  0
LINE
  5
FF44
330
2
100
AcDbEntity
  8
L-ZISSEN
100
AcDbLine
 10
-403.663534867556
 20
-3769.862749686893
 30
0.0
 11
-404.4026638151993
 21
-3817.126786005463
 31
0.0
  0
LINE
  5
FF4B
330
2
100
AcDbEntity
  8
L-ZISSEN
100
AcDbLine
 10
-358.1635348675506
 20
-3821.462749686897
 30
0.0
 11
-358.1635348675506
 21
-3831.462749686897
 31
0.0
  0
LINE
  5
FF4C
330
2
100
AcDbEntity
  8
L-SOUZOU
100
AcDbLine
 10
-373.7235348675559
 20
-3871.825949686897
 30
0.0
 11
-379.0963348675562
 21
-3877.545149686897
 31
0.0
  0
LINE
  5
FF4D
330
2
100
AcDbEntity
  8
L-SOUZOU
100
AcDbLine
 10
-372.0267348675565
 20
-3873.522749686897
 30
0.0
 11
-377.7459348675547
 21
-3878.895549686898
 31
0.0
  0
ARC
  5
FF4E
330
2
100
AcDbEntity
  8
L-ZISSEN
100
AcDbCircle
 10
-379.6635348675524
 20
-3903.15145579254
 30
0.0
 40
67.68870610564736
100
AcDbArc
 50
79.42154710242468
 51
100.5784528975753
  0
ARC
  5
FF4F
330
2
100
AcDbEntity
  8
L-ZISSEN
100
AcDbCircle
 10
-379.6635348675524
 20
-3773.774043581245
 30
0.0
 40
67.68870610564736
100
AcDbArc
 50
259.4215471024246
 51
280.5784528975753
  0
CIRCLE
  5
FF50
330
2
100
AcDbEntity
  8
L-ZISSEN
100
AcDbCircle
 10
-379.6635348675524
 20
-3879.462749686897
 30
0.0
 40
5.724999999999999
  0
CIRCLE
  5
FF51
330
2
100
AcDbEntity
  8
L-SAISEN
100
AcDbCircle
 10
-379.6635348675524
 20
-3879.462749686897
 30
0.0
 40
6.58
  0
ARC
  5
FF52
330
2
100
AcDbEntity
  8
L-SOUZOU
100
AcDbCircle
 10
-379.6635348675524
 20
-3879.462749686897
 30
0.0
 40
2.0
100
AcDbArc
 50
249.939999999777
 51
16.48050000005286
  0
ARC
  5
FF53
330
2
100
AcDbEntity
  8
L-SOUZOU
100
AcDbCircle
 10
-379.6635348675524
 20
-3879.462749686897
 30
0.0
 40
2.0
100
AcDbArc
 50
73.51949999987474
 51
200.0599999999713
  0
CIRCLE
  5
FF54
330
2
100
AcDbEntity
  8
L-SOUZOU
100
AcDbCircle
 10
-379.6635348675524
 20
-3879.462749686897
 30
0.0
 40
1.2
  0
LINE
  5
FF55
330
2
100
AcDbEntity
  8
L-ZISSEN
100
AcDbLine
 10
-392.0899417387453
 20
-3836.613155945548
 30
0.0
 11
-392.0899417387453
 21
-3840.312343428238
 31
0.0
  0
LINE
  5
FF56
330
2
100
AcDbEntity
  8
L-SOUZOU
100
AcDbLine
 10
-390.977134867558
 20
-3890.776349686897
 30
0.0
 11
-390.985934867557
 21
-3890.767549686897
 31
0.0
  0
LINE
  5
FF57
330
2
100
AcDbEntity
  8
L-SOUZOU
100
AcDbLine
 10
-390.977134867558
 20
-3890.776349686897
 30
0.0
 11
-390.9683348675592
 21
-3890.785149686898
 31
0.0
  0
ARC
  5
FF58
330
2
100
AcDbEntity
  8
L-SOUZOU
100
AcDbCircle
 10
-390.685934867557
 20
-3890.501949686897
 30
0.0
 40
0.4
100
AcDbArc
 50
225.0000000000874
 51
313.2099999998304
  0
ARC
  5
FF59
330
2
100
AcDbEntity
  8
L-SOUZOU
100
AcDbCircle
 10
-390.7027348675575
 20
-3890.485149686897
 30
0.0
 40
0.4
100
AcDbArc
 50
136.789999999893
 51
225.0000000000874
  0
LINE
  5
FF5A
330
2
100
AcDbEntity
  8
L-ZISSEN
100
AcDbLine
 10
-395.9135348675524
 20
-3867.462749686893
 30
0.0
 11
-395.9135348675525
 21
-3891.369646805459
 31
0.0
  0
LINE
  5
FF5B
330
2
100
AcDbEntity
  8
L-SOUZOU
100
AcDbLine
 10
-380.3491348675553
 20
-3881.341149686897
 30
0.0
 11
-390.4115348675563
 21
-3890.793949686896
 31
0.0
  0
LINE
  5
FF5C
330
2
100
AcDbEntity
  8
L-SOUZOU
100
AcDbLine
 10
-381.5419348675568
 20
-3880.148349686897
 30
0.0
 11
-390.9947348675559
 21
-3890.210749686896
 31
0.0
  0
LINE
  5
FF5D
330
2
100
AcDbEntity
  8
L-ZISSEN
100
AcDbLine
 10
-353.6635348675524
 20
-3841.125423409738
 30
0.0
 11
-353.6635348675524
 21
-3843.462749686892
 31
0.0
  0
LINE
  5
FF5E
330
2
100
AcDbEntity
  8
L-SAISEN
100
AcDbLine
 10
-355.3521935943543
 20
-3841.321850774539
 30
0.0
 11
-355.3521935943543
 21
-3843.462749686892
 31
0.0
  0
LINE
  5
FF5F
330
2
100
AcDbEntity
  8
L-ZISSEN
100
AcDbLine
 10
-353.0731066923479
 20
-3849.473356494704
 30
0.0
 11
-353.0731066923479
 21
-3848.3302225866
 31
0.0
  0
LINE
  5
FF60
330
2
100
AcDbEntity
  8
L-ZISSEN
100
AcDbLine
 10
-354.7404092846179
 20
-3843.462749686892
 30
0.0
 11
-354.7404092846179
 21
-3849.473356494704
 31
0.0
  0
LINE
  5
FF61
330
2
100
AcDbEntity
  8
L-ZISSEN
100
AcDbLine
 10
-355.3521935943579
 20
-3831.462749686897
 30
0.0
 11
-353.6635348675524
 21
-3832.194187545931
 31
0.0
  0
LINE
  5
FF62
330
2
100
AcDbEntity
  8
L-ZISSEN
100
AcDbLine
 10
-353.6635348675524
 20
-3832.194187545931
 30
0.0
 11
-353.6635348675524
 21
-3835.800075964047
 31
0.0
  0
LINE
  5
FF63
330
2
100
AcDbEntity
  8
L-SAISEN
100
AcDbLine
 10
-355.3521935943579
 20
-3831.462749686897
 30
0.0
 11
-355.352193594358
 21
-3835.603648599247
 31
0.0
  0
LINE
  5
FF65
330
2
100
AcDbEntity
  8
L-ZISSEN
100
AcDbLine
 10
-352.1635348675524
 20
-3855.462749686893
 30
0.0
 11
-352.1635348675524
 21
-3867.462749686893
 31
0.0
  0
LINE
  5
FF67
330
2
100
AcDbEntity
  8
L-ZISSEN
100
AcDbLine
 10
-367.2371279963596
 20
-3836.613155945548
 30
0.0
 11
-367.2371279963596
 21
-3840.312343428238
 31
0.0
  0
LINE
  5
FF69
330
2
100
AcDbEntity
  8
L-ZISSEN
100
AcDbLine
 10
-363.4135348675524
 20
-3867.462749686893
 30
0.0
 11
-363.4135348675525
 21
-3891.369646805459
 31
0.0
  0
LINE
  5
FF6A
330
2
100
AcDbEntity
  8
L-SOUZOU
100
AcDbLine
 10
-373.7235348675559
 20
-3871.825949686897
 30
0.0
 11
-372.0267348675565
 21
-3873.522749686897
 31
0.0
  0
LINE
  5
FF6B
330
2
100
AcDbEntity
  8
L-ZISSEN
100
AcDbLine
 10
-355.6635348675561
 20
-3769.862749686893
 30
0.0
 11
-357.6635348675524
 21
-3767.462749686893
 31
0.0
  0
ARC
  5
FF6C
330
2
100
AcDbEntity
  8
L-ZISSEN
100
AcDbCircle
 10
-357.2241247317719
 20
-3817.162749686893
 30
0.0
 40
2.299999999999999
100
AcDbArc
 50
270.0
 51
0.8959352773337991
  0
LINE
  5
FF6E
330
2
100
AcDbEntity
  8
L-ZISSEN
100
AcDbLine
 10
-355.6635348675561
 20
-3769.862749686893
 30
0.0
 11
-354.9244059199129
 21
-3817.126786005463
 31
0.0
  0
LINE
  5
FF6F
330
2
100
AcDbEntity
  8
L-ZISSEN
100
AcDbLine
 10
-359.4135348675507
 20
-3819.462749686893
 30
0.0
 11
-359.4135348675506
 21
-3821.462749686897
 31
0.0
  0
LINE
  5
FF71
330
2
100
AcDbEntity
  8
L-ZISSEN
100
AcDbLine
 10
-346.3308374598243
 20
-3848.330222586601
 30
0.0
 11
-346.3308374598243
 21
-3849.473356494704
 31
0.0
  0
LINE
  5
FF72
330
2
100
AcDbEntity
  8
L-ZISSEN
100
AcDbLine
 10
-344.6635348675524
 20
-3849.473356494704
 30
0.0
 11
-344.6635348675524
 21
-3844.462749686897
 31
0.0
  0
LINE
  5
FF73
330
2
100
AcDbEntity
  8
L-ZISSEN
100
AcDbLine
 10
-344.6635348675524
 20
-3857.462749686892
 30
0.0
 11
-344.6635348675524
 21
-3854.462749686898
 31
0.0
  0
LINE
  5
FF74
330
2
100
AcDbEntity
  8
L-ZISSEN
100
AcDbLine
 10
-344.6635348675524
 20
-3843.462749686892
 30
0.0
 11
-344.6635348675524
 21
-3854.462749686898
 31
0.0
  0
LINE
  5
FF75
330
2
100
AcDbEntity
  8
L-ZISSEN
100
AcDbLine
 10
-344.6635348675524
 20
-3896.662749686894
 30
0.0
 11
-344.6635348675524
 21
-3891.369646805459
 31
0.0
  0
LINE
  5
FF76
330
2
100
AcDbEntity
  8
L-ZISSEN
100
AcDbLine
 10
-349.6635348675524
 20
-3836.613155945548
 30
0.0
 11
-349.6635348675524
 21
-3840.312343428238
 31
0.0
  0
LINE
  5
FF77
330
2
100
AcDbEntity
  8
L-ZISSEN
100
AcDbLine
 10
-349.0945172977815
 20
-3845.374073721515
 30
0.0
 11
-349.0945172977815
 21
-3846.359087453485
 31
0.0
  0
LINE
  5
FF78
330
2
100
AcDbEntity
  8
L-ZISSEN
100
AcDbLine
 10
-350.3094268543889
 20
-3846.359087453485
 30
0.0
 11
-350.3094268543889
 21
-3845.374073721515
 31
0.0
  0
LINE
  5
FF79
330
2
100
AcDbEntity
  8
L-ZISSEN
100
AcDbLine
 10
-349.0945172977815
 20
-3846.359087453485
 30
0.0
 11
-350.3094268543889
 21
-3846.359087453485
 31
0.0
  0
LINE
  5
FF7A
330
2
100
AcDbEntity
  8
L-ZISSEN
100
AcDbLine
 10
-347.217558131001
 20
-3857.462749686892
 30
0.0
 11
-347.217558131001
 21
-3860.962749686892
 31
0.0
  0
LINE
  5
FF7D
330
2
100
AcDbEntity
  8
L-ZISSEN
100
AcDbLine
 10
-347.217558131001
 20
-3900.162749686894
 30
0.0
 11
-347.217558131001
 21
-3896.662749686894
 31
0.0
  0
LINE
  5
FF7E
330
2
100
AcDbEntity
  8
L-ZISSEN
100
AcDbLine
 10
-348.1635348675506
 20
-3855.462749686893
 30
0.0
 11
-348.1635348675506
 21
-3867.462749686893
 31
0.0
  0
ARC
  5
FF7F
330
2
100
AcDbEntity
  8
L-ZISSEN
100
AcDbCircle
 10
-349.0355980582033
 20
-3848.088936075009
 30
0.0
 40
2.715501624969247
100
AcDbArc
 50
354.9022474682888
 51
91.24326520780831
  0
LINE
  5
FF80
330
2
100
AcDbEntity
  8
L-ZISSEN
100
AcDbLine
 10
-344.6635348675524
 20
-3857.462749686892
 30
0.0
 11
-347.217558131001
 21
-3857.462749686892
 31
0.0
  0
LINE
  5
FF81
330
2
100
AcDbEntity
  8
L-ZISSEN
100
AcDbLine
 10
-344.6635348675524
 20
-3860.962749686892
 30
0.0
 11
-347.217558131001
 21
-3860.962749686893
 31
0.0
  0
LINE
  5
FF82
330
2
100
AcDbEntity
  8
L-ZISSEN
100
AcDbLine
 10
-344.6635348675524
 20
-3900.162749686893
 30
0.0
 11
-347.217558131001
 21
-3900.162749686893
 31
0.0
  0
LINE
  5
FF83
330
2
100
AcDbEntity
  8
L-ZISSEN
100
AcDbLine
 10
-344.6635348675524
 20
-3896.662749686893
 30
0.0
 11
-347.0529240084986
 21
-3896.662749686893
 31
0.0
  0
LINE
  5
FF89
330
2
100
AcDbEntity
  8
L-TYUSIN
100
AcDbLine
 10
-379.6635348675524
 20
-4031.162749686896
 30
0.0
 11
-379.6635348675524
 21
-3765.209706459882
 31
0.0
  0
LINE
  5
FF8A
330
2
100
AcDbEntity
  8
L-ZISSEN
100
AcDbLine
 10
-296.1635348675518
 20
-3853.462749686892
 30
0.0
 11
-280.1635348675517
 21
-3853.462749686892
 31
0.0
  0
LINE
  5
FF8B
330
2
100
AcDbEntity
  8
L-ZISSEN
100
AcDbLine
 10
-330.6635348675524
 20
-3860.962749686892
 30
0.0
 11
-260.6434729912216
 21
-3860.962749686892
 31
0.0
  0
LINE
  5
FF8C
330
2
100
AcDbEntity
  8
L-ZISSEN
100
AcDbLine
 10
-330.663534867552
 20
-3912.962749686894
 30
0.0
 11
-260.6434729912214
 21
-3912.962749686892
 31
0.0
  0
LINE
  5
FF8D
330
2
100
AcDbEntity
  8
L-ZISSEN
100
AcDbLine
 10
-264.1635348675522
 20
-3891.369646805459
 30
0.0
 11
-295.6450358214626
 21
-3891.369646805459
 31
0.0
  0
ARC
  5
FF8E
330
2
100
AcDbEntity
  8
L-ZISSEN
100
AcDbCircle
 10
-282.8510348675525
 20
-3951.712749686894
 30
0.0
 40
1.249999999999715
100
AcDbArc
 50
270.0
 51
0.0
  0
ARC
  5
FF8F
330
2
100
AcDbEntity
  8
L-ZISSEN
100
AcDbCircle
 10
-295.6635348675511
 20
-3910.51003860541
 30
0.0
 40
99.53938471878553
100
AcDbArc
 50
275.3320776948647
 51
283.9062370650525
  0
LINE
  5
FF90
330
2
100
AcDbEntity
  8
L-TYUSIN
100
AcDbLine
 10
-255.6635348675525
 20
-3879.462749686895
 30
0.0
 11
-419.6635348675524
 21
-3879.462749686895
 31
0.0
  0
LINE
  5
FF91
330
2
100
AcDbEntity
  8
L-TYUSIN
100
AcDbLine
 10
-337.6635348675524
 20
-3827.962749686895
 30
0.0
 11
-337.6635348675524
 21
-3930.962749686894
 31
0.0
  0
ARC
  5
FF97
330
2
100
AcDbEntity
  8
L-ZISSEN
100
AcDbCircle
 10
-337.6635348675524
 20
-3921.462749686894
 30
0.0
 40
4.5
100
AcDbArc
 50
270.0
 51
0.0
  0
ARC
  5
FF98
330
2
100
AcDbEntity
  8
L-ZISSEN
100
AcDbCircle
 10
-337.6635348675524
 20
-3921.462749686894
 30
0.0
 40
4.5
100
AcDbArc
 50
180.0
 51
270.0
  0
LINE
  5
FF99
330
2
100
AcDbEntity
  8
L-ZISSEN
100
AcDbLine
 10
-326.6635348675524
 20
-3929.462749686894
 30
0.0
 11
-326.6635348675524
 21
-3912.962749686894
 31
0.0
  0
LINE
  5
FF9A
330
2
100
AcDbEntity
  8
L-ZISSEN
100
AcDbLine
 10
-348.6635348675524
 20
-3913.162749686895
 30
0.0
 11
-348.6635348675524
 21
-3929.462749686894
 31
0.0
  0
LINE
  5
FF9B
330
2
100
AcDbEntity
  8
L-TYUSIN
100
AcDbLine
 10
-295.6635348675524
 20
-4022.462750074689
 30
0.0
 11
-295.6635348675522
 21
-3832.706790741141
 31
0.0
  0
LINE
  5
FF9C
330
2
100
AcDbEntity
  8
L-ZISSEN
100
AcDbLine
 10
-325.6635348675524
 20
-3999.36643373088
 30
0.0
 11
-325.6635348675524
 21
-3912.962749686893
 31
0.0
  0
LINE
  5
FF9D
330
2
100
AcDbEntity
  8
L-ZISSEN
100
AcDbLine
 10
-309.7260348675547
 20
-3912.962749686893
 30
0.0
 11
-309.7260348675547
 21
-3951.712749686894
 31
0.0
  0
LINE
  5
FF9E
330
2
100
AcDbEntity
  8
L-ZISSEN
100
AcDbLine
 10
-309.7260348675547
 20
-3912.962749686893
 30
0.0
 11
-309.7260348675547
 21
-3936.752025054026
 31
0.0
  0
LINE
  5
FF9F
330
2
100
AcDbEntity
  8
L-ZISSEN
100
AcDbLine
 10
-308.7885348675547
 20
-3912.962749686893
 30
0.0
 11
-308.7885348675547
 21
-3937.337749686893
 31
0.0
  0
LINE
  5
FFA0
330
2
100
AcDbEntity
  8
L-ZISSEN
100
AcDbLine
 10
-281.6010348675547
 20
-3912.962749686893
 30
0.0
 11
-281.6010348675547
 21
-3951.712749686894
 31
0.0
  0
LINE
  5
FFA1
330
2
100
AcDbEntity
  8
L-ZISSEN
100
AcDbLine
 10
-282.5385348675547
 20
-3912.962749686893
 30
0.0
 11
-282.5385348675547
 21
-3937.337749686893
 31
0.0
  0
LINE
  5
FFA2
330
2
100
AcDbEntity
  8
L-ZISSEN
100
AcDbLine
 10
-281.6010348675547
 20
-3912.962749686893
 30
0.0
 11
-281.6010348675547
 21
-3936.752025054026
 31
0.0
  0
LINE
  5
FFA3
330
2
100
AcDbEntity
  8
L-ZISSEN
100
AcDbLine
 10
-294.4135348675501
 20
-3916.712749686892
 30
0.0
 11
-294.4135348675501
 21
-3926.712749686892
 31
0.0
  0
LINE
  5
FFA4
330
2
100
AcDbEntity
  8
L-ZISSEN
100
AcDbLine
 10
-294.4135348675501
 20
-3916.712749686892
 30
0.0
 11
-294.4135348675501
 21
-3926.712749686892
 31
0.0
  0
LINE
  5
FFA5
330
2
100
AcDbEntity
  8
L-ZISSEN
100
AcDbLine
 10
-296.9135348675501
 20
-3916.712749686892
 30
0.0
 11
-296.9135348675501
 21
-3926.712749686892
 31
0.0
  0
LINE
  5
FFA6
330
2
100
AcDbEntity
  8
L-ZISSEN
100
AcDbLine
 10
-296.9135348675501
 20
-3916.712749686892
 30
0.0
 11
-296.9135348675501
 21
-3926.712749686892
 31
0.0
  0
LINE
  5
10023
330
2
100
AcDbEntity
  8
L-ZISSEN
100
AcDbLine
 10
-348.6635348675524
 20
-3929.462749686894
 30
0.0
 11
-326.6635348675524
 21
-3929.462749686894
 31
0.0
  0
ARC
  5
10024
330
2
100
AcDbEntity
  8
L-ZISSEN
100
AcDbCircle
 10
-317.6635348675515
 20
-3999.36643373088
 30
0.0
 40
8.000000000000113
100
AcDbArc
 50
180.0
 51
256.0937629349474
  0
LINE
  5
1002B
330
2
100
AcDbEntity
  8
SUNPOU
100
AcDbLine
 10
-337.6635348675524
 20
-3925.962749686894
 30
0.0
 11
-337.6635348675524
 21
-3925.962749686894
 31
0.0
  0
LINE
  5
1002C
330
2
100
AcDbEntity
  8
L-ZISSEN
100
AcDbLine
 10
-286.6635348675501
 20
-4017.462750074689
 30
0.0
 11
-304.663534867552
 21
-4017.462750074689
 31
0.0
  0
LINE
  5
1002D
330
2
100
AcDbEntity
  8
L-ZISSEN
100
AcDbLine
 10
-286.4135348675467
 20
-4009.618699226944
 30
0.0
 11
-304.9135348675588
 21
-4009.618699226943
 31
0.0
  0
LINE
  5
1002E
330
2
100
AcDbEntity
  8
L-ZISSEN
100
AcDbLine
 10
-304.663534867552
 20
-4017.46275007469
 30
0.0
 11
-304.663534867552
 21
-4009.618699226943
 31
0.0
  0
ARC
  5
1002F
330
2
100
AcDbEntity
  8
L-ZISSEN
100
AcDbCircle
 10
-295.6635348675511
 20
-3910.51003860541
 30
0.0
 40
99.53938471878538
100
AcDbArc
 50
256.0937629349537
 51
264.6679223051352
  0
LINE
  5
10030
330
2
100
AcDbEntity
  8
L-ZISSEN
100
AcDbLine
 10
-286.6635348675501
 20
-4017.46275007469
 30
0.0
 11
-286.6635348675501
 21
-4009.618699226944
 31
0.0
  0
LINE
  5
10031
330
2
100
AcDbEntity
  8
L-ZISSEN
100
AcDbLine
 10
-295.6635348675524
 20
-3947.962749686893
 30
0.0
 11
-309.7260348675547
 21
-3944.212749686893
 31
0.0
  0
LINE
  5
10032
330
2
100
AcDbEntity
  8
L-ZISSEN
100
AcDbLine
 10
-295.6635348675524
 20
-3939.212749686893
 30
0.0
 11
-308.7885348675547
 21
-3937.337749686893
 31
0.0
  0
LINE
  5
10033
330
2
100
AcDbEntity
  8
L-ZISSEN
100
AcDbLine
 10
-307.5779680023868
 20
-3942.904775197938
 30
0.0
 11
-295.6635348675524
 21
-3945.399133172368
 31
0.0
  0
LINE
  5
10034
330
2
100
AcDbEntity
  8
L-ZISSEN
100
AcDbLine
 10
-295.6635348675524
 20
-3940.04392194412
 30
0.0
 11
-307.5779680023868
 21
-3938.341860067716
 31
0.0
  0
LINE
  5
10035
330
2
100
AcDbEntity
  8
L-ZISSEN
100
AcDbLine
 10
-308.4760348675524
 20
-3952.962749686893
 30
0.0
 11
-282.8510348675525
 21
-3952.962749686893
 31
0.0
  0
LINE
  5
10036
330
2
100
AcDbEntity
  8
L-ZISSEN
100
AcDbLine
 10
-320.9435348675526
 20
-3923.301488598525
 30
0.0
 11
-312.5135348675519
 21
-3923.301488598525
 31
0.0
  0
ARC
  5
10037
330
2
100
AcDbEntity
  8
L-ZISSEN
100
AcDbCircle
 10
-308.4760348675524
 20
-3951.712749686894
 30
0.0
 40
1.250000000000568
100
AcDbArc
 50
180.0
 51
270.0
  0
LINE
  5
10038
330
2
100
AcDbEntity
  8
L-ZISSEN
100
AcDbLine
 10
-307.5779680023868
 20
-3938.341860067716
 30
0.0
 11
-307.5779680023868
 21
-3942.904775197938
 31
0.0
  0
LINE
  5
10039
330
2
100
AcDbEntity
  8
L-ZISSEN
100
AcDbLine
 10
-309.7260348675547
 20
-3944.212749686893
 30
0.0
 11
-307.5779680023868
 21
-3942.904775197938
 31
0.0
  0
LINE
  5
1003A
330
2
100
AcDbEntity
  8
L-ZISSEN
100
AcDbLine
 10
-307.5779680023868
 20
-3937.510687810489
 30
0.0
 11
-308.7885348675547
 21
-3937.337749686893
 31
0.0
  0
LINE
  5
1003B
330
2
100
AcDbEntity
  8
L-ZISSEN
100
AcDbLine
 10
-307.5779680023868
 20
-3938.341860067716
 30
0.0
 11
-308.7885348675547
 21
-3937.337749686893
 31
0.0
  0
LINE
  5
1003C
330
2
100
AcDbEntity
  8
L-ZISSEN
100
AcDbLine
 10
-305.0385348675524
 20
-3945.462749686892
 30
0.0
 11
-305.0385348675547
 21
-3952.962749686893
 31
0.0
  0
LINE
  5
1003D
330
2
100
AcDbEntity
  8
L-ZISSEN
100
AcDbLine
 10
-312.5135348675519
 20
-3991.301488598525
 30
0.0
 11
-316.7285348675534
 21
-3993.301488598524
 31
0.0
  0
LINE
  5
1003E
330
2
100
AcDbEntity
  8
L-ZISSEN
100
AcDbLine
 10
-316.7285348675534
 20
-3993.301488598524
 30
0.0
 11
-320.9435348675526
 21
-3991.301488598524
 31
0.0
  0
LINE
  5
1003F
330
2
100
AcDbEntity
  8
L-ZISSEN
100
AcDbLine
 10
-320.9435348675526
 20
-3923.301488598525
 30
0.0
 11
-320.9435348675526
 21
-3991.301488598524
 31
0.0
  0
LINE
  5
10040
330
2
100
AcDbEntity
  8
L-ZISSEN
100
AcDbLine
 10
-312.5135348675519
 20
-3923.301488598525
 30
0.0
 11
-312.5135348675519
 21
-3991.301488598525
 31
0.0
  0
LINE
  5
10041
330
2
100
AcDbEntity
  8
L-ZISSEN
100
AcDbLine
 10
-286.2885348675547
 20
-3945.462749686893
 30
0.0
 11
-286.2885348675547
 21
-3952.962749686893
 31
0.0
  0
LINE
  5
10042
330
2
100
AcDbEntity
  8
L-ZISSEN
100
AcDbLine
 10
-283.7491017327181
 20
-3938.341860067716
 30
0.0
 11
-283.7491017327181
 21
-3942.904775197938
 31
0.0
  0
LINE
  5
10043
330
2
100
AcDbEntity
  8
L-ZISSEN
100
AcDbLine
 10
-281.6010348675547
 20
-3944.212749686893
 30
0.0
 11
-283.7491017327181
 21
-3942.904775197938
 31
0.0
  0
LINE
  5
10044
330
2
100
AcDbEntity
  8
L-ZISSEN
100
AcDbLine
 10
-283.7491017327181
 20
-3938.341860067716
 30
0.0
 11
-282.5385348675547
 21
-3937.337749686893
 31
0.0
  0
LINE
  5
10045
330
2
100
AcDbEntity
  8
L-ZISSEN
100
AcDbLine
 10
-283.7491017327181
 20
-3937.510687810489
 30
0.0
 11
-282.5385348675547
 21
-3937.337749686893
 31
0.0
  0
LINE
  5
10046
330
2
100
AcDbEntity
  8
L-ZISSEN
100
AcDbLine
 10
-295.6635348675524
 20
-3947.962749686893
 30
0.0
 11
-295.6635348675524
 21
-3945.399133172368
 31
0.0
  0
LINE
  5
10047
330
2
100
AcDbEntity
  8
L-ZISSEN
100
AcDbLine
 10
-294.4135348675524
 20
-3947.62941635356
 30
0.0
 11
-294.4135348675524
 21
-3949.212749686893
 31
0.0
  0
LINE
  5
10048
330
2
100
AcDbEntity
  8
L-ZISSEN
100
AcDbLine
 10
-295.6635348675524
 20
-3939.212749686893
 30
0.0
 11
-295.6635348675524
 21
-3940.04392194412
 31
0.0
  0
LINE
  5
10049
330
2
100
AcDbEntity
  8
L-ZISSEN
100
AcDbLine
 10
-291.9135348675501
 20
-3926.712749686892
 30
0.0
 11
-295.6635348675502
 21
-3932.962749686892
 31
0.0
  0
LINE
  5
1004A
330
2
100
AcDbEntity
  8
L-ZISSEN
100
AcDbLine
 10
-294.4135348675501
 20
-3926.712749686892
 30
0.0
 11
-291.9135348675501
 21
-3926.712749686892
 31
0.0
  0
LINE
  5
1004B
330
2
100
AcDbEntity
  8
L-ZISSEN
100
AcDbLine
 10
-296.9135348675547
 20
-3947.629416353559
 30
0.0
 11
-296.9135348675525
 21
-3949.212749686893
 31
0.0
  0
LINE
  5
1004C
330
2
100
AcDbEntity
  8
L-ZISSEN
100
AcDbLine
 10
-296.9135348675501
 20
-3926.712749686892
 30
0.0
 11
-299.4135348675502
 21
-3926.712749686892
 31
0.0
  0
ARC
  5
1004D
330
2
100
AcDbEntity
  8
L-ZISSEN
100
AcDbCircle
 10
-295.6635348675524
 20
-3949.212749686893
 30
0.0
 40
1.250000000000568
100
AcDbArc
 50
180.0
 51
0.0
  0
CIRCLE
  5
1004E
330
2
100
AcDbEntity
  8
L-ZISSEN
100
AcDbCircle
 10
-295.6635348675524
 20
-3942.959204388067
 30
0.0
 40
1.25
  0
LINE
  5
1004F
330
2
100
AcDbEntity
  8
L-TYUSIN
100
AcDbLine
 10
-297.8503284301075
 20
-3942.959204388067
 30
0.0
 11
-293.6555484551957
 21
-3942.959204388067
 31
0.0
  0
LINE
  5
10050
330
2
100
AcDbEntity
  8
L-ZISSEN
100
AcDbLine
 10
-299.4135348675502
 20
-3926.712749686892
 30
0.0
 11
-295.6635348675502
 21
-3932.962749686892
 31
0.0
  0
LINE
  5
10051
330
2
100
AcDbEntity
  8
L-ZISSEN
100
AcDbLine
 10
-295.6635348675524
 20
-3947.962749686893
 30
0.0
 11
-281.6010348675547
 21
-3944.212749686893
 31
0.0
  0
LINE
  5
10052
330
2
100
AcDbEntity
  8
L-ZISSEN
100
AcDbLine
 10
-283.7491017327181
 20
-3942.904775197938
 30
0.0
 11
-295.6635348675524
 21
-3945.399133172368
 31
0.0
  0
LINE
  5
10053
330
2
100
AcDbEntity
  8
L-ZISSEN
100
AcDbLine
 10
-295.6635348675524
 20
-3940.04392194412
 30
0.0
 11
-283.7491017327181
 21
-3938.341860067716
 31
0.0
  0
LINE
  5
10054
330
2
100
AcDbEntity
  8
L-ZISSEN
100
AcDbLine
 10
-295.6635348675524
 20
-3939.212749686893
 30
0.0
 11
-282.5385348675547
 21
-3937.337749686893
 31
0.0
  0
LINE
  5
100F9
330
2
100
AcDbEntity
  8
L-ZISSEN
100
AcDbLine
 10
-326.6635348675524
 20
-3829.462749686894
 30
0.0
 11
-348.6635348675524
 21
-3829.462749686894
 31
0.0
  0
LINE
  5
100FA
330
2
100
AcDbEntity
  8
L-ZISSEN
100
AcDbLine
 10
-314.1635348675524
 20
-3867.462749686894
 30
0.0
 11
-361.1635348675524
 21
-3867.462749686894
 31
0.0
  0
LINE
  5
100FB
330
2
100
AcDbEntity
  8
L-ZISSEN
100
AcDbLine
 10
-361.1635348675524
 20
-3891.369646805459
 30
0.0
 11
-314.1635348675524
 21
-3891.369646805459
 31
0.0
  0
LINE
  5
100FC
330
2
100
AcDbEntity
  8
L-ZISSEN
100
AcDbLine
 10
-327.1635348675526
 20
-3866.01471408583
 30
0.0
 11
-325.6418830346601
 21
-3862.971410420049
 31
0.0
  0
LINE
  5
100FD
330
2
100
AcDbEntity
  8
L-ZISSEN
100
AcDbLine
 10
-327.1635348675522
 20
-3891.369646805459
 30
0.0
 11
-295.6450358214626
 21
-3891.369646805459
 31
0.0
  0
ARC
  5
100FE
330
2
100
AcDbEntity
  8
L-ZISSEN
100
AcDbCircle
 10
-337.6635348675524
 20
-3841.462749686894
 30
0.0
 40
4.5
100
AcDbArc
 50
180.0
 51
269.9999999999996
  0
ARC
  5
100FF
330
2
100
AcDbEntity
  8
L-ZISSEN
100
AcDbCircle
 10
-337.6635348675524
 20
-3841.462749686894
 30
0.0
 40
4.499999999999971
100
AcDbArc
 50
269.9999999999996
 51
0.0
  0
LINE
  5
10100
330
2
100
AcDbEntity
  8
L-ZISSEN
100
AcDbLine
 10
-348.6635348675524
 20
-3829.462749686894
 30
0.0
 11
-348.6635348675524
 21
-3843.462749686893
 31
0.0
  0
LINE
  5
1010A
330
2
100
AcDbEntity
  8
L-ZISSEN
100
AcDbLine
 10
-361.1635348675524
 20
-3867.462749686894
 30
0.0
 11
-361.1635348675524
 21
-3891.369646805459
 31
0.0
  0
LINE
  5
1011A
330
2
100
AcDbEntity
  8
L-TYUSIN
100
AcDbLine
 10
-328.1635348675524
 20
-3919.462749686895
 30
0.0
 11
-347.1635348675524
 21
-3919.462749686895
 31
0.0
  0
LINE
  5
1011B
330
2
100
AcDbEntity
  8
L-ZISSEN
100
AcDbLine
 10
-344.6635348675525
 20
-3867.462749686894
 30
0.0
 11
-344.6635348675524
 21
-3860.962749686892
 31
0.0
  0
LINE
  5
1011C
330
2
100
AcDbEntity
  8
L-ZISSEN
100
AcDbLine
 10
-330.6635348675523
 20
-3867.462749686894
 30
0.0
 11
-330.6635348675524
 21
-3860.662749686894
 31
0.0
  0
LINE
  5
1011F
330
2
100
AcDbEntity
  8
L-ZISSEN
100
AcDbLine
 10
-337.6635348675524
 20
-3845.962749686894
 30
0.0
 11
-337.6635348675524
 21
-3845.962749686894
 31
0.0
  0
LINE
  5
10120
330
2
100
AcDbEntity
  8
L-ZISSEN
100
AcDbLine
 10
-342.1635348675524
 20
-3917.462749686894
 30
0.0
 11
-342.1635348675524
 21
-3921.462749686894
 31
0.0
  0
ARC
  5
10121
330
2
100
AcDbEntity
  8
L-ZISSEN
100
AcDbCircle
 10
-337.6635348675524
 20
-3917.462749686894
 30
0.0
 40
4.5
100
AcDbArc
 50
90.00000000000035
 51
180.0
  0
LINE
  5
10122
330
2
100
AcDbEntity
  8
SUNPOU
100
AcDbLine
 10
-337.6635348675524
 20
-3912.962749686894
 30
0.0
 11
-337.6635348675524
 21
-3912.962749686894
 31
0.0
  0
ARC
  5
10123
330
2
100
AcDbEntity
  8
L-ZISSEN
100
AcDbCircle
 10
-337.6635348675524
 20
-3917.462749686894
 30
0.0
 40
4.499999999999971
100
AcDbArc
 50
0.0
 51
90.00000000000035
  0
LINE
  5
10124
330
2
100
AcDbEntity
  8
L-ZISSEN
100
AcDbLine
 10
-333.1635348675524
 20
-3921.462749686894
 30
0.0
 11
-333.1635348675524
 21
-3917.462749686894
 31
0.0
  0
LINE
  5
10125
330
2
100
AcDbEntity
  8
L-ZISSEN
100
AcDbLine
 10
-330.6635348675522
 20
-3912.962749686894
 30
0.0
 11
-330.6635348675522
 21
-3899.962749686893
 31
0.0
  0
LINE
  5
10126
330
2
100
AcDbEntity
  8
L-ZISSEN
100
AcDbLine
 10
-327.1635348675526
 20
-3865.962749686893
 30
0.0
 11
-327.1635348675526
 21
-3867.462749686894
 31
0.0
  0
LINE
  5
10127
330
2
100
AcDbEntity
  8
L-ZISSEN
100
AcDbLine
 10
-330.663534867552
 20
-3899.962749686893
 30
0.0
 11
-328.1635348675522
 21
-3899.962749686893
 31
0.0
  0
LINE
  5
10128
330
2
100
AcDbEntity
  8
L-ZISSEN
100
AcDbLine
 10
-328.1635348675522
 20
-3896.662749686894
 30
0.0
 11
-328.1635348675522
 21
-3899.962749686894
 31
0.0
  0
LINE
  5
10129
330
2
100
AcDbEntity
  8
L-ZISSEN
100
AcDbLine
 10
-330.6635348675524
 20
-3865.962749686893
 30
0.0
 11
-327.1635348675526
 21
-3865.962749686893
 31
0.0
  0
LINE
  5
1012A
330
2
100
AcDbEntity
  8
L-ZISSEN
100
AcDbLine
 10
-330.6635348675522
 20
-3896.662749686893
 30
0.0
 11
-330.6635348675522
 21
-3891.369646805458
 31
0.0
  0
LINE
  5
1012B
330
2
100
AcDbEntity
  8
L-ZISSEN
100
AcDbLine
 10
-328.1635348675523
 20
-3860.662749686894
 30
0.0
 11
-328.6635348675523
 21
-3857.662749686894
 31
0.0
  0
LINE
  5
1012C
330
2
100
AcDbEntity
  8
L-ZISSEN
100
AcDbLine
 10
-328.1635348675523
 20
-3896.662749686894
 30
0.0
 11
-328.6635348675523
 21
-3899.662749686894
 31
0.0
  0
CIRCLE
  5
1012D
330
2
100
AcDbEntity
  8
L-ZISSEN
100
AcDbCircle
 10
-337.6635348675526
 20
-3879.462749686894
 30
0.0
 40
3.299999999999999
  0
CIRCLE
  5
1012E
330
2
100
AcDbEntity
  8
L-ZISSEN
100
AcDbCircle
 10
-337.6635348675526
 20
-3879.462749686894
 30
0.0
 40
3.0
  0
CIRCLE
  5
1012F
330
2
100
AcDbEntity
  8
L-ZISSEN
100
AcDbCircle
 10
-337.6635348675526
 20
-3879.462749686894
 30
0.0
 40
3.0
  0
LINE
  5
10130
330
2
100
AcDbEntity
  8
L-ZISSEN
100
AcDbLine
 10
-347.217558131001
 20
-3896.662749686894
 30
0.0
 11
-328.1635348675523
 21
-3896.662749686894
 31
0.0
  0
LINE
  5
10131
330
2
100
AcDbEntity
  8
L-ZISSEN
100
AcDbLine
 10
-347.1635348675523
 20
-3860.662749686893
 30
0.0
 11
-328.1635348675523
 21
-3860.662749686894
 31
0.0
  0
LINE
  5
10132
330
2
100
AcDbEntity
  8
L-ZISSEN
100
AcDbLine
 10
-347.1635348675523
 20
-3860.662749686894
 30
0.0
 11
-346.6635348675523
 21
-3857.662749686894
 31
0.0
  0
LINE
  5
10133
330
2
100
AcDbEntity
  8
L-ZISSEN
100
AcDbLine
 10
-347.1635348675523
 20
-3896.662749686894
 30
0.0
 11
-346.6635348675523
 21
-3899.662749686894
 31
0.0
  0
LINE
  5
10134
330
2
100
AcDbEntity
  8
L-ZISSEN
100
AcDbLine
 10
-328.6635348675523
 20
-3899.662749686894
 30
0.0
 11
-346.6635348675523
 21
-3899.662749686894
 31
0.0
  0
CIRCLE
  5
10135
330
2
100
AcDbEntity
  8
L-ZISSEN
100
AcDbCircle
 10
-337.6635348675526
 20
-3879.462749686894
 30
0.0
 40
6.5
  0
LINE
  5
10136
330
2
100
AcDbEntity
  8
L-ZISSEN
100
AcDbLine
 10
-328.6635348675523
 20
-3857.662749686894
 30
0.0
 11
-346.6635348675523
 21
-3857.662749686894
 31
0.0
  0
LINE
  5
10146
330
2
100
AcDbEntity
  8
L-TYUSIN
100
AcDbLine
 10
-328.1635348675524
 20
-3839.462749686895
 30
0.0
 11
-347.1635348675524
 21
-3839.462749686895
 31
0.0
  0
ARC
  5
10147
330
2
100
AcDbEntity
  8
L-ZISSEN
100
AcDbCircle
 10
-337.6635348675524
 20
-3837.462749686894
 30
0.0
 40
4.5
100
AcDbArc
 50
0.0
 51
90.0
  0
LINE
  5
10148
330
2
100
AcDbEntity
  8
L-ZISSEN
100
AcDbLine
 10
-337.6635348675524
 20
-3832.962749686894
 30
0.0
 11
-337.6635348675524
 21
-3832.962749686894
 31
0.0
  0
ARC
  5
10149
330
2
100
AcDbEntity
  8
L-ZISSEN
100
AcDbCircle
 10
-337.6635348675524
 20
-3837.462749686894
 30
0.0
 40
4.5
100
AcDbArc
 50
90.0
 51
180.0
  0
LINE
  5
1014A
330
2
100
AcDbEntity
  8
L-ZISSEN
100
AcDbLine
 10
-342.1635348675524
 20
-3841.462749686894
 30
0.0
 11
-342.1635348675524
 21
-3837.462749686894
 31
0.0
  0
LINE
  5
1014B
330
2
100
AcDbEntity
  8
L-ZISSEN
100
AcDbLine
 10
-333.1635348675524
 20
-3837.462749686894
 30
0.0
 11
-333.1635348675524
 21
-3841.462749686894
 31
0.0
  0
LINE
  5
1014C
330
2
100
AcDbEntity
  8
L-ZISSEN
100
AcDbLine
 10
-326.6635348675524
 20
-3860.962749686892
 30
0.0
 11
-326.6635348675524
 21
-3829.462749686894
 31
0.0
  0
LINE
  5
1014D
330
2
100
AcDbEntity
  8
L-ZISSEN
100
AcDbLine
 10
-294.4135348675522
 20
-3852.462749686893
 30
0.0
 11
-294.4135348675522
 21
-3837.462749686893
 31
0.0
  0
LINE
  5
1014E
330
2
100
AcDbEntity
  8
L-ZISSEN
100
AcDbLine
 10
-308.4135348675522
 20
-3852.462749686893
 30
0.0
 11
-308.4135348675522
 21
-3837.462749686893
 31
0.0
  0
LINE
  5
1014F
330
2
100
AcDbEntity
  8
L-ZISSEN
100
AcDbLine
 10
-303.7885348675524
 20
-3921.712749686893
 30
0.0
 11
-306.9135348675524
 21
-3919.837749686893
 31
0.0
  0
LINE
  5
10150
330
2
100
AcDbEntity
  8
L-ZISSEN
100
AcDbLine
 10
-303.7885348675524
 20
-3917.962749686893
 30
0.0
 11
-306.9135348675524
 21
-3919.837749686893
 31
0.0
  0
LINE
  5
10151
330
2
100
AcDbEntity
  8
L-ZISSEN
100
AcDbLine
 10
-296.1635348675518
 20
-3855.962749686893
 30
0.0
 11
-311.4135348675522
 21
-3855.962749686892
 31
0.0
  0
LINE
  5
10152
330
2
100
AcDbEntity
  8
L-ZISSEN
100
AcDbLine
 10
-296.1635348675518
 20
-3855.962749686892
 30
0.0
 11
-311.6635348675522
 21
-3855.962749686893
 31
0.0
  0
LINE
  5
10153
330
2
100
AcDbEntity
  8
L-ZISSEN
100
AcDbLine
 10
-298.8428629641221
 20
-3866.962749686893
 30
0.0
 11
-316.3238708192673
 21
-3866.962749686893
 31
0.0
  0
LINE
  5
10154
330
2
100
AcDbEntity
  8
L-ZISSEN
100
AcDbLine
 10
-325.6418830346601
 20
-3862.971410420049
 30
0.0
 11
-302.057435572444
 21
-3862.971410420048
 31
0.0
  0
LINE
  5
10155
330
2
100
AcDbEntity
  8
L-ZISSEN
100
AcDbLine
 10
-291.4135348675522
 20
-3852.462749686893
 30
0.0
 11
-311.4135348675522
 21
-3852.462749686893
 31
0.0
  0
LINE
  5
10156
330
2
100
AcDbEntity
  8
L-ZISSEN
100
AcDbLine
 10
-314.1635348675524
 20
-3891.369646805459
 30
0.0
 11
-314.1635348675524
 21
-3867.462749686894
 31
0.0
  0
LINE
  5
10157
330
2
100
AcDbEntity
  8
L-ZISSEN
100
AcDbLine
 10
-306.6096872902587
 20
-3852.462749686893
 30
0.0
 11
-306.6096872902587
 21
-3855.962749686892
 31
0.0
  0
LINE
  5
10158
330
2
100
AcDbEntity
  8
L-ZISSEN
100
AcDbLine
 10
-311.4135348675522
 20
-3855.962749686892
 30
0.0
 11
-311.4135348675522
 21
-3852.462749686893
 31
0.0
  0
LINE
  5
10159
330
2
100
AcDbEntity
  8
L-ZISSEN
100
AcDbLine
 10
-311.6635348675522
 20
-3855.962749686892
 30
0.0
 11
-311.6635348675522
 21
-3860.962749686892
 31
0.0
  0
LINE
  5
1015A
330
2
100
AcDbEntity
  8
L-ZISSEN
100
AcDbLine
 10
-313.663534867552
 20
-3866.962749686893
 30
0.0
 11
-313.663534867552
 21
-3891.369646805459
 31
0.0
  0
LINE
  5
1015B
330
2
100
AcDbEntity
  8
L-ZISSEN
100
AcDbLine
 10
-316.3238708192673
 20
-3866.962749686893
 30
0.0
 11
-316.3238708192673
 21
-3867.462749686894
 31
0.0
  0
LINE
  5
1015C
330
2
100
AcDbEntity
  8
L-ZISSEN
100
AcDbLine
 10
-323.2641209023656
 20
-3912.962749686894
 30
0.0
 11
-323.2641209023656
 21
-3891.369646805459
 31
0.0
  0
LINE
  5
1015D
330
2
100
AcDbEntity
  8
L-ZISSEN
100
AcDbLine
 10
-326.5435348675523
 20
-3912.962749686894
 30
0.0
 11
-326.5435348675523
 21
-3891.369646805459
 31
0.0
  0
LINE
  5
1015E
330
2
100
AcDbEntity
  8
L-ZISSEN
100
AcDbLine
 10
-325.6418830346601
 20
-3862.971410420049
 30
0.0
 11
-325.6418830346601
 21
-3867.462749686894
 31
0.0
  0
LINE
  5
1015F
330
2
100
AcDbEntity
  8
L-ZISSEN
100
AcDbLine
 10
-283.1635348675518
 20
-3849.962749686892
 30
0.0
 11
-284.8955856751203
 21
-3846.962749686892
 31
0.0
  0
LINE
  5
10160
330
2
100
AcDbEntity
  8
L-ZISSEN
100
AcDbLine
 10
-283.163534867552
 20
-3849.962749686893
 30
0.0
 11
-283.1635348675518
 21
-3853.462749686892
 31
0.0
  0
LINE
  5
10161
330
2
100
AcDbEntity
  8
L-ZISSEN
100
AcDbLine
 10
-287.5385348675525
 20
-3917.962749686892
 30
0.0
 11
-284.4135348675525
 21
-3919.837749686893
 31
0.0
  0
LINE
  5
10162
330
2
100
AcDbEntity
  8
L-ZISSEN
100
AcDbLine
 10
-287.5385348675525
 20
-3921.712749686892
 30
0.0
 11
-284.4135348675525
 21
-3919.837749686893
 31
0.0
  0
LINE
  5
10163
330
2
100
AcDbEntity
  8
L-ZISSEN
100
AcDbLine
 10
-287.5385348675525
 20
-3920.462749686892
 30
0.0
 11
-287.5385348675525
 21
-3921.712749686892
 31
0.0
  0
LINE
  5
10164
330
2
100
AcDbEntity
  8
L-ZISSEN
100
AcDbLine
 10
-287.5385348675525
 20
-3919.212749686892
 30
0.0
 11
-287.5385348675525
 21
-3917.962749686892
 31
0.0
  0
LINE
  5
10165
330
2
100
AcDbEntity
  8
L-ZISSEN
100
AcDbLine
 10
-296.2173824448455
 20
-3852.462749686893
 30
0.0
 11
-296.2173824448455
 21
-3855.962749686892
 31
0.0
  0
LINE
  5
10166
330
2
100
AcDbEntity
  8
L-ZISSEN
100
AcDbLine
 10
-296.1635348675518
 20
-3853.462749686892
 30
0.0
 11
-296.163534867552
 21
-3860.962749686893
 31
0.0
  0
LINE
  5
10167
330
2
100
AcDbEntity
  8
L-ZISSEN
100
AcDbLine
 10
-293.1635348675517
 20
-3849.962749686892
 30
0.0
 11
-291.4314840599832
 21
-3846.962749686892
 31
0.0
  0
LINE
  5
10168
330
2
100
AcDbEntity
  8
L-ZISSEN
100
AcDbLine
 10
-293.1635348675517
 20
-3852.462749686893
 30
0.0
 11
-293.1635348675517
 21
-3849.962749686892
 31
0.0
  0
LINE
  5
10169
330
2
100
AcDbEntity
  8
L-ZISSEN
100
AcDbLine
 10
-291.4135348675522
 20
-3853.462749686892
 30
0.0
 11
-291.4135348675522
 21
-3852.462749686893
 31
0.0
  0
LINE
  5
1016A
330
2
100
AcDbEntity
  8
L-ZISSEN
100
AcDbLine
 10
-301.4135348675522
 20
-3852.462749686893
 30
0.0
 11
-294.4135348675522
 21
-3852.462749686893
 31
0.0
  0
LINE
  5
1016B
330
2
100
AcDbEntity
  8
L-ZISSEN
100
AcDbLine
 10
-292.5385348675524
 20
-3919.212749686892
 30
0.0
 11
-292.5385348675524
 21
-3920.462749686892
 31
0.0
  0
LINE
  5
1016C
330
2
100
AcDbEntity
  8
L-ZISSEN
100
AcDbLine
 10
-298.7885348675524
 20
-3919.212749686893
 30
0.0
 11
-298.7885348675524
 21
-3920.462749686894
 31
0.0
  0
LINE
  5
1016D
330
2
100
AcDbEntity
  8
L-ZISSEN
100
AcDbLine
 10
-294.4135348675501
 20
-3916.712749686892
 30
0.0
 11
-296.9135348675501
 21
-3916.712749686892
 31
0.0
  0
LINE
  5
1016E
330
2
100
AcDbEntity
  8
L-ZISSEN
100
AcDbLine
 10
-298.8428629641219
 20
-3860.962749686892
 30
0.0
 11
-298.8428629641219
 21
-3866.962749686893
 31
0.0
  0
LINE
  5
1016F
330
2
100
AcDbEntity
  8
L-ZISSEN
100
AcDbLine
 10
-302.057435572444
 20
-3860.962749686892
 30
0.0
 11
-302.057435572444
 21
-3866.962749686893
 31
0.0
  0
LINE
  5
10170
330
2
100
AcDbEntity
  8
L-ZISSEN
100
AcDbLine
 10
-292.5385348675524
 20
-3920.462749686892
 30
0.0
 11
-287.5385348675525
 21
-3920.462749686892
 31
0.0
  0
LINE
  5
10171
330
2
100
AcDbEntity
  8
L-ZISSEN
100
AcDbLine
 10
-292.5385348675524
 20
-3920.462749686892
 30
0.0
 11
-287.5385348675525
 21
-3920.462749686892
 31
0.0
  0
LINE
  5
10172
330
2
100
AcDbEntity
  8
L-ZISSEN
100
AcDbLine
 10
-292.5385348675524
 20
-3919.212749686892
 30
0.0
 11
-287.5385348675525
 21
-3919.212749686892
 31
0.0
  0
LINE
  5
10173
330
2
100
AcDbEntity
  8
L-ZISSEN
100
AcDbLine
 10
-292.5385348675524
 20
-3919.212749686892
 30
0.0
 11
-287.5385348675525
 21
-3919.212749686892
 31
0.0
  0
LINE
  5
10174
330
2
100
AcDbEntity
  8
L-ZISSEN
100
AcDbLine
 10
-291.4314840599829
 20
-3846.962749686892
 30
0.0
 11
-284.8955856751208
 21
-3846.962749686892
 31
0.0
  0
LINE
  5
10175
330
2
100
AcDbEntity
  8
L-ZISSEN
100
AcDbLine
 10
-303.7885348675524
 20
-3920.462749686894
 30
0.0
 11
-303.7885348675524
 21
-3921.712749686893
 31
0.0
  0
LINE
  5
10176
330
2
100
AcDbEntity
  8
L-ZISSEN
100
AcDbLine
 10
-303.7885348675524
 20
-3919.212749686893
 30
0.0
 11
-303.7885348675524
 21
-3917.962749686893
 31
0.0
  0
LINE
  5
10177
330
2
100
AcDbEntity
  8
L-ZISSEN
100
AcDbLine
 10
-298.7885348675524
 20
-3920.462749686894
 30
0.0
 11
-303.7885348675524
 21
-3920.462749686894
 31
0.0
  0
LINE
  5
10178
330
2
100
AcDbEntity
  8
L-ZISSEN
100
AcDbLine
 10
-298.7885348675524
 20
-3920.462749686894
 30
0.0
 11
-303.7885348675524
 21
-3920.462749686894
 31
0.0
  0
LINE
  5
10179
330
2
100
AcDbEntity
  8
L-ZISSEN
100
AcDbLine
 10
-298.7885348675524
 20
-3919.212749686893
 30
0.0
 11
-303.7885348675524
 21
-3919.212749686893
 31
0.0
  0
LINE
  5
1017A
330
2
100
AcDbEntity
  8
L-ZISSEN
100
AcDbLine
 10
-298.7885348675524
 20
-3919.212749686893
 30
0.0
 11
-303.7885348675524
 21
-3919.212749686893
 31
0.0
  0
LINE
  5
1017B
330
2
100
AcDbEntity
  8
L-ZISSEN
100
AcDbLine
 10
-294.4135348675522
 20
-3837.462749686893
 30
0.0
 11
-308.4135348675522
 21
-3837.462749686893
 31
0.0
  0
LINE
  5
1017C
330
2
100
AcDbEntity
  8
L-ZISSEN
100
AcDbLine
 10
-265.6635348675547
 20
-3999.366433730882
 30
0.0
 11
-265.6635348675524
 21
-3912.962749686892
 31
0.0
  0
ARC
  5
1017D
330
2
100
AcDbEntity
  8
L-ZISSEN
100
AcDbCircle
 10
-273.6635348675529
 20
-3999.366433730882
 30
0.0
 40
8.000000000000113
100
AcDbArc
 50
283.9062370652484
 51
0.0
  0
LINE
  5
1017E
330
2
100
AcDbEntity
  8
L-ZISSEN
100
AcDbLine
 10
-270.3835348675522
 20
-3923.301488598525
 30
0.0
 11
-278.813534867553
 21
-3923.301488598525
 31
0.0
  0
LINE
  5
1017F
330
2
100
AcDbEntity
  8
L-ZISSEN
100
AcDbLine
 10
-274.5985348675515
 20
-3993.301488598524
 30
0.0
 11
-270.3835348675522
 21
-3991.301488598524
 31
0.0
  0
LINE
  5
10180
330
2
100
AcDbEntity
  8
L-ZISSEN
100
AcDbLine
 10
-278.813534867553
 20
-3991.301488598525
 30
0.0
 11
-274.5985348675515
 21
-3993.301488598524
 31
0.0
  0
LINE
  5
10181
330
2
100
AcDbEntity
  8
L-ZISSEN
100
AcDbLine
 10
-278.813534867553
 20
-3923.301488598525
 30
0.0
 11
-278.813534867553
 21
-3991.301488598525
 31
0.0
  0
LINE
  5
10182
330
2
100
AcDbEntity
  8
L-ZISSEN
100
AcDbLine
 10
-270.3835348675522
 20
-3923.301488598525
 30
0.0
 11
-270.3835348675522
 21
-3991.301488598524
 31
0.0
  0
LINE
  5
10183
330
2
100
AcDbEntity
  8
L-ZISSEN
100
AcDbLine
 10
-260.6635348675526
 20
-3912.962749686894
 30
0.0
 11
-260.6635348675526
 21
-3899.962749686893
 31
0.0
  0
LINE
  5
10184
330
2
100
AcDbEntity
  8
L-ZISSEN
100
AcDbLine
 10
-260.6635348675526
 20
-3896.662749686893
 30
0.0
 11
-260.6635348675524
 21
-3860.962749686892
 31
0.0
  0
LINE
  5
10185
330
2
100
AcDbEntity
  8
L-ZISSEN
100
AcDbLine
 10
-265.6851867004447
 20
-3862.971410420049
 30
0.0
 11
-274.4489622592297
 21
-3862.971410420048
 31
0.0
  0
LINE
  5
10186
330
2
100
AcDbEntity
  8
L-ZISSEN
100
AcDbLine
 10
-268.0629488327392
 20
-3912.962749686894
 30
0.0
 11
-268.0629488327392
 21
-3891.369646805459
 31
0.0
  0
LINE
  5
10187
330
2
100
AcDbEntity
  8
L-ZISSEN
100
AcDbLine
 10
-264.7835348675525
 20
-3912.962749686894
 30
0.0
 11
-264.7835348675525
 21
-3891.369646805459
 31
0.0
  0
LINE
  5
10188
330
2
100
AcDbEntity
  8
L-ZISSEN
100
AcDbLine
 10
-264.1635348675522
 20
-3865.962749686893
 30
0.0
 11
-264.1635348675524
 21
-3891.369646805459
 31
0.0
  0
LINE
  5
10189
330
2
100
AcDbEntity
  8
L-ZISSEN
100
AcDbLine
 10
-263.1635348675526
 20
-3896.662749686894
 30
0.0
 11
-263.1635348675526
 21
-3899.962749686894
 31
0.0
  0
LINE
  5
1018A
330
2
100
AcDbEntity
  8
L-ZISSEN
100
AcDbLine
 10
-265.6851867004447
 20
-3862.971410420049
 30
0.0
 11
-265.6851867004447
 21
-3891.369646805459
 31
0.0
  0
LINE
  5
1018B
330
2
100
AcDbEntity
  8
L-ZISSEN
100
AcDbLine
 10
-274.4489622592297
 20
-3891.369646805459
 30
0.0
 11
-274.4489622592297
 21
-3860.962749686892
 31
0.0
  0
LINE
  5
1018C
330
2
100
AcDbEntity
  8
L-ZISSEN
100
AcDbLine
 10
-264.1635348675522
 20
-3866.01471408583
 30
0.0
 11
-265.6851867004447
 21
-3862.971410420049
 31
0.0
  0
LINE
  5
1018D
330
2
100
AcDbEntity
  8
L-ZISSEN
100
AcDbLine
 10
-260.6635348675524
 20
-3865.962749686893
 30
0.0
 11
-264.1635348675522
 21
-3865.962749686893
 31
0.0
  0
LINE
  5
1018E
330
2
100
AcDbEntity
  8
L-ZISSEN
100
AcDbLine
 10
-260.6635348675529
 20
-3899.962749686893
 30
0.0
 11
-263.1635348675526
 21
-3899.962749686893
 31
0.0
  0
LINE
  5
1018F
330
2
100
AcDbEntity
  8
L-ZISSEN
100
AcDbLine
 10
-260.6635348675526
 20
-3896.662749686893
 30
0.0
 11
-263.1635348675526
 21
-3896.662749686894
 31
0.0
  0
LINE
  5
10190
330
2
100
AcDbEntity
  8
L-ZISSEN
100
AcDbLine
 10
-280.1635348675517
 20
-3853.462749686892
 30
0.0
 11
-280.163534867552
 21
-3860.962749686893
 31
0.0
  0
LINE
  5
10191
330
2
100
AcDbEntity
  8
L-ZISSEN
100
AcDbLine
 10
-277.663534867552
 20
-3860.962749686892
 30
0.0
 11
-277.663534867552
 21
-3891.369646805459
 31
0.0
  0
LINE
  5
10194
330
2
100
AcDbEntity
  8
L-ZISSEN
100
AcDbLine
 10
-344.6635348675524
 20
-3867.462749686893
 30
0.0
 11
-344.6635348675524
 21
-3861.962749686893
 31
0.0
  0
LINE
  5
10199
330
2
100
AcDbEntity
  8
L-ZISSEN
100
AcDbLine
 10
-414.6635348675524
 20
-3857.462749686892
 30
0.0
 11
-412.1095116041038
 21
-3857.462749686892
 31
0.0
  0
LINE
  5
1019A
330
2
100
AcDbEntity
  8
L-ZISSEN
100
AcDbLine
 10
-412.1095116041038
 20
-3857.462749686892
 30
0.0
 11
-412.1095116041038
 21
-3860.962749686892
 31
0.0
  0
LINE
  5
1019B
330
2
100
AcDbEntity
  8
L-ZISSEN
100
AcDbLine
 10
-414.6635348675524
 20
-3860.962749686892
 30
0.0
 11
-412.1095116041038
 21
-3860.962749686893
 31
0.0
  0
LINE
  5
1019C
330
2
100
AcDbEntity
  8
L-ZISSEN
100
AcDbLine
 10
-414.6635348675524
 20
-3900.162749686893
 30
0.0
 11
-412.1095116041038
 21
-3900.162749686893
 31
0.0
  0
LINE
  5
1019D
330
2
100
AcDbEntity
  8
L-ZISSEN
100
AcDbLine
 10
-412.1095116041038
 20
-3900.162749686894
 30
0.0
 11
-412.1095116041038
 21
-3896.662749686894
 31
0.0
  0
LINE
  5
1019E
330
2
100
AcDbEntity
  8
L-ZISSEN
100
AcDbLine
 10
-414.6635348675524
 20
-3896.662749686893
 30
0.0
 11
-412.1095116041038
 21
-3896.662749686893
 31
0.0
  0
LINE
  5
101A0
330
2
100
AcDbEntity
  8
L-ZISSEN
100
AcDbLine
 10
-622.2635348675524
 20
-3929.462749686896
 30
0.0
 11
-622.2635348675524
 21
-3829.462749686896
 31
0.0
  0
LINE
  5
101A1
330
2
100
AcDbEntity
  8
L-ZISSEN
100
AcDbLine
 10
-629.6635348675525
 20
-3829.462749686896
 30
0.0
 11
-629.6635348675525
 21
-3929.462749686896
 31
0.0
  0
LINE
  5
101A2
330
2
100
AcDbEntity
  8
L-ZISSEN
100
AcDbLine
 10
-622.2635348675524
 20
-3858.174288148436
 30
0.0
 11
-614.6635348675541
 21
-3862.55890353305
 31
0.0
  0
LINE
  5
101A3
330
2
100
AcDbEntity
  8
L-TYUSIN
100
AcDbLine
 10
-617.2635348675523
 20
-3839.462749686897
 30
0.0
 11
-634.6635348675524
 21
-3839.462749686896
 31
0.0
  0
LINE
  5
101A4
330
2
100
AcDbEntity
  8
L-ZISSEN
100
AcDbLine
 10
-622.2635348675524
 20
-3829.462749686896
 30
0.0
 11
-629.6635348675525
 21
-3829.462749686896
 31
0.0
  0
LINE
  5
101A5
330
2
100
AcDbEntity
  8
L-ZISSEN
100
AcDbLine
 10
-629.6635348675525
 20
-3929.462749686896
 30
0.0
 11
-622.2635348675524
 21
-3929.462749686896
 31
0.0
  0
LINE
  5
101A6
330
2
100
AcDbEntity
  8
L-TYUSIN
100
AcDbLine
 10
-617.2635348675523
 20
-3919.462749686896
 30
0.0
 11
-634.6635348675524
 21
-3919.462749686897
 31
0.0
  0
LINE
  5
101A7
330
2
100
AcDbEntity
  8
L-ZISSEN
100
AcDbLine
 10
-622.2635348675524
 20
-3900.751211225358
 30
0.0
 11
-614.6635348675524
 21
-3896.366595840743
 31
0.0
  0
LINE
  5
101B8
330
2
100
AcDbEntity
  8
L-ZISSEN
100
AcDbLine
 10
-322.6635348675562
 20
-3660.321789547831
 30
0.0
 11
-268.6635348675548
 21
-3660.321789547831
 31
0.0
  0
LINE
  5
101B9
330
2
100
AcDbEntity
  8
L-ZISSEN
100
AcDbLine
 10
-313.6635348675544
 20
-3652.321789547831
 30
0.0
 11
-277.6635348675553
 21
-3652.321789547831
 31
0.0
  0
CIRCLE
  5
101BA
330
2
100
AcDbEntity
  8
L-ZISSEN
100
AcDbCircle
 10
-288.1635348675546
 20
-3642.321789547831
 30
0.0
 40
8.0
  0
LINE
  5
101BB
330
2
100
AcDbEntity
  8
L-TYUSIN
100
AcDbLine
 10
-419.6635348675549
 20
-3625.321789547831
 30
0.0
 11
-254.4174898822847
 21
-3625.321789547831
 31
0.0
  0
LINE
  5
101BC
330
2
100
AcDbEntity
  8
L-ZISSEN
100
AcDbLine
 10
-313.6635348675544
 20
-3598.321789547831
 30
0.0
 11
-277.6635348675553
 21
-3598.321789547831
 31
0.0
  0
LINE
  5
101BD
330
2
100
AcDbEntity
  8
L-ZISSEN
100
AcDbLine
 10
-322.6635348675562
 20
-3590.321789547831
 30
0.0
 11
-268.6635348675548
 21
-3590.321789547831
 31
0.0
  0
LINE
  5
10227
330
2
100
AcDbEntity
  8
L-ZISSEN
100
AcDbLine
 10
-331.6635348675548
 20
-3643.821789547831
 30
0.0
 11
-326.8955856751242
 21
-3643.821789547831
 31
0.0
  0
LINE
  5
10228
330
2
100
AcDbEntity
  8
L-ZISSEN
100
AcDbLine
 10
-331.6635348675548
 20
-3606.821789547831
 30
0.0
 11
-326.8955856751242
 21
-3606.821789547831
 31
0.0
  0
LINE
  5
10229
330
2
100
AcDbEntity
  8
L-ZISSEN
100
AcDbLine
 10
-350.04793950002
 20
-3598.821789547831
 30
0.0
 11
-315.1635348675548
 21
-3598.821789547831
 31
0.0
  0
LINE
  5
1022A
330
2
100
AcDbEntity
  8
L-ZISSEN
100
AcDbLine
 10
-326.6635348675548
 20
-3582.721789547831
 30
0.0
 11
-348.6635348675548
 21
-3582.721789547831
 31
0.0
  0
LINE
  5
1022B
330
2
100
AcDbEntity
  8
L-ZISSEN
100
AcDbLine
 10
-326.6635348675548
 20
-3575.32178954783
 30
0.0
 11
-348.6635348675548
 21
-3575.32178954783
 31
0.0
  0
LINE
  5
1022C
330
2
100
AcDbEntity
  8
L-ZISSEN
100
AcDbLine
 10
-314.1807570779991
 20
-3651.821789547831
 30
0.0
 11
-350.0479395000198
 21
-3651.821789547831
 31
0.0
  0
LINE
  5
1022D
330
2
100
AcDbEntity
  8
L-ZISSEN
100
AcDbLine
 10
-302.0574355724464
 20
-3637.821789547832
 30
0.0
 11
-330.6635348675548
 21
-3637.821789547832
 31
0.0
  0
LINE
  5
1022E
330
2
100
AcDbEntity
  8
L-ZISSEN
100
AcDbLine
 10
-327.1635348675548
 20
-3642.821789547831
 30
0.0
 11
-325.7201591945808
 21
-3640.321789547831
 31
0.0
  0
LINE
  5
1022F
330
2
100
AcDbEntity
  8
L-ZISSEN
100
AcDbLine
 10
-330.6635348675548
 20
-3642.821789547831
 30
0.0
 11
-326.5431914638073
 21
-3642.82178954783
 31
0.0
  0
LINE
  5
10230
330
2
100
AcDbEntity
  8
L-ZISSEN
100
AcDbLine
 10
-302.0574355724469
 20
-3612.82178954783
 30
0.0
 11
-330.6635348675548
 21
-3612.82178954783
 31
0.0
  0
LINE
  5
10231
330
2
100
AcDbEntity
  8
L-ZISSEN
100
AcDbLine
 10
-327.1635348675548
 20
-3607.821789547831
 30
0.0
 11
-325.7201591945808
 21
-3610.321789547831
 31
0.0
  0
LINE
  5
10232
330
2
100
AcDbEntity
  8
L-ZISSEN
100
AcDbLine
 10
-330.6635348675548
 20
-3607.821789547831
 30
0.0
 11
-326.5431914638073
 21
-3607.821789547831
 31
0.0
  0
LINE
  5
10233
330
2
100
AcDbEntity
  8
L-TYUSIN
100
AcDbLine
 10
-337.6635348675548
 20
-3570.321789547831
 30
0.0
 11
-337.6635348675548
 21
-3656.821789547831
 31
0.0
  0
LINE
  5
10234
330
2
100
AcDbEntity
  8
L-ZISSEN
100
AcDbLine
 10
-328.1635348675548
 20
-3613.321789547831
 30
0.0
 11
-328.1635348675548
 21
-3637.321789547831
 31
0.0
  0
LINE
  5
10242
330
2
100
AcDbEntity
  8
L-ZISSEN
100
AcDbLine
 10
-331.6635348675548
 20
-3643.821789547831
 30
0.0
 11
-331.6635348675548
 21
-3642.82178954783
 31
0.0
  0
LINE
  5
10243
330
2
100
AcDbEntity
  8
L-ZISSEN
100
AcDbLine
 10
-330.6635348675548
 20
-3637.321789547831
 30
0.0
 11
-330.6635348675548
 21
-3642.821789547831
 31
0.0
  0
LINE
  5
10244
330
2
100
AcDbEntity
  8
L-ZISSEN
100
AcDbLine
 10
-343.6635348675548
 20
-3643.821789547831
 30
0.0
 11
-343.6635348675548
 21
-3642.82178954783
 31
0.0
  0
LINE
  5
10246
330
2
100
AcDbEntity
  8
L-ZISSEN
100
AcDbLine
 10
-343.6635348675548
 20
-3643.821789547831
 30
0.0
 11
-348.2743821988764
 21
-3643.821789547831
 31
0.0
  0
LINE
  5
10247
330
2
100
AcDbEntity
  8
L-ZISSEN
100
AcDbLine
 10
-328.1635348675548
 20
-3637.321789547831
 30
0.0
 11
-344.6635348675549
 21
-3637.321789547831
 31
0.0
  0
LINE
  5
10248
330
2
100
AcDbEntity
  8
L-ZISSEN
100
AcDbLine
 10
-330.6635348675548
 20
-3642.821789547831
 30
0.0
 11
-344.6635348675548
 21
-3642.821789547831
 31
0.0
  0
LINE
  5
1024A
330
2
100
AcDbEntity
  8
L-ZISSEN
100
AcDbLine
 10
-330.6635348675548
 20
-3642.821789547831
 30
0.0
 11
-327.7635348675552
 21
-3642.821789547831
 31
0.0
  0
LINE
  5
10255
330
2
100
AcDbEntity
  8
L-ZISSEN
100
AcDbLine
 10
-330.6635348675548
 20
-3607.821789547831
 30
0.0
 11
-330.6635348675548
 21
-3613.321789547831
 31
0.0
  0
LINE
  5
10256
330
2
100
AcDbEntity
  8
L-ZISSEN
100
AcDbLine
 10
-331.6635348675548
 20
-3607.821789547831
 30
0.0
 11
-331.6635348675548
 21
-3606.821789547831
 31
0.0
  0
LINE
  5
10258
330
2
100
AcDbEntity
  8
L-ZISSEN
100
AcDbLine
 10
-343.6635348675548
 20
-3607.821789547831
 30
0.0
 11
-343.6635348675548
 21
-3606.821789547831
 31
0.0
  0
LINE
  5
10259
330
2
100
AcDbEntity
  8
L-ZISSEN
100
AcDbLine
 10
-343.6635348675548
 20
-3606.821789547831
 30
0.0
 11
-348.2743821988764
 21
-3606.821789547831
 31
0.0
  0
LINE
  5
1025A
330
2
100
AcDbEntity
  8
L-ZISSEN
100
AcDbLine
 10
-348.6635348675548
 20
-3575.32178954783
 30
0.0
 11
-348.6635348675548
 21
-3598.821789547831
 31
0.0
  0
LINE
  5
1025B
330
2
100
AcDbEntity
  8
L-ZISSEN
100
AcDbLine
 10
-344.6635348675548
 20
-3607.821789547831
 30
0.0
 11
-330.6635348675548
 21
-3607.821789547831
 31
0.0
  0
LINE
  5
1025C
330
2
100
AcDbEntity
  8
L-ZISSEN
100
AcDbLine
 10
-344.6635348675549
 20
-3613.321789547831
 30
0.0
 11
-328.1635348675548
 21
-3613.321789547831
 31
0.0
  0
LINE
  5
1025E
330
2
100
AcDbEntity
  8
L-ZISSEN
100
AcDbLine
 10
-330.6635348675548
 20
-3607.821789547831
 30
0.0
 11
-327.7635348675552
 21
-3607.821789547831
 31
0.0
  0
LINE
  5
10260
330
2
100
AcDbEntity
  8
L-TYUSIN
100
AcDbLine
 10
-295.6635348675555
 20
-3585.321789547831
 30
0.0
 11
-295.6635348675555
 21
-3665.321789547831
 31
0.0
  0
CIRCLE
  5
10261
330
2
100
AcDbEntity
  8
L-ZISSEN
100
AcDbCircle
 10
-301.413534867555
 20
-3625.321789547831
 30
0.0
 40
10.25
  0
LINE
  5
10262
330
2
100
AcDbEntity
  8
L-ZISSEN
100
AcDbLine
 10
-301.5031989158395
 20
-3640.321789547831
 30
0.0
 11
-325.7201591945812
 21
-3640.321789547831
 31
0.0
  0
LINE
  5
10263
330
2
100
AcDbEntity
  8
L-ZISSEN
100
AcDbLine
 10
-326.8955856751238
 20
-3643.821789547831
 30
0.0
 11
-324.8748597329599
 21
-3640.321789547831
 31
0.0
  0
LINE
  5
10264
330
2
100
AcDbEntity
  8
L-ZISSEN
100
AcDbLine
 10
-316.7943934416354
 20
-3640.321789547831
 30
0.0
 11
-314.1807570779991
 21
-3651.821789547831
 31
0.0
  0
LINE
  5
10265
330
2
100
AcDbEntity
  8
L-ZISSEN
100
AcDbLine
 10
-324.5479395000209
 20
-3651.821789547831
 30
0.0
 11
-322.6635348675562
 21
-3660.321789547831
 31
0.0
  0
LINE
  5
10266
330
2
100
AcDbEntity
  8
L-ZISSEN
100
AcDbLine
 10
-316.3238708192697
 20
-3640.321789547831
 30
0.0
 11
-313.6635348675544
 21
-3652.321789547831
 31
0.0
  0
CIRCLE
  5
10267
330
2
100
AcDbEntity
  8
L-ZISSEN
100
AcDbCircle
 10
-319.163534867555
 20
-3655.32178954783
 30
0.0
 40
2.0
  0
LINE
  5
10268
330
2
100
AcDbEntity
  8
L-ZISSEN
100
AcDbLine
 10
-326.5431914638073
 20
-3642.82178954783
 30
0.0
 11
-326.4807775051263
 21
-3643.103320722
 31
0.0
  0
LINE
  5
10269
330
2
100
AcDbEntity
  8
L-ZISSEN
100
AcDbLine
 10
-302.0574355724464
 20
-3637.821789547832
 30
0.0
 11
-298.8428629641242
 21
-3652.321789547831
 31
0.0
  0
CIRCLE
  5
1026A
330
2
100
AcDbEntity
  8
L-ZISSEN
100
AcDbCircle
 10
-301.413534867555
 20
-3625.321789547831
 30
0.0
 40
7.0
  0
LINE
  5
1026B
330
2
100
AcDbEntity
  8
L-ZISSEN
100
AcDbLine
 10
-301.5031989158395
 20
-3610.321789547831
 30
0.0
 11
-325.7201591945812
 21
-3610.321789547831
 31
0.0
  0
LINE
  5
1026C
330
2
100
AcDbEntity
  8
L-ZISSEN
100
AcDbLine
 10
-314.3851559711437
 20
-3599.796922403623
 30
0.0
 11
-315.1635348675548
 21
-3598.821789547831
 31
0.0
  0
LINE
  5
1026D
330
2
100
AcDbEntity
  8
L-ZISSEN
100
AcDbLine
 10
-326.8955856751238
 20
-3606.821789547831
 30
0.0
 11
-324.8748597329599
 21
-3610.321789547831
 31
0.0
  0
LINE
  5
1026E
330
2
100
AcDbEntity
  8
L-ZISSEN
100
AcDbLine
 10
-316.7771712311912
 20
-3610.321789547831
 30
0.0
 11
-314.3851559711437
 21
-3599.796922403623
 31
0.0
  0
LINE
  5
1026F
330
2
100
AcDbEntity
  8
L-ZISSEN
100
AcDbLine
 10
-326.6635348675548
 20
-3598.82178954783
 30
0.0
 11
-326.6635348675548
 21
-3575.32178954783
 31
0.0
  0
LINE
  5
10270
330
2
100
AcDbEntity
  8
L-ZISSEN
100
AcDbLine
 10
-324.5479395000208
 20
-3598.821789547831
 30
0.0
 11
-322.6635348675562
 21
-3590.321789547831
 31
0.0
  0
CIRCLE
  5
10271
330
2
100
AcDbEntity
  8
L-ZISSEN
100
AcDbCircle
 10
-319.163534867555
 20
-3595.32178954783
 30
0.0
 40
2.0
  0
LINE
  5
10272
330
2
100
AcDbEntity
  8
L-ZISSEN
100
AcDbLine
 10
-313.6635348675544
 20
-3598.321789547831
 30
0.0
 11
-316.3795842502721
 21
-3610.321789547831
 31
0.0
  0
LINE
  5
10273
330
2
100
AcDbEntity
  8
L-ZISSEN
100
AcDbLine
 10
-326.5431914638073
 20
-3607.821789547831
 30
0.0
 11
-326.4807775051263
 21
-3607.540258373661
 31
0.0
  0
CIRCLE
  5
10274
330
2
100
AcDbEntity
  8
L-ZISSEN
100
AcDbCircle
 10
-288.1635348675546
 20
-3608.321789547829
 30
0.0
 40
3.267949192431387
  0
CIRCLE
  5
10275
330
2
100
AcDbEntity
  8
L-ZISSEN
100
AcDbCircle
 10
-288.1635348675546
 20
-3608.321789547829
 30
0.0
 40
4.999999999999317
  0
LINE
  5
10276
330
2
100
AcDbEntity
  8
L-ZISSEN
100
AcDbLine
 10
-302.0574355724464
 20
-3612.821789547829
 30
0.0
 11
-298.8428629641242
 21
-3598.32178954783
 31
0.0
  0
LINE
  5
10277
330
2
100
AcDbEntity
  8
L-ZISSEN
100
AcDbLine
 10
-260.6635348675548
 20
-3607.821789547831
 30
0.0
 11
-260.6635348675548
 21
-3642.821789547831
 31
0.0
  0
LINE
  5
10278
330
2
100
AcDbEntity
  8
L-ZISSEN
100
AcDbLine
 10
-265.6635348675548
 20
-3640.321789547831
 30
0.0
 11
-275.0031989158395
 21
-3640.321789547831
 31
0.0
  0
LINE
  5
10279
330
2
100
AcDbEntity
  8
L-ZISSEN
100
AcDbLine
 10
-260.6635348675548
 20
-3637.821789547832
 30
0.0
 11
-274.4489622592317
 21
-3637.821789547832
 31
0.0
  0
LINE
  5
1027A
330
2
100
AcDbEntity
  8
L-ZISSEN
100
AcDbLine
 10
-264.1635348675548
 20
-3642.821789547831
 30
0.0
 11
-265.6069105405289
 21
-3640.321789547831
 31
0.0
  0
LINE
  5
1027B
330
2
100
AcDbEntity
  8
L-ZISSEN
100
AcDbLine
 10
-260.6635348675548
 20
-3642.821789547831
 30
0.0
 11
-263.5635348675545
 21
-3642.821789547831
 31
0.0
  0
LINE
  5
1027C
330
2
100
AcDbEntity
  8
L-ZISSEN
100
AcDbLine
 10
-260.6635348675548
 20
-3642.821789547831
 30
0.0
 11
-264.7838782713032
 21
-3642.821789547831
 31
0.0
  0
LINE
  5
1027D
330
2
100
AcDbEntity
  8
L-ZISSEN
100
AcDbLine
 10
-274.4489622592321
 20
-3637.821789547832
 30
0.0
 11
-277.6635348675544
 21
-3652.321789547831
 31
0.0
  0
LINE
  5
1027E
330
2
100
AcDbEntity
  8
L-ZISSEN
100
AcDbLine
 10
-264.7838782713032
 20
-3642.82178954783
 30
0.0
 11
-268.6635348675543
 21
-3660.321789547831
 31
0.0
  0
CIRCLE
  5
1027F
330
2
100
AcDbEntity
  8
L-ZISSEN
100
AcDbCircle
 10
-272.163534867555
 20
-3655.32178954783
 30
0.0
 40
2.0
  0
LINE
  5
10280
330
2
100
AcDbEntity
  8
L-ZISSEN
100
AcDbLine
 10
-260.6635348675548
 20
-3612.82178954783
 30
0.0
 11
-274.381641863439
 21
-3612.82178954783
 31
0.0
  0
LINE
  5
10281
330
2
100
AcDbEntity
  8
L-ZISSEN
100
AcDbLine
 10
-265.6635348675548
 20
-3610.321789547831
 30
0.0
 11
-274.9474854848384
 21
-3610.321789547831
 31
0.0
  0
LINE
  5
10282
330
2
100
AcDbEntity
  8
L-ZISSEN
100
AcDbLine
 10
-264.1635348675548
 20
-3607.821789547831
 30
0.0
 11
-265.6069105405289
 21
-3610.321789547831
 31
0.0
  0
LINE
  5
10283
330
2
100
AcDbEntity
  8
L-ZISSEN
100
AcDbLine
 10
-260.6635348675548
 20
-3607.821789547831
 30
0.0
 11
-263.5635348675545
 21
-3607.821789547831
 31
0.0
  0
LINE
  5
10284
330
2
100
AcDbEntity
  8
L-ZISSEN
100
AcDbLine
 10
-260.6635348675548
 20
-3607.821789547831
 30
0.0
 11
-264.7838782713037
 21
-3607.821789547831
 31
0.0
  0
CIRCLE
  5
10285
330
2
100
AcDbEntity
  8
L-ZISSEN
100
AcDbCircle
 10
-272.163534867555
 20
-3595.32178954783
 30
0.0
 40
2.0
  0
LINE
  5
10286
330
2
100
AcDbEntity
  8
L-ZISSEN
100
AcDbLine
 10
-264.7838782713032
 20
-3607.821789547831
 30
0.0
 11
-268.6635348675543
 21
-3590.321789547831
 31
0.0
  0
LINE
  5
10287
330
2
100
AcDbEntity
  8
L-ZISSEN
100
AcDbLine
 10
-277.6635348675553
 20
-3598.321789547831
 30
0.0
 11
-274.381641863439
 21
-3612.82178954783
 31
0.0
  0
POLYLINE
  5
10288
330
2
100
AcDbEntity
  8
L-ZISSEN
100
AcDb2dPolyline
 66
     1
 10
0.0
 20
0.0
 30
0.0
 70
     1
  0
VERTEX
  5
10E08
330
10288
100
AcDbEntity
  8
L-ZISSEN
100
AcDbVertex
100
AcDb2dVertex
 10
-349.6635348675534
 20
-3612.895382676638
 30
0.0
  0
VERTEX
  5
10E09
330
10288
100
AcDbEntity
  8
L-ZISSEN
100
AcDbVertex
100
AcDb2dVertex
 10
-367.2371279963607
 20
-3595.321789547831
 30
0.0
  0
VERTEX
  5
10E0A
330
10288
100
AcDbEntity
  8
L-ZISSEN
100
AcDbVertex
100
AcDb2dVertex
 10
-392.0899417387466
 20
-3595.321789547831
 30
0.0
  0
VERTEX
  5
10E0B
330
10288
100
AcDbEntity
  8
L-ZISSEN
100
AcDbVertex
100
AcDb2dVertex
 10
-409.6635348675534
 20
-3612.895382676638
 30
0.0
  0
VERTEX
  5
10E0C
330
10288
100
AcDbEntity
  8
L-ZISSEN
100
AcDbVertex
100
AcDb2dVertex
 10
-409.6635348675534
 20
-3637.748196419023
 30
0.0
  0
VERTEX
  5
10E0D
330
10288
100
AcDbEntity
  8
L-ZISSEN
100
AcDbVertex
100
AcDb2dVertex
 10
-392.0899417387466
 20
-3655.321789547831
 30
0.0
  0
VERTEX
  5
10E0E
330
10288
100
AcDbEntity
  8
L-ZISSEN
100
AcDbVertex
100
AcDb2dVertex
 10
-367.2371279963607
 20
-3655.321789547831
 30
0.0
  0
VERTEX
  5
10E0F
330
10288
100
AcDbEntity
  8
L-ZISSEN
100
AcDbVertex
100
AcDb2dVertex
 10
-349.6635348675534
 20
-3637.748196419023
 30
0.0
  0
SEQEND
  5
10E10
330
10288
100
AcDbEntity
  8
L-ZISSEN
  0
LINE
  5
1028D
330
2
100
AcDbEntity
  8
L-TYUSIN
100
AcDbLine
 10
-379.6635348675552
 20
-3585.321789547831
 30
0.0
 11
-379.6635348675488
 21
-3699.321789547818
 31
0.0
  0
LINE
  5
10294
330
2
100
AcDbEntity
  8
L-SOUZOU
100
AcDbLine
 10
-359.263534867551
 20
-3670.821789547818
 30
0.0
 11
-359.263534867551
 21
-3685.321789547818
 31
0.0
  0
LINE
  5
10295
330
2
100
AcDbEntity
  8
L-SOUZOU
100
AcDbLine
 10
-400.0635348675512
 20
-3670.821789547818
 30
0.0
 11
-400.0635348675512
 21
-3685.321789547818
 31
0.0
  0
CIRCLE
  5
10297
330
2
100
AcDbEntity
  8
L-ZISSEN
100
AcDbCircle
 10
-379.6635348675531
 20
-3625.321789547831
 30
0.0
 40
24.77565943703641
  0
CIRCLE
  5
10298
330
2
100
AcDbEntity
  8
L-ZISSEN
100
AcDbCircle
 10
-379.6635348675531
 20
-3625.321789547831
 30
0.0
 40
23.96246809175248
  0
CIRCLE
  5
10299
330
2
100
AcDbEntity
  8
L-ZISSEN
100
AcDbCircle
 10
-379.6635348675531
 20
-3625.321789547831
 30
0.0
 40
30.0
  0
CIRCLE
  5
1029A
330
2
100
AcDbEntity
  8
L-ZISSEN
100
AcDbCircle
 10
-356.1635348675499
 20
-3595.321789547831
 30
0.0
 40
4.45
  0
CIRCLE
  5
1029B
330
2
100
AcDbEntity
  8
L-ZISSEN
100
AcDbCircle
 10
-403.1635348675536
 20
-3595.321789547831
 30
0.0
 40
4.45
  0
LINE
  5
1029D
330
2
100
AcDbEntity
  8
L-SOUZOU
100
AcDbLine
 10
-386.4635348675513
 20
-3661.821789547818
 30
0.0
 11
-386.4635348675513
 21
-3669.321789547818
 31
0.0
  0
CIRCLE
  5
1029E
330
2
100
AcDbEntity
  8
L-ZISSEN
100
AcDbCircle
 10
-356.16353486755
 20
-3655.321789547831
 30
0.0
 40
4.45
  0
CIRCLE
  5
1029F
330
2
100
AcDbEntity
  8
L-ZISSEN
100
AcDbCircle
 10
-403.1635348675536
 20
-3655.321789547831
 30
0.0
 40
4.45
  0
ARC
  5
102A0
330
2
100
AcDbEntity
  8
L-SOUZOU
100
AcDbCircle
 10
-360.7635348675508
 20
-3670.821789547818
 30
0.0
 40
1.5
100
AcDbArc
 50
0.0
 51
89.99999999999998
  0
ARC
  5
102A1
330
2
100
AcDbEntity
  8
L-SOUZOU
100
AcDbCircle
 10
-398.563534867551
 20
-3670.821789547818
 30
0.0
 40
1.5
100
AcDbArc
 50
89.99999999999998
 51
180.0
  0
LINE
  5
102A2
330
2
100
AcDbEntity
  8
L-SOUZOU
100
AcDbLine
 10
-360.763534867551
 20
-3669.321789547818
 30
0.0
 11
-398.5635348675512
 21
-3669.321789547818
 31
0.0
  0
LINE
  5
102A3
330
2
100
AcDbEntity
  8
L-ZISSEN
100
AcDbLine
 10
-391.5779680023855
 20
-3664.321789547829
 30
0.0
 11
-367.7491017327168
 21
-3664.321789547829
 31
0.0
  0
LINE
  5
102A4
330
2
100
AcDbEntity
  8
L-SOUZOU
100
AcDbLine
 10
-372.8635348675509
 20
-3661.821789547818
 30
0.0
 11
-386.4635348675513
 21
-3661.821789547818
 31
0.0
  0
LINE
  5
102A5
330
2
100
AcDbEntity
  8
L-SOUZOU
100
AcDbLine
 10
-373.7850895746476
 20
-3660.321789547818
 30
0.0
 11
-372.9014752469632
 21
-3661.205403875502
 31
0.0
  0
LINE
  5
102A6
330
2
100
AcDbEntity
  8
L-SOUZOU
100
AcDbLine
 10
-385.5419801604551
 20
-3660.321789547818
 30
0.0
 11
-386.425594488139
 21
-3661.205403875502
 31
0.0
  0
LINE
  5
102A7
330
2
100
AcDbEntity
  8
L-TYUSIN
100
AcDbLine
 10
-379.6635348675507
 20
-3660.321789547831
 30
0.0
 11
-379.6635348675511
 21
-3664.321789547829
 31
0.0
  0
LINE
  5
102A8
330
2
100
AcDbEntity
  8
L-ZISSEN
100
AcDbLine
 10
-365.6010348675507
 20
-3660.321789547831
 30
0.0
 11
-367.7491017327168
 21
-3664.321789547829
 31
0.0
  0
LINE
  5
102A9
330
2
100
AcDbEntity
  8
L-ZISSEN
100
AcDbLine
 10
-393.7260348675507
 20
-3660.321789547831
 30
0.0
 11
-391.5779680023845
 21
-3664.321789547829
 31
0.0
  0
LINE
  5
102AA
330
2
100
AcDbEntity
  8
L-SOUZOU
100
AcDbLine
 10
-372.9290895746469
 20
-3660.321789547831
 30
0.0
 11
-372.8822122320914
 21
-3661.821789547818
 31
0.0
  0
LINE
  5
102AB
330
2
100
AcDbEntity
  8
L-SOUZOU
100
AcDbLine
 10
-386.3979801604553
 20
-3660.321789547831
 30
0.0
 11
-386.4448575030113
 21
-3661.821789547818
 31
0.0
  0
LINE
  5
102AC
330
2
100
AcDbEntity
  8
L-SOUZOU
100
AcDbLine
 10
-372.8635348675509
 20
-3661.821789547818
 30
0.0
 11
-372.8635348675509
 21
-3669.321789547818
 31
0.0
  0
ARC
  5
102AD
330
2
100
AcDbEntity
  8
L-SOUZOU
100
AcDbCircle
 10
-360.1635348675509
 20
-3692.821789547818
 30
0.0
 40
1.5
100
AcDbArc
 50
270.0
 51
0.0
  0
ARC
  5
102AE
330
2
100
AcDbEntity
  8
L-SOUZOU
100
AcDbCircle
 10
-399.1635348675509
 20
-3692.821789547818
 30
0.0
 40
1.5
100
AcDbArc
 50
180.0
 51
270.0
  0
LINE
  5
102AF
330
2
100
AcDbEntity
  8
L-SOUZOU
100
AcDbLine
 10
-358.6635348675511
 20
-3685.321789547818
 30
0.0
 11
-400.6635348675511
 21
-3685.321789547818
 31
0.0
  0
LINE
  5
102B0
330
2
100
AcDbEntity
  8
L-SOUZOU
100
AcDbLine
 10
-358.6635348675511
 20
-3685.321789547818
 30
0.0
 11
-358.6635348675511
 21
-3692.821789547818
 31
0.0
  0
LINE
  5
102B1
330
2
100
AcDbEntity
  8
L-SOUZOU
100
AcDbLine
 10
-400.6635348675511
 20
-3685.321789547818
 30
0.0
 11
-400.6635348675511
 21
-3692.821789547818
 31
0.0
  0
LINE
  5
102B2
330
2
100
AcDbEntity
  8
L-SOUZOU
100
AcDbLine
 10
-360.1635348675511
 20
-3694.321789547818
 30
0.0
 11
-399.1635348675511
 21
-3694.321789547818
 31
0.0
  0
LINE
  5
102B4
330
2
100
AcDbEntity
  8
L-ZISSEN
100
AcDbLine
 10
-348.1635348675549
 20
-3607.32178954783
 30
0.0
 11
-351.932344132485
 21
-3590.321789547831
 31
0.0
  0
LINE
  5
102B5
330
2
100
AcDbEntity
  8
L-ZISSEN
100
AcDbLine
 10
-351.932344132485
 20
-3590.321789547831
 30
0.0
 11
-407.3947256026249
 21
-3590.321789547831
 31
0.0
  0
LINE
  5
102B6
330
2
100
AcDbEntity
  8
L-ZISSEN
100
AcDbLine
 10
-344.6635348675549
 20
-3643.321789547831
 30
0.0
 11
-344.6635348675549
 21
-3607.32178954783
 31
0.0
  0
LINE
  5
102B7
330
2
100
AcDbEntity
  8
L-ZISSEN
100
AcDbLine
 10
-348.1635348675549
 20
-3607.32178954783
 30
0.0
 11
-344.6635348675549
 21
-3607.32178954783
 31
0.0
  0
LINE
  5
102B8
330
2
100
AcDbEntity
  8
L-ZISSEN
100
AcDbLine
 10
-348.1635348675549
 20
-3643.321789547831
 30
0.0
 11
-351.932344132485
 21
-3660.321789547831
 31
0.0
  0
LINE
  5
102B9
330
2
100
AcDbEntity
  8
L-ZISSEN
100
AcDbLine
 10
-344.6635348675549
 20
-3643.321789547831
 30
0.0
 11
-348.1635348675549
 21
-3643.321789547831
 31
0.0
  0
LINE
  5
102BA
330
2
100
AcDbEntity
  8
L-ZISSEN
100
AcDbLine
 10
-407.3947256026249
 20
-3660.321789547831
 30
0.0
 11
-351.932344132485
 21
-3660.321789547831
 31
0.0
  0
LINE
  5
102BB
330
2
100
AcDbEntity
  8
L-ZISSEN
100
AcDbLine
 10
-411.1635348675545
 20
-3643.321789547831
 30
0.0
 11
-407.3947256026249
 21
-3660.321789547831
 31
0.0
  0
LINE
  5
102BC
330
2
100
AcDbEntity
  8
L-ZISSEN
100
AcDbLine
 10
-414.6635348675549
 20
-3607.32178954783
 30
0.0
 11
-414.6635348675549
 21
-3643.321789547831
 31
0.0
  0
LINE
  5
102BD
330
2
100
AcDbEntity
  8
L-ZISSEN
100
AcDbLine
 10
-411.1635348675545
 20
-3643.321789547831
 30
0.0
 11
-414.6635348675549
 21
-3643.321789547831
 31
0.0
  0
LINE
  5
102BE
330
2
100
AcDbEntity
  8
L-ZISSEN
100
AcDbLine
 10
-414.6635348675549
 20
-3607.32178954783
 30
0.0
 11
-411.1635348675545
 21
-3607.32178954783
 31
0.0
  0
LINE
  5
102BF
330
2
100
AcDbEntity
  8
L-ZISSEN
100
AcDbLine
 10
-411.1635348675545
 20
-3607.32178954783
 30
0.0
 11
-407.3947256026249
 21
-3590.321789547831
 31
0.0
  0
SOLID
  5
102C2
330
2
100
AcDbEntity
  8
L-ZISSEN
100
AcDbTrace
 10
-162.3350686990604
 20
-3609.059067556833
 30
0.0
 11
-161.908279099284
 21
-3608.546920037102
 31
0.0
 12
-160.5852313399775
 22
-3610.083362596297
 32
0.0
 13
-160.5852313399775
 23
-3610.083362596297
 33
0.0
  0
LINE
  5
102C3
330
2
100
AcDbEntity
  8
L-TYUSIN
100
AcDbLine
 10
-215.5852313399778
 20
-4044.177753413967
 30
0.0
 11
-215.5852313399778
 21
-3544.177710186952
 31
0.0
  0
LINE
  5
102C4
330
2
100
AcDbEntity
  8
L-TYUSIN
100
AcDbLine
 10
-215.5852313399778
 20
-3785.285859508193
 30
0.0
 11
107.8057077360376
 21
-3785.285859508193
 31
0.0
  0
LINE
  5
102C5
330
2
100
AcDbEntity
  8
L-ZISSEN
100
AcDbLine
 10
-172.5852313399775
 20
-3729.383362596296
 30
0.0
 11
-148.5852313399774
 21
-3729.383362596296
 31
0.0
  0
LINE
  5
102C6
330
2
100
AcDbEntity
  8
L-ZISSEN
100
AcDbLine
 10
-172.5852313399775
 20
-3725.383362596296
 30
0.0
 11
-148.5852313399774
 21
-3725.383362596296
 31
0.0
  0
LINE
  5
102C7
330
2
100
AcDbEntity
  8
L-ZISSEN
100
AcDbLine
 10
-172.5852313399775
 20
-3726.883362596296
 30
0.0
 11
-148.5852313399774
 21
-3726.883362596296
 31
0.0
  0
LINE
  5
102C8
330
2
100
AcDbEntity
  8
L-ZISSEN
100
AcDbLine
 10
-170.5852313399774
 20
-3756.083362596296
 30
0.0
 11
-150.5852313399774
 21
-3756.083362596296
 31
0.0
  0
LINE
  5
102C9
330
2
100
AcDbEntity
  8
L-ZISSEN
100
AcDbLine
 10
-170.5852313399774
 20
-3742.583362596296
 30
0.0
 11
-150.5852313399774
 21
-3742.583362596296
 31
0.0
  0
LINE
  5
102CA
330
2
100
AcDbEntity
  8
L-ZISSEN
100
AcDbLine
 10
-170.5852313399774
 20
-3741.883362596297
 30
0.0
 11
-150.5852313399774
 21
-3741.883362596297
 31
0.0
  0
LINE
  5
102CB
330
2
100
AcDbEntity
  8
L-ZISSEN
100
AcDbLine
 10
-149.5852313399774
 20
-3738.383362596296
 30
0.0
 11
-171.5852313399774
 21
-3738.383362596296
 31
0.0
  0
TEXT
  5
102CE
330
2
100
AcDbEntity
  8
L-ZISSEN
100
AcDbText
 10
-193.6763150387481
 20
-3817.8971010956
 30
0.0
 40
4.5
  1
MODEL NO. CJ4-*00-*04*
100
AcDbText
  0
TEXT
  5
102FA
330
2
100
AcDbEntity
  8
L-ZISSEN
100
AcDbText
 10
-188.5852313399776
 20
-3859.771789547832
 30
0.0
 40
4.5
  1
P.P
100
AcDbText
  0
SOLID
  5
102FE
330
2
100
AcDbEntity
  8
L-ZISSEN
100
AcDbTrace
 10
-162.3350686990607
 20
-3868.99749450837
 30
0.0
 11
-161.9082790992844
 21
-3868.485346988638
 31
0.0
 12
-160.5852313399778
 22
-3870.021789547832
 32
0.0
 13
-160.5852313399778
 23
-3870.021789547832
 33
0.0
  0
LINE
  5
10301
330
2
100
AcDbEntity
  8
L-ZISSEN
100
AcDbLine
 10
-175.5852313399776
 20
-3857.521789547832
 30
0.0
 11
-177.5852313399776
 21
-3857.521789547832
 31
0.0
  0
LINE
  5
10303
330
2
100
AcDbEntity
  8
L-ZISSEN
100
AcDbLine
 10
-162.1216738991726
 20
-3868.741420748503
 30
0.0
 11
-175.5852313399776
 21
-3857.521789547832
 31
0.0
  0
LINE
  5
10306
330
2
100
AcDbEntity
  8
L-ZISSEN
100
AcDbLine
 10
-177.4352313399769
 20
-3620.422101507928
 30
0.0
 11
-177.4352313399769
 21
-3702.922101507927
 31
0.0
  0
LINE
  5
10307
330
2
100
AcDbEntity
  8
L-ZISSEN
100
AcDbLine
 10
-185.8652313399799
 20
-3620.422101507928
 30
0.0
 11
-185.8652313399772
 21
-3702.922101507929
 31
0.0
  0
LINE
  5
10308
330
2
100
AcDbEntity
  8
L-ZISSEN
100
AcDbLine
 10
-190.5852313399802
 20
-3715.426352203111
 30
0.0
 11
-190.5852313399774
 21
-3610.083362596296
 31
0.0
  0
LINE
  5
10309
330
2
100
AcDbEntity
  8
L-ZISSEN
100
AcDbLine
 10
-177.4352313399792
 20
-3702.922101507928
 30
0.0
 11
-181.6502313399807
 21
-3704.922101507928
 31
0.0
  0
ARC
  5
1030A
330
2
100
AcDbEntity
  8
L-ZISSEN
100
AcDbCircle
 10
-160.5852313399797
 20
-3626.56995707764
 30
0.0
 40
99.53938471878538
100
AcDbArc
 50
256.0937629349463
 51
263.0758486315294
  0
LINE
  5
1030B
330
2
100
AcDbEntity
  8
L-ZISSEN
100
AcDbLine
 10
-181.6502313399807
 20
-3704.922101507928
 30
0.0
 11
-185.8652313399799
 21
-3702.922101507928
 31
0.0
  0
ARC
  5
1030C
330
2
100
AcDbEntity
  8
L-ZISSEN
100
AcDbCircle
 10
-182.5852313399802
 20
-3715.426352203111
 30
0.0
 40
8.000000000000113
100
AcDbArc
 50
180.0
 51
256.093762934765
  0
LINE
  5
1030D
330
2
100
AcDbEntity
  8
L-ZISSEN
100
AcDbLine
 10
-172.5852313399775
 20
-3729.383362596296
 30
0.0
 11
-172.5852313399775
 21
-3725.383362596296
 31
0.0
  0
LINE
  5
1030E
330
2
100
AcDbEntity
  8
L-ZISSEN
100
AcDbLine
 10
-170.5852313399774
 20
-3756.083362596296
 30
0.0
 11
-170.5852313399774
 21
-3742.583362596296
 31
0.0
  0
LINE
  5
1030F
330
2
100
AcDbEntity
  8
L-ZISSEN
100
AcDbLine
 10
-170.5852313399774
 20
-3741.883362596297
 30
0.0
 11
-170.5852313399774
 21
-3738.383362596296
 31
0.0
  0
LINE
  5
10310
330
2
100
AcDbEntity
  8
L-ZISSEN
100
AcDbLine
 10
-169.5852313399774
 20
-3742.583362596296
 30
0.0
 11
-169.585231339977
 21
-3741.883362596297
 31
0.0
  0
LINE
  5
10311
330
2
100
AcDbEntity
  8
L-ZISSEN
100
AcDbLine
 10
-171.5852313399774
 20
-3729.383362596296
 30
0.0
 11
-171.5852313399774
 21
-3738.383362596296
 31
0.0
  0
LINE
  5
10312
330
2
100
AcDbEntity
  8
L-ZISSEN
100
AcDbLine
 10
-185.8652313399799
 20
-3620.422101507928
 30
0.0
 11
-177.4352313399769
 21
-3620.422101507928
 31
0.0
  0
LINE
  5
1037B
330
2
100
AcDbEntity
  8
L-ZISSEN
100
AcDbLine
 10
-135.3052313399772
 20
-3620.422101507928
 30
0.0
 11
-135.3052313399801
 21
-3702.922101507927
 31
0.0
  0
LINE
  5
1037C
330
2
100
AcDbEntity
  8
L-ZISSEN
100
AcDbLine
 10
-143.7352313399803
 20
-3620.422101507928
 30
0.0
 11
-143.7352313399803
 21
-3702.922101507929
 31
0.0
  0
LINE
  5
1037D
330
2
100
AcDbEntity
  8
L-ZISSEN
100
AcDbLine
 10
-130.5852313399803
 20
-3715.426352203111
 30
0.0
 11
-130.5852313399775
 21
-3610.083362596296
 31
0.0
  0
ARC
  5
1037E
330
2
100
AcDbEntity
  8
L-ZISSEN
100
AcDbCircle
 10
-138.5852313399815
 20
-3715.426352203111
 30
0.0
 40
8.000000000000113
100
AcDbArc
 50
283.9062370650535
 51
0.0
  0
LINE
  5
1037F
330
2
100
AcDbEntity
  8
L-ZISSEN
100
AcDbLine
 10
-139.5202313399788
 20
-3704.922101507928
 30
0.0
 11
-135.3052313399818
 21
-3702.922101507928
 31
0.0
  0
LINE
  5
10380
330
2
100
AcDbEntity
  8
L-ZISSEN
100
AcDbLine
 10
-143.7352313399825
 20
-3702.922101507928
 30
0.0
 11
-139.5202313399788
 21
-3704.922101507928
 31
0.0
  0
LINE
  5
10381
330
2
100
AcDbEntity
  8
L-ZISSEN
100
AcDbLine
 10
-148.5852313399774
 20
-3729.383362596296
 30
0.0
 11
-148.5852313399774
 21
-3725.383362596296
 31
0.0
  0
ARC
  5
10382
330
2
100
AcDbEntity
  8
L-ZISSEN
100
AcDbCircle
 10
-160.5852313399797
 20
-3626.56995707764
 30
0.0
 40
99.53938471878515
100
AcDbArc
 50
276.9241513684729
 51
283.9062370650422
  0
LINE
  5
10383
330
2
100
AcDbEntity
  8
L-ZISSEN
100
AcDbLine
 10
-150.5852313399774
 20
-3756.083362596296
 30
0.0
 11
-150.5852313399774
 21
-3742.583362596296
 31
0.0
  0
LINE
  5
10384
330
2
100
AcDbEntity
  8
L-ZISSEN
100
AcDbLine
 10
-150.5852313399774
 20
-3741.883362596297
 30
0.0
 11
-150.5852313399772
 21
-3738.383362596296
 31
0.0
  0
LINE
  5
10385
330
2
100
AcDbEntity
  8
L-ZISSEN
100
AcDbLine
 10
-151.585231339977
 20
-3742.583362596296
 30
0.0
 11
-151.5852313399775
 21
-3741.883362596297
 31
0.0
  0
LINE
  5
10386
330
2
100
AcDbEntity
  8
L-ZISSEN
100
AcDbLine
 10
-149.5852313399774
 20
-3729.383362596296
 30
0.0
 11
-149.5852313399774
 21
-3738.383362596296
 31
0.0
  0
LINE
  5
10387
330
2
100
AcDbEntity
  8
L-ZISSEN
100
AcDbLine
 10
-135.3052313399772
 20
-3620.422101507928
 30
0.0
 11
-143.7352313399803
 21
-3620.422101507928
 31
0.0
  0
LINE
  5
10388
330
2
100
AcDbEntity
  8
L-ZISSEN
100
AcDbLine
 10
-121.5852313399788
 20
-3631.748300402078
 30
0.0
 11
-121.5852313399788
 21
-3636.032469384677
 31
0.0
  0
LINE
  5
10389
330
2
100
AcDbEntity
  8
L-ZISSEN
100
AcDbLine
 10
-127.0852313399761
 20
-3637.972848498307
 30
0.0
 11
-127.2711360154259
 21
-3637.972848498307
 31
0.0
  0
LINE
  5
1038A
330
2
100
AcDbEntity
  8
L-ZISSEN
100
AcDbLine
 10
-127.2711360154259
 20
-3636.076869134312
 30
0.0
 11
-127.2711360154259
 21
-3633.890384893376
 31
0.0
  0
LINE
  5
1038B
330
2
100
AcDbEntity
  8
L-ZISSEN
100
AcDbLine
 10
-127.2711360154259
 20
-3637.972848498307
 30
0.0
 11
-127.2711360154259
 21
-3610.083362596297
 31
0.0
  0
LINE
  5
1038C
330
2
100
AcDbEntity
  8
L-ZISSEN
100
AcDbLine
 10
-125.5852313399774
 20
-3610.083362596297
 30
0.0
 11
-125.5852313399774
 21
-3631.083362596296
 31
0.0
  0
LINE
  5
1038D
330
2
100
AcDbEntity
  8
L-ZISSEN
100
AcDbLine
 10
-129.0348101591977
 20
-3643.556844881755
 30
0.0
 11
-130.5852313399775
 21
-3643.556844881755
 31
0.0
  0
LINE
  5
1038E
330
2
100
AcDbEntity
  8
L-ZISSEN
100
AcDbLine
 10
-130.5213939899537
 20
-3643.206329110932
 30
0.0
 11
-128.7577198461819
 21
-3635.726353363488
 31
0.0
  0
LINE
  5
1038F
330
2
100
AcDbEntity
  8
L-ZISSEN
100
AcDbLine
 10
-128.7577198461819
 20
-3633.890384893378
 30
0.0
 11
-128.7577198461819
 21
-3635.726353363488
 31
0.0
  0
LINE
  5
10390
330
2
100
AcDbEntity
  8
L-ZISSEN
100
AcDbLine
 10
-130.5852313399775
 20
-3610.083362596296
 30
0.0
 11
-130.5852313399775
 21
-3651.407357050495
 31
0.0
  0
LINE
  5
10391
330
2
100
AcDbEntity
  8
L-ZISSEN
100
AcDbLine
 10
-129.0348101591977
 20
-3643.556844881755
 30
0.0
 11
-127.2711360154259
 21
-3636.076869134312
 31
0.0
  0
LINE
  5
10392
330
2
100
AcDbEntity
  8
L-ZISSEN
100
AcDbLine
 10
-127.2711360154259
 20
-3633.890384893376
 30
0.0
 11
-130.5852313399775
 21
-3633.890384893376
 31
0.0
  0
LINE
  5
10393
330
2
100
AcDbEntity
  8
L-ZISSEN
100
AcDbLine
 10
-121.5852313399788
 20
-3636.032469384677
 30
0.0
 11
-127.0852313399761
 21
-3637.972848498307
 31
0.0
  0
LINE
  5
10394
330
2
100
AcDbEntity
  8
L-ZISSEN
100
AcDbLine
 10
-125.5852313399774
 20
-3631.083362596296
 30
0.0
 11
-121.5852313399788
 21
-3631.748300402078
 31
0.0
  0
LINE
  5
103FF
330
2
100
AcDbEntity
  8
L-ZISSEN
100
AcDbLine
 10
-18.71023133997755
 20
-3615.083362596296
 30
0.0
 11
-21.83523133997755
 21
-3616.958362596297
 31
0.0
  0
LINE
  5
10400
330
2
100
AcDbEntity
  8
L-ZISSEN
100
AcDbLine
 10
-18.71023133997755
 20
-3618.833362596296
 30
0.0
 11
-21.83523133997755
 21
-3616.958362596297
 31
0.0
  0
LINE
  5
10401
330
2
100
AcDbEntity
  8
L-ZISSEN
100
AcDbLine
 10
-10.58523133997755
 20
-3636.333362596297
 30
0.0
 11
-23.71023133997983
 21
-3634.458362596296
 31
0.0
  0
LINE
  5
10402
330
2
100
AcDbEntity
  8
L-ZISSEN
100
AcDbLine
 10
-22.49966447481188
 20
-3640.025388107341
 30
0.0
 11
-10.58523133997755
 21
-3642.519746081772
 31
0.0
  0
LINE
  5
10403
330
2
100
AcDbEntity
  8
L-ZISSEN
100
AcDbLine
 10
-10.58523133997755
 20
-3637.164534853523
 30
0.0
 11
-22.49966447481188
 21
-3635.462472977119
 31
0.0
  0
LINE
  5
10404
330
2
100
AcDbEntity
  8
L-ZISSEN
100
AcDbLine
 10
-10.58523133997755
 20
-3645.083362596297
 30
0.0
 11
-24.64773133997983
 21
-3641.333362596297
 31
0.0
  0
LINE
  5
10405
330
2
100
AcDbEntity
  8
L-ZISSEN
100
AcDbLine
 10
-23.39773133997755
 20
-3650.083362596296
 30
0.0
 11
2.227268660022446
 21
-3650.083362596296
 31
0.0
  0
LINE
  5
10406
330
2
100
AcDbEntity
  8
L-ZISSEN
100
AcDbLine
 10
0.4147686600224461
 20
-3738.383362596297
 30
0.0
 11
-21.58523133997755
 21
-3738.383362596297
 31
0.0
  0
LINE
  5
10407
330
2
100
AcDbEntity
  8
L-ZISSEN
100
AcDbLine
 10
-22.58523133997755
 20
-3729.383362596296
 30
0.0
 11
1.414768660022446
 21
-3729.383362596296
 31
0.0
  0
LINE
  5
10408
330
2
100
AcDbEntity
  8
L-ZISSEN
100
AcDbLine
 10
-22.58523133997755
 20
-3725.383362596296
 30
0.0
 11
1.414768660022446
 21
-3725.383362596296
 31
0.0
  0
LINE
  5
10409
330
2
100
AcDbEntity
  8
L-ZISSEN
100
AcDbLine
 10
-22.58523133997755
 20
-3726.883362596296
 30
0.0
 11
1.414768660022446
 21
-3726.883362596296
 31
0.0
  0
LINE
  5
1040A
330
2
100
AcDbEntity
  8
L-ZISSEN
100
AcDbLine
 10
-27.43523133997701
 20
-3620.422101507927
 30
0.0
 11
-27.43523133997701
 21
-3702.922101507928
 31
0.0
  0
LINE
  5
1040B
330
2
100
AcDbEntity
  8
L-ZISSEN
100
AcDbLine
 10
-35.86523133997775
 20
-3620.422101507927
 30
0.0
 11
-35.86523133997775
 21
-3702.922101507928
 31
0.0
  0
LINE
  5
1040C
330
2
100
AcDbEntity
  8
L-ZISSEN
100
AcDbLine
 10
-40.58523133997755
 20
-3715.426352203111
 30
0.0
 11
-40.58523133997755
 21
-3610.083362596297
 31
0.0
  0
LINE
  5
1040D
330
2
100
AcDbEntity
  8
L-ZISSEN
100
AcDbLine
 10
-22.58523133997755
 20
-3729.383362596296
 30
0.0
 11
-22.58523133997755
 21
-3725.383362596296
 31
0.0
  0
LINE
  5
1040E
330
2
100
AcDbEntity
  8
L-ZISSEN
100
AcDbLine
 10
-31.65023133997852
 20
-3704.922101507928
 30
0.0
 11
-35.86523133997775
 21
-3702.922101507928
 31
0.0
  0
ARC
  5
1040F
330
2
100
AcDbEntity
  8
L-ZISSEN
100
AcDbCircle
 10
-32.58523133998028
 20
-3715.426352203111
 30
0.0
 40
8.000000000000113
100
AcDbArc
 50
180.0
 51
256.093762934765
  0
ARC
  5
10410
330
2
100
AcDbEntity
  8
L-ZISSEN
100
AcDbCircle
 10
-10.58523133997982
 20
-3626.56995707764
 30
0.0
 40
99.53938471878538
100
AcDbArc
 50
256.0937629349463
 51
263.0758486315294
  0
LINE
  5
10411
330
2
100
AcDbEntity
  8
L-ZISSEN
100
AcDbLine
 10
-27.43523133997701
 20
-3702.922101507929
 30
0.0
 11
-31.65023133997852
 21
-3704.922101507928
 31
0.0
  0
LINE
  5
10412
330
2
100
AcDbEntity
  8
L-ZISSEN
100
AcDbLine
 10
-21.58523133997755
 20
-3729.383362596296
 30
0.0
 11
-21.58523133997755
 21
-3738.383362596297
 31
0.0
  0
LINE
  5
10413
330
2
100
AcDbEntity
  8
L-ZISSEN
100
AcDbLine
 10
-24.64773133997983
 20
-3641.333362596297
 30
0.0
 11
-22.49966447481188
 21
-3640.025388107341
 31
0.0
  0
LINE
  5
10414
330
2
100
AcDbEntity
  8
L-ZISSEN
100
AcDbLine
 10
-24.64773133997983
 20
-3610.083362596297
 30
0.0
 11
-24.64773133997983
 21
-3648.833362596297
 31
0.0
  0
LINE
  5
10415
330
2
100
AcDbEntity
  8
L-ZISSEN
100
AcDbLine
 10
-24.64773133997983
 20
-3610.083362596297
 30
0.0
 11
-24.64773133997983
 21
-3633.872637963429
 31
0.0
  0
LINE
  5
10416
330
2
100
AcDbEntity
  8
L-ZISSEN
100
AcDbLine
 10
-22.49966447481188
 20
-3634.631300719892
 30
0.0
 11
-23.71023133997983
 21
-3634.458362596296
 31
0.0
  0
LINE
  5
10417
330
2
100
AcDbEntity
  8
L-ZISSEN
100
AcDbLine
 10
-22.49966447481188
 20
-3635.462472977119
 30
0.0
 11
-23.71023133997983
 21
-3634.458362596296
 31
0.0
  0
LINE
  5
10418
330
2
100
AcDbEntity
  8
L-ZISSEN
100
AcDbLine
 10
-22.49966447481188
 20
-3635.462472977119
 30
0.0
 11
-22.49966447481188
 21
-3640.025388107341
 31
0.0
  0
LINE
  5
10419
330
2
100
AcDbEntity
  8
L-ZISSEN
100
AcDbLine
 10
-23.71023133997983
 20
-3610.083362596297
 30
0.0
 11
-23.71023133997983
 21
-3634.458362596296
 31
0.0
  0
ARC
  5
1041A
330
2
100
AcDbEntity
  8
L-ZISSEN
100
AcDbCircle
 10
-23.39773133997755
 20
-3648.833362596297
 30
0.0
 40
1.250000000000568
100
AcDbArc
 50
180.0
 51
270.0
  0
LINE
  5
1041B
330
2
100
AcDbEntity
  8
L-ZISSEN
100
AcDbLine
 10
-35.86523133997775
 20
-3620.422101507927
 30
0.0
 11
-27.43523133997701
 21
-3620.422101507927
 31
0.0
  0
LINE
  5
1041C
330
2
100
AcDbEntity
  8
L-ZISSEN
100
AcDbLine
 10
19.41476866001971
 20
-3715.426352203111
 30
0.0
 11
19.41476866002244
 21
-3610.083362596295
 31
0.0
  0
LINE
  5
1041D
330
2
100
AcDbEntity
  8
L-ZISSEN
100
AcDbLine
 10
14.69476866002264
 20
-3620.422101507927
 30
0.0
 11
14.69476866002264
 21
-3702.922101507929
 31
0.0
  0
LINE
  5
1041E
330
2
100
AcDbEntity
  8
L-ZISSEN
100
AcDbLine
 10
6.2647686600219
 20
-3620.422101507927
 30
0.0
 11
6.2647686600219
 21
-3702.922101507929
 31
0.0
  0
ARC
  5
1041F
330
2
100
AcDbEntity
  8
L-ZISSEN
100
AcDbCircle
 10
-10.58523133997982
 20
-3626.56995707764
 30
0.0
 40
99.53938471878515
100
AcDbArc
 50
276.9241513684729
 51
283.9062370650422
  0
LINE
  5
10420
330
2
100
AcDbEntity
  8
L-ZISSEN
100
AcDbLine
 10
1.414768660022446
 20
-3729.383362596296
 30
0.0
 11
1.414768660022446
 21
-3725.383362596296
 31
0.0
  0
LINE
  5
10421
330
2
100
AcDbEntity
  8
L-ZISSEN
100
AcDbLine
 10
-0.585231339977554
 20
-3756.083362596296
 30
0.0
 11
-0.585231339977554
 21
-3742.583362596295
 31
0.0
  0
LINE
  5
10422
330
2
100
AcDbEntity
  8
L-ZISSEN
100
AcDbLine
 10
-0.585231339977554
 20
-3741.883362596297
 30
0.0
 11
-0.5852313399773266
 21
-3738.383362596297
 31
0.0
  0
LINE
  5
10423
330
2
100
AcDbEntity
  8
L-ZISSEN
100
AcDbLine
 10
-1.585231339977099
 20
-3742.583362596295
 30
0.0
 11
-1.585231339977553
 21
-3741.883362596297
 31
0.0
  0
LINE
  5
10424
330
2
100
AcDbEntity
  8
L-ZISSEN
100
AcDbLine
 10
0.4147686600224461
 20
-3729.383362596296
 30
0.0
 11
0.4147686600224461
 21
-3738.383362596297
 31
0.0
  0
LINE
  5
10425
330
2
100
AcDbEntity
  8
L-ZISSEN
100
AcDbLine
 10
-20.58523133997755
 20
-3756.083362596296
 30
0.0
 11
-20.58523133997755
 21
-3742.583362596295
 31
0.0
  0
LINE
  5
10426
330
2
100
AcDbEntity
  8
L-ZISSEN
100
AcDbLine
 10
-19.58523133997755
 20
-3742.583362596295
 30
0.0
 11
-19.5852313399771
 21
-3741.883362596297
 31
0.0
  0
LINE
  5
10427
330
2
100
AcDbEntity
  8
L-ZISSEN
100
AcDbLine
 10
-20.58523133997755
 20
-3741.883362596297
 30
0.0
 11
-20.58523133997755
 21
-3738.383362596297
 31
0.0
  0
LINE
  5
10428
330
2
100
AcDbEntity
  8
L-ZISSEN
100
AcDbLine
 10
-20.58523133997755
 20
-3756.083362596296
 30
0.0
 11
-0.585231339977554
 21
-3756.083362596296
 31
0.0
  0
LINE
  5
10429
330
2
100
AcDbEntity
  8
L-ZISSEN
100
AcDbLine
 10
-20.58523133997755
 20
-3742.583362596295
 30
0.0
 11
-0.585231339977554
 21
-3742.583362596295
 31
0.0
  0
LINE
  5
1042A
330
2
100
AcDbEntity
  8
L-ZISSEN
100
AcDbLine
 10
-20.58523133997755
 20
-3741.883362596297
 30
0.0
 11
-0.585231339977554
 21
-3741.883362596297
 31
0.0
  0
LINE
  5
1042B
330
2
100
AcDbEntity
  8
L-ZISSEN
100
AcDbLine
 10
10.4797686600234
 20
-3704.922101507928
 30
0.0
 11
14.69476866002264
 21
-3702.922101507928
 31
0.0
  0
LINE
  5
1042C
330
2
100
AcDbEntity
  8
L-ZISSEN
100
AcDbLine
 10
6.2647686600219
 20
-3702.922101507929
 30
0.0
 11
10.4797686600234
 21
-3704.922101507928
 31
0.0
  0
ARC
  5
1042D
330
2
100
AcDbEntity
  8
L-ZISSEN
100
AcDbCircle
 10
11.41476866001835
 20
-3715.426352203111
 30
0.0
 40
8.000000000000113
100
AcDbArc
 50
283.9062370650535
 51
0.0
  0
LINE
  5
1042E
330
2
100
AcDbEntity
  8
L-ZISSEN
100
AcDbLine
 10
1.329201794856771
 20
-3635.462472977119
 30
0.0
 11
2.539768660020172
 21
-3634.458362596296
 31
0.0
  0
LINE
  5
1042F
330
2
100
AcDbEntity
  8
L-ZISSEN
100
AcDbLine
 10
1.329201794856771
 20
-3634.631300719892
 30
0.0
 11
2.539768660020172
 21
-3634.458362596296
 31
0.0
  0
LINE
  5
10430
330
2
100
AcDbEntity
  8
L-ZISSEN
100
AcDbLine
 10
3.477268660020172
 20
-3641.333362596297
 30
0.0
 11
1.329201794856771
 21
-3640.025388107341
 31
0.0
  0
LINE
  5
10431
330
2
100
AcDbEntity
  8
L-ZISSEN
100
AcDbLine
 10
-10.58523133997755
 20
-3645.083362596297
 30
0.0
 11
3.477268660020172
 21
-3641.333362596297
 31
0.0
  0
LINE
  5
10432
330
2
100
AcDbEntity
  8
L-ZISSEN
100
AcDbLine
 10
-10.58523133997755
 20
-3636.333362596297
 30
0.0
 11
2.539768660020172
 21
-3634.458362596296
 31
0.0
  0
LINE
  5
10433
330
2
100
AcDbEntity
  8
L-ZISSEN
100
AcDbLine
 10
-7.460231339977553
 20
-3617.583362596295
 30
0.0
 11
-2.460231339977553
 21
-3617.583362596295
 31
0.0
  0
LINE
  5
10434
330
2
100
AcDbEntity
  8
L-ZISSEN
100
AcDbLine
 10
-7.460231339977553
 20
-3617.583362596295
 30
0.0
 11
-2.460231339977553
 21
-3617.583362596295
 31
0.0
  0
LINE
  5
10435
330
2
100
AcDbEntity
  8
L-ZISSEN
100
AcDbLine
 10
-7.460231339977553
 20
-3616.333362596296
 30
0.0
 11
-2.460231339977553
 21
-3616.333362596296
 31
0.0
  0
LINE
  5
10436
330
2
100
AcDbEntity
  8
L-ZISSEN
100
AcDbLine
 10
-7.460231339977553
 20
-3616.333362596296
 30
0.0
 11
-2.460231339977553
 21
-3616.333362596296
 31
0.0
  0
LINE
  5
10437
330
2
100
AcDbEntity
  8
L-ZISSEN
100
AcDbLine
 10
-7.460231339977553
 20
-3616.333362596296
 30
0.0
 11
-7.460231339977553
 21
-3617.583362596295
 31
0.0
  0
LINE
  5
10438
330
2
100
AcDbEntity
  8
L-ZISSEN
100
AcDbLine
 10
-2.460231339977553
 20
-3615.083362596296
 30
0.0
 11
0.6647686600224461
 21
-3616.958362596295
 31
0.0
  0
LINE
  5
10439
330
2
100
AcDbEntity
  8
L-ZISSEN
100
AcDbLine
 10
-2.460231339977553
 20
-3616.333362596296
 30
0.0
 11
-2.460231339977553
 21
-3615.083362596296
 31
0.0
  0
LINE
  5
1043A
330
2
100
AcDbEntity
  8
L-ZISSEN
100
AcDbLine
 10
-2.460231339977553
 20
-3618.833362596296
 30
0.0
 11
0.6647686600224461
 21
-3616.958362596295
 31
0.0
  0
LINE
  5
1043B
330
2
100
AcDbEntity
  8
L-ZISSEN
100
AcDbLine
 10
-2.460231339977553
 20
-3617.583362596295
 30
0.0
 11
-2.460231339977553
 21
-3618.833362596296
 31
0.0
  0
LINE
  5
1043C
330
2
100
AcDbEntity
  8
L-ZISSEN
100
AcDbLine
 10
1.329201794856771
 20
-3635.462472977119
 30
0.0
 11
1.329201794856771
 21
-3640.025388107341
 31
0.0
  0
LINE
  5
1043D
330
2
100
AcDbEntity
  8
L-ZISSEN
100
AcDbLine
 10
-1.210231339979827
 20
-3642.583362596297
 30
0.0
 11
-1.210231339979827
 21
-3650.083362596296
 31
0.0
  0
LINE
  5
1043E
330
2
100
AcDbEntity
  8
L-TYUSIN
100
AcDbLine
 10
-12.77202490253262
 20
-3640.07981729747
 30
0.0
 11
-8.577244927620768
 21
-3640.07981729747
 31
0.0
  0
ARC
  5
1043F
330
2
100
AcDbEntity
  8
L-ZISSEN
100
AcDbCircle
 10
-10.58523133997755
 20
-3646.333362596296
 30
0.0
 40
1.250000000000568
100
AcDbArc
 50
180.0
 51
0.0
  0
CIRCLE
  5
10440
330
2
100
AcDbEntity
  8
L-ZISSEN
100
AcDbCircle
 10
-10.58523133997755
 20
-3640.07981729747
 30
0.0
 40
1.25
  0
LINE
  5
10441
330
2
100
AcDbEntity
  8
L-ZISSEN
100
AcDbLine
 10
-9.33523133997528
 20
-3613.833362596295
 30
0.0
 11
-11.83523133997528
 21
-3613.833362596295
 31
0.0
  0
LINE
  5
10442
330
2
100
AcDbEntity
  8
L-ZISSEN
100
AcDbLine
 10
-11.83523133997528
 20
-3613.833362596295
 30
0.0
 11
-11.83523133997528
 21
-3623.833362596295
 31
0.0
  0
LINE
  5
10443
330
2
100
AcDbEntity
  8
L-ZISSEN
100
AcDbLine
 10
-11.83523133997528
 20
-3613.833362596295
 30
0.0
 11
-11.83523133997528
 21
-3623.833362596295
 31
0.0
  0
LINE
  5
10444
330
2
100
AcDbEntity
  8
L-ZISSEN
100
AcDbLine
 10
-13.71023133997755
 20
-3616.333362596297
 30
0.0
 11
-13.71023133997755
 21
-3617.583362596297
 31
0.0
  0
LINE
  5
10445
330
2
100
AcDbEntity
  8
L-ZISSEN
100
AcDbLine
 10
-11.83523133997982
 20
-3644.750029262962
 30
0.0
 11
-11.83523133997755
 21
-3646.333362596296
 31
0.0
  0
LINE
  5
10446
330
2
100
AcDbEntity
  8
L-ZISSEN
100
AcDbLine
 10
-10.58523133997755
 20
-3645.083362596297
 30
0.0
 11
-10.58523133997755
 21
-3642.519746081772
 31
0.0
  0
LINE
  5
10447
330
2
100
AcDbEntity
  8
L-ZISSEN
100
AcDbLine
 10
-10.58523133997755
 20
-3636.333362596297
 30
0.0
 11
-10.58523133997755
 21
-3637.164534853523
 31
0.0
  0
LINE
  5
10448
330
2
100
AcDbEntity
  8
L-ZISSEN
100
AcDbLine
 10
-14.33523133997528
 20
-3623.833362596295
 30
0.0
 11
-10.58523133997528
 21
-3630.083362596296
 31
0.0
  0
LINE
  5
10449
330
2
100
AcDbEntity
  8
L-ZISSEN
100
AcDbLine
 10
-11.83523133997528
 20
-3623.833362596295
 30
0.0
 11
-14.33523133997528
 21
-3623.833362596295
 31
0.0
  0
LINE
  5
1044A
330
2
100
AcDbEntity
  8
L-ZISSEN
100
AcDbLine
 10
-9.33523133997528
 20
-3613.833362596295
 30
0.0
 11
-9.33523133997528
 21
-3623.833362596295
 31
0.0
  0
LINE
  5
1044B
330
2
100
AcDbEntity
  8
L-ZISSEN
100
AcDbLine
 10
-9.33523133997528
 20
-3613.833362596295
 30
0.0
 11
-9.33523133997528
 21
-3623.833362596295
 31
0.0
  0
LINE
  5
1044C
330
2
100
AcDbEntity
  8
L-ZISSEN
100
AcDbLine
 10
-9.335231339977553
 20
-3644.750029262962
 30
0.0
 11
-9.335231339977553
 21
-3646.333362596296
 31
0.0
  0
LINE
  5
1044D
330
2
100
AcDbEntity
  8
L-ZISSEN
100
AcDbLine
 10
-19.96023133997755
 20
-3642.583362596296
 30
0.0
 11
-19.96023133997982
 21
-3650.083362596296
 31
0.0
  0
LINE
  5
1044E
330
2
100
AcDbEntity
  8
L-ZISSEN
100
AcDbLine
 10
-18.71023133997755
 20
-3616.333362596297
 30
0.0
 11
-18.71023133997755
 21
-3615.083362596296
 31
0.0
  0
LINE
  5
1044F
330
2
100
AcDbEntity
  8
L-ZISSEN
100
AcDbLine
 10
-18.71023133997755
 20
-3617.583362596297
 30
0.0
 11
-18.71023133997755
 21
-3618.833362596296
 31
0.0
  0
LINE
  5
10450
330
2
100
AcDbEntity
  8
L-ZISSEN
100
AcDbLine
 10
-13.71023133997755
 20
-3617.583362596297
 30
0.0
 11
-18.71023133997755
 21
-3617.583362596297
 31
0.0
  0
LINE
  5
10451
330
2
100
AcDbEntity
  8
L-ZISSEN
100
AcDbLine
 10
-13.71023133997755
 20
-3617.583362596297
 30
0.0
 11
-18.71023133997755
 21
-3617.583362596297
 31
0.0
  0
LINE
  5
10452
330
2
100
AcDbEntity
  8
L-ZISSEN
100
AcDbLine
 10
-13.71023133997755
 20
-3616.333362596297
 30
0.0
 11
-18.71023133997755
 21
-3616.333362596297
 31
0.0
  0
LINE
  5
10453
330
2
100
AcDbEntity
  8
L-ZISSEN
100
AcDbLine
 10
-13.71023133997755
 20
-3616.333362596297
 30
0.0
 11
-18.71023133997755
 21
-3616.333362596297
 31
0.0
  0
LINE
  5
10454
330
2
100
AcDbEntity
  8
L-ZISSEN
100
AcDbLine
 10
1.329201794856771
 20
-3640.025388107341
 30
0.0
 11
-10.58523133997755
 21
-3642.519746081772
 31
0.0
  0
LINE
  5
10455
330
2
100
AcDbEntity
  8
L-ZISSEN
100
AcDbLine
 10
-10.58523133997755
 20
-3637.164534853523
 30
0.0
 11
1.329201794856771
 21
-3635.462472977119
 31
0.0
  0
LINE
  5
10456
330
2
100
AcDbEntity
  8
L-ZISSEN
100
AcDbLine
 10
-6.83523133997528
 20
-3623.833362596295
 30
0.0
 11
-10.58523133997528
 21
-3630.083362596296
 31
0.0
  0
LINE
  5
10457
330
2
100
AcDbEntity
  8
L-ZISSEN
100
AcDbLine
 10
-9.33523133997528
 20
-3623.833362596295
 30
0.0
 11
-6.83523133997528
 21
-3623.833362596295
 31
0.0
  0
LINE
  5
10458
330
2
100
AcDbEntity
  8
L-ZISSEN
100
AcDbLine
 10
14.69476866002264
 20
-3620.422101507927
 30
0.0
 11
6.2647686600219
 21
-3620.422101507927
 31
0.0
  0
LINE
  5
10459
330
2
100
AcDbEntity
  8
L-ZISSEN
100
AcDbLine
 10
3.477268660020172
 20
-3610.083362596297
 30
0.0
 11
3.477268660020172
 21
-3648.833362596297
 31
0.0
  0
LINE
  5
1045A
330
2
100
AcDbEntity
  8
L-ZISSEN
100
AcDbLine
 10
3.477268660020172
 20
-3610.083362596297
 30
0.0
 11
3.477268660020172
 21
-3633.872637963429
 31
0.0
  0
LINE
  5
1045B
330
2
100
AcDbEntity
  8
L-ZISSEN
100
AcDbLine
 10
2.539768660020172
 20
-3610.083362596297
 30
0.0
 11
2.539768660020172
 21
-3634.458362596296
 31
0.0
  0
ARC
  5
1045C
330
2
100
AcDbEntity
  8
L-ZISSEN
100
AcDbCircle
 10
2.227268660022446
 20
-3648.833362596297
 30
0.0
 40
1.249999999999715
100
AcDbArc
 50
270.0
 51
0.0
  0
LINE
  5
10478
330
2
100
AcDbEntity
  8
L-ZISSEN
100
AcDbLine
 10
29.87832610082751
 20
-3835.041420748501
 30
0.0
 11
16.41476866002244
 21
-3823.82178954783
 31
0.0
  0
TEXT
  5
10479
330
2
100
AcDbEntity
  8
L-ZISSEN
100
AcDbText
 10
3.414768660022446
 20
-3826.07178954783
 30
0.0
 40
4.5
  1
P.P
100
AcDbText
  0
LINE
  5
1047A
330
2
100
AcDbEntity
  8
L-ZISSEN
100
AcDbLine
 10
16.41476866002244
 20
-3823.82178954783
 30
0.0
 11
14.41476866002244
 21
-3823.82178954783
 31
0.0
  0
SOLID
  5
1047C
330
2
100
AcDbEntity
  8
L-ZISSEN
100
AcDbTrace
 10
29.66493130093931
 20
-3835.297494508367
 30
0.0
 11
30.0917209007157
 21
-3834.785346988636
 31
0.0
 12
31.41476866002221
 22
-3836.321789547831
 32
0.0
 13
31.41476866002221
 23
-3836.321789547831
 33
0.0
  0
TEXT
  5
104E2
330
2
100
AcDbEntity
  8
L-ZISSEN
100
AcDbText
 10
-193.6763150387477
 20
-3566.916136630615
 30
0.0
 40
4.5
  1
MODEL NO. CJ4-*00-*02*
100
AcDbText
  0
TEXT
  5
104E3
330
2
100
AcDbEntity
  8
L-ZISSEN
100
AcDbText
 10
-188.5852313399773
 20
-3599.833362596297
 30
0.0
 40
4.5
  1
P.P
100
AcDbText
  0
LINE
  5
104E4
330
2
100
AcDbEntity
  8
L-ZISSEN
100
AcDbLine
 10
-175.5852313399773
 20
-3597.583362596297
 30
0.0
 11
-177.5852313399773
 21
-3597.583362596297
 31
0.0
  0
LINE
  5
104E5
330
2
100
AcDbEntity
  8
L-ZISSEN
100
AcDbLine
 10
-162.1216738991722
 20
-3608.802993796968
 30
0.0
 11
-175.5852313399773
 21
-3597.583362596297
 31
0.0
  0
LINE
  5
104E8
330
2
100
AcDbEntity
  8
L-ZISSEN
100
AcDbLine
 10
29.87832610082773
 20
-3576.102993796967
 30
0.0
 11
16.41476866002267
 21
-3564.883362596296
 31
0.0
  0
TEXT
  5
104E9
330
2
100
AcDbEntity
  8
L-ZISSEN
100
AcDbText
 10
3.414768660022673
 20
-3567.133362596296
 30
0.0
 40
4.5
  1
P.P
100
AcDbText
  0
LINE
  5
104EA
330
2
100
AcDbEntity
  8
L-ZISSEN
100
AcDbLine
 10
16.41476866002267
 20
-3564.883362596296
 30
0.0
 11
14.41476866002267
 21
-3564.883362596296
 31
0.0
  0
SOLID
  5
104EB
330
2
100
AcDbEntity
  8
L-ZISSEN
100
AcDbTrace
 10
29.66493130093954
 20
-3576.359067556833
 30
0.0
 11
30.09172090071592
 21
-3575.846920037101
 31
0.0
 12
31.41476866002244
 22
-3577.383362596296
 32
0.0
 13
31.41476866002244
 23
-3577.383362596296
 33
0.0
  0
TEXT
  5
104ED
330
2
100
AcDbEntity
  8
L-ZISSEN
100
AcDbText
 10
-299.3586009710561
 20
-3821.887484889955
 30
0.0
 40
4.5
  1
P.P
100
AcDbText
  0
LINE
  5
104EE
330
2
100
AcDbEntity
  8
L-ZISSEN
100
AcDbLine
 10
-336.6635348677881
 20
-3877.73069887919
 30
0.0
 11
-303.1234021434684
 21
-3819.637484889955
 31
0.0
  0
LINE
  5
104EF
330
2
100
AcDbEntity
  8
L-ZISSEN
100
AcDbLine
 10
-303.1234021434684
 20
-3819.637484889955
 30
0.0
 11
-301.1234021434684
 21
-3819.637484889955
 31
0.0
  0
SOLID
  5
104F0
330
2
100
AcDbEntity
  8
L-ZISSEN
100
AcDbTrace
 10
-336.9522100024038
 20
-3877.564032212563
 30
0.0
 11
-336.3748597331688
 21
-3877.897365545818
 31
0.0
 12
-337.6635348675526
 22
-3879.462749686894
 32
0.0
 13
-337.6635348675526
 23
-3879.462749686894
 33
0.0
  0
LINE
  5
10A25
330
2
100
AcDbEntity
  8
L-ZISSEN
100
AcDbLine
 10
64.66476866002245
 20
-3887.320770048124
 30
0.0
 11
82.16476866002244
 21
-3887.320770048123
 31
0.0
  0
CIRCLE
  5
10A26
330
2
100
AcDbEntity
  8
L-ZISSEN
100
AcDbCircle
 10
73.41476866002245
 20
-3892.570770048124
 30
0.0
 40
3.75
  0
LINE
  5
10A27
330
2
100
AcDbEntity
  8
L-TYUSIN
100
AcDbLine
 10
79.66476866002245
 20
-3892.570770048124
 30
0.0
 11
67.16476866002245
 21
-3892.570770048124
 31
0.0
  0
LINE
  5
10A28
330
2
100
AcDbEntity
  8
L-ZISSEN
100
AcDbLine
 10
70.91476866002245
 20
-3898.820770048125
 30
0.0
 11
75.91476866002245
 21
-3898.820770048125
 31
0.0
  0
CIRCLE
  5
10A29
330
2
100
AcDbEntity
  8
L-ZISSEN
100
AcDbCircle
 10
73.41476866002245
 20
-3959.070770048124
 30
0.0
 40
3.75
  0
LINE
  5
10A2A
330
2
100
AcDbEntity
  8
L-ZISSEN
100
AcDbLine
 10
63.97960139180373
 20
-3976.320770048125
 30
0.0
 11
82.84993592824163
 21
-3976.320770048125
 31
0.0
  0
LINE
  5
10A2B
330
2
100
AcDbEntity
  8
L-ZISSEN
100
AcDbLine
 10
63.97960139180327
 20
-3973.320770048125
 30
0.0
 11
82.84993592824163
 21
-3973.320770048125
 31
0.0
  0
LINE
  5
10A2C
330
2
100
AcDbEntity
  8
L-ZISSEN
100
AcDbLine
 10
64.66476866002245
 20
-3964.320770048124
 30
0.0
 11
82.16476866002244
 21
-3964.320770048125
 31
0.0
  0
LINE
  5
10A2D
330
2
100
AcDbEntity
  8
L-ZISSEN
100
AcDbLine
 10
80.91476866002267
 20
-3978.320770048125
 30
0.0
 11
65.91476866002267
 21
-3978.320770048125
 31
0.0
  0
LINE
  5
10A2E
330
2
100
AcDbEntity
  8
L-TYUSIN
100
AcDbLine
 10
79.66476866002245
 20
-3959.070770048124
 30
0.0
 11
67.16476866002245
 21
-3959.070770048124
 31
0.0
  0
LINE
  5
10A2F
330
2
100
AcDbEntity
  8
L-ZISSEN
100
AcDbLine
 10
75.91476866002245
 20
-3952.820770048124
 30
0.0
 11
70.91476866002245
 21
-3952.820770048124
 31
0.0
  0
LINE
  5
10A30
330
2
100
AcDbEntity
  8
L-ZISSEN
100
AcDbLine
 10
64.66476866002245
 20
-3887.320770048124
 30
0.0
 11
64.66476866002427
 21
-3964.320770048124
 31
0.0
  0
LINE
  5
10A31
330
2
100
AcDbEntity
  8
L-ZISSEN
100
AcDbLine
 10
70.91476866002245
 20
-3952.820770048124
 30
0.0
 11
70.91476866002245
 21
-3898.820770048125
 31
0.0
  0
LINE
  5
10A32
330
2
100
AcDbEntity
  8
L-ZISSEN
100
AcDbLine
 10
65.91476866002267
 20
-3978.320770048125
 30
0.0
 11
65.91476866002256
 21
-3976.320770048125
 31
0.0
  0
LINE
  5
10A33
330
2
100
AcDbEntity
  8
L-ZISSEN
100
AcDbLine
 10
63.97960139180327
 20
-3973.320770048125
 30
0.0
 11
63.97960139180361
 21
-3976.320770048125
 31
0.0
  0
LINE
  5
10A34
330
2
100
AcDbEntity
  8
L-ZISSEN
100
AcDbLine
 10
73.41476866002267
 20
-3978.320770048125
 30
0.0
 11
73.41476866002278
 21
-3976.320770048125
 31
0.0
  0
POLYLINE
  5
10A35
330
2
100
AcDbEntity
  8
L-ZISSEN
100
AcDb2dPolyline
 66
     1
 10
0.0
 20
0.0
 30
0.0
 70
     1
  0
VERTEX
  5
10E11
330
10A35
100
AcDbEntity
  8
L-ZISSEN
100
AcDbVertex
100
AcDb2dVertex
 10
72.16476866002245
 20
-3958.349082211638
 30
0.0
  0
VERTEX
  5
10E12
330
10A35
100
AcDbEntity
  8
L-ZISSEN
100
AcDbVertex
100
AcDb2dVertex
 10
73.41476866002245
 20
-3957.627394375151
 30
0.0
  0
VERTEX
  5
10E13
330
10A35
100
AcDbEntity
  8
L-ZISSEN
100
AcDbVertex
100
AcDb2dVertex
 10
74.66476866002245
 20
-3958.349082211638
 30
0.0
  0
VERTEX
  5
10E14
330
10A35
100
AcDbEntity
  8
L-ZISSEN
100
AcDbVertex
100
AcDb2dVertex
 10
74.66476866002245
 20
-3959.792457884612
 30
0.0
  0
VERTEX
  5
10E15
330
10A35
100
AcDbEntity
  8
L-ZISSEN
100
AcDbVertex
100
AcDb2dVertex
 10
73.41476866002245
 20
-3960.514145721099
 30
0.0
  0
VERTEX
  5
10E16
330
10A35
100
AcDbEntity
  8
L-ZISSEN
100
AcDbVertex
100
AcDb2dVertex
 10
72.16476866002245
 20
-3959.792457884612
 30
0.0
  0
SEQEND
  5
10E17
330
10A35
100
AcDbEntity
  8
L-ZISSEN
  0
POLYLINE
  5
10A36
330
2
100
AcDbEntity
  8
L-ZISSEN
100
AcDb2dPolyline
 66
     1
 10
0.0
 20
0.0
 30
0.0
 70
     1
  0
VERTEX
  5
10E18
330
10A36
100
AcDbEntity
  8
L-ZISSEN
100
AcDbVertex
100
AcDb2dVertex
 10
72.16476866002245
 20
-3893.292457884611
 30
0.0
  0
VERTEX
  5
10E19
330
10A36
100
AcDbEntity
  8
L-ZISSEN
100
AcDbVertex
100
AcDb2dVertex
 10
73.41476866002245
 20
-3894.014145721097
 30
0.0
  0
VERTEX
  5
10E1A
330
10A36
100
AcDbEntity
  8
L-ZISSEN
100
AcDbVertex
100
AcDb2dVertex
 10
74.66476866002245
 20
-3893.292457884611
 30
0.0
  0
VERTEX
  5
10E1B
330
10A36
100
AcDbEntity
  8
L-ZISSEN
100
AcDbVertex
100
AcDb2dVertex
 10
74.66476866002245
 20
-3891.849082211637
 30
0.0
  0
VERTEX
  5
10E1C
330
10A36
100
AcDbEntity
  8
L-ZISSEN
100
AcDbVertex
100
AcDb2dVertex
 10
73.41476866002245
 20
-3891.127394375149
 30
0.0
  0
VERTEX
  5
10E1D
330
10A36
100
AcDbEntity
  8
L-ZISSEN
100
AcDbVertex
100
AcDb2dVertex
 10
72.16476866002245
 20
-3891.849082211637
 30
0.0
  0
SEQEND
  5
10E1E
330
10A36
100
AcDbEntity
  8
L-ZISSEN
  0
LINE
  5
10A37
330
2
100
AcDbEntity
  8
L-ZISSEN
100
AcDbLine
 10
82.16476866002244
 20
-3887.320770048124
 30
0.0
 11
82.16476866002427
 21
-3964.320770048124
 31
0.0
  0
LINE
  5
10A38
330
2
100
AcDbEntity
  8
L-ZISSEN
100
AcDbLine
 10
75.91476866002245
 20
-3898.820770048125
 30
0.0
 11
75.91476866002245
 21
-3952.820770048124
 31
0.0
  0
LINE
  5
10A39
330
2
100
AcDbEntity
  8
L-ZISSEN
100
AcDbLine
 10
82.84993592824163
 20
-3973.320770048125
 30
0.0
 11
82.84993592824163
 21
-3976.320770048125
 31
0.0
  0
LINE
  5
10A3A
330
2
100
AcDbEntity
  8
L-ZISSEN
100
AcDbLine
 10
80.91476866002267
 20
-3978.320770048125
 30
0.0
 11
80.91476866002279
 21
-3976.320770048125
 31
0.0
  0
ARC
  5
10A3B
330
2
100
AcDbEntity
  8
L-ZISSEN
100
AcDbCircle
 10
90.95811431128209
 20
-3962.307943793448
 30
0.0
 40
10.0
100
AcDbArc
 50
274.868444062882
 51
358.9999999999721
  0
LINE
  5
10A3C
330
2
100
AcDbEntity
  8
L-ZISSEN
100
AcDbLine
 10
82.84993592824163
 20
-3973.320770048125
 30
0.0
 11
91.80679599183918
 21
-3972.271865682197
 31
0.0
  0
LINE
  5
10A3D
330
2
100
AcDbEntity
  8
L-ZISSEN
100
AcDbLine
 10
102.6706357215036
 20
-3883.320770048124
 30
0.0
 11
100.9547747195272
 21
-3962.566363379064
 31
0.0
  0
LINE
  5
10A3E
330
2
100
AcDbEntity
  8
L-ZISSEN
100
AcDbLine
 10
44.15890159854121
 20
-3883.320770048124
 30
0.0
 11
45.87476260051812
 21
-3962.566363379064
 31
0.0
  0
ARC
  5
10A3F
330
2
100
AcDbEntity
  8
L-ZISSEN
100
AcDbCircle
 10
55.87142300876326
 20
-3962.307943793448
 30
0.0
 40
10.0
100
AcDbArc
 50
181.0000000000278
 51
265.1315559371179
  0
LINE
  5
10A40
330
2
100
AcDbEntity
  8
L-ZISSEN
100
AcDbLine
 10
63.97960139180327
 20
-3973.320770048125
 30
0.0
 11
55.02274132820616
 21
-3972.271865682197
 31
0.0
  0
LINE
  5
10A41
330
2
100
AcDbEntity
  8
L-ZISSEN
100
AcDbLine
 10
113.0188970696929
 20
-3894.480390934493
 30
0.0
 11
105.0188970696929
 21
-3896.420770048123
 31
0.0
  0
LINE
  5
10A42
330
2
100
AcDbEntity
  8
L-ZISSEN
100
AcDbLine
 10
107.2188970696931
 20
-3889.58542355952
 30
0.0
 11
113.0188970696929
 21
-3890.196221951896
 31
0.0
  0
LINE
  5
10A43
330
2
100
AcDbEntity
  8
L-ZISSEN
100
AcDbLine
 10
91.91476866002199
 20
-3873.320770048124
 30
0.0
 11
97.42612309828041
 21
-3873.320770048125
 31
0.0
  0
LINE
  5
10A44
330
2
100
AcDbEntity
  8
L-ZISSEN
100
AcDbLine
 10
102.0188970696924
 20
-3913.420770048124
 30
0.0
 11
105.0188970696924
 21
-3910.420770048125
 31
0.0
  0
LINE
  5
10A45
330
2
100
AcDbEntity
  8
L-ZISSEN
100
AcDbLine
 10
102.3220313263489
 20
-3899.420770048125
 30
0.0
 11
105.0188970696933
 21
-3899.420770048125
 31
0.0
  0
LINE
  5
10A46
330
2
100
AcDbEntity
  8
L-ZISSEN
100
AcDbLine
 10
102.6706357215036
 20
-3883.320770048124
 30
0.0
 11
103.3707532602495
 21
-3883.320770048124
 31
0.0
  0
LINE
  5
10A47
330
2
100
AcDbEntity
  8
L-ZISSEN
100
AcDbLine
 10
97.42612309828041
 20
-3873.320770048125
 30
0.0
 11
97.42612309828041
 21
-3883.320770048122
 31
0.0
  0
LINE
  5
10A48
330
2
100
AcDbEntity
  8
L-ZISSEN
100
AcDbLine
 10
97.42612309828041
 20
-3883.320770048122
 30
0.0
 11
102.6706357215036
 21
-3883.320770048122
 31
0.0
  0
ARC
  5
10A49
330
2
100
AcDbEntity
  8
L-ZISSEN
100
AcDbCircle
 10
104.2507152515106
 20
-3903.920770048124
 30
0.0
 40
2.368181818181991
100
AcDbArc
 50
302.3784125140474
 51
57.62158748595258
  0
LINE
  5
10A4A
330
2
100
AcDbEntity
  8
L-ZISSEN
100
AcDbLine
 10
105.0188970696924
 20
-3910.420770048125
 30
0.0
 11
105.0188970696933
 21
-3887.101814631865
 31
0.0
  0
LINE
  5
10A4B
330
2
100
AcDbEntity
  8
L-ZISSEN
100
AcDbLine
 10
105.0188970696929
 20
-3905.920770048123
 30
0.0
 11
105.5188970696929
 21
-3905.920770048123
 31
0.0
  0
LINE
  5
10A4C
330
2
100
AcDbEntity
  8
L-ZISSEN
100
AcDbLine
 10
105.0188970696929
 20
-3893.620770048124
 30
0.0
 11
102.8893560882258
 21
-3893.620770048124
 31
0.0
  0
LINE
  5
10A4D
330
2
100
AcDbEntity
  8
L-ZISSEN
100
AcDbLine
 10
105.5067847553866
 20
-3883.320770048123
 30
0.0
 11
102.8440451538183
 21
-3883.320770048123
 31
0.0
  0
LINE
  5
10A4E
330
2
100
AcDbEntity
  8
L-ZISSEN
100
AcDbLine
 10
102.8893560882258
 20
-3893.620770048124
 30
0.0
 11
102.8893560882258
 21
-3883.320770048124
 31
0.0
  0
LINE
  5
10A4F
330
2
100
AcDbEntity
  8
L-ZISSEN
100
AcDbLine
 10
102.8893560882249
 20
-3892.338306443194
 30
0.0
 11
102.8893560882258
 21
-3883.320770048124
 31
0.0
  0
LINE
  5
10A50
330
2
100
AcDbEntity
  8
L-ZISSEN
100
AcDbLine
 10
105.5067847553866
 20
-3874.820770048125
 30
0.0
 11
105.5067847553866
 21
-3883.320770048123
 31
0.0
  0
LINE
  5
10A51
330
2
100
AcDbEntity
  8
L-ZISSEN
100
AcDbLine
 10
107.2188970696931
 20
-3870.120770048124
 30
0.0
 11
107.2188970696931
 21
-3889.58542355952
 31
0.0
  0
LINE
  5
10A52
330
2
100
AcDbEntity
  8
L-ZISSEN
100
AcDbLine
 10
103.484283121201
 20
-3874.820770048125
 30
0.0
 11
103.484283121201
 21
-3883.320770048123
 31
0.0
  0
LINE
  5
10A53
330
2
100
AcDbEntity
  8
L-ZISSEN
100
AcDbLine
 10
105.0188970696929
 20
-3896.420770048123
 30
0.0
 11
105.0188970696929
 21
-3883.320770048123
 31
0.0
  0
LINE
  5
10A54
330
2
100
AcDbEntity
  8
L-ZISSEN
100
AcDbLine
 10
103.818897069693
 20
-3899.420770048125
 30
0.0
 11
103.818897069693
 21
-3893.620770048124
 31
0.0
  0
LINE
  5
10A55
330
2
100
AcDbEntity
  8
L-ZISSEN
100
AcDbLine
 10
105.0188970696929
 20
-3901.920770048123
 30
0.0
 11
105.5188970696929
 21
-3901.920770048123
 31
0.0
  0
LINE
  5
10A56
330
2
100
AcDbEntity
  8
L-ZISSEN
100
AcDbLine
 10
105.0188970696929
 20
-3874.820770048125
 30
0.0
 11
105.0188970696929
 21
-3870.120770048123
 31
0.0
  0
LINE
  5
10A57
330
2
100
AcDbEntity
  8
L-ZISSEN
100
AcDbLine
 10
105.5067847553866
 20
-3874.820770048125
 30
0.0
 11
103.484283121201
 21
-3874.820770048125
 31
0.0
  0
LINE
  5
10A58
330
2
100
AcDbEntity
  8
L-ZISSEN
100
AcDbLine
 10
107.2188970696931
 20
-3870.120770048124
 30
0.0
 11
105.0188970696929
 21
-3870.120770048124
 31
0.0
  0
LINE
  5
10A59
330
2
100
AcDbEntity
  8
L-ZISSEN
100
AcDbLine
 10
105.0188970696929
 20
-3869.82178954783
 30
0.0
 11
105.0188970696929
 21
-3870.120770048123
 31
0.0
  0
LINE
  5
10A5A
330
2
100
AcDbEntity
  8
L-ZISSEN
100
AcDbLine
 10
54.9147686600229
 20
-3883.320770048123
 30
0.0
 11
69.66476866002245
 21
-3883.320770048123
 31
0.0
  0
LINE
  5
10A5B
330
2
100
AcDbEntity
  8
L-ZISSEN
100
AcDbLine
 10
46.9147686600229
 20
-3873.320770048125
 30
0.0
 11
54.9147686600229
 21
-3873.320770048125
 31
0.0
  0
LINE
  5
10A5C
330
2
100
AcDbEntity
  8
L-ZISSEN
100
AcDbLine
 10
46.9147686600229
 20
-3873.320770048125
 30
0.0
 11
46.9147686600229
 21
-3883.320770048124
 31
0.0
  0
LINE
  5
10A5D
330
2
100
AcDbEntity
  8
L-ZISSEN
100
AcDbLine
 10
43.2113977249885
 20
-3869.82178954783
 30
0.0
 11
43.45878405979533
 21
-3883.320770048124
 31
0.0
  0
LINE
  5
10A5E
330
2
100
AcDbEntity
  8
L-ZISSEN
100
AcDbLine
 10
43.45878405979533
 20
-3883.320770048124
 30
0.0
 11
46.9147686600229
 21
-3883.320770048124
 31
0.0
  0
LINE
  5
10A5F
330
2
100
AcDbEntity
  8
L-ZISSEN
100
AcDbLine
 10
54.9147686600229
 20
-3873.320770048125
 30
0.0
 11
54.9147686600229
 21
-3883.320770048124
 31
0.0
  0
LINE
  5
10A60
330
2
100
AcDbEntity
  8
L-ZISSEN
100
AcDbLine
 10
77.16476866002245
 20
-3873.320770048125
 30
0.0
 11
69.66476866002245
 21
-3873.320770048125
 31
0.0
  0
LINE
  5
10A61
330
2
100
AcDbEntity
  8
L-ZISSEN
100
AcDbLine
 10
69.66476866002245
 20
-3873.320770048125
 30
0.0
 11
69.66476866002245
 21
-3883.320770048123
 31
0.0
  0
LINE
  5
10A62
330
2
100
AcDbEntity
  8
L-ZISSEN
100
AcDbLine
 10
91.9147686600229
 20
-3883.320770048122
 30
0.0
 11
77.16476866002199
 21
-3883.320770048124
 31
0.0
  0
LINE
  5
10A63
330
2
100
AcDbEntity
  8
L-ZISSEN
100
AcDbLine
 10
77.16476866002199
 20
-3873.320770048125
 30
0.0
 11
77.16476866002199
 21
-3883.320770048123
 31
0.0
  0
LINE
  5
10A64
330
2
100
AcDbEntity
  8
L-ZISSEN
100
AcDbLine
 10
91.9147686600229
 20
-3873.320770048124
 30
0.0
 11
91.9147686600229
 21
-3883.320770048122
 31
0.0
  0
LINE
  5
10A65
330
2
100
AcDbEntity
  8
L-ZISSEN
100
AcDbLine
 10
-37.08523133997704
 20
-3873.520770048128
 30
0.0
 11
-29.08523133997704
 21
-3873.520770048128
 31
0.0
  0
LINE
  5
10A66
330
2
100
AcDbEntity
  8
L-ZISSEN
100
AcDbLine
 10
-39.84109840145873
 20
-3883.520770048127
 30
0.0
 11
-38.12523739948204
 21
-3962.766363379067
 31
0.0
  0
LINE
  5
10A67
330
2
100
AcDbEntity
  8
L-ZISSEN
100
AcDbLine
 10
-37.08523133997704
 20
-3873.520770048128
 30
0.0
 11
-37.08523133997704
 21
-3883.520770048127
 31
0.0
  0
LINE
  5
10A68
330
2
100
AcDbEntity
  8
L-ZISSEN
100
AcDbLine
 10
-40.78860227501166
 20
-3870.021789547832
 30
0.0
 11
-40.5412159402046
 21
-3883.520770048127
 31
0.0
  0
LINE
  5
10A69
330
2
100
AcDbEntity
  8
L-ZISSEN
100
AcDbLine
 10
-40.5412159402046
 20
-3883.520770048127
 30
0.0
 11
-37.08523133997704
 21
-3883.520770048127
 31
0.0
  0
LINE
  5
10A6A
330
2
100
AcDbEntity
  8
L-ZISSEN
100
AcDbLine
 10
-29.08523133997704
 20
-3883.520770048126
 30
0.0
 11
-14.33523133997772
 21
-3883.520770048126
 31
0.0
  0
LINE
  5
10A6B
330
2
100
AcDbEntity
  8
L-ZISSEN
100
AcDbLine
 10
-29.08523133997704
 20
-3873.520770048128
 30
0.0
 11
-29.08523133997704
 21
-3883.520770048127
 31
0.0
  0
LINE
  5
10A6C
330
2
100
AcDbEntity
  8
L-ZISSEN
100
AcDbLine
 10
23.21889706969301
 20
-3870.320770048127
 30
0.0
 11
23.21889706969301
 21
-3889.785423559523
 31
0.0
  0
LINE
  5
10A6D
330
2
100
AcDbEntity
  8
L-ZISSEN
100
AcDbLine
 10
23.21889706969301
 20
-3870.320770048127
 30
0.0
 11
21.01889706969274
 21
-3870.320770048127
 31
0.0
  0
LINE
  5
10A6E
330
2
100
AcDbEntity
  8
L-ZISSEN
100
AcDbLine
 10
21.01889706969274
 20
-3870.021789547832
 30
0.0
 11
21.01889706969274
 21
-3870.320770048126
 31
0.0
  0
LINE
  5
10A6F
330
2
100
AcDbEntity
  8
L-ZISSEN
100
AcDbLine
 10
21.01889706969274
 20
-3875.020770048128
 30
0.0
 11
21.01889706969274
 21
-3870.320770048126
 31
0.0
  0
LINE
  5
10A70
330
2
100
AcDbEntity
  8
L-ZISSEN
100
AcDbLine
 10
21.50678475538672
 20
-3875.020770048128
 30
0.0
 11
19.48428312120114
 21
-3875.020770048128
 31
0.0
  0
LINE
  5
10A71
330
2
100
AcDbEntity
  8
L-ZISSEN
100
AcDbLine
 10
21.50678475538672
 20
-3875.020770048128
 30
0.0
 11
21.50678475538672
 21
-3883.520770048126
 31
0.0
  0
LINE
  5
10A72
330
2
100
AcDbEntity
  8
L-ZISSEN
100
AcDbLine
 10
19.48428312120114
 20
-3875.020770048128
 30
0.0
 11
19.48428312120114
 21
-3883.520770048126
 31
0.0
  0
LINE
  5
10A73
330
2
100
AcDbEntity
  8
L-ZISSEN
100
AcDbLine
 10
21.50678475538672
 20
-3883.520770048126
 30
0.0
 11
18.8440451538184
 21
-3883.520770048126
 31
0.0
  0
LINE
  5
10A74
330
2
100
AcDbEntity
  8
L-ZISSEN
100
AcDbLine
 10
18.32203132634873
 20
-3899.620770048128
 30
0.0
 11
21.01889706969319
 21
-3899.620770048128
 31
0.0
  0
LINE
  5
10A75
330
2
100
AcDbEntity
  8
L-ZISSEN
100
AcDbLine
 10
21.01889706969274
 20
-3893.820770048127
 30
0.0
 11
18.88935608822572
 21
-3893.820770048126
 31
0.0
  0
LINE
  5
10A76
330
2
100
AcDbEntity
  8
L-ZISSEN
100
AcDbLine
 10
18.67063572150374
 20
-3883.520770048127
 30
0.0
 11
16.95477471952705
 21
-3962.766363379067
 31
0.0
  0
LINE
  5
10A77
330
2
100
AcDbEntity
  8
L-ZISSEN
100
AcDbLine
 10
18.67063572150374
 20
-3883.520770048127
 30
0.0
 11
19.37075326024961
 21
-3883.520770048127
 31
0.0
  0
LINE
  5
10A78
330
2
100
AcDbEntity
  8
L-ZISSEN
100
AcDbLine
 10
19.81889706969292
 20
-3899.620770048128
 30
0.0
 11
19.81889706969292
 21
-3893.820770048126
 31
0.0
  0
LINE
  5
10A79
330
2
100
AcDbEntity
  8
L-ZISSEN
100
AcDbLine
 10
18.88935608822504
 20
-3892.538306443197
 30
0.0
 11
18.88935608822572
 21
-3883.520770048127
 31
0.0
  0
LINE
  5
10A7A
330
2
100
AcDbEntity
  8
L-ZISSEN
100
AcDbLine
 10
18.88935608822572
 20
-3893.820770048127
 30
0.0
 11
18.88935608822572
 21
-3883.520770048127
 31
0.0
  0
LINE
  5
10A7B
330
2
100
AcDbEntity
  8
L-ZISSEN
100
AcDbLine
 10
13.42612309828047
 20
-3873.520770048128
 30
0.0
 11
13.42612309828047
 21
-3883.520770048125
 31
0.0
  0
LINE
  5
10A7C
330
2
100
AcDbEntity
  8
L-ZISSEN
100
AcDbLine
 10
13.42612309828047
 20
-3883.520770048125
 30
0.0
 11
18.67063572150374
 21
-3883.520770048125
 31
0.0
  0
LINE
  5
10A7D
330
2
100
AcDbEntity
  8
L-ZISSEN
100
AcDbLine
 10
18.01889706969228
 20
-3913.620770048127
 30
0.0
 11
21.01889706969228
 21
-3910.620770048128
 31
0.0
  0
LINE
  5
10A7E
330
2
100
AcDbEntity
  8
L-ZISSEN
100
AcDbLine
 10
29.01889706969274
 20
-3890.396221951899
 30
0.0
 11
29.01889706969274
 21
-3894.680390934496
 31
0.0
  0
LINE
  5
10A7F
330
2
100
AcDbEntity
  8
L-ZISSEN
100
AcDbLine
 10
21.01889706969274
 20
-3902.120770048126
 30
0.0
 11
21.51889706969274
 21
-3902.120770048126
 31
0.0
  0
LINE
  5
10A80
330
2
100
AcDbEntity
  8
L-ZISSEN
100
AcDbLine
 10
21.01889706969274
 20
-3906.120770048127
 30
0.0
 11
21.51889706969274
 21
-3906.120770048127
 31
0.0
  0
ARC
  5
10A81
330
2
100
AcDbEntity
  8
L-ZISSEN
100
AcDbCircle
 10
20.25071525151048
 20
-3904.120770048126
 30
0.0
 40
2.368181818181991
100
AcDbArc
 50
302.3784125140503
 51
57.62158748594965
  0
LINE
  5
10A82
330
2
100
AcDbEntity
  8
L-ZISSEN
100
AcDbLine
 10
21.01889706969274
 20
-3896.620770048127
 30
0.0
 11
21.01889706969274
 21
-3883.520770048126
 31
0.0
  0
LINE
  5
10A83
330
2
100
AcDbEntity
  8
L-ZISSEN
100
AcDbLine
 10
21.01889706969228
 20
-3910.620770048128
 30
0.0
 11
21.01889706969319
 21
-3887.301814631868
 31
0.0
  0
LINE
  5
10A84
330
2
100
AcDbEntity
  8
L-ZISSEN
100
AcDbLine
 10
29.01889706969274
 20
-3894.680390934496
 30
0.0
 11
21.01889706969274
 21
-3896.620770048127
 31
0.0
  0
LINE
  5
10A85
330
2
100
AcDbEntity
  8
L-ZISSEN
100
AcDbLine
 10
23.21889706969301
 20
-3889.785423559523
 30
0.0
 11
29.01889706969274
 21
-3890.396221951899
 31
0.0
  0
LINE
  5
10A86
330
2
100
AcDbEntity
  8
L-ZISSEN
100
AcDbLine
 10
7.914768660022957
 20
-3883.520770048125
 30
0.0
 11
-6.835231339978179
 21
-3883.520770048127
 31
0.0
  0
LINE
  5
10A87
330
2
100
AcDbEntity
  8
L-ZISSEN
100
AcDbLine
 10
7.914768660022048
 20
-3873.520770048127
 30
0.0
 11
13.42612309828047
 21
-3873.520770048128
 31
0.0
  0
LINE
  5
10A88
330
2
100
AcDbEntity
  8
L-ZISSEN
100
AcDbLine
 10
7.914768660022957
 20
-3873.520770048127
 30
0.0
 11
7.914768660022957
 21
-3883.520770048125
 31
0.0
  0
LINE
  5
10A89
330
2
100
AcDbEntity
  8
L-TYUSIN
100
AcDbLine
 10
-4.335231339977497
 20
-3892.770770048127
 30
0.0
 11
-16.83523133997749
 21
-3892.770770048127
 31
0.0
  0
LINE
  5
10A8A
330
2
100
AcDbEntity
  8
L-ZISSEN
100
AcDbLine
 10
-6.835231339977724
 20
-3873.520770048127
 30
0.0
 11
-14.33523133997772
 21
-3873.520770048127
 31
0.0
  0
CIRCLE
  5
10A8B
330
2
100
AcDbEntity
  8
L-ZISSEN
100
AcDbCircle
 10
-10.58523133997749
 20
-3892.770770048127
 30
0.0
 40
3.75
  0
POLYLINE
  5
10A8C
330
2
100
AcDbEntity
  8
L-ZISSEN
100
AcDb2dPolyline
 66
     1
 10
0.0
 20
0.0
 30
0.0
 70
     1
  0
VERTEX
  5
10E1F
330
10A8C
100
AcDbEntity
  8
L-ZISSEN
100
AcDbVertex
100
AcDb2dVertex
 10
-11.83523133997749
 20
-3893.492457884614
 30
0.0
  0
VERTEX
  5
10E20
330
10A8C
100
AcDbEntity
  8
L-ZISSEN
100
AcDbVertex
100
AcDb2dVertex
 10
-10.58523133997749
 20
-3894.2141457211
 30
0.0
  0
VERTEX
  5
10E21
330
10A8C
100
AcDbEntity
  8
L-ZISSEN
100
AcDbVertex
100
AcDb2dVertex
 10
-9.335231339977497
 20
-3893.492457884614
 30
0.0
  0
VERTEX
  5
10E22
330
10A8C
100
AcDbEntity
  8
L-ZISSEN
100
AcDbVertex
100
AcDb2dVertex
 10
-9.335231339977497
 20
-3892.04908221164
 30
0.0
  0
VERTEX
  5
10E23
330
10A8C
100
AcDbEntity
  8
L-ZISSEN
100
AcDbVertex
100
AcDb2dVertex
 10
-10.58523133997749
 20
-3891.327394375153
 30
0.0
  0
VERTEX
  5
10E24
330
10A8C
100
AcDbEntity
  8
L-ZISSEN
100
AcDbVertex
100
AcDb2dVertex
 10
-11.83523133997749
 20
-3892.04908221164
 30
0.0
  0
SEQEND
  5
10E25
330
10A8C
100
AcDbEntity
  8
L-ZISSEN
  0
LINE
  5
10A8D
330
2
100
AcDbEntity
  8
L-ZISSEN
100
AcDbLine
 10
-14.33523133997772
 20
-3873.520770048127
 30
0.0
 11
-14.33523133997772
 21
-3883.520770048126
 31
0.0
  0
LINE
  5
10A8E
330
2
100
AcDbEntity
  8
L-ZISSEN
100
AcDbLine
 10
-13.08523133997772
 20
-3899.020770048127
 30
0.0
 11
-8.085231339977724
 21
-3899.020770048127
 31
0.0
  0
LINE
  5
10A8F
330
2
100
AcDbEntity
  8
L-ZISSEN
100
AcDbLine
 10
-6.835231339977951
 20
-3873.520770048127
 30
0.0
 11
-6.835231339978179
 21
-3883.520770048126
 31
0.0
  0
LINE
  5
10A90
330
2
100
AcDbEntity
  8
L-ZISSEN
100
AcDbLine
 10
-19.33523133997772
 20
-3887.520770048127
 30
0.0
 11
-1.835231339977724
 21
-3887.520770048126
 31
0.0
  0
LINE
  5
10A91
330
2
100
AcDbEntity
  8
L-TYUSIN
100
AcDbLine
 10
-4.335231339977497
 20
-3959.270770048128
 30
0.0
 11
-16.83523133997749
 21
-3959.270770048128
 31
0.0
  0
LINE
  5
10A92
330
2
100
AcDbEntity
  8
L-ZISSEN
100
AcDbLine
 10
-19.33523133997772
 20
-3964.520770048127
 30
0.0
 11
-1.835231339977724
 21
-3964.520770048128
 31
0.0
  0
LINE
  5
10A93
330
2
100
AcDbEntity
  8
L-ZISSEN
100
AcDbLine
 10
-19.33523133997772
 20
-3887.520770048127
 30
0.0
 11
-19.3352313399759
 21
-3964.520770048127
 31
0.0
  0
LINE
  5
10A94
330
2
100
AcDbEntity
  8
L-ZISSEN
100
AcDbLine
 10
-8.085231339977724
 20
-3899.020770048127
 30
0.0
 11
-8.085231339977724
 21
-3953.020770048127
 31
0.0
  0
LINE
  5
10A95
330
2
100
AcDbEntity
  8
L-ZISSEN
100
AcDbLine
 10
-13.08523133997772
 20
-3953.020770048127
 30
0.0
 11
-13.08523133997772
 21
-3899.020770048127
 31
0.0
  0
LINE
  5
10A96
330
2
100
AcDbEntity
  8
L-ZISSEN
100
AcDbLine
 10
-1.835231339977724
 20
-3887.520770048127
 30
0.0
 11
-1.835231339975905
 21
-3964.520770048127
 31
0.0
  0
CIRCLE
  5
10A97
330
2
100
AcDbEntity
  8
L-ZISSEN
100
AcDbCircle
 10
-10.58523133997749
 20
-3959.270770048128
 30
0.0
 40
3.75
  0
POLYLINE
  5
10A98
330
2
100
AcDbEntity
  8
L-ZISSEN
100
AcDb2dPolyline
 66
     1
 10
0.0
 20
0.0
 30
0.0
 70
     1
  0
VERTEX
  5
10E26
330
10A98
100
AcDbEntity
  8
L-ZISSEN
100
AcDbVertex
100
AcDb2dVertex
 10
-11.83523133997749
 20
-3958.54908221164
 30
0.0
  0
VERTEX
  5
10E27
330
10A98
100
AcDbEntity
  8
L-ZISSEN
100
AcDbVertex
100
AcDb2dVertex
 10
-10.58523133997749
 20
-3957.827394375154
 30
0.0
  0
VERTEX
  5
10E28
330
10A98
100
AcDbEntity
  8
L-ZISSEN
100
AcDbVertex
100
AcDb2dVertex
 10
-9.335231339977497
 20
-3958.54908221164
 30
0.0
  0
VERTEX
  5
10E29
330
10A98
100
AcDbEntity
  8
L-ZISSEN
100
AcDbVertex
100
AcDb2dVertex
 10
-9.335231339977497
 20
-3959.992457884615
 30
0.0
  0
VERTEX
  5
10E2A
330
10A98
100
AcDbEntity
  8
L-ZISSEN
100
AcDbVertex
100
AcDb2dVertex
 10
-10.58523133997749
 20
-3960.714145721102
 30
0.0
  0
VERTEX
  5
10E2B
330
10A98
100
AcDbEntity
  8
L-ZISSEN
100
AcDbVertex
100
AcDb2dVertex
 10
-11.83523133997749
 20
-3959.992457884615
 30
0.0
  0
SEQEND
  5
10E2C
330
10A98
100
AcDbEntity
  8
L-ZISSEN
  0
LINE
  5
10A99
330
2
100
AcDbEntity
  8
L-ZISSEN
100
AcDbLine
 10
-8.085231339977724
 20
-3953.020770048127
 30
0.0
 11
-13.08523133997772
 21
-3953.020770048127
 31
0.0
  0
ARC
  5
10A9A
330
2
100
AcDbEntity
  8
L-ZISSEN
100
AcDbCircle
 10
-28.12857699123691
 20
-3962.507943793451
 30
0.0
 40
10.0
100
AcDbArc
 50
181.0000000000278
 51
265.1315559371177
  0
LINE
  5
10A9B
330
2
100
AcDbEntity
  8
L-ZISSEN
100
AcDbLine
 10
-1.150064071758322
 20
-3973.520770048128
 30
0.0
 11
7.80679599183901
 21
-3972.4718656822
 31
0.0
  0
LINE
  5
10A9C
330
2
100
AcDbEntity
  8
L-ZISSEN
100
AcDbLine
 10
-16.05243256172338
 20
-3981.962954958324
 30
0.0
 11
-16.55243256172065
 21
-3982.462954958324
 31
0.0
  0
LINE
  5
10A9D
330
2
100
AcDbEntity
  8
L-ZISSEN
100
AcDbLine
 10
-4.852432561722196
 20
-3992.021789547833
 30
0.0
 11
-16.25243256172092
 21
-3992.021789547833
 31
0.0
  0
ARC
  5
10A9E
330
2
100
AcDbEntity
  8
L-ZISSEN
100
AcDbCircle
 10
-14.50693771127174
 20
-3992.525712682814
 30
0.0
 40
15.50496374778473
100
AcDbArc
 50
75.34890043484701
 51
104.4621424617026
  0
ARC
  5
10A9F
330
2
100
AcDbEntity
  8
L-ZISSEN
100
AcDbCircle
 10
-14.50633294345965
 20
-3964.884622797609
 30
0.0
 40
15.15026028548078
100
AcDbArc
 50
255.1892479927985
 51
284.9997091106928
  0
LINE
  5
10AA0
330
2
100
AcDbEntity
  8
L-ZISSEN
100
AcDbLine
 10
-20.0203986081969
 20
-3973.520770048128
 30
0.0
 11
-1.150064071758322
 21
-3973.520770048128
 31
0.0
  0
LINE
  5
10AA1
330
2
100
AcDbEntity
  8
L-ZISSEN
100
AcDbLine
 10
-20.02039860819644
 20
-3977.020770048128
 30
0.0
 11
-1.150064071758322
 21
-3977.020770048128
 31
0.0
  0
LINE
  5
10AA2
330
2
100
AcDbEntity
  8
L-ZISSEN
100
AcDbLine
 10
-20.02039860819667
 20
-3973.520770048128
 30
0.0
 11
-28.977258671794
 21
-3972.4718656822
 31
0.0
  0
LINE
  5
10AA3
330
2
100
AcDbEntity
  8
L-ZISSEN
100
AcDbLine
 10
-16.55243256172065
 20
-3991.721789547832
 30
0.0
 11
-16.55243256172065
 21
-3982.462954958324
 31
0.0
  0
LINE
  5
10AA4
330
2
100
AcDbEntity
  8
L-ZISSEN
100
AcDbLine
 10
-16.25243256172092
 20
-3992.021789547833
 30
0.0
 11
-16.55243256172065
 21
-3991.721789547832
 31
0.0
  0
LINE
  5
10AA5
330
2
100
AcDbEntity
  8
L-ZISSEN
100
AcDbLine
 10
-20.02039860819667
 20
-3973.520770048128
 30
0.0
 11
-20.02039860819644
 21
-3977.020770048128
 31
0.0
  0
LINE
  5
10AA6
330
2
100
AcDbEntity
  8
L-ZISSEN
100
AcDbLine
 10
-18.37915133997756
 20
-3977.512056817776
 30
0.0
 11
-18.37915133997756
 21
-3979.531522277889
 31
0.0
  0
LINE
  5
10AA7
330
2
100
AcDbEntity
  8
L-ZISSEN
100
AcDbLine
 10
-7.552432561722014
 20
-3981.962954958324
 30
0.0
 11
-5.052432561722014
 21
-3981.962954958324
 31
0.0
  0
LINE
  5
10AA8
330
2
100
AcDbEntity
  8
L-ZISSEN
100
AcDbLine
 10
-15.12049569961613
 20
-3980.02242946921
 30
0.0
 11
-6.051871841879972
 21
-3980.022506632158
 31
0.0
  0
ARC
  5
10AA9
330
2
100
AcDbEntity
  8
L-ZISSEN
100
AcDbCircle
 10
-6.66412973649443
 20
-3964.884622797609
 30
0.0
 40
15.15026028548078
100
AcDbArc
 50
255.0002908893071
 51
284.8107520072012
  0
ARC
  5
10AAA
330
2
100
AcDbEntity
  8
L-ZISSEN
100
AcDbCircle
 10
-6.663524968682338
 20
-3992.525712682814
 30
0.0
 40
15.50496374778473
100
AcDbArc
 50
75.53785753829742
 51
104.6510995651527
  0
LINE
  5
10AAB
330
2
100
AcDbEntity
  8
L-ZISSEN
100
AcDbLine
 10
-11.55243256172065
 20
-3981.962954958324
 30
0.0
 11
-11.55243256172065
 21
-3992.021789547833
 31
0.0
  0
LINE
  5
10AAC
330
2
100
AcDbEntity
  8
L-ZISSEN
100
AcDbLine
 10
-10.55243256171928
 20
-3981.962954958324
 30
0.0
 11
-10.55243256171928
 21
-3992.021789547833
 31
0.0
  0
LINE
  5
10AAD
330
2
100
AcDbEntity
  8
L-ZISSEN
100
AcDbLine
 10
-9.552432561720195
 20
-3981.962954958324
 30
0.0
 11
-9.552432561720195
 21
-3992.021789547833
 31
0.0
  0
LINE
  5
10AAE
330
2
100
AcDbEntity
  8
L-ZISSEN
100
AcDbLine
 10
-8.552432561721104
 20
-3981.962954958324
 30
0.0
 11
-8.552432561721104
 21
-3992.021789547833
 31
0.0
  0
LINE
  5
10AAF
330
2
100
AcDbEntity
  8
L-ZISSEN
100
AcDbLine
 10
-10.58523133997704
 20
-3977.524908705778
 30
0.0
 11
-10.58523133997704
 21
-3979.519732618406
 31
0.0
  0
LINE
  5
10AB0
330
2
100
AcDbEntity
  8
L-ZISSEN
100
AcDbLine
 10
-10.58523133997704
 20
-3977.524908705778
 30
0.0
 11
-10.58523133997704
 21
-3979.519732618406
 31
0.0
  0
LINE
  5
10AB1
330
2
100
AcDbEntity
  8
L-ZISSEN
100
AcDbLine
 10
-10.58523133997704
 20
-3977.524908705778
 30
0.0
 11
-10.58523133997704
 21
-3979.519732618406
 31
0.0
  0
LINE
  5
10AB2
330
2
100
AcDbEntity
  8
L-ZISSEN
100
AcDbLine
 10
-10.58523133997704
 20
-3977.524908705778
 30
0.0
 11
-10.58523133997704
 21
-3979.519732618406
 31
0.0
  0
LINE
  5
10AB3
330
2
100
AcDbEntity
  8
L-ZISSEN
100
AcDbLine
 10
-7.552432561722014
 20
-3981.962954958324
 30
0.0
 11
-7.552432561722014
 21
-3992.021789547833
 31
0.0
  0
LINE
  5
10AB4
330
2
100
AcDbEntity
  8
L-ZISSEN
100
AcDbLine
 10
-12.55243256171974
 20
-3981.962954958324
 30
0.0
 11
-12.55243256171974
 21
-3992.021789547833
 31
0.0
  0
LINE
  5
10AB5
330
2
100
AcDbEntity
  8
L-ZISSEN
100
AcDbLine
 10
-15.55243256172156
 20
-3981.962954958324
 30
0.0
 11
-15.55243256172156
 21
-3992.021789547833
 31
0.0
  0
LINE
  5
10AB6
330
2
100
AcDbEntity
  8
L-ZISSEN
100
AcDbLine
 10
-14.55243256172247
 20
-3981.962954958324
 30
0.0
 11
-14.55243256172247
 21
-3992.021789547833
 31
0.0
  0
LINE
  5
10AB7
330
2
100
AcDbEntity
  8
L-ZISSEN
100
AcDbLine
 10
-13.5524325617211
 20
-3981.962954958324
 30
0.0
 11
-13.5524325617211
 21
-3992.021789547833
 31
0.0
  0
LINE
  5
10AB8
330
2
100
AcDbEntity
  8
L-ZISSEN
100
AcDbLine
 10
-15.55243256172337
 20
-3981.962954958324
 30
0.0
 11
-16.05243256172065
 21
-3981.462954958324
 31
0.0
  0
LINE
  5
10AB9
330
2
100
AcDbEntity
  8
L-ZISSEN
100
AcDbLine
 10
-15.55243256171928
 20
-3980.022486158961
 30
0.0
 11
-15.55243256172337
 21
-3981.962954958324
 31
0.0
  0
LINE
  5
10ABA
330
2
100
AcDbEntity
  8
L-ZISSEN
100
AcDbLine
 10
-16.05243256172065
 20
-3981.462954958324
 30
0.0
 11
-16.05243256172065
 21
-3980.021789547832
 31
0.0
  0
LINE
  5
10ABB
330
2
100
AcDbEntity
  8
L-ZISSEN
100
AcDbLine
 10
-16.05243256172338
 20
-3981.962954958324
 30
0.0
 11
-7.552432561722014
 21
-3981.962954958324
 31
0.0
  0
LINE
  5
10ABC
330
2
100
AcDbEntity
  8
L-ZISSEN
100
AcDbLine
 10
-2.791311339976516
 20
-3977.512056817776
 30
0.0
 11
-2.791311339976516
 21
-3979.531522277889
 31
0.0
  0
LINE
  5
10ABD
330
2
100
AcDbEntity
  8
L-ZISSEN
100
AcDbLine
 10
-1.150064071758322
 20
-3973.520770048128
 30
0.0
 11
-1.150064071758549
 21
-3977.020770048128
 31
0.0
  0
LINE
  5
10ABE
330
2
100
AcDbEntity
  8
L-ZISSEN
100
AcDbLine
 10
-6.552432561718376
 20
-3981.962954958324
 30
0.0
 11
-6.552432561718376
 21
-3992.021789547833
 31
0.0
  0
LINE
  5
10ABF
330
2
100
AcDbEntity
  8
L-ZISSEN
100
AcDbLine
 10
-5.552432561719285
 20
-3981.962954958324
 30
0.0
 11
-5.552432561717239
 21
-3992.021789547833
 31
0.0
  0
LINE
  5
10AC0
330
2
100
AcDbEntity
  8
L-ZISSEN
100
AcDbLine
 10
-4.552432561722469
 20
-3982.462954958324
 30
0.0
 11
-4.552432561722469
 21
-3991.721789547832
 31
0.0
  0
LINE
  5
10AC1
330
2
100
AcDbEntity
  8
L-ZISSEN
100
AcDbLine
 10
-4.852432561722196
 20
-3992.021789547833
 30
0.0
 11
-4.552432561722469
 21
-3991.721789547832
 31
0.0
  0
LINE
  5
10AC2
330
2
100
AcDbEntity
  8
L-ZISSEN
100
AcDbLine
 10
-5.552432561722014
 20
-3981.962954958324
 30
0.0
 11
-5.052432561722469
 21
-3981.462954958324
 31
0.0
  0
LINE
  5
10AC3
330
2
100
AcDbEntity
  8
L-ZISSEN
100
AcDbLine
 10
-5.552432561717921
 20
-3980.023135810255
 30
0.0
 11
-5.552432561722014
 21
-3981.962954958324
 31
0.0
  0
LINE
  5
10AC4
330
2
100
AcDbEntity
  8
L-ZISSEN
100
AcDbLine
 10
-5.052432561722469
 20
-3981.462954958324
 30
0.0
 11
-5.052432561722469
 21
-3980.021789547832
 31
0.0
  0
LINE
  5
10AC5
330
2
100
AcDbEntity
  8
L-ZISSEN
100
AcDbLine
 10
-5.052432561722014
 20
-3981.962954958324
 30
0.0
 11
-4.552432561722469
 21
-3982.462954958324
 31
0.0
  0
ARC
  5
10AC6
330
2
100
AcDbEntity
  8
L-ZISSEN
100
AcDbCircle
 10
6.958114311281917
 20
-3962.507943793451
 30
0.0
 40
10.0
100
AcDbArc
 50
274.868444062882
 51
358.9999999999721
  0
LINE
  5
10C93
330
2
100
AcDbEntity
  8
L-ZISSEN
100
AcDbLine
 10
-179.0852313399782
 20
-3883.520770048125
 30
0.0
 11
-164.5852313399782
 21
-3883.520770048127
 31
0.0
  0
LINE
  5
10C94
330
2
100
AcDbEntity
  8
L-ZISSEN
100
AcDbLine
 10
-170.020398608197
 20
-3973.520770048127
 30
0.0
 11
-178.9772586717945
 21
-3972.4718656822
 31
0.0
  0
LINE
  5
10C95
330
2
100
AcDbEntity
  8
L-ZISSEN
100
AcDbLine
 10
-189.841098401459
 20
-3883.520770048127
 30
0.0
 11
-188.1252373994821
 21
-3962.766363379066
 31
0.0
  0
ARC
  5
10C96
330
2
100
AcDbEntity
  8
L-ZISSEN
100
AcDbCircle
 10
-178.1285769912374
 20
-3962.50794379345
 30
0.0
 40
10.0
100
AcDbArc
 50
181.0000000000278
 51
265.1315559371179
  0
LINE
  5
10C97
330
2
100
AcDbEntity
  8
L-ZISSEN
100
AcDbLine
 10
-179.0852313399773
 20
-3873.520770048126
 30
0.0
 11
-184.5965857782358
 21
-3873.520770048127
 31
0.0
  0
LINE
  5
10C98
330
2
100
AcDbEntity
  8
L-ZISSEN
100
AcDbLine
 10
-184.5965857782358
 20
-3873.520770048127
 30
0.0
 11
-184.5965857782358
 21
-3883.520770048125
 31
0.0
  0
LINE
  5
10C99
330
2
100
AcDbEntity
  8
L-ZISSEN
100
AcDbLine
 10
-189.841098401459
 20
-3883.520770048127
 30
0.0
 11
-190.5412159402049
 21
-3883.520770048127
 31
0.0
  0
LINE
  5
10C9A
330
2
100
AcDbEntity
  8
L-ZISSEN
100
AcDbLine
 10
-184.5965857782358
 20
-3883.520770048125
 30
0.0
 11
-189.841098401459
 21
-3883.520770048125
 31
0.0
  0
LINE
  5
10C9B
330
2
100
AcDbEntity
  8
L-ZISSEN
100
AcDbLine
 10
-179.0852313399782
 20
-3873.520770048126
 30
0.0
 11
-179.0852313399782
 21
-3883.520770048125
 31
0.0
  0
LINE
  5
10C9C
330
2
100
AcDbEntity
  8
L-ZISSEN
100
AcDbLine
 10
-134.0852313399782
 20
-3873.520770048127
 30
0.0
 11
-142.0852313399783
 21
-3873.520770048127
 31
0.0
  0
ARC
  5
10C9D
330
2
100
AcDbEntity
  8
L-ZISSEN
100
AcDbCircle
 10
-143.0418856887182
 20
-3962.50794379345
 30
0.0
 40
10.0
100
AcDbArc
 50
274.868444062882
 51
348.3880264988931
  0
LINE
  5
10C9E
330
2
100
AcDbEntity
  8
L-ZISSEN
100
AcDbLine
 10
-142.0852313399783
 20
-3883.520770048126
 30
0.0
 11
-156.5852313399783
 21
-3883.520770048126
 31
0.0
  0
LINE
  5
10C9F
330
2
100
AcDbEntity
  8
L-ZISSEN
100
AcDbLine
 10
-151.1500640717595
 20
-3973.520770048127
 30
0.0
 11
-170.020398608197
 21
-3973.520770048127
 31
0.0
  0
LINE
  5
10CA0
330
2
100
AcDbEntity
  8
L-ZISSEN
100
AcDbLine
 10
-151.15006407176
 20
-3976.520770048127
 30
0.0
 11
-170.020398608197
 21
-3976.520770048127
 31
0.0
  0
LINE
  5
10CA1
330
2
100
AcDbEntity
  8
L-ZISSEN
100
AcDbLine
 10
-169.2454853778229
 20
-3978.520770048127
 30
0.0
 11
-151.9249773021341
 21
-3978.520770048127
 31
0.0
  0
LINE
  5
10CA2
330
2
100
AcDbEntity
  8
L-ZISSEN
100
AcDbLine
 10
-170.020398608197
 20
-3973.520770048127
 30
0.0
 11
-170.0203986081966
 21
-3976.520770048127
 31
0.0
  0
LINE
  5
10CA3
330
2
100
AcDbEntity
  8
L-ZISSEN
100
AcDbLine
 10
-169.2454853778229
 20
-3978.520770048127
 30
0.0
 11
-169.2454853778229
 21
-3976.520770048127
 31
0.0
  0
LINE
  5
10CA4
330
2
100
AcDbEntity
  8
L-ZISSEN
100
AcDbLine
 10
-156.2551043210563
 20
-3978.520770048127
 30
0.0
 11
-156.2551043210563
 21
-3976.520770048127
 31
0.0
  0
LINE
  5
10CA5
330
2
100
AcDbEntity
  8
L-ZISSEN
100
AcDbLine
 10
-164.9153583589007
 20
-3978.520770048127
 30
0.0
 11
-164.9153583589007
 21
-3976.520770048127
 31
0.0
  0
LINE
  5
10CA6
330
2
100
AcDbEntity
  8
L-ZISSEN
100
AcDbLine
 10
-156.5852313399783
 20
-3873.520770048127
 30
0.0
 11
-156.5852313399783
 21
-3883.520770048127
 31
0.0
  0
LINE
  5
10CA7
330
2
100
AcDbEntity
  8
L-ZISSEN
100
AcDbLine
 10
-164.5852313399782
 20
-3873.520770048127
 30
0.0
 11
-164.5852313399782
 21
-3883.520770048127
 31
0.0
  0
LINE
  5
10CA8
330
2
100
AcDbEntity
  8
L-ZISSEN
100
AcDbLine
 10
-156.5852313399783
 20
-3873.520770048127
 30
0.0
 11
-164.5852313399782
 21
-3873.520770048127
 31
0.0
  0
LINE
  5
10CA9
330
2
100
AcDbEntity
  8
L-ZISSEN
100
AcDbLine
 10
-151.1500640717586
 20
-3973.520770048127
 30
0.0
 11
-142.1932040081611
 21
-3972.4718656822
 31
0.0
  0
LINE
  5
10CAA
330
2
100
AcDbEntity
  8
L-ZISSEN
100
AcDbLine
 10
-151.1500640717595
 20
-3973.520770048127
 30
0.0
 11
-151.1500640717599
 21
-3976.520770048127
 31
0.0
  0
LINE
  5
10CAB
330
2
100
AcDbEntity
  8
L-ZISSEN
100
AcDbLine
 10
-151.9249773021341
 20
-3978.520770048127
 30
0.0
 11
-151.9249773021341
 21
-3976.520770048127
 31
0.0
  0
LINE
  5
10CAC
330
2
100
AcDbEntity
  8
L-ZISSEN
100
AcDbLine
 10
-142.0852313399783
 20
-3873.520770048127
 30
0.0
 11
-142.0852313399783
 21
-3883.520770048127
 31
0.0
  0
LINE
  5
10CAD
330
2
100
AcDbEntity
  8
L-TYUSIN
100
AcDbLine
 10
-134.9815161688275
 20
-3959.520770048126
 30
0.0
 11
-111.9406404596111
 21
-3959.520770048126
 31
0.0
  0
LINE
  5
10CAE
330
2
100
AcDbEntity
  8
L-ZISSEN
100
AcDbLine
 10
-118.8406404596108
 20
-3964.520770048127
 30
0.0
 11
-128.3406404596108
 21
-3964.520770048127
 31
0.0
  0
LINE
  5
10CAF
330
2
100
AcDbEntity
  8
L-TYUSIN
100
AcDbLine
 10
-111.9406404596111
 20
-3892.520770048127
 30
0.0
 11
-136.4623151692613
 21
-3892.520770048127
 31
0.0
  0
LINE
  5
10CB0
330
2
100
AcDbEntity
  8
L-ZISSEN
100
AcDbLine
 10
-118.8406404596108
 20
-3887.520770048126
 30
0.0
 11
-128.3406404596108
 21
-3887.520770048126
 31
0.0
  0
LINE
  5
10CB1
330
2
100
AcDbEntity
  8
L-ZISSEN
 48
0.3
100
AcDbLine
 10
-133.4384236551277
 20
-3964.520770048127
 30
0.0
 11
-133.4384236551277
 21
-3887.520770048126
 31
0.0
  0
LINE
  5
10CB2
330
2
100
AcDbEntity
  8
L-ZISSEN
100
AcDbLine
 10
-128.3406404596108
 20
-3887.520770048126
 30
0.0
 11
-128.3406404596126
 21
-3964.520770048127
 31
0.0
  0
LINE
  5
10CB3
330
2
100
AcDbEntity
  8
L-ZISSEN
100
AcDbLine
 10
-128.3406404596126
 20
-3964.520770048127
 30
0.0
 11
-132.1384236551276
 21
-3964.520770048127
 31
0.0
  0
LINE
  5
10CB4
330
2
100
AcDbEntity
  8
L-ZISSEN
 48
0.3
100
AcDbLine
 10
-132.1384236551276
 20
-3964.520770048127
 30
0.0
 11
-133.4384236551277
 21
-3964.520770048127
 31
0.0
  0
LINE
  5
10CB5
330
2
100
AcDbEntity
  8
L-ZISSEN
100
AcDbLine
 10
-128.3406404596108
 20
-3887.520770048126
 30
0.0
 11
-131.4407579983572
 21
-3887.520770048126
 31
0.0
  0
LINE
  5
10CB6
330
2
100
AcDbEntity
  8
L-ZISSEN
100
AcDbLine
 10
-126.6292467397507
 20
-3887.520770048126
 30
0.0
 11
-130.0852313399782
 21
-3887.520770048126
 31
0.0
  0
LINE
  5
10CB7
330
2
100
AcDbEntity
  8
L-ZISSEN
 48
0.3
100
AcDbLine
 10
-133.4384236551277
 20
-3887.520770048126
 30
0.0
 11
-131.4407579983572
 21
-3887.520770048126
 31
0.0
  0
LINE
  5
10CB8
330
2
100
AcDbEntity
  8
L-ZISSEN
100
AcDbLine
 10
-131.3293642784975
 20
-3883.520770048127
 30
0.0
 11
-131.367218077186
 21
-3887.520770048126
 31
0.0
  0
LINE
  5
10CB9
330
2
100
AcDbEntity
  8
L-ZISSEN
100
AcDbLine
 10
-134.0852313399782
 20
-3873.520770048127
 30
0.0
 11
-134.0852313399782
 21
-3883.520770048127
 31
0.0
  0
LINE
  5
10CBA
330
2
100
AcDbEntity
  8
L-ZISSEN
100
AcDbLine
 10
-130.6292467397507
 20
-3883.520770048127
 30
0.0
 11
-134.0852313399782
 21
-3883.520770048127
 31
0.0
  0
LINE
  5
10CBB
330
2
100
AcDbEntity
  8
L-ZISSEN
100
AcDbLine
 10
-118.8406404596108
 20
-3887.520770048126
 30
0.0
 11
-118.8406404596126
 21
-3964.520770048127
 31
0.0
  0
LINE
  5
10CBC
330
2
100
AcDbEntity
  8
L-ZISSEN
100
AcDbLine
 10
-116.9406404596111
 20
-3960.714145721101
 30
0.0
 11
-116.9406404596111
 21
-3957.827394375154
 31
0.0
  0
ARC
  5
10CBD
330
2
100
AcDbEntity
  8
L-ZISSEN
100
AcDbCircle
 10
-119.2526430273883
 20
-3960.745556563945
 30
0.0
 40
2.312215931624567
100
AcDbArc
 50
280.2640683722025
 51
0.7783719766075644
  0
ARC
  5
10CBE
330
2
100
AcDbEntity
  8
L-ZISSEN
100
AcDbCircle
 10
-119.2526430273883
 20
-3957.79598353231
 30
0.0
 40
2.312215931624567
100
AcDbArc
 50
359.2216280233924
 51
79.73593162779744
  0
LINE
  5
10CBF
330
2
100
AcDbEntity
  8
L-ZISSEN
100
AcDbLine
 10
-116.9406404596111
 20
-3891.327394375153
 30
0.0
 11
-116.9406404596111
 21
-3894.2141457211
 31
0.0
  0
ARC
  5
10CC0
330
2
100
AcDbEntity
  8
L-ZISSEN
100
AcDbCircle
 10
-119.2526430273883
 20
-3891.295983532309
 30
0.0
 40
2.312215931624567
100
AcDbArc
 50
359.2216280233924
 51
79.73593162779744
  0
ARC
  5
10CC1
330
2
100
AcDbEntity
  8
L-ZISSEN
100
AcDbCircle
 10
-119.2526430273883
 20
-3894.245556563944
 30
0.0
 40
2.312215931624567
100
AcDbArc
 50
280.2640683722025
 51
0.7783719766075644
  0
LINE
  5
10CC2
330
2
100
AcDbEntity
  8
L-ZISSEN
100
AcDbLine
 10
-130.3818604049439
 20
-3870.021789547832
 30
0.0
 11
-130.6292467397507
 21
-3883.520770048127
 31
0.0
  0
LINE
  5
10CC3
330
2
100
AcDbEntity
  8
L-ZISSEN
100
AcDbLine
 10
-190.7215144554034
 20
-3870.021789547832
 30
0.0
 11
-190.5412159402049
 21
-3883.520770048127
 31
0.0
  0
VIEWPORT
  5
69B
330
F
100
AcDbEntity
 67
     1
  8
0
100
AcDbViewport
 10
0.0
 20
0.0
 30
0.0
 40
0.0
 41
0.0
 68
     1
 69
     1
1001
ACAD
1000
MVIEW
1002
{
1070
    16
1010
0.0
1020
0.0
1030
0.0
1010
0.0
1020
0.0
1030
1.0
1040
0.0
1040
0.0
1040
0.0
1040
0.0
1040
50.0
1040
0.0
1040
0.0
1070
     0
1070
   100
1070
     1
1070
     1
1070
     0
1070
     0
1070
     0
1070
     0
1040
0.0
1040
0.0
1040
0.0
1040
10.0
1040
10.0
1040
10.0
1040
10.0
1070
     0
1002
{
1002
}
1002
}
  0
VIEWPORT
  5
69D
330
F
100
AcDbEntity
 67
     1
  8
SUNPOU
100
AcDbViewport
 10
0.0
 20
0.0
 30
0.0
 40
0.0
 41
0.0
 68
    -1
 69
     2
1001
ACAD
1000
MVIEW
1002
{
1070
    16
1010
0.0
1020
0.0
1030
0.0
1010
0.0
1020
0.0
1030
1.0
1040
0.0
1040
59.8802181911947
1040
144.5109310282361
1040
-1209.648178221134
1040
50.0
1040
0.0
1040
0.0
1070
    16
1070
   100
1070
     1
1070
     0
1070
     0
1070
     0
1070
     0
1070
     0
1040
0.0
1040
0.0
1040
0.0
1040
1.0
1040
1.0
1040
4.0
1040
4.0
1070
     0
1002
{
1002
}
1002
}
  0
ENDSEC
  0
SECTION
  2
OBJECTS
  0
DICTIONARY
  5
9
330
0
100
AcDbDictionary
  3
ACAD_GROUP
350
23
  3
ACAD_LAYOUT
350
E
  3
ACAD_MLINESTYLE
350
24
  3
ACAD_PLOTSETTINGS
350
25
1001
ACAD
1000
TREAT_AS_HARD
1070
     0
  0
DICTIONARY
  5
8E1
330
15
100
AcDbDictionary
  3
ACAD_LAYERSTATES
350
8E2
1001
ACAD
1000
TREAT_AS_HARD
1070
     1
  0
DICTIONARY
  5
3
330
2
100
AcDbDictionary
  3
ACAD_LAYOUTSELFREF
350
10E06
1001
ACAD
1000
TREAT_AS_HARD
1070
     1
  0
DICTIONARY
  5
10
330
F
100
AcDbDictionary
  3
ACAD_LAYOUTSELFREF
350
10E07
1001
ACAD
1000
TREAT_AS_HARD
1070
     1
  0
DICTIONARY
  5
23
102
{ACAD_REACTORS
330
9
102
}
330
9
100
AcDbDictionary
1001
ACAD
1000
TREAT_AS_HARD
1070
     0
  0
DICTIONARY
  5
E
102
{ACAD_REACTORS
330
9
102
}
330
9
100
AcDbDictionary
1001
ACAD
1000
TREAT_AS_HARD
1070
     0
  0
DICTIONARY
  5
24
102
{ACAD_REACTORS
330
9
102
}
330
9
100
AcDbDictionary
  3
STANDARD
350
27
1001
ACAD
1000
TREAT_AS_HARD
1070
     0
  0
DICTIONARY
  5
25
102
{ACAD_REACTORS
330
9
102
}
330
9
100
AcDbDictionary
1001
ACAD
1000
TREAT_AS_HARD
1070
     0
  0
DICTIONARY
  5
8E2
102
{ACAD_REACTORS
330
8E1
102
}
330
8E1
100
AcDbDictionary
1001
ACAD
1000
TREAT_AS_HARD
1070
     0
  0
XRECORD
  5
10E06
102
{ACAD_REACTORS
330
3
102
}
330
3
100
AcDbXrecord
340
2
  0
XRECORD
  5
10E07
102
{ACAD_REACTORS
330
10
102
}
330
10
100
AcDbXrecord
340
F
  0
MLINESTYLE
  5
27
102
{ACAD_REACTORS
330
24
102
}
330
24
100
AcDbMlineStyle
  2
STANDARD
 70
     0
  3

 62
   256
 51
90.0
 52
90.0
 71
     2
 49
0.5
 62
   256
  6
BYLAYER
 49
-0.5
 62
   256
  6
BYLAYER
  0
ENDSEC
  0
EOF
