  0
SECTION
  2
HEADER
  9
$ACADVER
  1
AC1012
  9
$DWGCODEPAGE
  3
dos932
  9
$INSBASE
 10
0.0
 20
0.0
 30
0.0
  9
$EXTMIN
 10
-74.99999999999772
 20
-286.6396806662901
 30
0.0
  9
$EXTMAX
 10
1026.476693482843
 20
343.3603677856384
 30
0.0
  9
$LIMMIN
 10
0.0
 20
0.0
  9
$LIMMAX
 10
12.0
 20
9.0
  9
$ORTHOMODE
 70
     0
  9
$REGENMODE
 70
     1
  9
$FILLMODE
 70
     1
  9
$QTEXTMODE
 70
     0
  9
$MIRRTEXT
 70
     1
  9
$DRAGMODE
 70
     2
  9
$LTSCALE
 40
1.0
  9
$OSMODE
 70
    39
  9
$ATTMODE
 70
     1
  9
$TEXTSIZE
 40
4.5
  9
$TRACEWID
 40
0.05
  9
$TEXTSTYLE
  7
STANDARD
  9
$CLAYER
  8
L-ZISSEN
  9
$CELTYPE
  6
BYLAYER
  9
$CECOLOR
 62
   256
  9
$CELTSCALE
 40
1.0
  9
$DELOBJ
 70
     1
  9
$DISPSILH
 70
     0
  9
$DIMSCALE
 40
0.0
  9
$DIMASZ
 40
2.0
  9
$DIMEXO
 40
1.0
  9
$DIMDLI
 40
8.0
  9
$DIMRND
 40
0.0
  9
$DIMDLE
 40
0.0
  9
$DIMEXE
 40
1.0
  9
$DIMTP
 40
0.0
  9
$DIMTM
 40
0.0
  9
$DIMTXT
 40
4.5
  9
$DIMCEN
 40
1.5
  9
$DIMTSZ
 40
0.0
  9
$DIMTOL
 70
     0
  9
$DIMLIM
 70
     0
  9
$DIMTIH
 70
     0
  9
$DIMTOH
 70
     0
  9
$DIMSE1
 70
     0
  9
$DIMSE2
 70
     0
  9
$DIMTAD
 70
     1
  9
$DIMZIN
 70
     8
  9
$DIMBLK
  1

  9
$DIMASO
 70
     1
  9
$DIMSHO
 70
     0
  9
$DIMPOST
  1

  9
$DIMAPOST
  1

  9
$DIMALT
 70
     0
  9
$DIMALTD
 70
     2
  9
$DIMALTF
 40
25.4
  9
$DIMLFAC
 40
1.0
  9
$DIMTOFL
 70
     1
  9
$DIMTVP
 40
0.0
  9
$DIMTIX
 70
     1
  9
$DIMSOXD
 70
     0
  9
$DIMSAH
 70
     0
  9
$DIMBLK1
  1

  9
$DIMBLK2
  1

  9
$DIMSTYLE
  2
STANDARD
  9
$DIMCLRD
 70
     0
  9
$DIMCLRE
 70
     0
  9
$DIMCLRT
 70
     0
  9
$DIMTFAC
 40
1.0
  9
$DIMGAP
 40
1.399999999999999
  9
$DIMJUST
 70
     0
  9
$DIMSD1
 70
     0
  9
$DIMSD2
 70
     0
  9
$DIMTOLJ
 70
     1
  9
$DIMTZIN
 70
     8
  9
$DIMALTZ
 70
     0
  9
$DIMALTTZ
 70
     0
  9
$DIMFIT
 70
     3
  9
$DIMUPT
 70
     0
  9
$DIMUNIT
 70
     2
  9
$DIMDEC
 70
     4
  9
$DIMTDEC
 70
     4
  9
$DIMALTU
 70
     2
  9
$DIMALTTD
 70
     2
  9
$DIMTXSTY
  7
KANJI
  9
$DIMAUNIT
 70
     0
  9
$LUNITS
 70
     2
  9
$LUPREC
 70
     4
  9
$SKETCHINC
 40
0.1
  9
$FILLETRAD
 40
2.299999999999999
  9
$AUNITS
 70
     0
  9
$AUPREC
 70
     0
  9
$MENU
  1
acad
  9
$ELEVATION
 40
0.0
  9
$PELEVATION
 40
0.0
  9
$THICKNESS
 40
0.0
  9
$LIMCHECK
 70
     0
  9
$BLIPMODE
 70
     0
  9
$CHAMFERA
 40
7.0
  9
$CHAMFERB
 40
7.0
  9
$CHAMFERC
 40
0.0
  9
$CHAMFERD
 40
0.0
  9
$SKPOLY
 70
     0
  9
$TDCREATE
 40
2450178.569598264
  9
$TDUPDATE
 40
2455072.581656354
  9
$TDINDWG
 40
1.3307132639
  9
$TDUSRTIMER
 40
1.3307132639
  9
$USRTIMER
 70
     1
  9
$ANGBASE
 50
0.0
  9
$ANGDIR
 70
     0
  9
$PDMODE
 70
     0
  9
$PDSIZE
 40
0.0
  9
$PLINEWID
 40
0.0
  9
$COORDS
 70
     0
  9
$SPLFRAME
 70
     0
  9
$SPLINETYPE
 70
     6
  9
$SPLINESEGS
 70
     8
  9
$ATTDIA
 70
     0
  9
$ATTREQ
 70
     1
  9
$HANDLING
 70
-16383
  9
$HANDSEED
  5
5D4
  9
$SURFTAB1
 70
     6
  9
$SURFTAB2
 70
     6
  9
$SURFTYPE
 70
     6
  9
$SURFU
 70
     6
  9
$SURFV
 70
     6
  9
$UCSNAME
  2

  9
$UCSORG
 10
0.0
 20
0.0
 30
0.0
  9
$UCSXDIR
 10
1.0
 20
0.0
 30
0.0
  9
$UCSYDIR
 10
0.0
 20
1.0
 30
0.0
  9
$PUCSNAME
  2

  9
$PUCSORG
 10
0.0
 20
0.0
 30
0.0
  9
$PUCSXDIR
 10
1.0
 20
0.0
 30
0.0
  9
$PUCSYDIR
 10
0.0
 20
1.0
 30
0.0
  9
$USERI1
 70
     0
  9
$USERI2
 70
     0
  9
$USERI3
 70
     0
  9
$USERI4
 70
     0
  9
$USERI5
 70
     0
  9
$USERR1
 40
0.0
  9
$USERR2
 40
0.0
  9
$USERR3
 40
0.0
  9
$USERR4
 40
0.0
  9
$USERR5
 40
0.0
  9
$WORLDVIEW
 70
     1
  9
$SHADEDGE
 70
     3
  9
$SHADEDIF
 70
    70
  9
$TILEMODE
 70
     1
  9
$MAXACTVP
 70
    16
  9
$PINSBASE
 10
0.0
 20
0.0
 30
0.0
  9
$PLIMCHECK
 70
     0
  9
$PEXTMIN
 10
1.000000000000000E+20
 20
1.000000000000000E+20
 30
1.000000000000000E+20
  9
$PEXTMAX
 10
-1.000000000000000E+20
 20
-1.000000000000000E+20
 30
-1.000000000000000E+20
  9
$PLIMMIN
 10
0.0
 20
0.0
  9
$PLIMMAX
 10
12.0
 20
9.0
  9
$UNITMODE
 70
     0
  9
$VISRETAIN
 70
     0
  9
$PLINEGEN
 70
     0
  9
$PSLTSCALE
 70
     0
  9
$TREEDEPTH
 70
  3020
  9
$PICKSTYLE
 70
     1
  9
$CMLSTYLE
  2
STANDARD
  9
$CMLJUST
 70
     0
  9
$CMLSCALE
 40
1.0
  9
$SAVEIMAGES
 70
     1
  0
ENDSEC
  0
SECTION
  2
CLASSES
  0
CLASS
  1
ACDBDICTIONARYWDFLT
  2
AcDbDictionaryWithDefault
  3
AutoCAD 2000
 90
    32768
280
     0
281
     0
  0
CLASS
  1
ACDBPLACEHOLDER
  2
AcDbPlaceHolder
  3
AutoCAD 2000
 90
    32768
280
     0
281
     0
  0
CLASS
  1
LAYOUT
  2
AcDbLayout
  3
AutoCAD 2000
 90
    32768
280
     0
281
     0
  0
CLASS
  1
LONG_TRANSACTION
  2
AcDbLongTransaction
  3
AutoCAD 2000
 90
    32768
280
     0
281
     0
  0
CLASS
  1
LWPOLYLINE
  2
AcDbPolyline
  3
AutoCAD 2000
 90
    32768
280
     0
281
     1
  0
CLASS
  1
HATCH
  2
AcDbHatch
  3
AutoCAD 2000
 90
    32768
280
     0
281
     1
  0
CLASS
  1
XRECORD
  2
AcDbXrecord
  3
AutoCAD 2000
 90
    32768
280
     0
281
     0
  0
CLASS
  1
LONG_TRANSACTION
  2
AcDbLongTransaction
  3
AutoCAD 2000
 90
    32768
280
     0
281
     0
  0
CLASS
  1
LWPOLYLINE
  2
AcDbPolyline
  3
AutoCAD 2000
 90
    32768
280
     0
281
     1
  0
CLASS
  1
HATCH
  2
AcDbHatch
  3
AutoCAD 2000
 90
    32768
280
     0
281
     1
  0
CLASS
  1
XRECORD
  2
AcDbXrecord
  3
AutoCAD 2000
 90
    32768
280
     0
281
     0
  0
CLASS
  1
LONG_TRANSACTION
  2
AcDbLongTransaction
  3
AutoCAD 2000
 90
    32768
280
     0
281
     0
  0
CLASS
  1
LWPOLYLINE
  2
AcDbPolyline
  3
AutoCAD 2000
 90
    32768
280
     0
281
     1
  0
CLASS
  1
HATCH
  2
AcDbHatch
  3
AutoCAD 2000
 90
    32768
280
     0
281
     1
  0
CLASS
  1
XRECORD
  2
AcDbXrecord
  3
AutoCAD 2000
 90
    32768
280
     0
281
     0
  0
CLASS
  1
LONG_TRANSACTION
  2
AcDbLongTransaction
  3
AutoCAD 2000
 90
    32768
280
     0
281
     0
  0
CLASS
  1
LWPOLYLINE
  2
AcDbPolyline
  3
AutoCAD 2000
 90
    32768
280
     0
281
     1
  0
CLASS
  1
HATCH
  2
AcDbHatch
  3
AutoCAD 2000
 90
    32768
280
     0
281
     1
  0
CLASS
  1
XRECORD
  2
AcDbXrecord
  3
AutoCAD 2000
 90
    32768
280
     0
281
     0
  0
CLASS
  1
LONG_TRANSACTION
  2
AcDbLongTransaction
  3
AutoCAD 2000
 90
    32768
280
     0
281
     0
  0
CLASS
  1
LWPOLYLINE
  2
AcDbPolyline
  3
AutoCAD 2000
 90
    32768
280
     0
281
     1
  0
CLASS
  1
HATCH
  2
AcDbHatch
  3
AutoCAD 2000
 90
    32768
280
     0
281
     1
  0
CLASS
  1
XRECORD
  2
AcDbXrecord
  3
AutoCAD 2000
 90
    32768
280
     0
281
     0
  0
CLASS
  1
LONG_TRANSACTION
  2
AcDbLongTransaction
  3
AutoCAD 2000
 90
    32768
280
     0
281
     0
  0
CLASS
  1
LWPOLYLINE
  2
AcDbPolyline
  3
AutoCAD 2000
 90
    32768
280
     0
281
     1
  0
CLASS
  1
HATCH
  2
AcDbHatch
  3
AutoCAD 2000
 90
    32768
280
     0
281
     1
  0
CLASS
  1
XRECORD
  2
AcDbXrecord
  3
AutoCAD 2000
 90
    32768
280
     0
281
     0
  0
CLASS
  1
LONG_TRANSACTION
  2
AcDbLongTransaction
  3
AutoCAD 2000
 90
    32768
280
     0
281
     0
  0
CLASS
  1
LWPOLYLINE
  2
AcDbPolyline
  3
AutoCAD 2000
 90
    32768
280
     0
281
     1
  0
CLASS
  1
HATCH
  2
AcDbHatch
  3
AutoCAD 2000
 90
    32768
280
     0
281
     1
  0
CLASS
  1
XRECORD
  2
AcDbXrecord
  3
AutoCAD 2000
 90
    32768
280
     0
281
     0
  0
CLASS
  1
LONG_TRANSACTION
  2
AcDbLongTransaction
  3
AutoCAD 2000
 90
    32768
280
     0
281
     0
  0
CLASS
  1
LWPOLYLINE
  2
AcDbPolyline
  3
AutoCAD 2000
 90
    32768
280
     0
281
     1
  0
CLASS
  1
HATCH
  2
AcDbHatch
  3
AutoCAD 2000
 90
    32768
280
     0
281
     1
  0
CLASS
  1
XRECORD
  2
AcDbXrecord
  3
AutoCAD 2000
 90
    32768
280
     0
281
     0
  0
CLASS
  1
LONG_TRANSACTION
  2
AcDbLongTransaction
  3
AutoCAD 2000
 90
    32768
280
     0
281
     0
  0
CLASS
  1
LWPOLYLINE
  2
AcDbPolyline
  3
AutoCAD 2000
 90
    32768
280
     0
281
     1
  0
CLASS
  1
HATCH
  2
AcDbHatch
  3
AutoCAD 2000
 90
    32768
280
     0
281
     1
  0
CLASS
  1
XRECORD
  2
AcDbXrecord
  3
AutoCAD 2000
 90
    32768
280
     0
281
     0
  0
CLASS
  1
LONG_TRANSACTION
  2
AcDbLongTransaction
  3
AutoCAD 2000
 90
    32768
280
     0
281
     0
  0
CLASS
  1
LWPOLYLINE
  2
AcDbPolyline
  3
AutoCAD 2000
 90
    32768
280
     0
281
     1
  0
CLASS
  1
HATCH
  2
AcDbHatch
  3
AutoCAD 2000
 90
    32768
280
     0
281
     1
  0
CLASS
  1
XRECORD
  2
AcDbXrecord
  3
AutoCAD 2000
 90
    32768
280
     0
281
     0
  0
CLASS
  1
LONG_TRANSACTION
  2
AcDbLongTransaction
  3
AutoCAD 2000
 90
    32768
280
     0
281
     0
  0
CLASS
  1
LWPOLYLINE
  2
AcDbPolyline
  3
AutoCAD 2000
 90
    32768
280
     0
281
     1
  0
CLASS
  1
HATCH
  2
AcDbHatch
  3
AutoCAD 2000
 90
    32768
280
     0
281
     1
  0
CLASS
  1
XRECORD
  2
AcDbXrecord
  3
AutoCAD 2000
 90
    32768
280
     0
281
     0
  0
CLASS
  1
LONG_TRANSACTION
  2
AcDbLongTransaction
  3
AutoCAD 2000
 90
    32768
280
     0
281
     0
  0
CLASS
  1
LWPOLYLINE
  2
AcDbPolyline
  3
AutoCAD 2000
 90
    32768
280
     0
281
     1
  0
CLASS
  1
HATCH
  2
AcDbHatch
  3
AutoCAD 2000
 90
    32768
280
     0
281
     1
  0
CLASS
  1
XRECORD
  2
AcDbXrecord
  3
AutoCAD 2000
 90
    32768
280
     0
281
     0
  0
CLASS
  1
LONG_TRANSACTION
  2
AcDbLongTransaction
  3
AutoCAD 2000
 90
    32768
280
     0
281
     0
  0
CLASS
  1
LWPOLYLINE
  2
AcDbPolyline
  3
AutoCAD 2000
 90
    32768
280
     0
281
     1
  0
CLASS
  1
HATCH
  2
AcDbHatch
  3
AutoCAD 2000
 90
    32768
280
     0
281
     1
  0
CLASS
  1
XRECORD
  2
AcDbXrecord
  3
AutoCAD 2000
 90
    32768
280
     0
281
     0
  0
CLASS
  1
LONG_TRANSACTION
  2
AcDbLongTransaction
  3
AutoCAD 2000
 90
    32768
280
     0
281
     0
  0
CLASS
  1
LWPOLYLINE
  2
AcDbPolyline
  3
AutoCAD 2000
 90
    32768
280
     0
281
     1
  0
CLASS
  1
HATCH
  2
AcDbHatch
  3
AutoCAD 2000
 90
    32768
280
     0
281
     1
  0
CLASS
  1
XRECORD
  2
AcDbXrecord
  3
AutoCAD 2000
 90
    32768
280
     0
281
     0
  0
CLASS
  1
LONG_TRANSACTION
  2
AcDbLongTransaction
  3
AutoCAD 2000
 90
    32768
280
     0
281
     0
  0
CLASS
  1
LWPOLYLINE
  2
AcDbPolyline
  3
AutoCAD 2000
 90
    32768
280
     0
281
     1
  0
CLASS
  1
HATCH
  2
AcDbHatch
  3
AutoCAD 2000
 90
    32768
280
     0
281
     1
  0
CLASS
  1
XRECORD
  2
AcDbXrecord
  3
AutoCAD 2000
 90
    32768
280
     0
281
     0
  0
CLASS
  1
LONG_TRANSACTION
  2
AcDbLongTransaction
  3
AutoCAD 2000
 90
    32768
280
     0
281
     0
  0
CLASS
  1
LWPOLYLINE
  2
AcDbPolyline
  3
AutoCAD 2000
 90
    32768
280
     0
281
     1
  0
CLASS
  1
HATCH
  2
AcDbHatch
  3
AutoCAD 2000
 90
    32768
280
     0
281
     1
  0
CLASS
  1
XRECORD
  2
AcDbXrecord
  3
AutoCAD 2000
 90
    32768
280
     0
281
     0
  0
CLASS
  1
LONG_TRANSACTION
  2
AcDbLongTransaction
  3
AutoCAD 2000
 90
    32768
280
     0
281
     0
  0
CLASS
  1
LWPOLYLINE
  2
AcDbPolyline
  3
AutoCAD 2000
 90
    32768
280
     0
281
     1
  0
CLASS
  1
HATCH
  2
AcDbHatch
  3
AutoCAD 2000
 90
    32768
280
     0
281
     1
  0
CLASS
  1
XRECORD
  2
AcDbXrecord
  3
AutoCAD 2000
 90
    32768
280
     0
281
     0
  0
CLASS
  1
LONG_TRANSACTION
  2
AcDbLongTransaction
  3
AutoCAD 2000
 90
    32768
280
     0
281
     0
  0
CLASS
  1
LWPOLYLINE
  2
AcDbPolyline
  3
AutoCAD 2000
 90
    32768
280
     0
281
     1
  0
CLASS
  1
HATCH
  2
AcDbHatch
  3
AutoCAD 2000
 90
    32768
280
     0
281
     1
  0
CLASS
  1
XRECORD
  2
AcDbXrecord
  3
AutoCAD 2000
 90
    32768
280
     0
281
     0
  0
CLASS
  1
LONG_TRANSACTION
  2
AcDbLongTransaction
  3
AutoCAD 2000
 90
    32768
280
     0
281
     0
  0
CLASS
  1
LWPOLYLINE
  2
AcDbPolyline
  3
AutoCAD 2000
 90
    32768
280
     0
281
     1
  0
CLASS
  1
HATCH
  2
AcDbHatch
  3
AutoCAD 2000
 90
    32768
280
     0
281
     1
  0
CLASS
  1
XRECORD
  2
AcDbXrecord
  3
AutoCAD 2000
 90
    32768
280
     0
281
     0
  0
CLASS
  1
LONG_TRANSACTION
  2
AcDbLongTransaction
  3
AutoCAD 2000
 90
    32768
280
     0
281
     0
  0
CLASS
  1
LWPOLYLINE
  2
AcDbPolyline
  3
AutoCAD 2000
 90
    32768
280
     0
281
     1
  0
CLASS
  1
HATCH
  2
AcDbHatch
  3
AutoCAD 2000
 90
    32768
280
     0
281
     1
  0
CLASS
  1
XRECORD
  2
AcDbXrecord
  3
AutoCAD 2000
 90
    32768
280
     0
281
     0
  0
CLASS
  1
LONG_TRANSACTION
  2
AcDbLongTransaction
  3
AutoCAD 2000
 90
    32768
280
     0
281
     0
  0
CLASS
  1
LWPOLYLINE
  2
AcDbPolyline
  3
AutoCAD 2000
 90
    32768
280
     0
281
     1
  0
CLASS
  1
HATCH
  2
AcDbHatch
  3
AutoCAD 2000
 90
    32768
280
     0
281
     1
  0
CLASS
  1
XRECORD
  2
AcDbXrecord
  3
AutoCAD 2000
 90
    32768
280
     0
281
     0
  0
CLASS
  1
LONG_TRANSACTION
  2
AcDbLongTransaction
  3
AutoCAD 2000
 90
    32768
280
     0
281
     0
  0
CLASS
  1
LWPOLYLINE
  2
AcDbPolyline
  3
AutoCAD 2000
 90
    32768
280
     0
281
     1
  0
CLASS
  1
HATCH
  2
AcDbHatch
  3
AutoCAD 2000
 90
    32768
280
     0
281
     1
  0
CLASS
  1
XRECORD
  2
AcDbXrecord
  3
AutoCAD 2000
 90
    32768
280
     0
281
     0
  0
CLASS
  1
LONG_TRANSACTION
  2
AcDbLongTransaction
  3
AutoCAD 2000
 90
    32768
280
     0
281
     0
  0
CLASS
  1
LWPOLYLINE
  2
AcDbPolyline
  3
AutoCAD 2000
 90
    32768
280
     0
281
     1
  0
CLASS
  1
HATCH
  2
AcDbHatch
  3
AutoCAD 2000
 90
    32768
280
     0
281
     1
  0
CLASS
  1
XRECORD
  2
AcDbXrecord
  3
AutoCAD 2000
 90
    32768
280
     0
281
     0
  0
CLASS
  1
LONG_TRANSACTION
  2
AcDbLongTransaction
  3
AutoCAD 2000
 90
    32768
280
     0
281
     0
  0
CLASS
  1
LWPOLYLINE
  2
AcDbPolyline
  3
AutoCAD 2000
 90
    32768
280
     0
281
     1
  0
CLASS
  1
HATCH
  2
AcDbHatch
  3
AutoCAD 2000
 90
    32768
280
     0
281
     1
  0
CLASS
  1
XRECORD
  2
AcDbXrecord
  3
AutoCAD 2000
 90
    32768
280
     0
281
     0
  0
CLASS
  1
LONG_TRANSACTION
  2
AcDbLongTransaction
  3
AutoCAD 2000
 90
    32768
280
     0
281
     0
  0
CLASS
  1
LWPOLYLINE
  2
AcDbPolyline
  3
AutoCAD 2000
 90
    32768
280
     0
281
     1
  0
CLASS
  1
HATCH
  2
AcDbHatch
  3
AutoCAD 2000
 90
    32768
280
     0
281
     1
  0
CLASS
  1
XRECORD
  2
AcDbXrecord
  3
AutoCAD 2000
 90
    32768
280
     0
281
     0
  0
CLASS
  1
LONG_TRANSACTION
  2
AcDbLongTransaction
  3
AutoCAD 2000
 90
    32768
280
     0
281
     0
  0
CLASS
  1
LWPOLYLINE
  2
AcDbPolyline
  3
AutoCAD 2000
 90
    32768
280
     0
281
     1
  0
CLASS
  1
HATCH
  2
AcDbHatch
  3
AutoCAD 2000
 90
    32768
280
     0
281
     1
  0
CLASS
  1
XRECORD
  2
AcDbXrecord
  3
AutoCAD 2000
 90
    32768
280
     0
281
     0
  0
ENDSEC
  0
SECTION
  2
TABLES
  0
TABLE
  2
VPORT
  5
20
330
0
100
AcDbSymbolTable
 70
     2
  0
VPORT
  5
5BC
330
20
100
AcDbSymbolTableRecord
100
AcDbViewportTableRecord
  2
*ACTIVE
 70
     0
 10
0.0
 20
0.0
 11
1.0
 21
1.0
 12
469.3578804814999
 22
4.591870839533953
 13
0.0
 23
0.0
 14
1.0
 24
1.0
 15
0.0
 25
0.0
 16
0.0
 26
0.0
 36
1.0
 17
0.0
 27
0.0
 37
0.0
 40
771.5080691210467
 41
1.60759493670886
 42
50.0
 43
0.0
 44
0.0
 50
0.0
 51
0.0
 71
     0
 72
   100
 73
     1
 74
     0
 75
     0
 76
     0
 77
     0
 78
     0
  0
ENDTAB
  0
TABLE
  2
LTYPE
  5
1B
330
0
100
AcDbSymbolTable
 70
     3
  0
LTYPE
  5
1C
330
1B
100
AcDbSymbolTableRecord
100
AcDbLinetypeTableRecord
  2
BYBLOCK
 70
     0
  3

 72
    65
 73
     0
 40
0.0
  0
LTYPE
  5
1D
330
1B
100
AcDbSymbolTableRecord
100
AcDbLinetypeTableRecord
  2
BYLAYER
 70
     0
  3

 72
    65
 73
     0
 40
0.0
  0
LTYPE
  5
B
330
1B
100
AcDbSymbolTableRecord
100
AcDbLinetypeTableRecord
  2
CONTINUOUS
 70
     0
  3
Solid line
 72
    65
 73
     0
 40
0.0
  0
LTYPE
  5
31
330
1B
100
AcDbSymbolTableRecord
100
AcDbLinetypeTableRecord
  2
CENTER
 70
     0
  3
----- - ----- - ----- - ----- - -----
 72
    65
 73
     4
 40
35.0
 49
30.0
 74
     0
 49
-1.5
 74
     0
 49
2.0
 74
     0
 49
-1.5
 74
     0
  0
LTYPE
  5
10E
330
1B
100
AcDbSymbolTableRecord
100
AcDbLinetypeTableRecord
  2
PHANTOM
 70
     0
  3
----- - - ----- - - ----- - - ----- - - -----
 72
    65
 73
     6
 40
22.5
 49
15.0
 74
     0
 49
-1.5
 74
     0
 49
1.5
 74
     0
 49
-1.5
 74
     0
 49
1.5
 74
     0
 49
-1.5
 74
     0
  0
ENDTAB
  0
TABLE
  2
LAYER
  5
15
102
{ACAD_XDICTIONARY
360
16
102
}
330
0
100
AcDbSymbolTable
 70
     5
  0
LAYER
  5
7
330
15
100
AcDbSymbolTableRecord
100
AcDbLayerTableRecord
  2
0
 70
     0
 62
     7
  6
CONTINUOUS
  0
LAYER
  5
28
330
15
100
AcDbSymbolTableRecord
100
AcDbLayerTableRecord
  2
L-ZISSEN
 70
     0
 62
     7
  6
CONTINUOUS
  0
LAYER
  5
30
330
15
100
AcDbSymbolTableRecord
100
AcDbLayerTableRecord
  2
L-TYUSIN
 70
     0
 62
     1
  6
CENTER
  0
LAYER
  5
194
330
15
100
AcDbSymbolTableRecord
100
AcDbLayerTableRecord
  2
L-SAISEN
 70
     0
 62
     6
  6
CONTINUOUS
  0
LAYER
  5
10D
330
15
100
AcDbSymbolTableRecord
100
AcDbLayerTableRecord
  2
L-SOUZOU
 70
     0
 62
     2
  6
PHANTOM
  0
ENDTAB
  0
TABLE
  2
STYLE
  5
18
330
0
100
AcDbSymbolTable
 70
     2
  0
STYLE
  5
19
330
18
100
AcDbSymbolTableRecord
100
AcDbTextStyleTableRecord
  2
STANDARD
 70
     0
 40
0.0
 41
1.0
 50
0.0
 71
     0
 42
4.5
  3
txt.shx
  4

  0
STYLE
  5
29
330
18
100
AcDbSymbolTableRecord
100
AcDbTextStyleTableRecord
  2
KANJI
 70
     0
 40
0.0
 41
0.8
 50
0.0
 71
     0
 42
1.5
  3
C:\Program Files\AutoCAD LT\ROMANS
  4
BIGFONT
  0
ENDTAB
  0
TABLE
  2
VIEW
  5
1E
330
0
100
AcDbSymbolTable
 70
     0
  0
ENDTAB
  0
TABLE
  2
UCS
  5
1F
330
0
100
AcDbSymbolTable
 70
     0
  0
ENDTAB
  0
TABLE
  2
APPID
  5
22
330
0
100
AcDbSymbolTable
 70
     1
  0
APPID
  5
5
330
22
100
AcDbSymbolTableRecord
100
AcDbRegAppTableRecord
  2
ACAD
 70
     0
  0
ENDTAB
  0
TABLE
  2
DIMSTYLE
  5
23
330
0
100
AcDbSymbolTable
 70
     1
  0
DIMSTYLE
105
2B
330
23
100
AcDbSymbolTableRecord
100
AcDbDimStyleTableRecord
  2
STANDARD
 70
     0
  3

  4

  5

  6

  7

 40
1.0
 41
0.18
 42
0.0625
 43
0.38
 44
0.18
 45
0.0
 46
0.0
 47
0.0
 48
0.0
140
0.18
141
0.09
142
0.0
143
25.4
144
1.0
145
0.0
146
1.0
147
0.09
 71
     0
 72
     0
 73
     1
 74
     1
 75
     0
 76
     0
 77
     0
 78
     0
170
     0
171
     2
172
     0
173
     0
174
     0
175
     0
176
     0
177
     0
178
     0
270
     2
271
     4
272
     4
273
     2
274
     2
340
19
275
     0
280
     0
281
     0
282
     0
283
     1
284
     0
285
     0
286
     0
287
     3
288
     0
  0
ENDTAB
  0
TABLE
  2
BLOCK_RECORD
  5
1
330
0
100
AcDbSymbolTable
 70
     0
  0
BLOCK_RECORD
  5
2
102
{ACAD_XDICTIONARY
360
3
102
}
330
1
100
AcDbSymbolTableRecord
100
AcDbBlockTableRecord
  2
*MODEL_SPACE
  0
BLOCK_RECORD
  5
F
102
{ACAD_XDICTIONARY
360
10
102
}
330
1
100
AcDbSymbolTableRecord
100
AcDbBlockTableRecord
  2
*PAPER_SPACE
  0
ENDTAB
  0
ENDSEC
  0
SECTION
  2
BLOCKS
  0
BLOCK
  5
6
330
2
100
AcDbEntity
  8
0
100
AcDbBlockBegin
  2
*MODEL_SPACE
 70
     0
 10
0.0
 20
0.0
 30
0.0
  3
*MODEL_SPACE
  1

  0
ENDBLK
  5
C
330
2
100
AcDbEntity
  8
0
100
AcDbBlockEnd
  0
BLOCK
  5
12
330
F
100
AcDbEntity
 67
     1
  8
0
100
AcDbBlockBegin
  2
*PAPER_SPACE
 70
     0
 10
0.0
 20
0.0
 30
0.0
  3
*PAPER_SPACE
  1

  0
ENDBLK
  5
13
330
F
100
AcDbEntity
 67
     1
  8
0
100
AcDbBlockEnd
  0
ENDSEC
  0
SECTION
  2
ENTITIES
  0
LINE
  5
2C
330
2
100
AcDbEntity
  8
L-ZISSEN
100
AcDbLine
 10
424.3689886836676
 20
30.30000000000086
 30
0.0
 11
424.3689886836676
 21
26.80000000000086
 31
0.0
  0
LINE
  5
2D
330
2
100
AcDbEntity
  8
L-ZISSEN
100
AcDbLine
 10
413.9766838382546
 20
30.30000000000086
 30
0.0
 11
413.9766838382546
 21
26.80000000000086
 31
0.0
  0
LINE
  5
2E
330
2
100
AcDbEntity
  8
L-ZISSEN
100
AcDbLine
 10
409.1728362609609
 20
26.80000000000086
 30
0.0
 11
409.1728362609609
 21
30.30000000000086
 31
0.0
  0
LINE
  5
2F
330
2
100
AcDbEntity
  8
L-TYUSIN
100
AcDbLine
 10
-0.0000000000003411
 20
58.0
 30
0.0
 11
0.0
 21
-224.0000000000004
 31
0.0
  0
LINE
  5
32
330
2
100
AcDbEntity
  8
L-ZISSEN
100
AcDbLine
 10
161.686953908106
 20
3.133749978502351
 30
0.0
 11
140.4059293971008
 21
29.96100913148905
 31
0.0
  0
LINE
  5
33
330
2
100
AcDbEntity
  8
L-TYUSIN
100
AcDbLine
 10
209.172836260961
 20
29.00000000000011
 30
0.0
 11
209.172836260961
 21
-224.0000000000003
 31
0.0
  0
LINE
  5
34
330
2
100
AcDbEntity
  8
L-TYUSIN
100
AcDbLine
 10
419.1728362609609
 20
52.26294754735341
 30
0.0
 11
419.1728362609609
 21
-217.0329315571169
 31
0.0
  0
LINE
  5
35
330
2
100
AcDbEntity
  8
L-ZISSEN
100
AcDbLine
 10
425.1728362609614
 20
31.5
 30
0.0
 11
425.1728362609614
 21
23.99999999999966
 31
0.0
  0
LINE
  5
36
330
2
100
AcDbEntity
  8
L-ZISSEN
100
AcDbLine
 10
441.1728362609609
 20
31.5
 30
0.0
 11
441.1728362609609
 21
23.99999999999966
 31
0.0
  0
LINE
  5
37
330
2
100
AcDbEntity
  8
L-ZISSEN
100
AcDbLine
 10
344.1728362609627
 20
40.99999999999954
 30
0.0
 11
344.1728362609627
 21
23.99999999999966
 31
0.0
  0
LINE
  5
38
330
2
100
AcDbEntity
  8
L-TYUSIN
100
AcDbLine
 10
314.1728362609609
 20
-130.0000000000012
 30
0.0
 11
314.1728362609608
 21
57.99999999999954
 31
0.0
  0
LINE
  5
39
330
2
100
AcDbEntity
  8
L-ZISSEN
100
AcDbLine
 10
284.1728362609626
 20
40.99999999999954
 30
0.0
 11
284.1728362609626
 21
23.99999999999966
 31
0.0
  0
LINE
  5
3A
330
2
100
AcDbEntity
  8
L-ZISSEN
100
AcDbLine
 10
273.6728362609592
 20
23.99999999999966
 30
0.0
 11
273.6728362609592
 21
63.0
 31
0.0
  0
LINE
  5
3B
330
2
100
AcDbEntity
  8
L-ZISSEN
100
AcDbLine
 10
249.6728362609605
 20
24.00000000000011
 30
0.0
 11
249.6728362609605
 21
63.0
 31
0.0
  0
LINE
  5
3C
330
2
100
AcDbEntity
  8
L-ZISSEN
100
AcDbLine
 10
-30.0
 20
40.99999999999954
 30
0.0
 11
-30.0
 21
17.0
 31
0.0
  0
LINE
  5
3D
330
2
100
AcDbEntity
  8
L-ZISSEN
100
AcDbLine
 10
30.0
 20
40.99999999999954
 30
0.0
 11
30.0
 21
17.0
 31
0.0
  0
LINE
  5
3E
330
2
100
AcDbEntity
  8
L-ZISSEN
100
AcDbLine
 10
-59.99999999999797
 20
-62.99999999999989
 30
0.0
 11
-59.99999999999778
 21
63.00000000000022
 31
0.0
  0
LINE
  5
3F
330
2
100
AcDbEntity
  8
L-ZISSEN
100
AcDbLine
 10
312.1734184033181
 20
7.464437649970022
 30
0.0
 11
273.6013102921568
 21
74.29922311930432
 31
0.0
  0
LINE
  5
40
330
2
100
AcDbEntity
  8
L-ZISSEN
100
AcDbLine
 10
-69.99999999999772
 20
63.0
 30
0.0
 11
-69.99999999999772
 21
-62.99999999999989
 31
0.0
  0
LINE
  5
41
330
2
100
AcDbEntity
  8
L-ZISSEN
100
AcDbLine
 10
354.6728362609623
 20
23.99999999999966
 30
0.0
 11
354.6728362609623
 21
63.0
 31
0.0
  0
LINE
  5
42
330
2
100
AcDbEntity
  8
L-ZISSEN
100
AcDbLine
 10
378.672836260961
 20
24.00000000000011
 30
0.0
 11
378.672836260961
 21
63.0
 31
0.0
  0
TEXT
  5
43
330
2
100
AcDbEntity
  8
L-ZISSEN
100
AcDbText
 10
118.1875092355262
 20
22.915201802262
 30
0.0
 40
4.5
  1
Rc3/4
100
AcDbText
  0
LINE
  5
44
330
2
100
AcDbEntity
  8
L-ZISSEN
100
AcDbLine
 10
29.99999999999784
 20
-192.4036840439889
 30
0.0
 11
30.0
 21
-106.0
 31
0.0
  0
LINE
  5
45
330
2
100
AcDbEntity
  8
L-ZISSEN
100
AcDbLine
 10
-30.00000000000227
 20
-192.4036840439889
 30
0.0
 11
-30.0
 21
-106.0
 31
0.0
  0
LINE
  5
46
330
2
100
AcDbEntity
  8
L-ZISSEN
100
AcDbLine
 10
25.2800000000002
 20
-116.3387389116323
 30
0.0
 11
25.27999999999792
 21
-184.3387389116314
 31
0.0
  0
LINE
  5
47
330
2
100
AcDbEntity
  8
L-ZISSEN
100
AcDbLine
 10
-16.84999999999945
 20
-116.3387389116323
 30
0.0
 11
-16.84999999999945
 21
-184.3387389116314
 31
0.0
  0
LINE
  5
48
330
2
100
AcDbEntity
  8
L-ZISSEN
100
AcDbLine
 10
-25.28000000000247
 20
-116.3387389116323
 30
0.0
 11
-25.2800000000002
 21
-184.3387389116314
 31
0.0
  0
LINE
  5
49
330
2
100
AcDbEntity
  8
L-ZISSEN
100
AcDbLine
 10
16.84999999999718
 20
-116.3387389116323
 30
0.0
 11
16.84999999999718
 21
-184.3387389116314
 31
0.0
  0
LINE
  5
4A
330
2
100
AcDbEntity
  8
L-ZISSEN
100
AcDbLine
 10
-5.0
 20
-208.9411654104919
 30
0.0
 11
-4.999999999999772
 21
-219.0000000000004
 31
0.0
  0
LINE
  5
4B
330
2
100
AcDbEntity
  8
L-ZISSEN
100
AcDbLine
 10
-5.99999999999909
 20
-218.7000000000007
 30
0.0
 11
-5.99999999999909
 21
-209.4411654104919
 31
0.0
  0
LINE
  5
4C
330
2
100
AcDbEntity
  8
L-ZISSEN
100
AcDbLine
 10
2.000000000000454
 20
-208.9411654104919
 30
0.0
 11
2.000000000000682
 21
-219.0000000000004
 31
0.0
  0
LINE
  5
4D
330
2
100
AcDbEntity
  8
L-ZISSEN
100
AcDbLine
 10
2.999999999999545
 20
-208.9411654104919
 30
0.0
 11
2.999999999999545
 21
-219.0000000000004
 31
0.0
  0
LINE
  5
4E
330
2
100
AcDbEntity
  8
L-ZISSEN
100
AcDbLine
 10
4.000000000003183
 20
-208.9411654104919
 30
0.0
 11
4.00000000000341
 21
-219.0000000000004
 31
0.0
  0
LINE
  5
4F
330
2
100
AcDbEntity
  8
L-ZISSEN
100
AcDbLine
 10
5.000000000002273
 20
-208.9411654104919
 30
0.0
 11
5.00000000000432
 21
-219.0000000000004
 31
0.0
  0
LINE
  5
50
330
2
100
AcDbEntity
  8
L-ZISSEN
100
AcDbLine
 10
5.99999999999909
 20
-209.4411654104919
 30
0.0
 11
5.99999999999909
 21
-218.7000000000007
 31
0.0
  0
LINE
  5
51
330
2
100
AcDbEntity
  8
L-ZISSEN
100
AcDbLine
 10
-4.000000000000909
 20
-208.9411654104919
 30
0.0
 11
-4.000000000000909
 21
-219.0000000000004
 31
0.0
  0
LINE
  5
52
330
2
100
AcDbEntity
  8
L-ZISSEN
100
AcDbLine
 10
-1.999999999998181
 20
-208.9411654104919
 30
0.0
 11
-1.999999999997953
 21
-219.0000000000004
 31
0.0
  0
LINE
  5
53
330
2
100
AcDbEntity
  8
L-ZISSEN
100
AcDbLine
 10
-0.9999999999990905
 20
-208.9411654104919
 30
0.0
 11
-0.9999999999988631
 21
-219.0000000000004
 31
0.0
  0
LINE
  5
54
330
2
100
AcDbEntity
  8
L-ZISSEN
100
AcDbLine
 10
0.0000000000022737
 20
-208.9411654104919
 30
0.0
 11
0.0000000000025011
 21
-219.0000000000004
 31
0.0
  0
LINE
  5
55
330
2
100
AcDbEntity
  8
L-ZISSEN
100
AcDbLine
 10
1.000000000001364
 20
-208.9411654104919
 30
0.0
 11
1.000000000001591
 21
-219.0000000000004
 31
0.0
  0
LINE
  5
56
330
2
100
AcDbEntity
  8
L-ZISSEN
100
AcDbLine
 10
-2.999999999999545
 20
-208.9411654104919
 30
0.0
 11
-2.999999999999317
 21
-219.0000000000004
 31
0.0
  0
LINE
  5
57
330
2
100
AcDbEntity
  8
L-ZISSEN
100
AcDbLine
 10
5.699999999999363
 20
-219.0000000000004
 30
0.0
 11
-5.699999999999363
 21
-219.0000000000004
 31
0.0
  0
LINE
  5
58
330
2
100
AcDbEntity
  8
L-ZISSEN
100
AcDbLine
 10
-5.699999999999363
 20
-219.0000000000004
 30
0.0
 11
-5.99999999999909
 21
-218.7000000000007
 31
0.0
  0
LINE
  5
59
330
2
100
AcDbEntity
  8
L-ZISSEN
100
AcDbLine
 10
5.699999999999363
 20
-219.0000000000004
 30
0.0
 11
5.99999999999909
 21
-218.7000000000007
 31
0.0
  0
ARC
  5
5A
330
2
100
AcDbEntity
  8
L-ZISSEN
100
AcDbCircle
 10
0.0000000000013642
 20
-224.6410626739175
 30
0.0
 40
20.64106267391679
100
AcDbArc
 50
77.50558048156898
 51
102.6763186877443
  0
ARC
  5
5B
330
2
100
AcDbEntity
  8
L-ZISSEN
100
AcDbCircle
 10
0.0
 20
-186.3589373260833
 30
0.0
 40
20.64106267391694
100
AcDbArc
 50
257.323681312269
 51
282.4944195184277
  0
LINE
  5
5C
330
2
100
AcDbEntity
  8
L-ZISSEN
100
AcDbLine
 10
9.000000000002273
 20
-202.6559495400511
 30
0.0
 11
-9.249999999998181
 21
-202.6559495400511
 31
0.0
  0
LINE
  5
5D
330
2
100
AcDbEntity
  8
L-ZISSEN
100
AcDbLine
 10
6.000000000000454
 20
-203.8595512005644
 30
0.0
 11
-8.999999999999545
 21
-203.8595512005644
 31
0.0
  0
LINE
  5
5E
330
2
100
AcDbEntity
  8
L-ZISSEN
100
AcDbLine
 10
6.000000000000454
 20
-203.8595512005644
 30
0.0
 11
-8.999999999999545
 21
-203.8595512005644
 31
0.0
  0
LINE
  5
5F
330
2
100
AcDbEntity
  8
L-ZISSEN
100
AcDbLine
 10
-6.85923419779192
 20
-204.0000000000004
 30
0.0
 11
6.000000000000454
 21
-204.0000000000004
 31
0.0
  0
LINE
  5
60
330
2
100
AcDbEntity
  8
L-ZISSEN
100
AcDbLine
 10
-6.778315616504642
 20
-207.0006211148202
 30
0.0
 11
6.712718059993676
 21
-207.0014178845917
 31
0.0
  0
LINE
  5
61
330
2
100
AcDbEntity
  8
L-ZISSEN
100
AcDbLine
 10
-5.500000000001818
 20
-208.9411654104919
 30
0.0
 11
2.999999999999545
 21
-208.9411654104919
 31
0.0
  0
ARC
  5
62
330
2
100
AcDbEntity
  8
L-ZISSEN
100
AcDbCircle
 10
-21.9999999999909
 20
-192.4036840439889
 30
0.0
 40
8.000000000000113
100
AcDbArc
 50
180.0
 51
256.0937629347638
  0
ARC
  5
63
330
2
100
AcDbEntity
  8
L-ZISSEN
100
AcDbCircle
 10
0.000000000003638
 20
-103.547288918517
 30
0.0
 40
99.53938471878538
100
AcDbArc
 50
256.0937629349449
 51
264.6679223051358
  0
LINE
  5
64
330
2
100
AcDbEntity
  8
L-ZISSEN
100
AcDbLine
 10
-4.529536318017107
 20
-204.5031191579496
 30
0.0
 11
-4.529536318010286
 21
-206.4968808420526
 31
0.0
  0
LINE
  5
65
330
2
100
AcDbEntity
  8
L-ZISSEN
100
AcDbLine
 10
-8.999643620082679
 20
-204.490267269944
 30
0.0
 11
-8.999643620082679
 21
-206.5097327300568
 31
0.0
  0
ARC
  5
66
330
2
100
AcDbEntity
  8
L-ZISSEN
100
AcDbCircle
 10
-6.778315616504642
 20
-201.7292909444495
 30
0.0
 40
5.271330170370607
100
AcDbArc
 50
245.0771192748271
 51
295.2523389966464
  0
LINE
  5
67
330
2
100
AcDbEntity
  8
L-ZISSEN
100
AcDbLine
 10
-4.999999999997498
 20
-207.0006966111286
 30
0.0
 11
-5.000000000001818
 21
-208.9411654104919
 31
0.0
  0
LINE
  5
68
330
2
100
AcDbEntity
  8
L-ZISSEN
100
AcDbLine
 10
-5.49999999999909
 20
-208.4411654104919
 30
0.0
 11
-5.49999999999909
 21
-207.0000000000004
 31
0.0
  0
LINE
  5
69
330
2
100
AcDbEntity
  8
L-ZISSEN
100
AcDbLine
 10
-5.500000000001818
 20
-208.9411654104919
 30
0.0
 11
-5.99999999999909
 21
-209.4411654104919
 31
0.0
  0
LINE
  5
6A
330
2
100
AcDbEntity
  8
L-ZISSEN
100
AcDbLine
 10
-5.000000000001818
 20
-208.9411654104919
 30
0.0
 11
-5.49999999999909
 21
-208.4411654104919
 31
0.0
  0
ARC
  5
6B
330
2
100
AcDbEntity
  8
L-ZISSEN
100
AcDbCircle
 10
-6.778315616503277
 20
-209.2707090555518
 30
0.0
 40
5.271330170370607
100
AcDbArc
 50
64.74766100341449
 51
114.9228807251728
  0
LINE
  5
6C
330
2
100
AcDbEntity
  8
L-ZISSEN
100
AcDbLine
 10
-8.999999999999545
 20
-203.8595512005644
 30
0.0
 11
-8.999999999999545
 21
-202.6559495400511
 31
0.0
  0
LINE
  5
6D
330
2
100
AcDbEntity
  8
L-ZISSEN
100
AcDbLine
 10
-16.84999999999945
 20
-184.3387389116314
 30
0.0
 11
-21.06500000000096
 21
-186.3387389116324
 31
0.0
  0
LINE
  5
6E
330
2
100
AcDbEntity
  8
L-ZISSEN
100
AcDbLine
 10
-21.06500000000096
 20
-186.3387389116324
 30
0.0
 11
-25.2800000000002
 21
-184.3387389116314
 31
0.0
  0
ARC
  5
6F
330
2
100
AcDbEntity
  8
L-ZISSEN
100
AcDbCircle
 10
22.00000000000773
 20
-192.4036840439889
 30
0.0
 40
8.000000000000113
100
AcDbArc
 50
283.906237065055
 51
0.0
  0
ARC
  5
70
330
2
100
AcDbEntity
  8
L-ZISSEN
100
AcDbCircle
 10
0.000000000003638
 20
-103.547288918517
 30
0.0
 40
99.53938471878515
100
AcDbArc
 50
275.3320776948642
 51
283.9062370650449
  0
LINE
  5
71
330
2
100
AcDbEntity
  8
L-ZISSEN
100
AcDbLine
 10
4.463375637018543
 20
-204.5025880436869
 30
0.0
 11
4.463375637018543
 21
-206.4974119563148
 31
0.0
  0
LINE
  5
72
330
2
100
AcDbEntity
  8
L-ZISSEN
100
AcDbLine
 10
8.999643620087681
 20
-204.5205025069062
 30
0.0
 11
8.999643620087681
 21
-206.4794974930941
 31
0.0
  0
ARC
  5
73
330
2
100
AcDbEntity
  8
L-ZISSEN
100
AcDbCircle
 10
6.712718059993676
 20
-201.7300877142202
 30
0.0
 40
5.271330170371532
100
AcDbArc
 50
244.7408933165805
 51
295.7116451148626
  0
LINE
  5
74
330
2
100
AcDbEntity
  8
L-ZISSEN
100
AcDbLine
 10
2.999999999999545
 20
-208.9411654104919
 30
0.0
 11
5.499999999999545
 21
-208.9411654104919
 31
0.0
  0
LINE
  5
75
330
2
100
AcDbEntity
  8
L-ZISSEN
100
AcDbLine
 10
5.499999999999317
 20
-208.4411654104915
 30
0.0
 11
5.49999999999909
 21
-207.0000000000004
 31
0.0
  0
LINE
  5
76
330
2
100
AcDbEntity
  8
L-ZISSEN
100
AcDbLine
 10
5.499999999999545
 20
-208.9411654104919
 30
0.0
 11
5.99999999999909
 21
-209.4411654104919
 31
0.0
  0
LINE
  5
77
330
2
100
AcDbEntity
  8
L-ZISSEN
100
AcDbLine
 10
4.999999999999545
 20
-208.9411654104919
 30
0.0
 11
5.49999999999909
 21
-208.4411654104919
 31
0.0
  0
LINE
  5
78
330
2
100
AcDbEntity
  8
L-ZISSEN
100
AcDbLine
 10
5.000000000003865
 20
-207.0013462624229
 30
0.0
 11
4.999999999999545
 21
-208.9411654104919
 31
0.0
  0
ARC
  5
79
330
2
100
AcDbEntity
  8
L-ZISSEN
100
AcDbCircle
 10
6.71271805999504
 20
-209.2699122857811
 30
0.0
 40
5.271330170371789
100
AcDbArc
 50
64.28835488513737
 51
115.2591066834194
  0
LINE
  5
7A
330
2
100
AcDbEntity
  8
L-ZISSEN
100
AcDbLine
 10
9.000000000002273
 20
-203.8595512005644
 30
0.0
 11
6.000000000000454
 21
-203.8595512005644
 31
0.0
  0
LINE
  5
7B
330
2
100
AcDbEntity
  8
L-ZISSEN
100
AcDbLine
 10
9.000000000002273
 20
-203.8595512005644
 30
0.0
 11
6.000000000000454
 21
-203.8595512005644
 31
0.0
  0
LINE
  5
7C
330
2
100
AcDbEntity
  8
L-ZISSEN
100
AcDbLine
 10
3.000000000000909
 20
-204.0000000000004
 30
0.0
 11
3.000000000000909
 21
-203.8595512005644
 31
0.0
  0
LINE
  5
7D
330
2
100
AcDbEntity
  8
L-ZISSEN
100
AcDbLine
 10
6.000000000000454
 20
-204.0000000000004
 30
0.0
 11
6.834972979096619
 21
-204.0000000000004
 31
0.0
  0
LINE
  5
7E
330
2
100
AcDbEntity
  8
L-ZISSEN
100
AcDbLine
 10
9.250000000003183
 20
-202.6559495400511
 30
0.0
 11
9.000000000002273
 21
-202.6559495400511
 31
0.0
  0
LINE
  5
7F
330
2
100
AcDbEntity
  8
L-ZISSEN
100
AcDbLine
 10
8.875000000001818
 20
-203.8595512005636
 30
0.0
 11
8.875000000001818
 21
-202.6559495400511
 31
0.0
  0
LINE
  5
80
330
2
100
AcDbEntity
  8
L-ZISSEN
100
AcDbLine
 10
21.06500000000096
 20
-186.3387389116324
 30
0.0
 11
25.27999999999792
 21
-184.3387389116314
 31
0.0
  0
LINE
  5
81
330
2
100
AcDbEntity
  8
L-ZISSEN
100
AcDbLine
 10
16.84999999999718
 20
-184.3387389116314
 30
0.0
 11
21.06500000000096
 21
-186.3387389116324
 31
0.0
  0
LINE
  5
82
330
2
100
AcDbEntity
  8
L-ZISSEN
100
AcDbLine
 10
-45.0
 20
-29.99999999999909
 30
0.0
 11
44.99999999999772
 21
-29.99999999999909
 31
0.0
  0
LINE
  5
83
330
2
100
AcDbEntity
  8
L-ZISSEN
100
AcDbLine
 10
-1.627356869252253
 20
-107.1626304744418
 30
0.0
 11
-47.02424605812853
 21
-139.5954716127571
 31
0.0
  0
LINE
  5
84
330
2
100
AcDbEntity
  8
L-ZISSEN
100
AcDbLine
 10
44.99999999999761
 20
-45.99999999999818
 30
0.0
 11
-45.0
 21
-45.99999999999818
 31
0.0
  0
LINE
  5
85
330
2
100
AcDbEntity
  8
L-ZISSEN
100
AcDbLine
 10
-26.49999999999863
 20
-15.99999999999818
 30
0.0
 11
-43.49999999999909
 21
-15.99999999999818
 31
0.0
  0
LINE
  5
86
330
2
100
AcDbEntity
  8
L-ZISSEN
100
AcDbLine
 10
-44.99999999999954
 20
17.00000000000102
 30
0.0
 11
-36.99999999999818
 21
17.00000000000102
 31
0.0
  0
LINE
  5
87
330
2
100
AcDbEntity
  8
L-ZISSEN
100
AcDbLine
 10
-44.99999999999954
 20
-15.99999999999818
 30
0.0
 11
-36.99999999999818
 21
-15.99999999999818
 31
0.0
  0
TEXT
  5
88
330
2
100
AcDbEntity
  8
L-ZISSEN
100
AcDbText
 10
-59.89463512603186
 20
-141.8421458407078
 30
0.0
 40
4.5
  1
P.P
100
AcDbText
  0
LINE
  5
89
330
2
100
AcDbEntity
  8
L-ZISSEN
100
AcDbLine
 10
-47.02424605812853
 20
-139.5954716127571
 30
0.0
 11
-49.02424605812853
 21
-139.5954716127571
 31
0.0
  0
LINE
  5
8A
330
2
100
AcDbEntity
  8
L-ZISSEN
100
AcDbLine
 10
-45.0
 20
-17.49999999999909
 30
0.0
 11
-45.0
 21
-45.9999999999983
 31
0.0
  0
LINE
  5
8B
330
2
100
AcDbEntity
  8
L-ZISSEN
100
AcDbLine
 10
-59.99999999999772
 20
-24.46983416222292
 30
0.0
 11
-44.99999999999954
 21
-15.99999999999818
 31
0.0
  0
LINE
  5
8C
330
2
100
AcDbEntity
  8
L-ZISSEN
100
AcDbLine
 10
-69.99999999999772
 20
-62.99999999999989
 30
0.0
 11
-59.99999999999772
 21
-62.99999999999989
 31
0.0
  0
LINE
  5
8D
330
2
100
AcDbEntity
  8
L-TYUSIN
100
AcDbLine
 10
-54.99999999999795
 20
-49.99999999999992
 30
0.0
 11
-74.99999999999772
 21
-49.99999999999994
 31
0.0
  0
LINE
  5
8E
330
2
100
AcDbEntity
  8
L-ZISSEN
100
AcDbLine
 10
-44.99999999999954
 20
17.00000000000102
 30
0.0
 11
-44.99999999999943
 21
-15.99999999999806
 31
0.0
  0
ARC
  5
8F
330
2
100
AcDbEntity
  8
L-ZISSEN
100
AcDbCircle
 10
-43.49999999999909
 20
-17.49999999999909
 30
0.0
 40
1.500000000000341
100
AcDbArc
 50
90.0
 51
180.0
  0
LINE
  5
90
330
2
100
AcDbEntity
  8
L-ZISSEN
100
AcDbLine
 10
-59.99999999999784
 20
25.68253884000307
 30
0.0
 11
-44.99999999999954
 21
17.00000000000102
 31
0.0
  0
LINE
  5
91
330
2
100
AcDbEntity
  8
L-ZISSEN
100
AcDbLine
 10
-37.58326108942355
 20
-104.0017338538145
 30
0.0
 11
-40.00000000000227
 21
-45.99999999999818
 31
0.0
  0
LINE
  5
92
330
2
100
AcDbEntity
  8
L-ZISSEN
100
AcDbLine
 10
37.58326108942355
 20
-104.0017338538145
 30
0.0
 11
40.0
 21
-45.99999999999818
 31
0.0
  0
LINE
  5
93
330
2
100
AcDbEntity
  8
L-ZISSEN
100
AcDbLine
 10
30.0
 20
-106.0
 30
0.0
 11
30.0
 21
-147.3239944541992
 31
0.0
  0
LINE
  5
94
330
2
100
AcDbEntity
  8
L-ZISSEN
100
AcDbLine
 10
35.0
 20
-106.0000000000009
 30
0.0
 11
35.0
 21
-127.0
 31
0.0
  0
LINE
  5
95
330
2
100
AcDbEntity
  8
L-ZISSEN
100
AcDbLine
 10
33.31409532455154
 20
-133.889485902011
 30
0.0
 11
33.31409532455154
 21
-106.0000000000009
 31
0.0
  0
LINE
  5
96
330
2
100
AcDbEntity
  8
L-ZISSEN
100
AcDbLine
 10
33.31409532455154
 20
-131.9935065380159
 30
0.0
 11
33.31409532455154
 21
-129.8070222970809
 31
0.0
  0
LINE
  5
97
330
2
100
AcDbEntity
  8
L-ZISSEN
100
AcDbLine
 10
38.99999999999863
 20
-127.6649378057827
 30
0.0
 11
38.99999999999863
 21
-131.9491067883809
 31
0.0
  0
LINE
  5
98
330
2
100
AcDbEntity
  8
L-ZISSEN
100
AcDbLine
 10
31.82751149379555
 20
-129.8070222970818
 30
0.0
 11
31.82751149379555
 21
-131.6429907671927
 31
0.0
  0
LINE
  5
99
330
2
100
AcDbEntity
  8
L-ZISSEN
100
AcDbLine
 10
38.99999999999863
 20
-131.9491067883809
 30
0.0
 11
33.50000000000136
 21
-133.889485902011
 31
0.0
  0
LINE
  5
9A
330
2
100
AcDbEntity
  8
L-ZISSEN
100
AcDbLine
 10
33.50000000000136
 20
-133.889485902011
 30
0.0
 11
33.31409532455154
 21
-133.889485902011
 31
0.0
  0
LINE
  5
9B
330
2
100
AcDbEntity
  8
L-ZISSEN
100
AcDbLine
 10
31.55042118077972
 20
-139.4734822854597
 30
0.0
 11
30.0
 21
-139.4734822854597
 31
0.0
  0
LINE
  5
9C
330
2
100
AcDbEntity
  8
L-ZISSEN
100
AcDbLine
 10
30.06383735002373
 20
-139.1229665146365
 30
0.0
 11
31.82751149379555
 21
-131.6429907671927
 31
0.0
  0
LINE
  5
9D
330
2
100
AcDbEntity
  8
L-ZISSEN
100
AcDbLine
 10
31.55042118077972
 20
-139.4734822854597
 30
0.0
 11
33.31409532455154
 21
-131.9935065380159
 31
0.0
  0
LINE
  5
9E
330
2
100
AcDbEntity
  8
L-ZISSEN
100
AcDbLine
 10
33.31409532455154
 20
-129.8070222970809
 30
0.0
 11
30.0
 21
-129.8070222970809
 31
0.0
  0
LINE
  5
9F
330
2
100
AcDbEntity
  8
L-ZISSEN
100
AcDbLine
 10
35.0
 20
-127.0
 30
0.0
 11
38.99999999999863
 21
-127.6649378057827
 31
0.0
  0
LINE
  5
A0
330
2
100
AcDbEntity
  8
L-ZISSEN
100
AcDbLine
 10
-35.49999999999954
 20
-106.0000000000009
 30
0.0
 11
35.49999999999954
 21
-106.0000000000009
 31
0.0
  0
LINE
  5
A1
330
2
100
AcDbEntity
  8
L-ZISSEN
100
AcDbLine
 10
35.49999999999954
 20
-106.0000000000009
 30
0.0
 11
-35.49999999999954
 21
-106.0000000000009
 31
0.0
  0
LINE
  5
A2
330
2
100
AcDbEntity
  8
L-ZISSEN
100
AcDbLine
 10
37.58326108942355
 20
-104.0017338538145
 30
0.0
 11
-37.58326108942355
 21
-104.0017338538145
 31
0.0
  0
LINE
  5
A3
330
2
100
AcDbEntity
  8
L-ZISSEN
100
AcDbLine
 10
-25.28000000000247
 20
-116.3387389116323
 30
0.0
 11
-16.84999999999945
 21
-116.3387389116323
 31
0.0
  0
LINE
  5
A4
330
2
100
AcDbEntity
  8
L-ZISSEN
100
AcDbLine
 10
-35.49999999999954
 20
-106.0000000000009
 30
0.0
 11
-37.58326108942355
 21
-104.0017338538145
 31
0.0
  0
SOLID
  5
A5
330
2
100
AcDbEntity
  8
L-ZISSEN
100
AcDbTrace
 10
-1.821128614992403
 20
-106.8914043295662
 30
0.0
 11
-1.433585123512102
 21
-107.4338566193168
 31
0.0
 12
-0.0000000000002274
 22
-106.0000000000009
 32
0.0
 13
-0.0000000000002274
 23
-106.0000000000009
 33
0.0
  0
LINE
  5
A6
330
2
100
AcDbEntity
  8
L-ZISSEN
100
AcDbLine
 10
25.2800000000002
 20
-116.3387389116323
 30
0.0
 11
16.84999999999718
 21
-116.3387389116323
 31
0.0
  0
LINE
  5
A7
330
2
100
AcDbEntity
  8
L-ZISSEN
100
AcDbLine
 10
35.49999999999954
 20
-106.0000000000009
 30
0.0
 11
37.58326108942355
 21
-104.0017338538145
 31
0.0
  0
LINE
  5
A8
330
2
100
AcDbEntity
  8
L-ZISSEN
100
AcDbLine
 10
44.99999999999772
 20
-17.49999999999909
 30
0.0
 11
44.99999999999772
 21
-45.99999999999818
 31
0.0
  0
LINE
  5
A9
330
2
100
AcDbEntity
  8
L-ZISSEN
100
AcDbLine
 10
-26.49999999999875
 20
16.00000000000227
 30
0.0
 11
-26.49999999999863
 21
-45.99999999999818
 31
0.0
  0
LINE
  5
AA
330
2
100
AcDbEntity
  8
L-ZISSEN
100
AcDbLine
 10
26.5000000000009
 20
16.0
 30
0.0
 11
26.5000000000009
 21
-45.99999999999818
 31
0.0
  0
LINE
  5
AB
330
2
100
AcDbEntity
  8
L-ZISSEN
100
AcDbLine
 10
-26.49999999999863
 20
-21.99999999999909
 30
0.0
 11
26.5000000000009
 21
-21.99999999999909
 31
0.0
  0
LINE
  5
AC
330
2
100
AcDbEntity
  8
L-ZISSEN
100
AcDbLine
 10
-26.49999999999863
 20
-25.99999999999909
 30
0.0
 11
26.5000000000009
 21
-25.99999999999909
 31
0.0
  0
LINE
  5
AD
330
2
100
AcDbEntity
  8
L-ZISSEN
100
AcDbLine
 10
18.50000000000091
 20
24.0
 30
0.0
 11
-18.50000000000045
 21
24.00000000000045
 31
0.0
  0
LINE
  5
AE
330
2
100
AcDbEntity
  8
L-TYUSIN
100
AcDbLine
 10
-21.70583539144445
 20
0.0
 30
0.0
 11
21.5961632279027
 21
0.0
 31
0.0
  0
CIRCLE
  5
AF
330
2
100
AcDbEntity
  8
L-ZISSEN
100
AcDbCircle
 10
0.0
 20
0.0
 30
0.0
 40
15.0
  0
LINE
  5
B0
330
2
100
AcDbEntity
  8
L-ZISSEN
100
AcDbLine
 10
-37.00000000000045
 20
17.0000000000009
 30
0.0
 11
-37.00000000000034
 21
-15.99999999999818
 31
0.0
  0
LINE
  5
B1
330
2
100
AcDbEntity
  8
L-ZISSEN
100
AcDbLine
 10
-26.5000000000009
 20
16.0
 30
0.0
 11
-18.50000000000091
 21
24.0
 31
0.0
  0
LINE
  5
B2
330
2
100
AcDbEntity
  8
L-ZISSEN
100
AcDbLine
 10
-25.5
 20
17.00000000000045
 30
0.0
 11
-37.00000000000045
 21
17.0000000000009
 31
0.0
  0
LINE
  5
B3
330
2
100
AcDbEntity
  8
L-ZISSEN
100
AcDbLine
 10
37.00000000000045
 20
17.0
 30
0.0
 11
37.00000000000045
 21
-15.99999999999818
 31
0.0
  0
LINE
  5
B4
330
2
100
AcDbEntity
  8
L-ZISSEN
100
AcDbLine
 10
26.5000000000009
 20
-15.99999999999818
 30
0.0
 11
43.49999999999909
 21
-15.99999999999818
 31
0.0
  0
ARC
  5
B5
330
2
100
AcDbEntity
  8
L-ZISSEN
100
AcDbCircle
 10
43.49999999999909
 20
-17.49999999999909
 30
0.0
 40
1.500000000000341
100
AcDbArc
 50
0.0
 51
90.0
  0
LINE
  5
B6
330
2
100
AcDbEntity
  8
L-ZISSEN
100
AcDbLine
 10
26.5000000000009
 20
16.0
 30
0.0
 11
18.50000000000091
 21
24.0
 31
0.0
  0
LINE
  5
B7
330
2
100
AcDbEntity
  8
L-ZISSEN
100
AcDbLine
 10
37.00000000000034
 20
17.0
 30
0.0
 11
25.50000000000091
 21
17.0
 31
0.0
  0
TEXT
  5
B8
330
2
100
AcDbEntity
  8
L-ZISSEN
100
AcDbText
 10
118.1875092355262
 20
15.415201802262
 30
0.0
 40
4.5
  1
Rc1
100
AcDbText
  0
LINE
  5
B9
330
2
100
AcDbEntity
  8
L-ZISSEN
100
AcDbLine
 10
239.1728362609589
 20
-192.4036840439897
 30
0.0
 11
239.1728362609615
 21
-105.9999999999994
 31
0.0
  0
LINE
  5
BA
330
2
100
AcDbEntity
  8
L-ZISSEN
100
AcDbLine
 10
226.0228362609609
 20
-116.3387389116318
 30
0.0
 11
226.0228362609609
 21
-184.3387389116318
 31
0.0
  0
LINE
  5
BB
330
2
100
AcDbEntity
  8
L-ZISSEN
100
AcDbLine
 10
234.4528362609616
 20
-116.3387389116318
 30
0.0
 11
234.4528362609616
 21
-184.3387389116313
 31
0.0
  0
LINE
  5
BC
330
2
100
AcDbEntity
  8
L-ZISSEN
100
AcDbLine
 10
192.322836260962
 20
-116.3387389116318
 30
0.0
 11
192.322836260962
 21
-184.3387389116318
 31
0.0
  0
LINE
  5
BD
330
2
100
AcDbEntity
  8
L-ZISSEN
100
AcDbLine
 10
179.1728362609615
 20
-192.4036840439883
 30
0.0
 11
179.1728362609615
 21
-106.0000000000008
 31
0.0
  0
LINE
  5
BE
330
2
100
AcDbEntity
  8
L-ZISSEN
100
AcDbLine
 10
183.8928362609613
 20
-116.3387389116318
 30
0.0
 11
183.8928362609613
 21
-184.3387389116313
 31
0.0
  0
LINE
  5
BF
330
2
100
AcDbEntity
  8
L-ZISSEN
100
AcDbLine
 10
444.4528362609611
 20
-116.3387389116315
 30
0.0
 11
444.4528362609611
 21
-184.3387389116311
 31
0.0
  0
LINE
  5
C0
330
2
100
AcDbEntity
  8
L-ZISSEN
100
AcDbLine
 10
389.1728362609609
 20
-192.4036840439881
 30
0.0
 11
389.1728362609609
 21
-106.0000000000005
 31
0.0
  0
LINE
  5
C1
330
2
100
AcDbEntity
  8
L-ZISSEN
100
AcDbLine
 10
393.8928362609607
 20
-116.3387389116315
 30
0.0
 11
393.8928362609607
 21
-184.3387389116311
 31
0.0
  0
LINE
  5
C2
330
2
100
AcDbEntity
  8
L-ZISSEN
100
AcDbLine
 10
402.3228362609614
 20
-116.3387389116315
 30
0.0
 11
402.3228362609614
 21
-184.3387389116315
 31
0.0
  0
LINE
  5
C3
330
2
100
AcDbEntity
  8
L-ZISSEN
100
AcDbLine
 10
449.1728362609586
 20
-192.4036840439895
 30
0.0
 11
449.1728362609609
 21
-105.9999999999991
 31
0.0
  0
LINE
  5
C4
330
2
100
AcDbEntity
  8
L-ZISSEN
100
AcDbLine
 10
436.0228362609603
 20
-116.3387389116315
 30
0.0
 11
436.0228362609603
 21
-184.3387389116315
 31
0.0
  0
LINE
  5
C5
330
2
100
AcDbEntity
  8
L-ZISSEN
100
AcDbLine
 10
218.1728362609635
 20
-203.8595512005644
 30
0.0
 11
215.1728362609617
 21
-203.8595512005644
 31
0.0
  0
LINE
  5
C6
330
2
100
AcDbEntity
  8
L-ZISSEN
100
AcDbLine
 10
218.1728362609635
 20
-203.8595512005644
 30
0.0
 11
215.1728362609617
 21
-203.8595512005644
 31
0.0
  0
ARC
  5
C7
330
2
100
AcDbEntity
  8
L-ZISSEN
100
AcDbCircle
 10
215.8855543209563
 20
-209.269912285781
 30
0.0
 40
5.271330170371789
100
AcDbArc
 50
64.28835488513737
 51
115.2591066834194
  0
ARC
  5
C8
330
2
100
AcDbEntity
  8
L-ZISSEN
100
AcDbCircle
 10
215.8855543209551
 20
-201.73008771422
 30
0.0
 40
5.271330170371532
100
AcDbArc
 50
244.7408933165805
 51
295.7116451148626
  0
LINE
  5
C9
330
2
100
AcDbEntity
  8
L-ZISSEN
100
AcDbLine
 10
218.1728362609635
 20
-202.6559495400514
 30
0.0
 11
199.9228362609585
 21
-202.6559495400509
 31
0.0
  0
LINE
  5
CA
330
2
100
AcDbEntity
  8
L-ZISSEN
100
AcDbLine
 10
215.1728362609606
 20
-209.4411654104918
 30
0.0
 11
215.1728362609606
 21
-218.7000000000006
 31
0.0
  0
LINE
  5
CB
330
2
100
AcDbEntity
  8
L-ZISSEN
100
AcDbLine
 10
214.1728362609637
 20
-208.9411654104918
 30
0.0
 11
214.1728362609658
 21
-219.0000000000003
 31
0.0
  0
LINE
  5
CC
330
2
100
AcDbEntity
  8
L-ZISSEN
100
AcDbLine
 10
213.1728362609647
 20
-208.9411654104918
 30
0.0
 11
213.1728362609647
 21
-219.0000000000003
 31
0.0
  0
LINE
  5
CD
330
2
100
AcDbEntity
  8
L-ZISSEN
100
AcDbLine
 10
212.172836260961
 20
-208.9411654104918
 30
0.0
 11
212.172836260961
 21
-219.0000000000003
 31
0.0
  0
LINE
  5
CE
330
2
100
AcDbEntity
  8
L-ZISSEN
100
AcDbLine
 10
211.1728362609619
 20
-208.9411654104918
 30
0.0
 11
211.1728362609619
 21
-219.0000000000003
 31
0.0
  0
LINE
  5
CF
330
2
100
AcDbEntity
  8
L-ZISSEN
100
AcDbLine
 10
205.1728362609606
 20
-208.9411654104918
 30
0.0
 11
205.1728362609606
 21
-219.0000000000003
 31
0.0
  0
LINE
  5
D0
330
2
100
AcDbEntity
  8
L-ZISSEN
100
AcDbLine
 10
204.1728362609615
 20
-208.9411654104918
 30
0.0
 11
204.1728362609615
 21
-219.0000000000003
 31
0.0
  0
LINE
  5
D1
330
2
100
AcDbEntity
  8
L-ZISSEN
100
AcDbLine
 10
209.1728362609637
 20
-208.9411654104918
 30
0.0
 11
209.1728362609637
 21
-219.0000000000003
 31
0.0
  0
LINE
  5
D2
330
2
100
AcDbEntity
  8
L-ZISSEN
100
AcDbLine
 10
208.1728362609624
 20
-208.9411654104918
 30
0.0
 11
208.1728362609624
 21
-219.0000000000003
 31
0.0
  0
LINE
  5
D3
330
2
100
AcDbEntity
  8
L-ZISSEN
100
AcDbLine
 10
207.1728362609633
 20
-208.9411654104918
 30
0.0
 11
207.1728362609633
 21
-219.0000000000003
 31
0.0
  0
LINE
  5
D4
330
2
100
AcDbEntity
  8
L-ZISSEN
100
AcDbLine
 10
206.1728362609619
 20
-208.9411654104918
 30
0.0
 11
206.1728362609619
 21
-219.0000000000003
 31
0.0
  0
LINE
  5
D5
330
2
100
AcDbEntity
  8
L-ZISSEN
100
AcDbLine
 10
203.1728362609622
 20
-218.7000000000006
 30
0.0
 11
203.1728362609624
 21
-209.4411654104918
 31
0.0
  0
LINE
  5
D6
330
2
100
AcDbEntity
  8
L-ZISSEN
100
AcDbLine
 10
210.1728362609628
 20
-208.9411654104918
 30
0.0
 11
210.1728362609628
 21
-219.0000000000003
 31
0.0
  0
LINE
  5
D7
330
2
100
AcDbEntity
  8
L-ZISSEN
100
AcDbLine
 10
214.8728362609608
 20
-219.0000000000003
 30
0.0
 11
203.4728362609621
 21
-219.0000000000003
 31
0.0
  0
LINE
  5
D8
330
2
100
AcDbEntity
  8
L-ZISSEN
100
AcDbLine
 10
203.4728362609621
 20
-219.0000000000003
 30
0.0
 11
203.1728362609624
 21
-218.7000000000006
 31
0.0
  0
LINE
  5
D9
330
2
100
AcDbEntity
  8
L-ZISSEN
100
AcDbLine
 10
214.8728362609608
 20
-219.0000000000003
 30
0.0
 11
215.1728362609606
 21
-218.7000000000006
 31
0.0
  0
ARC
  5
DA
330
2
100
AcDbEntity
  8
L-ZISSEN
100
AcDbCircle
 10
187.1728362609621
 20
-192.4036840439883
 30
0.0
 40
8.000000000000113
100
AcDbArc
 50
180.0
 51
256.0937629349449
  0
ARC
  5
DB
330
2
100
AcDbEntity
  8
L-ZISSEN
100
AcDbCircle
 10
209.1728362609626
 20
-103.5472889185178
 30
0.0
 40
99.53938471878538
100
AcDbArc
 50
256.093762934955
 51
264.6679223051358
  0
LINE
  5
DC
330
2
100
AcDbEntity
  8
L-ZISSEN
100
AcDbLine
 10
213.6362118979798
 20
-204.5025880436868
 30
0.0
 11
213.6362118979798
 21
-206.4974119563147
 31
0.0
  0
LINE
  5
DD
330
2
100
AcDbEntity
  8
L-ZISSEN
100
AcDbLine
 10
200.1731926408786
 20
-204.4902672699439
 30
0.0
 11
200.1731926408786
 21
-206.5097327300567
 31
0.0
  0
LINE
  5
DE
330
2
100
AcDbEntity
  8
L-ZISSEN
100
AcDbLine
 10
204.6432999429441
 20
-204.5031191579495
 30
0.0
 11
204.643299942951
 21
-206.4968808420525
 31
0.0
  0
ARC
  5
DF
330
2
100
AcDbEntity
  8
L-ZISSEN
100
AcDbCircle
 10
209.1728362609615
 20
-186.3589373260832
 30
0.0
 40
20.64106267391694
100
AcDbArc
 50
257.323681312269
 51
282.4944195184277
  0
LINE
  5
E0
330
2
100
AcDbEntity
  8
L-ZISSEN
100
AcDbLine
 10
203.6728362609596
 20
-208.9411654104918
 30
0.0
 11
212.172836260961
 21
-208.9411654104918
 31
0.0
  0
LINE
  5
E1
330
2
100
AcDbEntity
  8
L-ZISSEN
100
AcDbLine
 10
202.3945206444568
 20
-207.00062111482
 30
0.0
 11
215.8855543209551
 21
-207.0014178845916
 31
0.0
  0
LINE
  5
E2
330
2
100
AcDbEntity
  8
L-ZISSEN
100
AcDbLine
 10
203.6728362609596
 20
-208.9411654104918
 30
0.0
 11
203.1728362609624
 21
-209.4411654104918
 31
0.0
  0
LINE
  5
E3
330
2
100
AcDbEntity
  8
L-ZISSEN
100
AcDbLine
 10
204.1728362609637
 20
-207.0006966111285
 30
0.0
 11
204.1728362609597
 21
-208.9411654104918
 31
0.0
  0
LINE
  5
E4
330
2
100
AcDbEntity
  8
L-ZISSEN
100
AcDbLine
 10
203.6728362609624
 20
-208.4411654104918
 30
0.0
 11
203.6728362609624
 21
-207.0000000000003
 31
0.0
  0
LINE
  5
E5
330
2
100
AcDbEntity
  8
L-ZISSEN
100
AcDbLine
 10
204.1728362609597
 20
-208.9411654104918
 30
0.0
 11
203.6728362609624
 21
-208.4411654104918
 31
0.0
  0
ARC
  5
E6
330
2
100
AcDbEntity
  8
L-ZISSEN
100
AcDbCircle
 10
202.3945206444568
 20
-201.7292909444494
 30
0.0
 40
5.271330170370607
100
AcDbArc
 50
245.0771192748271
 51
295.2523389966464
  0
LINE
  5
E7
330
2
100
AcDbEntity
  8
L-ZISSEN
100
AcDbLine
 10
212.172836260961
 20
-208.9411654104918
 30
0.0
 11
214.672836260961
 21
-208.9411654104918
 31
0.0
  0
LINE
  5
E8
330
2
100
AcDbEntity
  8
L-ZISSEN
100
AcDbLine
 10
214.1728362609651
 20
-207.0013462624227
 30
0.0
 11
214.172836260961
 21
-208.9411654104918
 31
0.0
  0
LINE
  5
E9
330
2
100
AcDbEntity
  8
L-ZISSEN
100
AcDbLine
 10
214.172836260961
 20
-208.9411654104918
 30
0.0
 11
214.6728362609605
 21
-208.4411654104918
 31
0.0
  0
LINE
  5
EA
330
2
100
AcDbEntity
  8
L-ZISSEN
100
AcDbLine
 10
214.672836260961
 20
-208.9411654104918
 30
0.0
 11
215.1728362609606
 21
-209.4411654104918
 31
0.0
  0
LINE
  5
EB
330
2
100
AcDbEntity
  8
L-ZISSEN
100
AcDbLine
 10
214.6728362609605
 20
-208.4411654104914
 30
0.0
 11
214.6728362609605
 21
-207.0000000000003
 31
0.0
  0
ARC
  5
EC
330
2
100
AcDbEntity
  8
L-ZISSEN
100
AcDbCircle
 10
209.1728362609626
 20
-224.6410626739174
 30
0.0
 40
20.64106267391679
100
AcDbArc
 50
77.50558048156898
 51
102.6763186877443
  0
LINE
  5
ED
330
2
100
AcDbEntity
  8
L-ZISSEN
100
AcDbLine
 10
215.1728362609617
 20
-203.8595512005644
 30
0.0
 11
200.1728362609617
 21
-203.8595512005644
 31
0.0
  0
LINE
  5
EE
330
2
100
AcDbEntity
  8
L-ZISSEN
100
AcDbLine
 10
202.3136020631693
 20
-204.0000000000003
 30
0.0
 11
215.1728362609617
 21
-204.0000000000003
 31
0.0
  0
LINE
  5
EF
330
2
100
AcDbEntity
  8
L-ZISSEN
100
AcDbLine
 10
215.1728362609617
 20
-203.8595512005644
 30
0.0
 11
200.1728362609617
 21
-203.8595512005644
 31
0.0
  0
LINE
  5
F0
330
2
100
AcDbEntity
  8
L-ZISSEN
100
AcDbLine
 10
200.1728362609617
 20
-203.8595512005644
 30
0.0
 11
200.1728362609617
 21
-202.6559495400509
 31
0.0
  0
LINE
  5
F1
330
2
100
AcDbEntity
  8
L-ZISSEN
100
AcDbLine
 10
200.1728362609617
 20
-203.8595512005644
 30
0.0
 11
200.1728362609617
 21
-202.6559495400509
 31
0.0
  0
ARC
  5
F2
330
2
100
AcDbEntity
  8
L-ZISSEN
100
AcDbCircle
 10
202.3945206444579
 20
-209.2707090555517
 30
0.0
 40
5.271330170370607
100
AcDbArc
 50
64.74766100341449
 51
114.9228807251728
  0
LINE
  5
F3
330
2
100
AcDbEntity
  8
L-ZISSEN
100
AcDbLine
 10
215.1728362609617
 20
-204.0000000000003
 30
0.0
 11
216.0078092400579
 21
-204.0000000000003
 31
0.0
  0
LINE
  5
F4
330
2
100
AcDbEntity
  8
L-ZISSEN
100
AcDbLine
 10
212.1728362609621
 20
-204.0000000000003
 30
0.0
 11
212.1728362609621
 21
-203.8595512005644
 31
0.0
  0
LINE
  5
F5
330
2
100
AcDbEntity
  8
L-ZISSEN
100
AcDbLine
 10
188.1078362609605
 20
-186.3387389116318
 30
0.0
 11
183.8928362609613
 21
-184.3387389116313
 31
0.0
  0
LINE
  5
F6
330
2
100
AcDbEntity
  8
L-ZISSEN
100
AcDbLine
 10
192.322836260962
 20
-184.3387389116318
 30
0.0
 11
188.1078362609605
 21
-186.3387389116318
 31
0.0
  0
ARC
  5
F7
330
2
100
AcDbEntity
  8
L-ZISSEN
100
AcDbCircle
 10
231.1728362609608
 20
-192.4036840439897
 30
0.0
 40
8.000000000000113
100
AcDbArc
 50
283.9062370652463
 51
0.0
  0
LINE
  5
F8
330
2
100
AcDbEntity
  8
L-ZISSEN
100
AcDbLine
 10
218.1724798810489
 20
-204.5205025069061
 30
0.0
 11
218.1724798810489
 21
-206.479497493094
 31
0.0
  0
ARC
  5
F9
330
2
100
AcDbEntity
  8
L-ZISSEN
100
AcDbCircle
 10
209.1728362609626
 20
-103.5472889185178
 30
0.0
 40
99.53938471878553
100
AcDbArc
 50
275.3320776948642
 51
283.906237065055
  0
LINE
  5
FA
330
2
100
AcDbEntity
  8
L-ZISSEN
100
AcDbLine
 10
218.4228362609667
 20
-202.6559495400509
 30
0.0
 11
218.1728362609635
 21
-202.6559495400514
 31
0.0
  0
LINE
  5
FB
330
2
100
AcDbEntity
  8
L-ZISSEN
100
AcDbLine
 10
218.1728362609635
 20
-203.8595512005644
 30
0.0
 11
218.1728362609635
 21
-202.6559495400514
 31
0.0
  0
LINE
  5
FC
330
2
100
AcDbEntity
  8
L-ZISSEN
100
AcDbLine
 10
218.1728362609635
 20
-203.8595512005644
 30
0.0
 11
218.1728362609635
 21
-202.6559495400514
 31
0.0
  0
LINE
  5
FD
330
2
100
AcDbEntity
  8
L-ZISSEN
100
AcDbLine
 10
226.0228362609609
 20
-184.3387389116318
 30
0.0
 11
230.2378362609624
 21
-186.3387389116318
 31
0.0
  0
LINE
  5
FE
330
2
100
AcDbEntity
  8
L-ZISSEN
100
AcDbLine
 10
230.2378362609624
 20
-186.3387389116318
 30
0.0
 11
234.4528362609616
 21
-184.3387389116313
 31
0.0
  0
ARC
  5
FF
330
2
100
AcDbEntity
  8
L-ZISSEN
100
AcDbCircle
 10
397.1728362609618
 20
-192.4036840439881
 30
0.0
 40
8.000000000000113
100
AcDbArc
 50
180.0
 51
256.0937629349451
  0
ARC
  5
100
330
2
100
AcDbEntity
  8
L-ZISSEN
100
AcDbCircle
 10
419.1728362609622
 20
-103.5472889185176
 30
0.0
 40
99.53938471878553
100
AcDbArc
 50
275.3320776948641
 51
283.9062370650548
  0
LINE
  5
101
330
2
100
AcDbEntity
  8
L-ZISSEN
100
AcDbLine
 10
428.1728362609632
 20
-210.5000003877963
 30
0.0
 11
410.1728362609613
 21
-210.5000003877963
 31
0.0
  0
LINE
  5
102
330
2
100
AcDbEntity
  8
L-ZISSEN
100
AcDbLine
 10
428.4228362609666
 20
-202.6559495400511
 30
0.0
 11
409.9228362609546
 21
-202.6559495400507
 31
0.0
  0
LINE
  5
103
330
2
100
AcDbEntity
  8
L-ZISSEN
100
AcDbLine
 10
410.1728362609613
 20
-210.5000003877968
 30
0.0
 11
410.1728362609613
 21
-202.6559495400507
 31
0.0
  0
ARC
  5
104
330
2
100
AcDbEntity
  8
L-ZISSEN
100
AcDbCircle
 10
419.1728362609622
 20
-103.5472889185176
 30
0.0
 40
99.53938471878538
100
AcDbArc
 50
256.0937629349554
 51
264.6679223051358
  0
LINE
  5
105
330
2
100
AcDbEntity
  8
L-ZISSEN
100
AcDbLine
 10
428.1728362609632
 20
-210.5000003877968
 30
0.0
 11
428.1728362609632
 21
-202.6559495400511
 31
0.0
  0
LINE
  5
106
330
2
100
AcDbEntity
  8
L-ZISSEN
100
AcDbLine
 10
402.3228362609614
 20
-184.3387389116315
 30
0.0
 11
398.1078362609599
 21
-186.3387389116315
 31
0.0
  0
LINE
  5
107
330
2
100
AcDbEntity
  8
L-ZISSEN
100
AcDbLine
 10
398.1078362609599
 20
-186.3387389116315
 30
0.0
 11
393.8928362609607
 21
-184.3387389116311
 31
0.0
  0
ARC
  5
108
330
2
100
AcDbEntity
  8
L-ZISSEN
100
AcDbCircle
 10
441.1728362609604
 20
-192.4036840439895
 30
0.0
 40
8.000000000000113
100
AcDbArc
 50
283.906237065246
 51
0.0
  0
LINE
  5
109
330
2
100
AcDbEntity
  8
L-ZISSEN
100
AcDbLine
 10
440.2378362609619
 20
-186.3387389116315
 30
0.0
 11
444.4528362609611
 21
-184.3387389116311
 31
0.0
  0
LINE
  5
10A
330
2
100
AcDbEntity
  8
L-ZISSEN
100
AcDbLine
 10
436.0228362609603
 20
-184.3387389116315
 30
0.0
 11
440.2378362609619
 21
-186.3387389116315
 31
0.0
  0
LINE
  5
10B
330
2
100
AcDbEntity
  8
L-TYUSIN
100
AcDbLine
 10
325.7528362609607
 20
3.999999999998749
 30
0.0
 11
302.5928362609608
 21
3.999999999998749
 31
0.0
  0
LINE
  5
10C
330
2
100
AcDbEntity
  8
L-SOUZOU
100
AcDbLine
 10
313.487236260958
 20
2.121599999998693
 30
0.0
 11
303.424836260957
 21
-7.331200000001103
 31
0.0
  0
LINE
  5
10F
330
2
100
AcDbEntity
  8
L-SOUZOU
100
AcDbLine
 10
312.2944362609565
 20
3.314399999998727
 30
0.0
 11
302.8416362609574
 21
-6.748000000000843
 31
0.0
  0
CIRCLE
  5
110
330
2
100
AcDbEntity
  8
L-SOUZOU
100
AcDbCircle
 10
314.1728362609608
 20
3.999999999998749
 30
0.0
 40
18.0
  0
LINE
  5
111
330
2
100
AcDbEntity
  8
L-TYUSIN
100
AcDbLine
 10
322.5944362609565
 20
12.42159999999887
 30
0.0
 11
301.8712362609548
 21
-8.301600000000803
 31
0.0
  0
ARC
  5
112
330
2
100
AcDbEntity
  8
L-ZISSEN
100
AcDbCircle
 10
314.1728362609608
 20
15.68870610564601
 30
0.0
 40
67.68870610564737
100
AcDbArc
 50
259.4215471024327
 51
280.5784528975672
  0
ARC
  5
113
330
2
100
AcDbEntity
  8
L-ZISSEN
100
AcDbCircle
 10
314.1728362609608
 20
-113.6887061056486
 30
0.0
 40
67.68870610564737
100
AcDbArc
 50
79.42154710243272
 51
100.5784528975671
  0
LINE
  5
114
330
2
100
AcDbEntity
  8
L-ZISSEN
100
AcDbLine
 10
292.1728362609608
 20
-120.0000000000012
 30
0.0
 11
336.1728362609626
 21
-120.0000000000012
 31
0.0
  0
CIRCLE
  5
115
330
2
100
AcDbEntity
  8
L-SOUZOU
100
AcDbCircle
 10
314.1728362609608
 20
3.999999999998749
 30
0.0
 40
21.0
  0
LINE
  5
116
330
2
100
AcDbEntity
  8
L-ZISSEN
100
AcDbLine
 10
349.1728362609608
 20
-32.00000000000125
 30
0.0
 11
279.1728362609608
 21
-32.00000000000125
 31
0.0
  0
LINE
  5
117
330
2
100
AcDbEntity
  8
L-ZISSEN
100
AcDbLine
 10
279.1728362609608
 20
-44.00000000000125
 30
0.0
 11
349.1728362609608
 21
-44.00000000000125
 31
0.0
  0
LINE
  5
118
330
2
100
AcDbEntity
  8
L-ZISSEN
100
AcDbLine
 10
338.4841775341553
 20
-55.99999999999761
 30
0.0
 11
289.8614949877662
 21
-55.99999999999761
 31
0.0
  0
LINE
  5
119
330
2
100
AcDbEntity
  8
L-ZISSEN
100
AcDbLine
 10
335.6728362609608
 20
-66.00000000000125
 30
0.0
 11
292.672836260959
 21
-66.00000000000125
 31
0.0
  0
LINE
  5
11A
330
2
100
AcDbEntity
  8
L-ZISSEN
100
AcDbLine
 10
336.6122463967487
 20
-68.00000000000125
 30
0.0
 11
291.7334261251801
 21
-68.00000000000125
 31
0.0
  0
LINE
  5
11B
330
2
100
AcDbEntity
  8
L-ZISSEN
100
AcDbLine
 10
292.9596328253644
 20
-46.00000000000124
 30
0.0
 11
335.3860396965572
 21
-46.00000000000124
 31
0.0
  0
LINE
  5
11C
330
2
100
AcDbEntity
  8
L-ZISSEN
100
AcDbLine
 10
292.9596328253644
 20
-52.00000000000125
 30
0.0
 11
335.3860396965572
 21
-52.00000000000125
 31
0.0
  0
LINE
  5
11D
330
2
100
AcDbEntity
  8
L-ZISSEN
100
AcDbLine
 10
341.1728362609608
 20
16.99999999999874
 30
0.0
 11
287.1728362609589
 21
16.99999999999874
 31
0.0
  0
LINE
  5
11E
330
2
100
AcDbEntity
  8
L-ZISSEN
100
AcDbLine
 10
355.1728362609626
 20
-16.00575108397185
 30
0.0
 11
273.1728362609607
 21
-16.00575108397185
 31
0.0
  0
LINE
  5
11F
330
2
100
AcDbEntity
  8
L-ZISSEN
100
AcDbLine
 10
359.1728362609608
 20
-32.00000000000125
 30
0.0
 11
269.1728362609608
 21
-32.00000000000125
 31
0.0
  0
LINE
  5
120
330
2
100
AcDbEntity
  8
L-TYUSIN
100
AcDbLine
 10
159.172836260961
 20
0.0000000000001137
 30
0.0
 11
469.1728362609608
 21
-0.0000000000003411
 31
0.0
  0
ARC
  5
121
330
2
100
AcDbEntity
  8
L-ZISSEN
100
AcDbCircle
 10
291.7334261251801
 20
-70.30000000000143
 30
0.0
 40
2.299999999999998
100
AcDbArc
 50
90.0
 51
180.8959352773338
  0
LINE
  5
122
330
2
100
AcDbEntity
  8
L-ZISSEN
100
AcDbLine
 10
171.5895751715375
 20
-104.0017338538144
 30
0.0
 11
169.172836260961
 21
-45.99999999999806
 31
0.0
  0
LINE
  5
123
330
2
100
AcDbEntity
  8
L-ZISSEN
100
AcDbLine
 10
246.7560973503846
 20
-104.0017338538144
 30
0.0
 11
249.172836260961
 21
-45.99999999999806
 31
0.0
  0
LINE
  5
124
330
2
100
AcDbEntity
  8
L-ZISSEN
100
AcDbLine
 10
217.2978362609615
 20
-114.7499999999998
 30
0.0
 11
220.4228362609615
 21
-112.8749999999998
 31
0.0
  0
LINE
  5
125
330
2
100
AcDbEntity
  8
L-ZISSEN
100
AcDbLine
 10
217.2978362609615
 20
-110.9999999999998
 30
0.0
 11
220.4228362609615
 21
-112.8749999999998
 31
0.0
  0
LINE
  5
126
330
2
100
AcDbEntity
  8
L-ZISSEN
100
AcDbLine
 10
246.7560973503846
 20
-104.0017338538144
 30
0.0
 11
171.5895751715375
 21
-104.0017338538144
 31
0.0
  0
LINE
  5
127
330
2
100
AcDbEntity
  8
L-ZISSEN
100
AcDbLine
 10
196.3603362609615
 20
-146.0000000000007
 30
0.0
 11
221.9853362609615
 21
-146.0000000000007
 31
0.0
  0
LINE
  5
128
330
2
100
AcDbEntity
  8
L-ZISSEN
100
AcDbLine
 10
173.6728362609615
 20
-106.0000000000008
 30
0.0
 11
244.6728362609606
 21
-106.0000000000008
 31
0.0
  0
LINE
  5
129
330
2
100
AcDbEntity
  8
L-ZISSEN
100
AcDbLine
 10
244.6728362609606
 20
-106.0000000000008
 30
0.0
 11
173.6728362609615
 21
-106.0000000000008
 31
0.0
  0
LINE
  5
12A
330
2
100
AcDbEntity
  8
L-ZISSEN
100
AcDbLine
 10
209.1728362609615
 20
-141.0000000000007
 30
0.0
 11
223.2353362609592
 21
-137.2500000000008
 31
0.0
  0
LINE
  5
12B
330
2
100
AcDbEntity
  8
L-ZISSEN
100
AcDbLine
 10
209.1728362609615
 20
-132.2500000000008
 30
0.0
 11
222.2978362609592
 21
-130.3750000000007
 31
0.0
  0
LINE
  5
12C
330
2
100
AcDbEntity
  8
L-ZISSEN
100
AcDbLine
 10
221.0872693957958
 20
-135.9420255110452
 30
0.0
 11
209.1728362609615
 21
-138.436383485476
 31
0.0
  0
LINE
  5
12D
330
2
100
AcDbEntity
  8
L-ZISSEN
100
AcDbLine
 10
209.1728362609615
 20
-133.0811722572278
 30
0.0
 11
221.0872693957958
 21
-131.3791103808233
 31
0.0
  0
LINE
  5
12E
330
2
100
AcDbEntity
  8
L-ZISSEN
100
AcDbLine
 10
207.9228362609637
 20
-109.7499999999994
 30
0.0
 11
207.9228362609637
 21
-119.7499999999994
 31
0.0
  0
LINE
  5
12F
330
2
100
AcDbEntity
  8
L-ZISSEN
100
AcDbLine
 10
207.9228362609637
 20
-109.7499999999994
 30
0.0
 11
207.9228362609637
 21
-119.7499999999994
 31
0.0
  0
LINE
  5
130
330
2
100
AcDbEntity
  8
L-ZISSEN
100
AcDbLine
 10
210.4228362609637
 20
-109.7499999999994
 30
0.0
 11
210.4228362609637
 21
-119.7499999999994
 31
0.0
  0
LINE
  5
131
330
2
100
AcDbEntity
  8
L-ZISSEN
100
AcDbLine
 10
210.4228362609637
 20
-109.7499999999994
 30
0.0
 11
210.4228362609637
 21
-119.7499999999994
 31
0.0
  0
LINE
  5
132
330
2
100
AcDbEntity
  8
L-ZISSEN
100
AcDbLine
 10
195.1103362609592
 20
-106.0000000000008
 30
0.0
 11
195.1103362609592
 21
-129.7892753671334
 31
0.0
  0
LINE
  5
133
330
2
100
AcDbEntity
  8
L-ZISSEN
100
AcDbLine
 10
196.0478362609592
 20
-106.0000000000008
 30
0.0
 11
196.0478362609592
 21
-130.3750000000007
 31
0.0
  0
LINE
  5
134
330
2
100
AcDbEntity
  8
L-ZISSEN
100
AcDbLine
 10
195.1103362609592
 20
-106.0000000000008
 30
0.0
 11
195.1103362609592
 21
-144.7500000000007
 31
0.0
  0
LINE
  5
135
330
2
100
AcDbEntity
  8
L-ZISSEN
100
AcDbLine
 10
199.7978362609615
 20
-138.4999999999998
 30
0.0
 11
199.7978362609592
 21
-146.0000000000007
 31
0.0
  0
ARC
  5
136
330
2
100
AcDbEntity
  8
L-ZISSEN
100
AcDbCircle
 10
196.3603362609615
 20
-144.7500000000007
 30
0.0
 40
1.250000000000568
100
AcDbArc
 50
180.0
 51
270.0
  0
LINE
  5
137
330
2
100
AcDbEntity
  8
L-ZISSEN
100
AcDbLine
 10
197.2584031261271
 20
-130.5479381235958
 30
0.0
 11
196.0478362609592
 21
-130.3750000000007
 31
0.0
  0
LINE
  5
138
330
2
100
AcDbEntity
  8
L-ZISSEN
100
AcDbLine
 10
197.2584031261271
 20
-131.3791103808233
 30
0.0
 11
196.0478362609592
 21
-130.3750000000007
 31
0.0
  0
LINE
  5
139
330
2
100
AcDbEntity
  8
L-ZISSEN
100
AcDbLine
 10
209.1728362609615
 20
-132.2500000000008
 30
0.0
 11
196.0478362609592
 21
-130.3750000000007
 31
0.0
  0
LINE
  5
13A
330
2
100
AcDbEntity
  8
L-ZISSEN
100
AcDbLine
 10
195.1103362609592
 20
-137.2500000000008
 30
0.0
 11
197.2584031261271
 21
-135.9420255110452
 31
0.0
  0
LINE
  5
13B
330
2
100
AcDbEntity
  8
L-ZISSEN
100
AcDbLine
 10
209.1728362609615
 20
-141.0000000000007
 30
0.0
 11
195.1103362609592
 21
-137.2500000000008
 31
0.0
  0
LINE
  5
13C
330
2
100
AcDbEntity
  8
L-ZISSEN
100
AcDbLine
 10
209.1728362609615
 20
-133.0811722572278
 30
0.0
 11
197.2584031261271
 21
-131.3791103808233
 31
0.0
  0
LINE
  5
13D
330
2
100
AcDbEntity
  8
L-ZISSEN
100
AcDbLine
 10
197.2584031261271
 20
-131.3791103808233
 30
0.0
 11
197.2584031261271
 21
-135.9420255110452
 31
0.0
  0
LINE
  5
13E
330
2
100
AcDbEntity
  8
L-ZISSEN
100
AcDbLine
 10
197.2584031261271
 20
-135.9420255110452
 30
0.0
 11
209.1728362609615
 21
-138.436383485476
 31
0.0
  0
CIRCLE
  5
13F
330
2
100
AcDbEntity
  8
L-ZISSEN
100
AcDbCircle
 10
209.1728362609615
 20
-135.996454701174
 30
0.0
 40
1.25
  0
ARC
  5
140
330
2
100
AcDbEntity
  8
L-ZISSEN
100
AcDbCircle
 10
209.1728362609615
 20
-142.2500000000008
 30
0.0
 40
1.250000000000568
100
AcDbArc
 50
180.0
 51
0.0
  0
LINE
  5
141
330
2
100
AcDbEntity
  8
L-ZISSEN
100
AcDbLine
 10
209.1728362609615
 20
-141.0000000000007
 30
0.0
 11
209.1728362609615
 21
-138.436383485476
 31
0.0
  0
LINE
  5
142
330
2
100
AcDbEntity
  8
L-ZISSEN
100
AcDbLine
 10
207.9228362609592
 20
-140.6666666666664
 30
0.0
 11
207.9228362609614
 21
-142.2500000000008
 31
0.0
  0
LINE
  5
143
330
2
100
AcDbEntity
  8
L-ZISSEN
100
AcDbLine
 10
210.4228362609615
 20
-140.6666666666668
 30
0.0
 11
210.4228362609615
 21
-142.2500000000008
 31
0.0
  0
LINE
  5
144
330
2
100
AcDbEntity
  8
L-ZISSEN
100
AcDbLine
 10
209.1728362609615
 20
-132.2500000000008
 30
0.0
 11
209.1728362609615
 21
-133.0811722572278
 31
0.0
  0
LINE
  5
145
330
2
100
AcDbEntity
  8
L-TYUSIN
100
AcDbLine
 10
206.9860426984064
 20
-135.996454701174
 30
0.0
 11
211.1808226733182
 21
-135.996454701174
 31
0.0
  0
LINE
  5
146
330
2
100
AcDbEntity
  8
L-ZISSEN
100
AcDbLine
 10
207.9228362609637
 20
-119.7499999999994
 30
0.0
 11
205.4228362609637
 21
-119.7499999999994
 31
0.0
  0
LINE
  5
147
330
2
100
AcDbEntity
  8
L-ZISSEN
100
AcDbLine
 10
205.4228362609637
 20
-119.7499999999994
 30
0.0
 11
209.1728362609637
 21
-125.9999999999994
 31
0.0
  0
LINE
  5
148
330
2
100
AcDbEntity
  8
L-ZISSEN
100
AcDbLine
 10
212.9228362609637
 20
-119.7499999999994
 30
0.0
 11
209.1728362609637
 21
-125.9999999999994
 31
0.0
  0
LINE
  5
149
330
2
100
AcDbEntity
  8
L-ZISSEN
100
AcDbLine
 10
210.4228362609637
 20
-119.7499999999994
 30
0.0
 11
212.9228362609637
 21
-119.7499999999994
 31
0.0
  0
LINE
  5
14A
330
2
100
AcDbEntity
  8
L-ZISSEN
100
AcDbLine
 10
173.6728362609615
 20
-106.0000000000008
 30
0.0
 11
171.5895751715375
 21
-104.0017338538144
 31
0.0
  0
LINE
  5
14B
330
2
100
AcDbEntity
  8
L-ZISSEN
100
AcDbLine
 10
183.8928362609613
 20
-116.3387389116318
 30
0.0
 11
192.322836260962
 21
-116.3387389116318
 31
0.0
  0
LINE
  5
14C
330
2
100
AcDbEntity
  8
L-ZISSEN
100
AcDbLine
 10
206.0478362609615
 20
-112.2500000000008
 30
0.0
 11
206.0478362609615
 21
-113.5000000000008
 31
0.0
  0
LINE
  5
14D
330
2
100
AcDbEntity
  8
L-ZISSEN
100
AcDbLine
 10
206.0478362609615
 20
-113.5000000000008
 30
0.0
 11
201.0478362609615
 21
-113.5000000000008
 31
0.0
  0
LINE
  5
14E
330
2
100
AcDbEntity
  8
L-ZISSEN
100
AcDbLine
 10
206.0478362609615
 20
-113.5000000000008
 30
0.0
 11
201.0478362609615
 21
-113.5000000000008
 31
0.0
  0
LINE
  5
14F
330
2
100
AcDbEntity
  8
L-ZISSEN
100
AcDbLine
 10
201.0478362609615
 20
-113.5000000000008
 30
0.0
 11
201.0478362609615
 21
-114.7500000000007
 31
0.0
  0
LINE
  5
150
330
2
100
AcDbEntity
  8
L-ZISSEN
100
AcDbLine
 10
206.0478362609615
 20
-112.2500000000008
 30
0.0
 11
201.0478362609615
 21
-112.2500000000008
 31
0.0
  0
LINE
  5
151
330
2
100
AcDbEntity
  8
L-ZISSEN
100
AcDbLine
 10
206.0478362609615
 20
-112.2500000000008
 30
0.0
 11
201.0478362609615
 21
-112.2500000000008
 31
0.0
  0
LINE
  5
152
330
2
100
AcDbEntity
  8
L-ZISSEN
100
AcDbLine
 10
201.0478362609615
 20
-112.2500000000008
 30
0.0
 11
201.0478362609615
 21
-111.0000000000008
 31
0.0
  0
LINE
  5
153
330
2
100
AcDbEntity
  8
L-ZISSEN
100
AcDbLine
 10
201.0478362609615
 20
-114.7500000000007
 30
0.0
 11
197.9228362609615
 21
-112.8750000000007
 31
0.0
  0
LINE
  5
154
330
2
100
AcDbEntity
  8
L-ZISSEN
100
AcDbLine
 10
201.0478362609615
 20
-111.0000000000008
 30
0.0
 11
197.9228362609615
 21
-112.8750000000007
 31
0.0
  0
LINE
  5
155
330
2
100
AcDbEntity
  8
L-ZISSEN
100
AcDbLine
 10
212.2978362609615
 20
-112.2499999999998
 30
0.0
 11
212.2978362609615
 21
-113.4999999999998
 31
0.0
  0
LINE
  5
156
330
2
100
AcDbEntity
  8
L-ZISSEN
100
AcDbLine
 10
212.2978362609615
 20
-113.4999999999998
 30
0.0
 11
217.2978362609615
 21
-113.4999999999998
 31
0.0
  0
LINE
  5
157
330
2
100
AcDbEntity
  8
L-ZISSEN
100
AcDbLine
 10
212.2978362609615
 20
-113.4999999999998
 30
0.0
 11
217.2978362609615
 21
-113.4999999999998
 31
0.0
  0
LINE
  5
158
330
2
100
AcDbEntity
  8
L-ZISSEN
100
AcDbLine
 10
217.2978362609615
 20
-113.4999999999998
 30
0.0
 11
217.2978362609615
 21
-114.7499999999998
 31
0.0
  0
LINE
  5
159
330
2
100
AcDbEntity
  8
L-ZISSEN
100
AcDbLine
 10
212.2978362609615
 20
-112.2499999999998
 30
0.0
 11
217.2978362609615
 21
-112.2499999999998
 31
0.0
  0
LINE
  5
15A
330
2
100
AcDbEntity
  8
L-ZISSEN
100
AcDbLine
 10
212.2978362609615
 20
-112.2499999999998
 30
0.0
 11
217.2978362609615
 21
-112.2499999999998
 31
0.0
  0
LINE
  5
15B
330
2
100
AcDbEntity
  8
L-ZISSEN
100
AcDbLine
 10
217.2978362609615
 20
-112.2499999999998
 30
0.0
 11
217.2978362609615
 21
-110.9999999999998
 31
0.0
  0
LINE
  5
15C
330
2
100
AcDbEntity
  8
L-ZISSEN
100
AcDbLine
 10
210.4228362609637
 20
-109.7499999999994
 30
0.0
 11
207.9228362609637
 21
-109.7499999999994
 31
0.0
  0
LINE
  5
15D
330
2
100
AcDbEntity
  8
L-ZISSEN
100
AcDbLine
 10
290.1728362609644
 20
-117.6000000000011
 30
0.0
 11
292.1728362609608
 21
-120.0000000000012
 31
0.0
  0
LINE
  5
15E
330
2
100
AcDbEntity
  8
L-ZISSEN
100
AcDbLine
 10
222.2978362609592
 20
-106.0000000000008
 30
0.0
 11
222.2978362609592
 21
-130.3750000000007
 31
0.0
  0
LINE
  5
15F
330
2
100
AcDbEntity
  8
L-ZISSEN
100
AcDbLine
 10
223.2353362609592
 20
-106.0000000000008
 30
0.0
 11
223.2353362609592
 21
-129.7892753671334
 31
0.0
  0
LINE
  5
160
330
2
100
AcDbEntity
  8
L-ZISSEN
100
AcDbLine
 10
223.2353362609592
 20
-106.0000000000008
 30
0.0
 11
223.2353362609592
 21
-144.7500000000007
 31
0.0
  0
LINE
  5
161
330
2
100
AcDbEntity
  8
L-ZISSEN
100
AcDbLine
 10
218.5478362609592
 20
-138.5000000000007
 30
0.0
 11
218.5478362609592
 21
-146.0000000000007
 31
0.0
  0
ARC
  5
162
330
2
100
AcDbEntity
  8
L-ZISSEN
100
AcDbCircle
 10
221.9853362609615
 20
-144.7500000000007
 30
0.0
 40
1.249999999999715
100
AcDbArc
 50
270.0
 51
0.0
  0
LINE
  5
163
330
2
100
AcDbEntity
  8
L-ZISSEN
100
AcDbLine
 10
221.0872693957958
 20
-131.3791103808233
 30
0.0
 11
221.0872693957958
 21
-135.9420255110452
 31
0.0
  0
LINE
  5
164
330
2
100
AcDbEntity
  8
L-ZISSEN
100
AcDbLine
 10
223.2353362609592
 20
-137.2500000000008
 30
0.0
 11
221.0872693957958
 21
-135.9420255110452
 31
0.0
  0
LINE
  5
165
330
2
100
AcDbEntity
  8
L-ZISSEN
100
AcDbLine
 10
221.0872693957958
 20
-131.3791103808233
 30
0.0
 11
222.2978362609592
 21
-130.3750000000007
 31
0.0
  0
LINE
  5
166
330
2
100
AcDbEntity
  8
L-ZISSEN
100
AcDbLine
 10
221.0872693957958
 20
-130.5479381235958
 30
0.0
 11
222.2978362609592
 21
-130.3750000000007
 31
0.0
  0
LINE
  5
167
330
2
100
AcDbEntity
  8
L-ZISSEN
100
AcDbLine
 10
234.4528362609616
 20
-116.3387389116318
 30
0.0
 11
226.0228362609609
 21
-116.3387389116318
 31
0.0
  0
LINE
  5
168
330
2
100
AcDbEntity
  8
L-ZISSEN
100
AcDbLine
 10
244.6728362609606
 20
-106.0000000000008
 30
0.0
 11
246.7560973503846
 21
-104.0017338538144
 31
0.0
  0
LINE
  5
169
330
2
100
AcDbEntity
  8
L-ZISSEN
100
AcDbLine
 10
290.1728362609644
 20
-117.6000000000011
 30
0.0
 11
289.4337073133213
 21
-70.33596368143196
 31
0.0
  0
LINE
  5
16A
330
2
100
AcDbEntity
  8
L-ZISSEN
100
AcDbLine
 10
164.172836260961
 20
-29.99999999999897
 30
0.0
 11
254.1728362609587
 21
-29.99999999999897
 31
0.0
  0
LINE
  5
16B
330
2
100
AcDbEntity
  8
L-ZISSEN
100
AcDbLine
 10
254.172836260961
 20
24.00000000000011
 30
0.0
 11
164.172836260961
 21
24.00000000000011
 31
0.0
  0
LINE
  5
16C
330
2
100
AcDbEntity
  8
L-ZISSEN
100
AcDbLine
 10
169.4228362609596
 20
20.9999999999992
 30
0.0
 11
248.9228362609624
 21
20.9999999999992
 31
0.0
  0
LINE
  5
16D
330
2
100
AcDbEntity
  8
L-ZISSEN
100
AcDbLine
 10
167.6728362609598
 20
-16.00575108397185
 30
0.0
 11
250.6728362609625
 21
-16.00575108397185
 31
0.0
  0
LINE
  5
16E
330
2
100
AcDbEntity
  8
L-ZISSEN
100
AcDbLine
 10
252.1728362609605
 20
-45.99999999999806
 30
0.0
 11
166.1728362609615
 21
-45.99999999999806
 31
0.0
  0
LINE
  5
16F
330
2
100
AcDbEntity
  8
L-ZISSEN
100
AcDbLine
 10
236.1728362609615
 20
17.00000000000011
 30
0.0
 11
182.1728362609605
 21
17.00000000000011
 31
0.0
  0
LINE
  5
170
330
2
100
AcDbEntity
  8
L-ZISSEN
100
AcDbLine
 10
236.1728362609615
 20
-45.99999999999806
 30
0.0
 11
182.1728362609605
 21
-45.99999999999806
 31
0.0
  0
LINE
  5
171
330
2
100
AcDbEntity
  8
L-ZISSEN
100
AcDbLine
 10
240.6728362609596
 20
-45.99999999999806
 30
0.0
 11
177.6728362609601
 21
-45.99999999999806
 31
0.0
  0
LINE
  5
172
330
2
100
AcDbEntity
  8
L-ZISSEN
100
AcDbLine
 10
164.172836260961
 20
23.99999999999966
 30
0.0
 11
164.172836260961
 21
-24.00000000000011
 31
0.0
  0
LINE
  5
173
330
2
100
AcDbEntity
  8
L-ZISSEN
100
AcDbLine
 10
168.4228362609596
 20
-16.00575108397174
 30
0.0
 11
168.4228362609596
 21
-45.99999999999806
 31
0.0
  0
LINE
  5
174
330
2
100
AcDbEntity
  8
L-ZISSEN
100
AcDbLine
 10
173.6728362609596
 20
-16.00575108397185
 30
0.0
 11
173.6728362609596
 21
-29.99999999999897
 31
0.0
  0
ARC
  5
175
330
2
100
AcDbEntity
  8
L-ZISSEN
100
AcDbCircle
 10
166.1728362609615
 20
-43.99999999999988
 30
0.0
 40
2.000000000001023
100
AcDbArc
 50
180.0
 51
270.0
  0
LINE
  5
176
330
2
100
AcDbEntity
  8
L-ZISSEN
100
AcDbLine
 10
164.172836260961
 20
-27.99999999999931
 30
0.0
 11
164.172836260961
 21
-43.99999999999988
 31
0.0
  0
LINE
  5
177
330
2
100
AcDbEntity
  8
L-ZISSEN
100
AcDbLine
 10
164.1728362609608
 20
-27.9999999999992
 30
0.0
 11
167.8728362609608
 21
-27.9999999999992
 31
0.0
  0
LINE
  5
178
330
2
100
AcDbEntity
  8
L-ZISSEN
100
AcDbLine
 10
167.8728362609608
 20
-24.00000000000011
 30
0.0
 11
164.172836260961
 21
-24.00000000000011
 31
0.0
  0
LINE
  5
179
330
2
100
AcDbEntity
  8
L-ZISSEN
100
AcDbLine
 10
167.8728362609608
 20
-24.00000000000011
 30
0.0
 11
167.8728362609611
 21
-28.00000000000011
 31
0.0
  0
LINE
  5
17A
330
2
100
AcDbEntity
  8
L-ZISSEN
100
AcDbLine
 10
169.4228362609596
 20
20.9999999999992
 30
0.0
 11
169.4228362609596
 21
-16.00575108397174
 31
0.0
  0
LINE
  5
17B
330
2
100
AcDbEntity
  8
L-ZISSEN
100
AcDbLine
 10
167.6728362609596
 20
16.00000000000011
 30
0.0
 11
167.6728362609596
 21
-16.00575108397185
 31
0.0
  0
SOLID
  5
17C
330
2
100
AcDbEntity
  8
L-ZISSEN
100
AcDbTrace
 10
162.2092455711898
 20
3.5480637039783
 30
0.0
 11
161.1646622450223
 21
2.719436253026401
 31
0.0
 12
164.172836260961
 22
0.0000000000001137
 32
0.0
 13
164.172836260961
 23
0.0000000000001137
 33
0.0
  0
LINE
  5
17D
330
2
100
AcDbEntity
  8
L-ZISSEN
100
AcDbLine
 10
169.4228362609596
 20
20.9999999999992
 30
0.0
 11
167.6728362609596
 21
16.00000000000011
 31
0.0
  0
LINE
  5
17E
330
2
100
AcDbEntity
  8
L-ZISSEN
100
AcDbLine
 10
164.172836260961
 20
16.00000000000011
 30
0.0
 11
167.6728362609596
 21
16.00000000000011
 31
0.0
  0
LINE
  5
17F
330
2
100
AcDbEntity
  8
L-ZISSEN
100
AcDbLine
 10
182.1728362609605
 20
17.00000000000011
 30
0.0
 11
182.1728362609605
 21
-16.00575108397185
 31
0.0
  0
LINE
  5
180
330
2
100
AcDbEntity
  8
L-ZISSEN
100
AcDbLine
 10
187.172836260961
 20
17.00000000000011
 30
0.0
 11
187.172836260961
 21
-16.00575108397185
 31
0.0
  0
LINE
  5
181
330
2
100
AcDbEntity
  8
L-ZISSEN
100
AcDbLine
 10
244.6728362609624
 20
-16.00575108397185
 30
0.0
 11
244.6728362609624
 21
-29.99999999999897
 31
0.0
  0
LINE
  5
182
330
2
100
AcDbEntity
  8
L-ZISSEN
100
AcDbLine
 10
249.9228362609624
 20
-16.00575108397174
 30
0.0
 11
249.9228362609624
 21
-45.99999999999806
 31
0.0
  0
LINE
  5
183
330
2
100
AcDbEntity
  8
L-ZISSEN
100
AcDbLine
 10
278.1728362609606
 20
-16.00575108397185
 30
0.0
 11
278.1728362609608
 21
-32.00000000000125
 31
0.0
  0
LINE
  5
184
330
2
100
AcDbEntity
  8
L-ZISSEN
100
AcDbLine
 10
269.1728362609608
 20
-24.00000000000034
 30
0.0
 11
269.1728362609608
 21
-16.00575108397197
 31
0.0
  0
LINE
  5
185
330
2
100
AcDbEntity
  8
L-ZISSEN
100
AcDbLine
 10
273.1728362609608
 20
-16.00575108397185
 30
0.0
 11
273.1728362609608
 21
-32.00000000000125
 31
0.0
  0
LINE
  5
186
330
2
100
AcDbEntity
  8
L-ZISSEN
100
AcDbLine
 10
254.1728362609608
 20
-16.00575108397197
 30
0.0
 11
254.1728362609609
 21
-24.00000000000011
 31
0.0
  0
LINE
  5
187
330
2
100
AcDbEntity
  8
L-TYUSIN
100
AcDbLine
 10
269.7298307769979
 20
-50.00000000000001
 30
0.0
 11
253.6158417449241
 21
-50.00000000000001
 31
0.0
  0
ARC
  5
188
330
2
100
AcDbEntity
  8
L-ZISSEN
100
AcDbCircle
 10
261.6739666233279
 20
-51.99748565438496
 30
0.0
 40
6.502511452774129
100
AcDbArc
 50
178.8190926958042
 51
1.917680655557718
  0
ARC
  5
189
330
2
100
AcDbEntity
  8
L-ZISSEN
100
AcDbCircle
 10
261.6739666233279
 20
-48.02319766880329
 30
0.0
 40
6.523174687348231
100
AcDbArc
 50
355.0524371293837
 51
184.7117138604236
  0
LINE
  5
18A
330
2
100
AcDbEntity
  8
L-ZISSEN
100
AcDbLine
 10
273.6728362609592
 20
-62.99999999999989
 30
0.0
 11
249.6728362609605
 21
-62.99999999999989
 31
0.0
  0
LINE
  5
18B
330
2
100
AcDbEntity
  8
L-ZISSEN
100
AcDbLine
 10
251.1728362609592
 20
-28.00000000000022
 30
0.0
 11
272.1728362609606
 21
-28.00000000000011
 31
0.0
  0
LINE
  5
18C
330
2
100
AcDbEntity
  8
L-ZISSEN
100
AcDbLine
 10
272.1728362609606
 20
-24.00000000000011
 30
0.0
 11
251.1728362609592
 21
-24.00000000000011
 31
0.0
  0
ARC
  5
18D
330
2
100
AcDbEntity
  8
L-ZISSEN
100
AcDbCircle
 10
252.1728362609605
 20
-43.99999999999988
 30
0.0
 40
2.000000000001023
100
AcDbArc
 50
270.0
 51
0.0
  0
LINE
  5
18E
330
2
100
AcDbEntity
  8
L-ZISSEN
100
AcDbLine
 10
249.6728362609605
 20
-46.00575108397231
 30
0.0
 11
249.6728362609605
 21
-62.99999999999977
 31
0.0
  0
LINE
  5
18F
330
2
100
AcDbEntity
  8
L-ZISSEN
100
AcDbLine
 10
255.1728362609612
 20
-51.86347369606689
 30
0.0
 11
255.172836260961
 21
-48.55902601181357
 31
0.0
  0
LINE
  5
190
330
2
100
AcDbEntity
  8
L-ZISSEN
100
AcDbLine
 10
254.172836260961
 20
-28.00000000000022
 30
0.0
 11
254.172836260961
 21
-43.99999999999988
 31
0.0
  0
LINE
  5
191
330
2
100
AcDbEntity
  8
L-ZISSEN
100
AcDbLine
 10
251.1728362609592
 20
-28.00000000000011
 30
0.0
 11
251.1728362609592
 21
-24.00000000000011
 31
0.0
  0
LINE
  5
192
330
2
100
AcDbEntity
  8
L-ZISSEN
100
AcDbLine
 10
288.1728362609608
 20
-46.33732627715551
 30
0.0
 11
288.1728362609608
 21
-44.00000000000125
 31
0.0
  0
LINE
  5
193
330
2
100
AcDbEntity
  8
L-SAISEN
100
AcDbLine
 10
289.8614949877626
 20
-46.14089891235596
 30
0.0
 11
289.8614949877626
 21
-44.00000000000125
 31
0.0
  0
LINE
  5
195
330
2
100
AcDbEntity
  8
L-ZISSEN
100
AcDbLine
 10
273.6728362609592
 20
-31.99999999999988
 30
0.0
 11
273.6728362609593
 21
-62.99999999999989
 31
0.0
  0
LINE
  5
196
330
2
100
AcDbEntity
  8
L-TYUSIN
100
AcDbLine
 10
261.672836260961
 20
-39.52499446707726
 30
0.0
 11
261.672836260961
 21
-60.47500553292277
 31
0.0
  0
LINE
  5
197
330
2
100
AcDbEntity
  8
L-TYUSIN
100
AcDbLine
 10
261.672836260961
 20
-60.47500553292277
 30
0.0
 11
261.672836260961
 21
-39.52499446707726
 31
0.0
  0
LINE
  5
198
330
2
100
AcDbEntity
  8
L-ZISSEN
100
AcDbLine
 10
268.172836260961
 20
-51.77988825892682
 30
0.0
 11
268.172836260961
 21
-48.58578227107388
 31
0.0
  0
LINE
  5
199
330
2
100
AcDbEntity
  8
L-ZISSEN
100
AcDbLine
 10
292.672836260959
 20
-65.99999999999671
 30
0.0
 11
292.672836260959
 21
-55.99999999999761
 31
0.0
  0
LINE
  5
19A
330
2
100
AcDbEntity
  8
L-ZISSEN
100
AcDbLine
 10
293.9228362609589
 20
-68.00000000000125
 30
0.0
 11
293.9228362609589
 21
-65.99999999999671
 31
0.0
  0
ARC
  5
19B
330
2
100
AcDbEntity
  8
L-ZISSEN
100
AcDbCircle
 10
292.9596328253644
 20
-17.86804538251397
 30
0.0
 40
34.1319546174875
100
AcDbArc
 50
255.0820176392705
 51
284.9179823607294
  0
ARC
  5
19C
330
2
100
AcDbEntity
  8
L-ZISSEN
100
AcDbCircle
 10
292.9596328253644
 20
-80.13195461748898
 30
0.0
 40
34.1319546174875
100
AcDbArc
 50
75.08201763927056
 51
104.9179823607294
  0
LINE
  5
19D
330
2
100
AcDbEntity
  8
L-ZISSEN
100
AcDbLine
 10
289.8614949877662
 20
-55.99999999999761
 30
0.0
 11
288.1728362609608
 21
-55.26856214096267
 31
0.0
  0
LINE
  5
19E
330
2
100
AcDbEntity
  8
L-ZISSEN
100
AcDbLine
 10
288.1728362609608
 20
-55.26856214096267
 30
0.0
 11
288.1728362609608
 21
-51.66267372284699
 31
0.0
  0
LINE
  5
19F
330
2
100
AcDbEntity
  8
L-SAISEN
100
AcDbLine
 10
289.8614949877662
 20
-55.99999999999761
 30
0.0
 11
289.8614949877662
 21
-51.85910108764699
 31
0.0
  0
LINE
  5
1A0
330
2
100
AcDbEntity
  8
L-ZISSEN
100
AcDbLine
 10
284.1728362609608
 20
-50.84959374134621
 30
0.0
 11
284.1728362609608
 21
-47.15040625865628
 31
0.0
  0
LINE
  5
1A1
330
2
100
AcDbEntity
  8
L-ZISSEN
100
AcDbLine
 10
301.746429389768
 20
-50.84959374134621
 30
0.0
 11
301.746429389768
 21
-47.15040625865628
 31
0.0
  0
LINE
  5
1A2
330
2
100
AcDbEntity
  8
L-ZISSEN
100
AcDbLine
 10
295.7112734694926
 20
-37.9893931921905
 30
0.0
 11
279.1728362609608
 21
-37.9893931921905
 31
0.0
  0
LINE
  5
1A3
330
2
100
AcDbEntity
  8
L-ZISSEN
100
AcDbLine
 10
279.1728362609609
 20
-44.00000000000125
 30
0.0
 11
279.1728362609608
 21
-32.00000000000125
 31
0.0
  0
LINE
  5
1A4
330
2
100
AcDbEntity
  8
L-ZISSEN
100
AcDbLine
 10
269.1728362609608
 20
-32.00000000000125
 30
0.0
 11
269.1728362609608
 21
-28.00000000000125
 31
0.0
  0
LINE
  5
1A5
330
2
100
AcDbEntity
  8
L-ZISSEN
100
AcDbLine
 10
272.1728362609606
 20
-28.00000000000011
 30
0.0
 11
272.1728362609606
 21
-24.00000000000057
 31
0.0
  0
ARC
  5
1A6
330
2
100
AcDbEntity
  8
L-ZISSEN
100
AcDbCircle
 10
291.3392102788436
 20
-39.37381361188533
 30
0.0
 40
2.715501624970328
100
AcDbArc
 50
268.7567347921915
 51
5.097752531710924
  0
LINE
  5
1A7
330
2
100
AcDbEntity
  8
L-ZISSEN
100
AcDbLine
 10
294.0439708772225
 20
-39.13252710029416
 30
0.0
 11
287.3017016446991
 21
-39.13252710029371
 31
0.0
  0
LINE
  5
1A8
330
2
100
AcDbEntity
  8
L-ZISSEN
100
AcDbLine
 10
287.3017016446991
 20
-37.9893931921905
 30
0.0
 11
294.0439708772225
 21
-37.9893931921905
 31
0.0
  0
LINE
  5
1A9
330
2
100
AcDbEntity
  8
L-ZISSEN
100
AcDbLine
 10
290.0653814826562
 20
-42.08867596537845
 30
0.0
 11
290.0653814826562
 21
-41.10366223340849
 31
0.0
  0
LINE
  5
1AA
330
2
100
AcDbEntity
  8
L-ZISSEN
100
AcDbLine
 10
287.3017016446991
 20
-39.13252710029371
 30
0.0
 11
287.3017016446991
 21
-37.9893931921905
 31
0.0
  0
ARC
  5
1AB
330
2
100
AcDbEntity
  8
L-ZISSEN
100
AcDbCircle
 10
290.0064622430779
 20
-39.37381361188533
 30
0.0
 40
2.715501624969247
100
AcDbArc
 50
174.9022474682887
 51
271.2432652078084
  0
LINE
  5
1AC
330
2
100
AcDbEntity
  8
L-ZISSEN
100
AcDbLine
 10
291.2802910392636
 20
-41.10366223340849
 30
0.0
 11
291.2802910392636
 21
-42.08867596537845
 31
0.0
  0
LINE
  5
1AD
330
2
100
AcDbEntity
  8
L-ZISSEN
100
AcDbLine
 10
290.0653814826562
 20
-41.10366223340849
 30
0.0
 11
291.2802910392636
 21
-41.10366223340849
 31
0.0
  0
LINE
  5
1AE
330
2
100
AcDbEntity
  8
L-ZISSEN
100
AcDbLine
 10
295.7112734694926
 20
-44.00000000000125
 30
0.0
 11
295.7112734694926
 21
-37.9893931921905
 31
0.0
  0
LINE
  5
1AF
330
2
100
AcDbEntity
  8
L-ZISSEN
100
AcDbLine
 10
294.0439708772225
 20
-37.9893931921905
 30
0.0
 11
294.0439708772225
 21
-39.13252710029416
 31
0.0
  0
LINE
  5
1B0
330
2
100
AcDbEntity
  8
L-ZISSEN
100
AcDbLine
 10
251.1728362609592
 20
28.00000000000022
 30
0.0
 11
272.1728362609606
 21
28.00000000000011
 31
0.0
  0
CIRCLE
  5
1B1
330
2
100
AcDbEntity
  8
L-ZISSEN
100
AcDbCircle
 10
261.672836260961
 20
8.769234043836263
 30
0.0
 40
3.249999999999886
  0
LINE
  5
1B2
330
2
100
AcDbEntity
  8
L-TYUSIN
100
AcDbLine
 10
253.6475827027511
 20
8.769234043836263
 30
0.0
 11
269.8862369402668
 21
8.769234043836263
 31
0.0
  0
CIRCLE
  5
1B3
330
2
100
AcDbEntity
  8
L-ZISSEN
100
AcDbCircle
 10
261.672836260961
 20
8.769234043836263
 30
0.0
 40
6.099999999999567
  0
LINE
  5
1B4
330
2
100
AcDbEntity
  8
L-TYUSIN
100
AcDbLine
 10
253.6475827027511
 20
-8.295038792843456
 30
0.0
 11
269.8862369402668
 21
-8.295038792843456
 31
0.0
  0
CIRCLE
  5
1B5
330
2
100
AcDbEntity
  8
L-ZISSEN
100
AcDbCircle
 10
261.672836260961
 20
-8.295038792843456
 30
0.0
 40
3.249999999999886
  0
CIRCLE
  5
1B6
330
2
100
AcDbEntity
  8
L-ZISSEN
100
AcDbCircle
 10
261.672836260961
 20
-8.295038792843456
 30
0.0
 40
6.099999999999567
  0
LINE
  5
1B7
330
2
100
AcDbEntity
  8
L-ZISSEN
100
AcDbLine
 10
272.1728362609606
 20
24.00000000000011
 30
0.0
 11
251.1728362609592
 21
24.00000000000011
 31
0.0
  0
LINE
  5
1B8
330
2
100
AcDbEntity
  8
L-ZISSEN
100
AcDbLine
 10
288.6728362609593
 20
-16.00575108397185
 30
0.0
 11
234.6728362609606
 21
-16.00575108397185
 31
0.0
  0
LINE
  5
1B9
330
2
100
AcDbEntity
  8
L-ZISSEN
100
AcDbLine
 10
234.6728362609606
 20
16.07459064444628
 30
0.0
 11
288.6728362609592
 21
16.0745906444464
 31
0.0
  0
LINE
  5
1BA
330
2
100
AcDbEntity
  8
L-ZISSEN
100
AcDbLine
 10
231.172836260961
 20
17.00000000000011
 30
0.0
 11
231.1728362609611
 21
-16.00575108397185
 31
0.0
  0
LINE
  5
1BB
330
2
100
AcDbEntity
  8
L-ZISSEN
100
AcDbLine
 10
234.6728362609606
 20
-16.00575108397185
 30
0.0
 11
234.6728362609606
 21
16.07459064444628
 31
0.0
  0
LINE
  5
1BC
330
2
100
AcDbEntity
  8
L-ZISSEN
100
AcDbLine
 10
236.1728362609615
 20
17.00000000000011
 30
0.0
 11
236.1728362609614
 21
16.0745906444464
 31
0.0
  0
LINE
  5
1BD
330
2
100
AcDbEntity
  8
L-ZISSEN
100
AcDbLine
 10
248.9228362609624
 20
20.9999999999992
 30
0.0
 11
250.646729535406
 21
16.0745906444464
 31
0.0
  0
LINE
  5
1BE
330
2
100
AcDbEntity
  8
L-ZISSEN
100
AcDbLine
 10
248.9228362609624
 20
20.9999999999992
 30
0.0
 11
248.9228362609622
 21
16.0745906444464
 31
0.0
  0
LINE
  5
1BF
330
2
100
AcDbEntity
  8
L-ZISSEN
100
AcDbLine
 10
254.172836260961
 20
23.99999999999966
 30
0.0
 11
254.1728362609609
 21
16.0745906444464
 31
0.0
  0
LINE
  5
1C0
330
2
100
AcDbEntity
  8
L-ZISSEN
100
AcDbLine
 10
251.1728362609592
 20
28.00000000000011
 30
0.0
 11
251.1728362609592
 21
24.00000000000011
 31
0.0
  0
LINE
  5
1C1
330
2
100
AcDbEntity
  8
L-ZISSEN
100
AcDbLine
 10
291.6728362609608
 20
16.99999999999874
 30
0.0
 11
291.6728362609608
 21
-16.00575108397174
 31
0.0
  0
LINE
  5
1C2
330
2
100
AcDbEntity
  8
L-TYUSIN
100
AcDbLine
 10
261.672836260961
 20
18.29754232612413
 30
0.0
 11
261.672836260961
 21
-18.29754232612413
 31
0.0
  0
LINE
  5
1C3
330
2
100
AcDbEntity
  8
L-ZISSEN
100
AcDbLine
 10
288.6728362609592
 20
16.07459064444651
 30
0.0
 11
288.6728362609592
 21
-16.00575108397185
 31
0.0
  0
LINE
  5
1C4
330
2
100
AcDbEntity
  8
L-SOUZOU
100
AcDbLine
 10
302.8592362609553
 20
-7.313600000001201
 30
0.0
 11
302.8504362609563
 21
-7.304800000000682
 31
0.0
  0
LINE
  5
1C5
330
2
100
AcDbEntity
  8
L-SOUZOU
100
AcDbLine
 10
302.8592362609553
 20
-7.313600000001201
 30
0.0
 11
302.868036260954
 21
-7.322400000001493
 31
0.0
  0
ARC
  5
1C6
330
2
100
AcDbEntity
  8
L-SOUZOU
100
AcDbCircle
 10
303.1504362609563
 20
-7.039200000001187
 30
0.0
 40
0.4
100
AcDbArc
 50
225.0000000001011
 51
313.2099999998255
  0
ARC
  5
1C7
330
2
100
AcDbEntity
  8
L-SOUZOU
100
AcDbCircle
 10
303.1336362609557
 20
-7.022400000001539
 30
0.0
 40
0.4
100
AcDbArc
 50
136.7899999998975
 51
225.0000000001011
  0
LINE
  5
1C8
330
2
100
AcDbEntity
  8
L-ZISSEN
100
AcDbLine
 10
274.4228362609609
 20
20.9999999999992
 30
0.0
 11
292.1728362609626
 21
20.99999999999965
 31
0.0
  0
LINE
  5
1C9
330
2
100
AcDbEntity
  8
L-ZISSEN
100
AcDbLine
 10
269.1728362609608
 20
23.99999999999966
 30
0.0
 11
289.1728362609626
 21
23.99999999999966
 31
0.0
  0
LINE
  5
1CA
330
2
100
AcDbEntity
  8
L-ZISSEN
100
AcDbLine
 10
269.1728362609608
 20
16.99999999999965
 30
0.0
 11
273.1728362609608
 21
16.99999999999965
 31
0.0
  0
LINE
  5
1CB
330
2
100
AcDbEntity
  8
L-ZISSEN
100
AcDbLine
 10
269.1728362609608
 20
16.07459064444651
 30
0.0
 11
269.1728362609608
 21
23.99999999999966
 31
0.0
  0
LINE
  5
1CC
330
2
100
AcDbEntity
  8
L-ZISSEN
100
AcDbLine
 10
274.4228362609609
 20
20.9999999999992
 30
0.0
 11
274.4228362609609
 21
16.0745906444464
 31
0.0
  0
LINE
  5
1CD
330
2
100
AcDbEntity
  8
L-ZISSEN
100
AcDbLine
 10
273.1728362609608
 20
16.99999999999965
 30
0.0
 11
273.1728362609608
 21
16.0745906444464
 31
0.0
  0
LINE
  5
1CE
330
2
100
AcDbEntity
  8
L-ZISSEN
100
AcDbLine
 10
273.1728362609608
 20
16.99999999999965
 30
0.0
 11
274.4228362609609
 21
20.9999999999992
 31
0.0
  0
LINE
  5
1CF
330
2
100
AcDbEntity
  8
L-ZISSEN
100
AcDbLine
 10
272.1728362609606
 20
28.00000000000011
 30
0.0
 11
272.1728362609606
 21
24.00000000000057
 31
0.0
  0
LINE
  5
1D0
330
2
100
AcDbEntity
  8
L-ZISSEN
100
AcDbLine
 10
287.1728362609589
 20
16.99999999999874
 30
0.0
 11
287.1728362609589
 21
16.07459064444651
 31
0.0
  0
LINE
  5
1D1
330
2
100
AcDbEntity
  8
L-ZISSEN
100
AcDbLine
 10
292.1728362609626
 20
20.99999999999965
 30
0.0
 11
292.1728362609626
 21
16.99999999999965
 31
0.0
  0
LINE
  5
1D2
330
2
100
AcDbEntity
  8
L-ZISSEN
100
AcDbLine
 10
289.1728362609626
 20
23.99999999999966
 30
0.0
 11
292.1728362609626
 21
20.99999999999965
 31
0.0
  0
ARC
  5
1D3
330
2
100
AcDbEntity
  8
L-ZISSEN
100
AcDbCircle
 10
336.6122463967487
 20
-70.30000000000143
 30
0.0
 40
2.299999999999998
100
AcDbArc
 50
359.1040647226661
 51
90.0
  0
LINE
  5
1D4
330
2
100
AcDbEntity
  8
L-ZISSEN
100
AcDbLine
 10
381.5479085048707
 20
-104.0017338538143
 30
0.0
 11
379.172836260961
 21
-46.99999999999852
 31
0.0
  0
LINE
  5
1D5
330
2
100
AcDbEntity
  8
L-ZISSEN
100
AcDbLine
 10
456.7977640170512
 20
-104.0017338538143
 30
0.0
 11
459.1728362609609
 21
-46.99999999999852
 31
0.0
  0
LINE
  5
1D6
330
2
100
AcDbEntity
  8
L-ZISSEN
100
AcDbLine
 10
383.6728362609615
 20
-106.0000000000003
 30
0.0
 11
454.6728362609605
 21
-106.0000000000003
 31
0.0
  0
LINE
  5
1D7
330
2
100
AcDbEntity
  8
L-ZISSEN
100
AcDbLine
 10
454.7145029276271
 20
-106.0000000000003
 30
0.0
 11
383.6311695942948
 21
-106.0000000000003
 31
0.0
  0
LINE
  5
1D8
330
2
100
AcDbEntity
  8
L-ZISSEN
100
AcDbLine
 10
456.7977640170512
 20
-104.0017338538144
 30
0.0
 11
381.5479085048707
 21
-104.0017338538144
 31
0.0
  0
LINE
  5
1D9
330
2
100
AcDbEntity
  8
L-ZISSEN
100
AcDbLine
 10
338.1728362609644
 20
-117.6000000000011
 30
0.0
 11
336.1728362609626
 21
-120.0000000000012
 31
0.0
  0
LINE
  5
1DA
330
2
100
AcDbEntity
  8
L-ZISSEN
100
AcDbLine
 10
338.1728362609644
 20
-117.6000000000011
 30
0.0
 11
338.9119652086077
 21
-70.33596368143196
 31
0.0
  0
LINE
  5
1DB
330
2
100
AcDbEntity
  8
L-ZISSEN
100
AcDbLine
 10
383.6311695942948
 20
-106.0000000000003
 30
0.0
 11
381.5479085048707
 21
-104.0017338538144
 31
0.0
  0
LINE
  5
1DC
330
2
100
AcDbEntity
  8
L-ZISSEN
100
AcDbLine
 10
432.2978362609586
 20
-106.0000000000005
 30
0.0
 11
432.2978362609586
 21
-130.3750000000005
 31
0.0
  0
LINE
  5
1DD
330
2
100
AcDbEntity
  8
L-ZISSEN
100
AcDbLine
 10
433.2353362609587
 20
-106.0000000000005
 30
0.0
 11
433.2353362609587
 21
-129.7892753671332
 31
0.0
  0
LINE
  5
1DE
330
2
100
AcDbEntity
  8
L-ZISSEN
100
AcDbLine
 10
433.2353362609587
 20
-106.0000000000005
 30
0.0
 11
433.2353362609587
 21
-144.7500000000005
 31
0.0
  0
LINE
  5
1DF
330
2
100
AcDbEntity
  8
L-ZISSEN
100
AcDbLine
 10
405.1103362609586
 20
-106.0000000000005
 30
0.0
 11
405.1103362609586
 21
-129.7892753671332
 31
0.0
  0
LINE
  5
1E0
330
2
100
AcDbEntity
  8
L-ZISSEN
100
AcDbLine
 10
406.0478362609586
 20
-106.0000000000005
 30
0.0
 11
406.0478362609586
 21
-130.3750000000005
 31
0.0
  0
LINE
  5
1E1
330
2
100
AcDbEntity
  8
L-ZISSEN
100
AcDbLine
 10
405.1103362609586
 20
-106.0000000000005
 30
0.0
 11
405.1103362609586
 21
-144.7500000000005
 31
0.0
  0
LINE
  5
1E2
330
2
100
AcDbEntity
  8
L-ZISSEN
100
AcDbLine
 10
417.9228362609632
 20
-109.7499999999991
 30
0.0
 11
417.9228362609632
 21
-119.7499999999992
 31
0.0
  0
LINE
  5
1E3
330
2
100
AcDbEntity
  8
L-ZISSEN
100
AcDbLine
 10
417.9228362609632
 20
-109.7499999999991
 30
0.0
 11
417.9228362609632
 21
-119.7499999999992
 31
0.0
  0
LINE
  5
1E4
330
2
100
AcDbEntity
  8
L-ZISSEN
100
AcDbLine
 10
420.4228362609631
 20
-109.7499999999991
 30
0.0
 11
420.4228362609631
 21
-119.7499999999992
 31
0.0
  0
LINE
  5
1E5
330
2
100
AcDbEntity
  8
L-ZISSEN
100
AcDbLine
 10
420.4228362609631
 20
-109.7499999999991
 30
0.0
 11
420.4228362609631
 21
-119.7499999999992
 31
0.0
  0
LINE
  5
1E6
330
2
100
AcDbEntity
  8
L-ZISSEN
100
AcDbLine
 10
433.2353362609587
 20
-137.2500000000005
 30
0.0
 11
431.0872693957953
 21
-135.942025511045
 31
0.0
  0
ARC
  5
1E7
330
2
100
AcDbEntity
  8
L-ZISSEN
100
AcDbCircle
 10
431.9853362609609
 20
-144.7500000000005
 30
0.0
 40
1.249999999999715
100
AcDbArc
 50
270.0
 51
0.0
  0
LINE
  5
1E8
330
2
100
AcDbEntity
  8
L-ZISSEN
100
AcDbLine
 10
419.1728362609609
 20
-141.0000000000005
 30
0.0
 11
433.2353362609587
 21
-137.2500000000005
 31
0.0
  0
LINE
  5
1E9
330
2
100
AcDbEntity
  8
L-ZISSEN
100
AcDbLine
 10
428.5478362609587
 20
-138.5000000000005
 30
0.0
 11
428.5478362609587
 21
-146.0000000000005
 31
0.0
  0
LINE
  5
1EA
330
2
100
AcDbEntity
  8
L-ZISSEN
100
AcDbLine
 10
409.7978362609609
 20
-138.4999999999996
 30
0.0
 11
409.7978362609586
 21
-146.0000000000005
 31
0.0
  0
LINE
  5
1EB
330
2
100
AcDbEntity
  8
L-ZISSEN
100
AcDbLine
 10
406.3603362609609
 20
-146.0000000000005
 30
0.0
 11
431.9853362609609
 21
-146.0000000000005
 31
0.0
  0
ARC
  5
1EC
330
2
100
AcDbEntity
  8
L-ZISSEN
100
AcDbCircle
 10
406.3603362609609
 20
-144.7500000000005
 30
0.0
 40
1.250000000000568
100
AcDbArc
 50
180.0
 51
270.0
  0
LINE
  5
1ED
330
2
100
AcDbEntity
  8
L-ZISSEN
100
AcDbLine
 10
419.1728362609609
 20
-141.0000000000005
 30
0.0
 11
405.1103362609586
 21
-137.2500000000005
 31
0.0
  0
LINE
  5
1EE
330
2
100
AcDbEntity
  8
L-ZISSEN
100
AcDbLine
 10
407.2584031261266
 20
-135.942025511045
 30
0.0
 11
419.1728362609609
 21
-138.4363834854758
 31
0.0
  0
LINE
  5
1EF
330
2
100
AcDbEntity
  8
L-ZISSEN
100
AcDbLine
 10
419.1728362609609
 20
-133.0811722572276
 30
0.0
 11
407.2584031261266
 21
-131.3791103808231
 31
0.0
  0
LINE
  5
1F0
330
2
100
AcDbEntity
  8
L-ZISSEN
100
AcDbLine
 10
419.1728362609609
 20
-132.2500000000005
 30
0.0
 11
406.0478362609586
 21
-130.3750000000005
 31
0.0
  0
LINE
  5
1F1
330
2
100
AcDbEntity
  8
L-ZISSEN
100
AcDbLine
 10
407.2584031261266
 20
-131.3791103808231
 30
0.0
 11
407.2584031261266
 21
-135.942025511045
 31
0.0
  0
LINE
  5
1F2
330
2
100
AcDbEntity
  8
L-ZISSEN
100
AcDbLine
 10
405.1103362609586
 20
-137.2500000000005
 30
0.0
 11
407.2584031261266
 21
-135.942025511045
 31
0.0
  0
LINE
  5
1F3
330
2
100
AcDbEntity
  8
L-ZISSEN
100
AcDbLine
 10
407.2584031261266
 20
-130.5479381235955
 30
0.0
 11
406.0478362609586
 21
-130.3750000000005
 31
0.0
  0
LINE
  5
1F4
330
2
100
AcDbEntity
  8
L-ZISSEN
100
AcDbLine
 10
407.2584031261266
 20
-131.3791103808231
 30
0.0
 11
406.0478362609586
 21
-130.3750000000005
 31
0.0
  0
LINE
  5
1F5
330
2
100
AcDbEntity
  8
L-ZISSEN
100
AcDbLine
 10
431.0872693957953
 20
-131.3791103808231
 30
0.0
 11
431.0872693957953
 21
-135.942025511045
 31
0.0
  0
LINE
  5
1F6
330
2
100
AcDbEntity
  8
L-ZISSEN
100
AcDbLine
 10
419.1728362609609
 20
-133.0811722572276
 30
0.0
 11
431.0872693957953
 21
-131.3791103808231
 31
0.0
  0
LINE
  5
1F7
330
2
100
AcDbEntity
  8
L-ZISSEN
100
AcDbLine
 10
419.1728362609609
 20
-132.2500000000005
 30
0.0
 11
432.2978362609586
 21
-130.3750000000005
 31
0.0
  0
LINE
  5
1F8
330
2
100
AcDbEntity
  8
L-ZISSEN
100
AcDbLine
 10
431.0872693957953
 20
-135.942025511045
 30
0.0
 11
419.1728362609609
 21
-138.4363834854758
 31
0.0
  0
LINE
  5
1F9
330
2
100
AcDbEntity
  8
L-ZISSEN
100
AcDbLine
 10
419.1728362609609
 20
-141.0000000000005
 30
0.0
 11
419.1728362609609
 21
-138.4363834854758
 31
0.0
  0
ARC
  5
1FA
330
2
100
AcDbEntity
  8
L-ZISSEN
100
AcDbCircle
 10
419.1728362609609
 20
-142.2500000000005
 30
0.0
 40
1.250000000000568
100
AcDbArc
 50
180.0
 51
0.0
  0
LINE
  5
1FB
330
2
100
AcDbEntity
  8
L-ZISSEN
100
AcDbLine
 10
417.9228362609586
 20
-140.6666666666661
 30
0.0
 11
417.9228362609609
 21
-142.2500000000005
 31
0.0
  0
LINE
  5
1FC
330
2
100
AcDbEntity
  8
L-ZISSEN
100
AcDbLine
 10
420.4228362609609
 20
-140.6666666666666
 30
0.0
 11
420.4228362609609
 21
-142.2500000000005
 31
0.0
  0
CIRCLE
  5
1FD
330
2
100
AcDbEntity
  8
L-ZISSEN
100
AcDbCircle
 10
419.1728362609609
 20
-135.9964547011737
 30
0.0
 40
1.25
  0
LINE
  5
1FE
330
2
100
AcDbEntity
  8
L-TYUSIN
100
AcDbLine
 10
416.9860426984058
 20
-135.9964547011737
 30
0.0
 11
421.1808226733177
 21
-135.9964547011737
 31
0.0
  0
LINE
  5
1FF
330
2
100
AcDbEntity
  8
L-ZISSEN
100
AcDbLine
 10
419.1728362609609
 20
-132.2500000000005
 30
0.0
 11
419.1728362609609
 21
-133.0811722572276
 31
0.0
  0
LINE
  5
200
330
2
100
AcDbEntity
  8
L-ZISSEN
100
AcDbLine
 10
422.9228362609632
 20
-119.7499999999992
 30
0.0
 11
419.1728362609632
 21
-125.9999999999992
 31
0.0
  0
LINE
  5
201
330
2
100
AcDbEntity
  8
L-ZISSEN
100
AcDbLine
 10
420.4228362609631
 20
-119.7499999999992
 30
0.0
 11
422.9228362609632
 21
-119.7499999999992
 31
0.0
  0
LINE
  5
202
330
2
100
AcDbEntity
  8
L-ZISSEN
100
AcDbLine
 10
415.4228362609631
 20
-119.7499999999992
 30
0.0
 11
419.1728362609632
 21
-125.9999999999992
 31
0.0
  0
LINE
  5
203
330
2
100
AcDbEntity
  8
L-ZISSEN
100
AcDbLine
 10
417.9228362609632
 20
-119.7499999999992
 30
0.0
 11
415.4228362609631
 21
-119.7499999999992
 31
0.0
  0
LINE
  5
204
330
2
100
AcDbEntity
  8
L-ZISSEN
100
AcDbLine
 10
431.0872693957953
 20
-130.5479381235955
 30
0.0
 11
432.2978362609586
 21
-130.3750000000005
 31
0.0
  0
LINE
  5
205
330
2
100
AcDbEntity
  8
L-ZISSEN
100
AcDbLine
 10
431.0872693957953
 20
-131.3791103808231
 30
0.0
 11
432.2978362609586
 21
-130.3750000000005
 31
0.0
  0
LINE
  5
206
330
2
100
AcDbEntity
  8
L-ZISSEN
100
AcDbLine
 10
416.0478362609609
 20
-113.5000000000005
 30
0.0
 11
411.0478362609609
 21
-113.5000000000005
 31
0.0
  0
LINE
  5
207
330
2
100
AcDbEntity
  8
L-ZISSEN
100
AcDbLine
 10
416.0478362609609
 20
-113.5000000000005
 30
0.0
 11
411.0478362609609
 21
-113.5000000000005
 31
0.0
  0
LINE
  5
208
330
2
100
AcDbEntity
  8
L-ZISSEN
100
AcDbLine
 10
416.0478362609609
 20
-112.2500000000005
 30
0.0
 11
411.0478362609609
 21
-112.2500000000005
 31
0.0
  0
LINE
  5
209
330
2
100
AcDbEntity
  8
L-ZISSEN
100
AcDbLine
 10
416.0478362609609
 20
-112.2500000000005
 30
0.0
 11
411.0478362609609
 21
-112.2500000000005
 31
0.0
  0
LINE
  5
20A
330
2
100
AcDbEntity
  8
L-ZISSEN
100
AcDbLine
 10
393.8928362609607
 20
-116.3387389116315
 30
0.0
 11
402.3228362609614
 21
-116.3387389116315
 31
0.0
  0
LINE
  5
20B
330
2
100
AcDbEntity
  8
L-ZISSEN
100
AcDbLine
 10
411.0478362609609
 20
-112.2500000000005
 30
0.0
 11
411.0478362609609
 21
-111.0000000000005
 31
0.0
  0
LINE
  5
20C
330
2
100
AcDbEntity
  8
L-ZISSEN
100
AcDbLine
 10
411.0478362609609
 20
-113.5000000000005
 30
0.0
 11
411.0478362609609
 21
-114.7500000000005
 31
0.0
  0
LINE
  5
20D
330
2
100
AcDbEntity
  8
L-ZISSEN
100
AcDbLine
 10
411.0478362609609
 20
-111.0000000000005
 30
0.0
 11
407.9228362609609
 21
-112.8750000000005
 31
0.0
  0
LINE
  5
20E
330
2
100
AcDbEntity
  8
L-ZISSEN
100
AcDbLine
 10
411.0478362609609
 20
-114.7500000000005
 30
0.0
 11
407.9228362609609
 21
-112.8750000000005
 31
0.0
  0
LINE
  5
20F
330
2
100
AcDbEntity
  8
L-ZISSEN
100
AcDbLine
 10
420.4228362609631
 20
-109.7499999999991
 30
0.0
 11
417.9228362609632
 21
-109.7499999999991
 31
0.0
  0
LINE
  5
210
330
2
100
AcDbEntity
  8
L-ZISSEN
100
AcDbLine
 10
416.0478362609609
 20
-112.2500000000005
 30
0.0
 11
416.0478362609609
 21
-113.5000000000005
 31
0.0
  0
LINE
  5
211
330
2
100
AcDbEntity
  8
L-ZISSEN
100
AcDbLine
 10
427.2978362609609
 20
-112.2499999999996
 30
0.0
 11
427.2978362609609
 21
-110.9999999999996
 31
0.0
  0
LINE
  5
212
330
2
100
AcDbEntity
  8
L-ZISSEN
100
AcDbLine
 10
427.2978362609609
 20
-110.9999999999996
 30
0.0
 11
430.4228362609609
 21
-112.8749999999996
 31
0.0
  0
LINE
  5
213
330
2
100
AcDbEntity
  8
L-ZISSEN
100
AcDbLine
 10
422.2978362609609
 20
-112.2499999999996
 30
0.0
 11
422.2978362609609
 21
-113.4999999999996
 31
0.0
  0
LINE
  5
214
330
2
100
AcDbEntity
  8
L-ZISSEN
100
AcDbLine
 10
422.2978362609609
 20
-113.4999999999996
 30
0.0
 11
427.2978362609609
 21
-113.4999999999996
 31
0.0
  0
LINE
  5
215
330
2
100
AcDbEntity
  8
L-ZISSEN
100
AcDbLine
 10
422.2978362609609
 20
-113.4999999999996
 30
0.0
 11
427.2978362609609
 21
-113.4999999999996
 31
0.0
  0
LINE
  5
216
330
2
100
AcDbEntity
  8
L-ZISSEN
100
AcDbLine
 10
422.2978362609609
 20
-112.2499999999996
 30
0.0
 11
427.2978362609609
 21
-112.2499999999996
 31
0.0
  0
LINE
  5
217
330
2
100
AcDbEntity
  8
L-ZISSEN
100
AcDbLine
 10
422.2978362609609
 20
-112.2499999999996
 30
0.0
 11
427.2978362609609
 21
-112.2499999999996
 31
0.0
  0
LINE
  5
218
330
2
100
AcDbEntity
  8
L-ZISSEN
100
AcDbLine
 10
427.2978362609609
 20
-113.4999999999996
 30
0.0
 11
427.2978362609609
 21
-114.7499999999996
 31
0.0
  0
LINE
  5
219
330
2
100
AcDbEntity
  8
L-ZISSEN
100
AcDbLine
 10
427.2978362609609
 20
-114.7499999999996
 30
0.0
 11
430.4228362609609
 21
-112.8749999999996
 31
0.0
  0
LINE
  5
21A
330
2
100
AcDbEntity
  8
L-ZISSEN
100
AcDbLine
 10
444.4528362609611
 20
-116.3387389116315
 30
0.0
 11
436.0228362609603
 21
-116.3387389116315
 31
0.0
  0
LINE
  5
21B
330
2
100
AcDbEntity
  8
L-ZISSEN
100
AcDbLine
 10
454.7145029276271
 20
-106.0000000000003
 30
0.0
 11
456.7977640170512
 21
-104.0017338538144
 31
0.0
  0
LINE
  5
21C
330
2
100
AcDbEntity
  8
L-ZISSEN
100
AcDbLine
 10
379.4228362609596
 20
20.99999999999965
 30
0.0
 11
420.6728362609595
 21
20.99999999999965
 31
0.0
  0
LINE
  5
21D
330
2
100
AcDbEntity
  8
L-ZISSEN
100
AcDbLine
 10
450.6728362609595
 20
-46.99999999999852
 30
0.0
 11
387.67283626096
 21
-46.99999999999852
 31
0.0
  0
LINE
  5
21E
330
2
100
AcDbEntity
  8
L-ZISSEN
100
AcDbLine
 10
377.6728362609595
 20
-16.00575108396958
 30
0.0
 11
460.6728362609621
 21
-16.00575108397004
 31
0.0
  0
LINE
  5
21F
330
2
100
AcDbEntity
  8
L-ZISSEN
100
AcDbLine
 10
462.1728362609604
 20
-46.99999999999852
 30
0.0
 11
376.1728362609614
 21
-46.99999999999852
 31
0.0
  0
LINE
  5
220
330
2
100
AcDbEntity
  8
L-ZISSEN
100
AcDbLine
 10
339.6739666233274
 20
16.07459064444617
 30
0.0
 11
393.673966623326
 21
16.07459064444628
 31
0.0
  0
LINE
  5
221
330
2
100
AcDbEntity
  8
L-ZISSEN
100
AcDbLine
 10
393.6739666233261
 20
-16.00575108397197
 30
0.0
 11
339.6739666233273
 21
-16.00575108397197
 31
0.0
  0
LINE
  5
222
330
2
100
AcDbEntity
  8
L-ZISSEN
100
AcDbLine
 10
374.172836260961
 20
-31.99999999999943
 30
0.0
 11
464.1728362609609
 21
-31.99999999999943
 31
0.0
  0
LINE
  5
223
330
2
100
AcDbEntity
  8
L-ZISSEN
100
AcDbLine
 10
464.1728362609609
 20
24.00000000000057
 30
0.0
 11
374.172836260961
 21
24.00000000000057
 31
0.0
  0
LINE
  5
224
330
2
100
AcDbEntity
  8
L-ZISSEN
100
AcDbLine
 10
374.172836260961
 20
-31.99999999999943
 30
0.0
 11
464.1728362609609
 21
-31.99999999999943
 31
0.0
  0
LINE
  5
225
330
2
100
AcDbEntity
  8
L-ZISSEN
100
AcDbLine
 10
383.6728362609596
 20
-16.00575108396969
 30
0.0
 11
383.6728362609596
 21
-31.99999999999943
 31
0.0
  0
LINE
  5
226
330
2
100
AcDbEntity
  8
L-ZISSEN
100
AcDbLine
 10
378.4228362609595
 20
-16.00575108396969
 30
0.0
 11
378.4228362609596
 21
-31.99999999999943
 31
0.0
  0
LINE
  5
227
330
2
100
AcDbEntity
  8
L-ZISSEN
100
AcDbLine
 10
350.1728362609626
 20
-16.00575108397185
 30
0.0
 11
350.1728362609627
 21
-32.00000000000125
 31
0.0
  0
LINE
  5
228
330
2
100
AcDbEntity
  8
L-ZISSEN
100
AcDbLine
 10
355.1728362609627
 20
-16.00575108397185
 30
0.0
 11
355.1728362609627
 21
-32.00000000000125
 31
0.0
  0
LINE
  5
229
330
2
100
AcDbEntity
  8
L-ZISSEN
100
AcDbLine
 10
359.1728362609609
 20
-16.00575108397197
 30
0.0
 11
359.1728362609608
 21
-24.00000000000034
 31
0.0
  0
LINE
  5
22A
330
2
100
AcDbEntity
  8
L-ZISSEN
100
AcDbLine
 10
374.1728362609611
 20
-16.00575108397197
 30
0.0
 11
374.172836260961
 21
-24.00000000000023
 31
0.0
  0
LINE
  5
22B
330
2
100
AcDbEntity
  8
L-ZISSEN
100
AcDbLine
 10
332.6343990524289
 20
-37.9893931921905
 30
0.0
 11
349.1728362609608
 21
-37.9893931921905
 31
0.0
  0
LINE
  5
22C
330
2
100
AcDbEntity
  8
L-SAISEN
100
AcDbLine
 10
338.4841775341591
 20
-46.14089891235596
 30
0.0
 11
338.4841775341591
 21
-44.00000000000125
 31
0.0
  0
LINE
  5
22D
330
2
100
AcDbEntity
  8
L-ZISSEN
100
AcDbLine
 10
340.1728362609608
 20
-46.33732627715551
 30
0.0
 11
340.1728362609608
 21
-44.00000000000125
 31
0.0
  0
LINE
  5
22E
330
2
100
AcDbEntity
  8
L-ZISSEN
100
AcDbLine
 10
335.6728362609608
 20
-65.99999999999671
 30
0.0
 11
335.6728362609608
 21
-55.99999999999761
 31
0.0
  0
LINE
  5
22F
330
2
100
AcDbEntity
  8
L-ZISSEN
100
AcDbLine
 10
334.422836260959
 20
-68.00000000000125
 30
0.0
 11
334.422836260959
 21
-65.99999999999671
 31
0.0
  0
ARC
  5
230
330
2
100
AcDbEntity
  8
L-ZISSEN
100
AcDbCircle
 10
335.3860396965572
 20
-17.86804538251397
 30
0.0
 40
34.1319546174875
100
AcDbArc
 50
255.0820176392705
 51
284.9179823607294
  0
ARC
  5
231
330
2
100
AcDbEntity
  8
L-ZISSEN
100
AcDbCircle
 10
335.3860396965572
 20
-80.13195461748898
 30
0.0
 40
34.1319546174875
100
AcDbArc
 50
75.08201763927056
 51
104.9179823607294
  0
LINE
  5
232
330
2
100
AcDbEntity
  8
L-ZISSEN
100
AcDbLine
 10
326.5992431321535
 20
-50.84959374134621
 30
0.0
 11
326.5992431321535
 21
-47.15040625865628
 31
0.0
  0
LINE
  5
233
330
2
100
AcDbEntity
  8
L-SAISEN
100
AcDbLine
 10
338.4841775341553
 20
-55.99999999999761
 30
0.0
 11
338.4841775341553
 21
-51.85910108764699
 31
0.0
  0
LINE
  5
234
330
2
100
AcDbEntity
  8
L-ZISSEN
100
AcDbLine
 10
344.1728362609608
 20
-50.84959374134621
 30
0.0
 11
344.1728362609608
 21
-47.15040625865628
 31
0.0
  0
LINE
  5
235
330
2
100
AcDbEntity
  8
L-ZISSEN
100
AcDbLine
 10
340.172836260959
 20
-55.26856214096267
 30
0.0
 11
340.172836260959
 21
-51.66267372284699
 31
0.0
  0
LINE
  5
236
330
2
100
AcDbEntity
  8
L-ZISSEN
100
AcDbLine
 10
338.4841775341553
 20
-55.99999999999761
 30
0.0
 11
340.172836260959
 21
-55.26856214096267
 31
0.0
  0
ARC
  5
237
330
2
100
AcDbEntity
  8
L-ZISSEN
100
AcDbCircle
 10
337.0064622430779
 20
-39.37381361188533
 30
0.0
 40
2.715501624970328
100
AcDbArc
 50
174.9022474682887
 51
271.2432652078084
  0
LINE
  5
238
330
2
100
AcDbEntity
  8
L-ZISSEN
100
AcDbLine
 10
341.0439708772226
 20
-37.9893931921905
 30
0.0
 11
334.3017016446991
 21
-37.9893931921905
 31
0.0
  0
LINE
  5
239
330
2
100
AcDbEntity
  8
L-ZISSEN
100
AcDbLine
 10
334.3017016446991
 20
-39.13252710029416
 30
0.0
 11
341.0439708772226
 21
-39.13252710029371
 31
0.0
  0
LINE
  5
23A
330
2
100
AcDbEntity
  8
L-ZISSEN
100
AcDbLine
 10
332.6343990524289
 20
-44.00000000000125
 30
0.0
 11
332.6343990524289
 21
-37.9893931921905
 31
0.0
  0
LINE
  5
23B
330
2
100
AcDbEntity
  8
L-ZISSEN
100
AcDbLine
 10
334.3017016446991
 20
-37.9893931921905
 30
0.0
 11
334.3017016446991
 21
-39.13252710029416
 31
0.0
  0
LINE
  5
23C
330
2
100
AcDbEntity
  8
L-ZISSEN
100
AcDbLine
 10
338.2802910392654
 20
-42.08867596537845
 30
0.0
 11
338.2802910392654
 21
-41.10366223340849
 31
0.0
  0
LINE
  5
23D
330
2
100
AcDbEntity
  8
L-ZISSEN
100
AcDbLine
 10
341.0439708772226
 20
-39.13252710029371
 30
0.0
 11
341.0439708772226
 21
-37.9893931921905
 31
0.0
  0
ARC
  5
23E
330
2
100
AcDbEntity
  8
L-ZISSEN
100
AcDbCircle
 10
338.3392102788436
 20
-39.37381361188533
 30
0.0
 40
2.715501624969247
100
AcDbArc
 50
268.7567347921915
 51
5.097752531710924
  0
LINE
  5
23F
330
2
100
AcDbEntity
  8
L-ZISSEN
100
AcDbLine
 10
337.0653814826581
 20
-41.10366223340849
 30
0.0
 11
337.0653814826581
 21
-42.08867596537845
 31
0.0
  0
LINE
  5
240
330
2
100
AcDbEntity
  8
L-ZISSEN
100
AcDbLine
 10
338.2802910392654
 20
-41.10366223340849
 30
0.0
 11
337.0653814826581
 21
-41.10366223340849
 31
0.0
  0
LINE
  5
241
330
2
100
AcDbEntity
  8
L-ZISSEN
100
AcDbLine
 10
383.6728362609596
 20
-31.99999999999943
 30
0.0
 11
383.6728362609596
 21
-46.99999999999852
 31
0.0
  0
ARC
  5
242
330
2
100
AcDbEntity
  8
L-ZISSEN
100
AcDbCircle
 10
376.1728362609614
 20
-45.00000000000034
 30
0.0
 40
2.000000000001023
100
AcDbArc
 50
180.0
 51
270.0
  0
ARC
  5
243
330
2
100
AcDbEntity
  8
L-ZISSEN
100
AcDbCircle
 10
366.6717058985937
 20
-48.02319766880327
 30
0.0
 40
6.523174687348231
100
AcDbArc
 50
355.2882861395763
 51
184.9475628706162
  0
LINE
  5
244
330
2
100
AcDbEntity
  8
L-TYUSIN
100
AcDbLine
 10
366.6728362609605
 20
-39.52499446707724
 30
0.0
 11
366.6728362609605
 21
-60.47500553292275
 31
0.0
  0
LINE
  5
245
330
2
100
AcDbEntity
  8
L-TYUSIN
100
AcDbLine
 10
366.6728362609605
 20
-60.47500553292275
 30
0.0
 11
366.6728362609605
 21
-39.52499446707724
 31
0.0
  0
LINE
  5
246
330
2
100
AcDbEntity
  8
L-ZISSEN
100
AcDbLine
 10
354.6728362609623
 20
-31.99999999999988
 30
0.0
 11
354.6728362609623
 21
-62.99999999999989
 31
0.0
  0
LINE
  5
247
330
2
100
AcDbEntity
  8
L-TYUSIN
100
AcDbLine
 10
358.6158417449237
 20
-50.0
 30
0.0
 11
374.7298307769974
 21
-50.0
 31
0.0
  0
LINE
  5
248
330
2
100
AcDbEntity
  8
L-ZISSEN
100
AcDbLine
 10
354.6728362609623
 20
-62.99999999999989
 30
0.0
 11
378.672836260961
 21
-62.99999999999989
 31
0.0
  0
ARC
  5
249
330
2
100
AcDbEntity
  8
L-ZISSEN
100
AcDbCircle
 10
366.6717058985937
 20
-51.99748565438494
 30
0.0
 40
6.502511452774129
100
AcDbArc
 50
178.0823193444422
 51
1.180907304195713
  0
LINE
  5
24A
330
2
100
AcDbEntity
  8
L-ZISSEN
100
AcDbLine
 10
360.1728362609605
 20
-51.7798882589268
 30
0.0
 11
360.1728362609605
 21
-48.58578227107386
 31
0.0
  0
LINE
  5
24B
330
2
100
AcDbEntity
  8
L-ZISSEN
100
AcDbLine
 10
378.672836260961
 20
-46.99999999999863
 30
0.0
 11
378.672836260961
 21
-62.99999999999977
 31
0.0
  0
LINE
  5
24C
330
2
100
AcDbEntity
  8
L-ZISSEN
100
AcDbLine
 10
373.1728362609603
 20
-51.86347369606687
 30
0.0
 11
373.1728362609605
 21
-48.55902601181355
 31
0.0
  0
LINE
  5
24D
330
2
100
AcDbEntity
  8
L-ZISSEN
100
AcDbLine
 10
377.1739666233273
 20
-24.00000000000023
 30
0.0
 11
356.173966623326
 21
-24.00000000000023
 31
0.0
  0
LINE
  5
24E
330
2
100
AcDbEntity
  8
L-ZISSEN
100
AcDbLine
 10
356.173966623326
 20
-28.00000000000034
 30
0.0
 11
377.1739666233273
 21
-28.00000000000022
 31
0.0
  0
LINE
  5
24F
330
2
100
AcDbEntity
  8
L-ZISSEN
100
AcDbLine
 10
349.172836260961
 20
-44.00000000000125
 30
0.0
 11
349.1728362609608
 21
-32.00000000000125
 31
0.0
  0
LINE
  5
250
330
2
100
AcDbEntity
  8
L-ZISSEN
100
AcDbLine
 10
356.173966623326
 20
-28.00000000000022
 30
0.0
 11
356.173966623326
 21
-24.00000000000023
 31
0.0
  0
LINE
  5
251
330
2
100
AcDbEntity
  8
L-ZISSEN
100
AcDbLine
 10
359.1728362609608
 20
-28.00000000000125
 30
0.0
 11
359.1728362609608
 21
-32.00000000000125
 31
0.0
  0
LINE
  5
252
330
2
100
AcDbEntity
  8
L-ZISSEN
100
AcDbLine
 10
374.172836260961
 20
-31.99999999999943
 30
0.0
 11
374.172836260961
 21
-45.00000000000034
 31
0.0
  0
LINE
  5
253
330
2
100
AcDbEntity
  8
L-ZISSEN
100
AcDbLine
 10
374.172836260961
 20
-28.00000000000022
 30
0.0
 11
374.172836260961
 21
-31.99999999999943
 31
0.0
  0
LINE
  5
254
330
2
100
AcDbEntity
  8
L-ZISSEN
100
AcDbLine
 10
377.1739666233273
 20
-28.00000000000022
 30
0.0
 11
377.1739666233273
 21
-24.00000000000068
 31
0.0
  0
LINE
  5
255
330
2
100
AcDbEntity
  8
L-ZISSEN
100
AcDbLine
 10
339.1728362609627
 20
23.99999999999966
 30
0.0
 11
359.1728362609608
 21
23.99999999999966
 31
0.0
  0
LINE
  5
256
330
2
100
AcDbEntity
  8
L-ZISSEN
100
AcDbLine
 10
336.1728362609608
 20
20.9999999999992
 30
0.0
 11
353.9228362609627
 21
20.9999999999992
 31
0.0
  0
LINE
  5
257
330
2
100
AcDbEntity
  8
L-ZISSEN
100
AcDbLine
 10
339.6739666233273
 20
-15.99999999999818
 30
0.0
 11
339.6739666233273
 21
16.07459064444617
 31
0.0
  0
ARC
  5
258
330
2
100
AcDbEntity
  8
L-SOUZOU
100
AcDbCircle
 10
314.1728362609609
 20
3.999999999998749
 30
0.0
 40
2.0
100
AcDbArc
 50
73.51949999986482
 51
200.0599999999713
  0
CIRCLE
  5
259
330
2
100
AcDbEntity
  8
L-SOUZOU
100
AcDbCircle
 10
314.1728362609609
 20
3.999999999998749
 30
0.0
 40
1.199999999999999
  0
LINE
  5
25A
330
2
100
AcDbEntity
  8
L-ZISSEN
100
AcDbLine
 10
336.6728362609627
 20
16.99999999999874
 30
0.0
 11
336.6728362609627
 21
-16.00575108397174
 31
0.0
  0
ARC
  5
25B
330
2
100
AcDbEntity
  8
L-SOUZOU
100
AcDbCircle
 10
314.1728362609609
 20
3.999999999998749
 30
0.0
 40
2.0
100
AcDbArc
 50
249.9399999997777
 51
16.48050000006875
  0
CIRCLE
  5
25C
330
2
100
AcDbEntity
  8
L-ZISSEN
100
AcDbCircle
 10
314.1728362609608
 20
3.999999999998749
 30
0.0
 40
5.724999999999998
  0
CIRCLE
  5
25D
330
2
100
AcDbEntity
  8
L-SAISEN
100
AcDbCircle
 10
314.1728362609608
 20
3.999999999998749
 30
0.0
 40
6.58
  0
SOLID
  5
25E
330
2
100
AcDbEntity
  8
L-ZISSEN
100
AcDbTrace
 10
312.7508246783139
 20
7.797673959577309
 30
0.0
 11
311.5960121283233
 21
7.131201340362963
 31
0.0
 12
314.1728362609608
 22
3.999999999998749
 32
0.0
 13
314.1728362609608
 23
3.999999999998749
 33
0.0
  0
LINE
  5
25F
330
2
100
AcDbEntity
  8
L-SOUZOU
100
AcDbLine
 10
320.1128362609573
 20
11.63679999999897
 30
0.0
 11
321.8096362609568
 21
9.939999999998804
 31
0.0
  0
LINE
  5
260
330
2
100
AcDbEntity
  8
L-SOUZOU
100
AcDbLine
 10
321.8096362609568
 20
9.939999999998804
 30
0.0
 11
316.0904362609586
 21
4.567199999998706
 31
0.0
  0
LINE
  5
261
330
2
100
AcDbEntity
  8
L-SOUZOU
100
AcDbLine
 10
320.1128362609573
 20
11.63679999999897
 30
0.0
 11
314.740036260957
 21
5.917599999998742
 31
0.0
  0
LINE
  5
262
330
2
100
AcDbEntity
  8
L-ZISSEN
100
AcDbLine
 10
341.1728362609608
 20
16.99999999999874
 30
0.0
 11
341.1728362609608
 21
16.07459064444617
 31
0.0
  0
LINE
  5
263
330
2
100
AcDbEntity
  8
L-ZISSEN
100
AcDbLine
 10
336.1728362609608
 20
20.9999999999992
 30
0.0
 11
336.1728362609608
 21
16.99999999999965
 31
0.0
  0
LINE
  5
264
330
2
100
AcDbEntity
  8
L-ZISSEN
100
AcDbLine
 10
339.1728362609627
 20
23.99999999999966
 30
0.0
 11
336.1728362609608
 21
20.9999999999992
 31
0.0
  0
CIRCLE
  5
265
330
2
100
AcDbEntity
  8
L-ZISSEN
100
AcDbCircle
 10
366.6739666233278
 20
8.769234043836149
 30
0.0
 40
6.099999999999567
  0
LINE
  5
266
330
2
100
AcDbEntity
  8
L-TYUSIN
100
AcDbLine
 10
366.6739666233278
 20
18.29754232612401
 30
0.0
 11
366.6739666233278
 21
-18.29754232612424
 31
0.0
  0
LINE
  5
267
330
2
100
AcDbEntity
  8
L-TYUSIN
100
AcDbLine
 10
358.6487130651179
 20
-8.29503879284357
 30
0.0
 11
374.8873673026336
 21
-8.29503879284357
 31
0.0
  0
CIRCLE
  5
268
330
2
100
AcDbEntity
  8
L-ZISSEN
100
AcDbCircle
 10
366.6739666233278
 20
-8.29503879284357
 30
0.0
 40
6.099999999999567
  0
CIRCLE
  5
269
330
2
100
AcDbEntity
  8
L-ZISSEN
100
AcDbCircle
 10
366.6739666233278
 20
-8.29503879284357
 30
0.0
 40
3.249999999999886
  0
LINE
  5
26A
330
2
100
AcDbEntity
  8
L-ZISSEN
100
AcDbLine
 10
356.173966623326
 20
28.00000000000011
 30
0.0
 11
377.1739666233273
 21
28.0
 31
0.0
  0
CIRCLE
  5
26B
330
2
100
AcDbEntity
  8
L-ZISSEN
100
AcDbCircle
 10
366.6739666233278
 20
8.769234043836149
 30
0.0
 40
3.249999999999886
  0
LINE
  5
26C
330
2
100
AcDbEntity
  8
L-TYUSIN
100
AcDbLine
 10
358.6487130651179
 20
8.769234043836149
 30
0.0
 11
374.8873673026336
 21
8.769234043836149
 31
0.0
  0
LINE
  5
26D
330
2
100
AcDbEntity
  8
L-ZISSEN
100
AcDbLine
 10
377.1739666233273
 20
24.0
 30
0.0
 11
356.173966623326
 21
24.0
 31
0.0
  0
LINE
  5
26E
330
2
100
AcDbEntity
  8
L-ZISSEN
100
AcDbLine
 10
359.1728362609608
 20
16.99999999999965
 30
0.0
 11
355.1728362609627
 21
16.99999999999965
 31
0.0
  0
LINE
  5
26F
330
2
100
AcDbEntity
  8
L-ZISSEN
100
AcDbLine
 10
355.1728362609627
 20
16.99999999999965
 30
0.0
 11
355.1728362609628
 21
16.07459064444617
 31
0.0
  0
LINE
  5
270
330
2
100
AcDbEntity
  8
L-ZISSEN
100
AcDbLine
 10
353.9228362609627
 20
20.9999999999992
 30
0.0
 11
353.9228362609628
 21
16.07459064444628
 31
0.0
  0
LINE
  5
271
330
2
100
AcDbEntity
  8
L-ZISSEN
100
AcDbLine
 10
355.1728362609627
 20
16.99999999999965
 30
0.0
 11
353.9228362609627
 21
20.9999999999992
 31
0.0
  0
LINE
  5
272
330
2
100
AcDbEntity
  8
L-ZISSEN
100
AcDbLine
 10
356.173966623326
 20
28.0
 30
0.0
 11
356.173966623326
 21
24.0
 31
0.0
  0
LINE
  5
273
330
2
100
AcDbEntity
  8
L-ZISSEN
100
AcDbLine
 10
359.1728362609608
 20
23.99999999999966
 30
0.0
 11
359.1728362609609
 21
16.07459064444628
 31
0.0
  0
LINE
  5
274
330
2
100
AcDbEntity
  8
L-ZISSEN
100
AcDbLine
 10
379.4228362609596
 20
20.99999999999965
 30
0.0
 11
377.6989429865157
 21
16.07459064444594
 31
0.0
  0
LINE
  5
275
330
2
100
AcDbEntity
  8
L-ZISSEN
100
AcDbLine
 10
374.172836260961
 20
24.00000000000057
 30
0.0
 11
374.1728362609611
 21
16.0745906444464
 31
0.0
  0
LINE
  5
276
330
2
100
AcDbEntity
  8
L-ZISSEN
100
AcDbLine
 10
377.1739666233273
 20
28.0
 30
0.0
 11
377.1739666233273
 21
24.00000000000045
 31
0.0
  0
LINE
  5
277
330
2
100
AcDbEntity
  8
L-ZISSEN
100
AcDbLine
 10
379.4228362609596
 20
20.99999999999965
 30
0.0
 11
379.4228362609595
 21
16.07459064444628
 31
0.0
  0
LINE
  5
278
330
2
100
AcDbEntity
  8
L-ZISSEN
100
AcDbLine
 10
464.1728362609609
 20
24.00000000000057
 30
0.0
 11
464.1728362609609
 21
-24.00000000000057
 31
0.0
  0
LINE
  5
279
330
2
100
AcDbEntity
  8
L-ZISSEN
100
AcDbLine
 10
459.9228362609621
 20
-16.00575108397015
 30
0.0
 11
459.9228362609623
 21
-31.99999999999943
 31
0.0
  0
LINE
  5
27A
330
2
100
AcDbEntity
  8
L-ZISSEN
100
AcDbLine
 10
454.6728362609623
 20
-16.00575108397015
 30
0.0
 11
454.6728362609623
 21
-31.99999999999943
 31
0.0
  0
LINE
  5
27B
330
2
100
AcDbEntity
  8
L-ZISSEN
100
AcDbLine
 10
446.1728362609614
 20
-46.99999999999852
 30
0.0
 11
392.1728362609604
 21
-46.99999999999852
 31
0.0
  0
ARC
  5
27C
330
2
100
AcDbEntity
  8
L-ZISSEN
100
AcDbCircle
 10
462.1728362609604
 20
-45.00000000000034
 30
0.0
 40
2.000000000001023
100
AcDbArc
 50
270.0
 51
0.0
  0
LINE
  5
27D
330
2
100
AcDbEntity
  8
L-ZISSEN
100
AcDbLine
 10
464.1728362609609
 20
-31.99999999999943
 30
0.0
 11
464.1728362609609
 21
-45.00000000000034
 31
0.0
  0
LINE
  5
27E
330
2
100
AcDbEntity
  8
L-ZISSEN
100
AcDbLine
 10
464.1728362609609
 20
-28.00000000000022
 30
0.0
 11
464.1728362609609
 21
-31.99999999999943
 31
0.0
  0
LINE
  5
27F
330
2
100
AcDbEntity
  8
L-ZISSEN
100
AcDbLine
 10
460.4728362609611
 20
-24.00000000000114
 30
0.0
 11
460.4728362609611
 21
-28.00000000000068
 31
0.0
  0
LINE
  5
280
330
2
100
AcDbEntity
  8
L-ZISSEN
100
AcDbLine
 10
460.4728362609611
 20
-24.00000000000068
 30
0.0
 11
464.1728362609609
 21
-24.00000000000068
 31
0.0
  0
LINE
  5
281
330
2
100
AcDbEntity
  8
L-ZISSEN
100
AcDbLine
 10
464.1728362609611
 20
-28.00000000000022
 30
0.0
 11
460.4728362609611
 21
-28.00000000000022
 31
0.0
  0
LINE
  5
282
330
2
100
AcDbEntity
  8
L-ZISSEN
100
AcDbLine
 10
397.1728362609609
 20
17.00000000000147
 30
0.0
 11
397.1728362609609
 21
-16.00575108396969
 31
0.0
  0
LINE
  5
283
330
2
100
AcDbEntity
  8
L-ZISSEN
100
AcDbLine
 10
393.673966623326
 20
16.0745906444464
 30
0.0
 11
393.673966623326
 21
-16.00575108397197
 31
0.0
  0
LINE
  5
284
330
2
100
AcDbEntity
  8
L-ZISSEN
100
AcDbLine
 10
408.1728362609609
 20
26.80000000000063
 30
0.0
 11
425.1728362609614
 21
26.80000000000063
 31
0.0
  0
LINE
  5
285
330
2
100
AcDbEntity
  8
L-ZISSEN
100
AcDbLine
 10
408.1728362609609
 20
26.80000000000086
 30
0.0
 11
425.1728362609614
 21
26.80000000000086
 31
0.0
  0
LINE
  5
286
330
2
100
AcDbEntity
  8
L-ZISSEN
100
AcDbLine
 10
425.1728362609614
 20
26.80000000000063
 30
0.0
 11
408.9228362609609
 21
26.80000000000041
 31
0.0
  0
LINE
  5
287
330
2
100
AcDbEntity
  8
L-ZISSEN
100
AcDbLine
 10
425.1728362609614
 20
26.80000000000086
 30
0.0
 11
409.1728362609609
 21
26.80000000000086
 31
0.0
  0
LINE
  5
288
330
2
100
AcDbEntity
  8
L-ZISSEN
100
AcDbLine
 10
425.1728362609614
 20
26.80000000000063
 30
0.0
 11
408.9228362609609
 21
26.80000000000041
 31
0.0
  0
LINE
  5
289
330
2
100
AcDbEntity
  8
L-ZISSEN
100
AcDbLine
 10
425.17283626096
 20
17.00000000000147
 30
0.0
 11
392.1728362609604
 21
17.00000000000147
 31
0.0
  0
LINE
  5
28A
330
2
100
AcDbEntity
  8
L-ZISSEN
100
AcDbLine
 10
392.1728362609604
 20
17.00000000000147
 30
0.0
 11
392.1728362609604
 21
16.0745906444464
 31
0.0
  0
LINE
  5
28B
330
2
100
AcDbEntity
  8
L-ZISSEN
100
AcDbLine
 10
408.1728362609609
 20
24.00000000000057
 30
0.0
 11
408.1728362609609
 21
26.80000000000063
 31
0.0
  0
LINE
  5
28C
330
2
100
AcDbEntity
  8
L-ZISSEN
100
AcDbLine
 10
420.6728362609595
 20
24.00000000000057
 30
0.0
 11
420.6728362609595
 21
17.00000000000147
 31
0.0
  0
LINE
  5
28D
330
2
100
AcDbEntity
  8
L-ZISSEN
100
AcDbLine
 10
425.17283626096
 20
24.00000000000057
 30
0.0
 11
425.17283626096
 21
17.00000000000147
 31
0.0
  0
LINE
  5
28E
330
2
100
AcDbEntity
  8
L-ZISSEN
100
AcDbLine
 10
460.6728362609622
 20
16.00000000000056
 30
0.0
 11
460.6728362609622
 21
-16.00575108396992
 31
0.0
  0
LINE
  5
28F
330
2
100
AcDbEntity
  8
L-ZISSEN
100
AcDbLine
 10
458.9228362609623
 20
20.99999999999965
 30
0.0
 11
458.9228362609624
 21
-16.00575108396992
 31
0.0
  0
LINE
  5
290
330
2
100
AcDbEntity
  8
L-ZISSEN
100
AcDbLine
 10
441.1728362609609
 20
24.00000000000057
 30
0.0
 11
441.1728362609609
 21
-16.00575108396992
 31
0.0
  0
LINE
  5
291
330
2
100
AcDbEntity
  8
L-ZISSEN
100
AcDbLine
 10
446.1728362609614
 20
24.00000000000057
 30
0.0
 11
446.1728362609614
 21
-16.00575108396992
 31
0.0
  0
LINE
  5
292
330
2
100
AcDbEntity
  8
L-ZISSEN
100
AcDbLine
 10
446.1728362609614
 20
20.99999999999965
 30
0.0
 11
458.92283626096
 21
20.99999999999965
 31
0.0
  0
LINE
  5
293
330
2
100
AcDbEntity
  8
L-ZISSEN
100
AcDbLine
 10
458.9228362609623
 20
20.99999999999965
 30
0.0
 11
460.6728362609622
 21
16.00000000000056
 31
0.0
  0
LINE
  5
294
330
2
100
AcDbEntity
  8
L-ZISSEN
100
AcDbLine
 10
464.1728362609609
 20
16.00000000000056
 30
0.0
 11
460.6728362609622
 21
16.00000000000056
 31
0.0
  0
LINE
  5
295
330
2
100
AcDbEntity
  8
L-ZISSEN
100
AcDbLine
 10
140.4059293971008
 20
29.96100913148905
 30
0.0
 11
117.1010787617747
 21
29.96100913148905
 31
0.0
  0
LINE
  5
296
330
2
100
AcDbEntity
  8
L-TYUSIN
100
AcDbLine
 10
-54.9999999999978
 20
50.0000000000005
 30
0.0
 11
-74.99999999999772
 21
50.00000000000049
 31
0.0
  0
LINE
  5
297
330
2
100
AcDbEntity
  8
L-ZISSEN
100
AcDbLine
 10
-69.99999999999772
 20
63.0
 30
0.0
 11
-59.99999999999772
 21
63.0
 31
0.0
  0
LINE
  5
298
330
2
100
AcDbEntity
  8
L-ZISSEN
100
AcDbLine
 10
-30.0
 20
35.0
 30
0.0
 11
30.0
 21
35.0
 31
0.0
  0
LINE
  5
299
330
2
100
AcDbEntity
  8
L-ZISSEN
100
AcDbLine
 10
30.0
 20
40.99999999999954
 30
0.0
 11
-30.0
 21
40.99999999999954
 31
0.0
  0
LINE
  5
29A
330
2
100
AcDbEntity
  8
L-ZISSEN
100
AcDbLine
 10
-13.5
 20
48.0
 30
0.0
 11
13.5
 21
48.0
 31
0.0
  0
LINE
  5
29B
330
2
100
AcDbEntity
  8
L-ZISSEN
100
AcDbLine
 10
-13.5
 20
48.0
 30
0.0
 11
-13.5
 21
40.99999999999954
 31
0.0
  0
LINE
  5
29C
330
2
100
AcDbEntity
  8
L-ZISSEN
100
AcDbLine
 10
0.0
 20
48.0
 30
0.0
 11
0.0
 21
40.99999999999954
 31
0.0
  0
LINE
  5
29D
330
2
100
AcDbEntity
  8
L-ZISSEN
100
AcDbLine
 10
13.5
 20
48.0
 30
0.0
 11
13.5
 21
40.99999999999954
 31
0.0
  0
TEXT
  5
29E
330
2
100
AcDbEntity
  8
L-ZISSEN
100
AcDbText
 10
118.4925515503296
 20
31.83732560247517
 30
0.0
 40
4.5
  1
IN
100
AcDbText
  0
TEXT
  5
29F
330
2
100
AcDbEntity
  8
L-ZISSEN
100
AcDbText
 10
-58.25994577912206
 20
266.1633201596018
 30
0.0
 40
4.5
  1
MODEL NO. CH8- 00-*01*
100
AcDbText
  0
TEXT
  5
2A0
330
2
100
AcDbEntity
  8
L-ZISSEN
100
AcDbText
 10
1.859988373259511
 20
263.0952756825749
 30
0.0
 40
4.5
  1
8
100
AcDbText
  0
TEXT
  5
2A1
330
2
100
AcDbEntity
  8
L-ZISSEN
100
AcDbText
 10
1.859988373259511
 20
269.4522939686085
 30
0.0
 40
4.5
  1
6
100
AcDbText
  0
LINE
  5
2A2
330
2
100
AcDbEntity
  8
L-ZISSEN
100
AcDbLine
 10
464.1728362609613
 20
264.0325470711475
 30
0.0
 11
464.1728362609605
 21
211.0325470711479
 31
0.0
  0
LINE
  5
2A3
330
2
100
AcDbEntity
  8
L-ZISSEN
100
AcDbLine
 10
464.1728362609613
 20
211.0325470711479
 30
0.0
 11
464.17283626096
 21
264.0325470711477
 31
0.0
  0
LINE
  5
2A4
330
2
100
AcDbEntity
  8
L-TYUSIN
100
AcDbLine
 10
419.1728362609609
 20
187.5325470711488
 30
0.0
 11
419.1728362609609
 21
287.5325470711489
 31
0.0
  0
LINE
  5
2A5
330
2
100
AcDbEntity
  8
L-ZISSEN
100
AcDbLine
 10
164.1728362609605
 20
211.0325470711479
 30
0.0
 11
164.1728362609619
 21
264.0325470711477
 31
0.0
  0
LINE
  5
2A6
330
2
100
AcDbEntity
  8
L-TYUSIN
100
AcDbLine
 10
209.172836260961
 20
187.5325470711491
 30
0.0
 11
209.172836260961
 21
287.5325470711491
 31
0.0
  0
LINE
  5
2A7
330
2
100
AcDbEntity
  8
L-TYUSIN
100
AcDbLine
 10
314.1728362609608
 20
158.5325470711491
 30
0.0
 11
314.1728362609608
 21
287.5325470711491
 31
0.0
  0
CIRCLE
  5
2A8
330
2
100
AcDbEntity
  8
L-ZISSEN
100
AcDbCircle
 10
314.1728362609608
 20
237.5325470711491
 30
0.0
 40
29.99999999999818
  0
POLYLINE
  5
2A9
330
2
100
AcDbEntity
  8
L-ZISSEN
100
AcDb2dPolyline
 66
     1
 10
0.0
 20
0.0
 30
0.0
 70
     1
  0
VERTEX
  5
5BF
330
2A9
100
AcDbEntity
  8
L-ZISSEN
100
AcDbVertex
100
AcDb2dVertex
 10
300.6728362609608
 20
229.7383184370892
 30
0.0
  0
VERTEX
  5
5C0
330
2A9
100
AcDbEntity
  8
L-ZISSEN
100
AcDbVertex
100
AcDb2dVertex
 10
314.1728362609608
 20
221.9440898030293
 30
0.0
  0
VERTEX
  5
5C1
330
2A9
100
AcDbEntity
  8
L-ZISSEN
100
AcDbVertex
100
AcDb2dVertex
 10
327.6728362609608
 20
229.7383184370892
 30
0.0
  0
VERTEX
  5
5C2
330
2A9
100
AcDbEntity
  8
L-ZISSEN
100
AcDbVertex
100
AcDb2dVertex
 10
327.6728362609608
 20
245.326775705209
 30
0.0
  0
VERTEX
  5
5C3
330
2A9
100
AcDbEntity
  8
L-ZISSEN
100
AcDbVertex
100
AcDb2dVertex
 10
314.1728362609608
 20
253.1210043392689
 30
0.0
  0
VERTEX
  5
5C4
330
2A9
100
AcDbEntity
  8
L-ZISSEN
100
AcDbVertex
100
AcDb2dVertex
 10
300.6728362609608
 20
245.326775705209
 30
0.0
  0
SEQEND
  5
5C5
330
2A9
100
AcDbEntity
  8
L-ZISSEN
  0
LINE
  5
2AA
330
2
100
AcDbEntity
  8
L-ZISSEN
100
AcDbLine
 10
252.1728362609595
 20
219.5325470711491
 30
0.0
 11
252.1728362609595
 21
255.532547071149
 31
0.0
  0
LINE
  5
2AB
330
2
100
AcDbEntity
  8
L-ZISSEN
100
AcDbLine
 10
271.1728362609595
 20
255.532547071149
 30
0.0
 11
271.1728362609595
 21
219.5325470711491
 31
0.0
  0
LINE
  5
2AC
330
2
100
AcDbEntity
  8
L-ZISSEN
100
AcDbLine
 10
376.1728362609632
 20
255.532547071149
 30
0.0
 11
376.1728362609632
 21
219.5325470711491
 31
0.0
  0
LINE
  5
2AD
330
2
100
AcDbEntity
  8
L-ZISSEN
100
AcDbLine
 10
357.1728362609632
 20
219.5325470711491
 30
0.0
 11
357.1728362609632
 21
255.532547071149
 31
0.0
  0
LINE
  5
2AE
330
2
100
AcDbEntity
  8
L-SOUZOU
100
AcDbLine
 10
333.0728362609611
 20
188.5325470711491
 30
0.0
 11
295.2728362609607
 21
188.5325470711491
 31
0.0
  0
LINE
  5
2AF
330
2
100
AcDbEntity
  8
L-ZISSEN
100
AcDbLine
 10
300.6728362609608
 20
47.99999999999954
 30
0.0
 11
327.6728362609626
 21
47.99999999999954
 31
0.0
  0
LINE
  5
2B0
330
2
100
AcDbEntity
  8
L-ZISSEN
100
AcDbLine
 10
284.1728362609626
 20
40.99999999999954
 30
0.0
 11
344.1728362609627
 21
40.99999999999954
 31
0.0
  0
LINE
  5
2B1
330
2
100
AcDbEntity
  8
L-ZISSEN
100
AcDbLine
 10
284.1728362609626
 20
34.99999999999954
 30
0.0
 11
344.1728362609627
 21
34.99999999999954
 31
0.0
  0
LINE
  5
2B2
330
2
100
AcDbEntity
  8
L-ZISSEN
100
AcDbLine
 10
277.1633401885317
 20
192.5325470711493
 30
0.0
 11
351.1823323333917
 21
192.5325470711493
 31
0.0
  0
LINE
  5
2B3
330
2
100
AcDbEntity
  8
L-ZISSEN
100
AcDbLine
 10
292.1728362609612
 20
200.5325470711491
 30
0.0
 11
336.1728362609603
 21
200.5325470711491
 31
0.0
  0
LINE
  5
2B4
330
2
100
AcDbEntity
  8
L-SOUZOU
100
AcDbLine
 10
335.172836260961
 20
172.5325470711491
 30
0.0
 11
293.172836260961
 21
172.5325470711491
 31
0.0
  0
LINE
  5
2B5
330
2
100
AcDbEntity
  8
L-SOUZOU
100
AcDbLine
 10
333.672836260961
 20
163.5325470711491
 30
0.0
 11
294.672836260961
 21
163.5325470711491
 31
0.0
  0
LINE
  5
2B6
330
2
100
AcDbEntity
  8
L-TYUSIN
100
AcDbLine
 10
269.7298307769979
 20
50.0
 30
0.0
 11
253.6158417449241
 21
50.0
 31
0.0
  0
ARC
  5
2B7
330
2
100
AcDbEntity
  8
L-ZISSEN
100
AcDbCircle
 10
261.6739666233279
 20
48.00251434561506
 30
0.0
 40
6.502511452774129
100
AcDbArc
 50
178.8190926958042
 51
1.917680655557718
  0
ARC
  5
2B8
330
2
100
AcDbEntity
  8
L-ZISSEN
100
AcDbCircle
 10
261.6739666233279
 20
51.97680233119672
 30
0.0
 40
6.523174687348231
100
AcDbArc
 50
355.0524371293837
 51
184.7117138604236
  0
LINE
  5
2B9
330
2
100
AcDbEntity
  8
L-ZISSEN
100
AcDbLine
 10
273.6728362609593
 20
63.0
 30
0.0
 11
249.6728362609605
 21
63.0
 31
0.0
  0
LINE
  5
2BA
330
2
100
AcDbEntity
  8
L-ZISSEN
100
AcDbLine
 10
255.172836260961
 20
48.13652630392926
 30
0.0
 11
255.172836260961
 21
51.44097398818735
 31
0.0
  0
LINE
  5
2BB
330
2
100
AcDbEntity
  8
L-TYUSIN
100
AcDbLine
 10
261.672836260961
 20
39.50087472087216
 30
0.0
 11
261.672836260961
 21
60.45088578671766
 31
0.0
  0
LINE
  5
2BC
330
2
100
AcDbEntity
  8
L-TYUSIN
100
AcDbLine
 10
261.672836260961
 20
39.52499446707679
 30
0.0
 11
261.672836260961
 21
60.4750055329223
 31
0.0
  0
LINE
  5
2BD
330
2
100
AcDbEntity
  8
L-ZISSEN
100
AcDbLine
 10
268.172836260961
 20
48.22011174107183
 30
0.0
 11
268.172836260961
 21
51.41421772892773
 31
0.0
  0
LINE
  5
2BE
330
2
100
AcDbEntity
  8
L-ZISSEN
100
AcDbLine
 10
300.6728362609608
 20
47.99999999999954
 30
0.0
 11
300.6728362609608
 21
40.99999999999954
 31
0.0
  0
TEXT
  5
2BF
330
2
100
AcDbEntity
  8
L-ZISSEN
100
AcDbText
 10
260.7309212242536
 20
72.05254889135358
 30
0.0
 40
4.5
  1
P.P
100
AcDbText
  0
LINE
  5
2C0
330
2
100
AcDbEntity
  8
L-ZISSEN
100
AcDbLine
 10
273.6013102921568
 20
74.29922311930432
 30
0.0
 11
271.6013102921568
 21
74.29922311930432
 31
0.0
  0
LINE
  5
2C1
330
2
100
AcDbEntity
  8
L-ZISSEN
100
AcDbLine
 10
249.1728362609619
 20
216.0325470711486
 30
0.0
 11
169.1728362609601
 21
216.032547071149
 31
0.0
  0
LINE
  5
2C2
330
2
100
AcDbEntity
  8
L-ZISSEN
100
AcDbLine
 10
164.172836260961
 20
219.0325470711479
 30
0.0
 11
254.1728362609615
 21
219.0325470711475
 31
0.0
  0
LINE
  5
2C3
330
2
100
AcDbEntity
  8
L-ZISSEN
100
AcDbLine
 10
187.1728362609615
 20
201.0325470711491
 30
0.0
 11
231.1728362609605
 21
201.0325470711491
 31
0.0
  0
LINE
  5
2C4
330
2
100
AcDbEntity
  8
L-ZISSEN
100
AcDbLine
 10
244.672836260961
 20
192.5325470711493
 30
0.0
 11
173.672836260961
 21
192.5325470711491
 31
0.0
  0
LINE
  5
2C5
330
2
100
AcDbEntity
  8
L-ZISSEN
100
AcDbLine
 10
168.422836260961
 20
211.0325470711482
 30
0.0
 11
173.672836260961
 21
192.5325470711491
 31
0.0
  0
LINE
  5
2C6
330
2
100
AcDbEntity
  8
L-ZISSEN
100
AcDbLine
 10
169.1728362609605
 20
216.032547071149
 30
0.0
 11
167.6728362609614
 21
211.0325470711482
 31
0.0
  0
LINE
  5
2C7
330
2
100
AcDbEntity
  8
L-ZISSEN
100
AcDbLine
 10
164.172836260961
 20
211.0325470711479
 30
0.0
 11
168.4228362609605
 21
211.0325470711482
 31
0.0
  0
CIRCLE
  5
2C8
330
2
100
AcDbEntity
  8
L-ZISSEN
100
AcDbCircle
 10
179.1728362609609
 20
200.0325470711491
 30
0.0
 40
2.5
  0
LINE
  5
2C9
330
2
100
AcDbEntity
  8
L-ZISSEN
100
AcDbLine
 10
187.172836260961
 20
201.0325470711491
 30
0.0
 11
182.672836260961
 21
216.032547071149
 31
0.0
  0
LINE
  5
2CA
330
2
100
AcDbEntity
  8
L-SOUZOU
100
AcDbLine
 10
293.7728362609607
 20
187.0325470711491
 30
0.0
 11
293.7728362609607
 21
172.5325470711491
 31
0.0
  0
ARC
  5
2CB
330
2
100
AcDbEntity
  8
L-SOUZOU
100
AcDbCircle
 10
294.672836260961
 20
165.0325470711491
 30
0.0
 40
1.5
100
AcDbArc
 50
180.0
 51
270.0
  0
LINE
  5
2CC
330
2
100
AcDbEntity
  8
L-SOUZOU
100
AcDbLine
 10
293.172836260961
 20
172.5325470711491
 30
0.0
 11
293.172836260961
 21
165.0325470711491
 31
0.0
  0
LINE
  5
2CD
330
2
100
AcDbEntity
  8
L-ZISSEN
100
AcDbLine
 10
254.1728362609615
 20
211.0325470711504
 30
0.0
 11
269.1728362609572
 21
211.0325470711491
 31
0.0
  0
LINE
  5
2CE
330
2
100
AcDbEntity
  8
L-ZISSEN
100
AcDbLine
 10
271.1728362609595
 20
219.5325470711491
 30
0.0
 11
252.1728362609595
 21
219.5325470711491
 31
0.0
  0
LINE
  5
2CF
330
2
100
AcDbEntity
  8
L-ZISSEN
100
AcDbLine
 10
272.6728362609595
 20
210.5325470711491
 30
0.0
 11
250.6728362609595
 21
210.5325470711491
 31
0.0
  0
LINE
  5
2D0
330
2
100
AcDbEntity
  8
L-ZISSEN
100
AcDbLine
 10
288.435849042154
 20
202.0325470711491
 30
0.0
 11
234.9098234797651
 21
202.0325470711491
 31
0.0
  0
ARC
  5
2D1
330
2
100
AcDbEntity
  8
L-ZISSEN
100
AcDbCircle
 10
239.1728362609609
 20
200.0325470711491
 30
0.0
 40
2.5
100
AcDbArc
 50
126.8698976458419
 51
53.13010235415806
  0
LINE
  5
2D2
330
2
100
AcDbEntity
  8
L-ZISSEN
100
AcDbLine
 10
247.3687822069071
 20
202.0325470711491
 30
0.0
 11
244.672836260961
 21
192.5325470711491
 31
0.0
  0
LINE
  5
2D3
330
2
100
AcDbEntity
  8
L-ZISSEN
100
AcDbLine
 10
236.6728362609595
 20
216.032547071149
 30
0.0
 11
233.9320210656877
 21
203.2420761598798
 31
0.0
  0
LINE
  5
2D4
330
2
100
AcDbEntity
  8
L-ZISSEN
100
AcDbLine
 10
231.172836260961
 20
201.0325470711491
 30
0.0
 11
235.672836260961
 21
216.0325470711486
 31
0.0
  0
ARC
  5
2D5
330
2
100
AcDbEntity
  8
L-ZISSEN
100
AcDbCircle
 10
234.9098234797649
 20
203.0325470711491
 30
0.0
 40
1.0
100
AcDbArc
 50
167.9052429229894
 51
270.0
  0
LINE
  5
2D6
330
2
100
AcDbEntity
  8
L-ZISSEN
100
AcDbLine
 10
254.1728362609615
 20
211.0325470711479
 30
0.0
 11
254.1728362609613
 21
219.5325470711491
 31
0.0
  0
LINE
  5
2D7
330
2
100
AcDbEntity
  8
L-ZISSEN
100
AcDbLine
 10
254.1728362609608
 20
219.5325470711491
 30
0.0
 11
254.1728362609605
 21
211.0325470711479
 31
0.0
  0
LINE
  5
2D8
330
2
100
AcDbEntity
  8
L-ZISSEN
100
AcDbLine
 10
249.1728362609614
 20
216.032547071149
 30
0.0
 11
250.6728362609606
 21
211.0325470711482
 31
0.0
  0
LINE
  5
2D9
330
2
100
AcDbEntity
  8
L-ZISSEN
100
AcDbLine
 10
250.6728362609595
 20
210.5325470711491
 30
0.0
 11
248.6728362609595
 21
216.032547071149
 31
0.0
  0
LINE
  5
2DA
330
2
100
AcDbEntity
  8
L-ZISSEN
100
AcDbLine
 10
254.172836260961
 20
211.0325470711479
 30
0.0
 11
250.4910180791416
 21
211.0325470711482
 31
0.0
  0
LINE
  5
2DB
330
2
100
AcDbEntity
  8
L-ZISSEN
100
AcDbLine
 10
292.1728362609608
 20
200.5325470711491
 30
0.0
 11
287.5228362609607
 21
216.0325470711488
 31
0.0
  0
LINE
  5
2DC
330
2
100
AcDbEntity
  8
L-ZISSEN
100
AcDbLine
 10
277.1633401885317
 20
192.5325470711493
 30
0.0
 11
275.0572408934238
 21
202.0325470711491
 31
0.0
  0
ARC
  5
2DD
330
2
100
AcDbEntity
  8
L-SOUZOU
100
AcDbCircle
 10
295.2728362609607
 20
187.0325470711491
 30
0.0
 40
1.5
100
AcDbArc
 50
89.99999999999998
 51
180.0
  0
LINE
  5
2DE
330
2
100
AcDbEntity
  8
L-ZISSEN
100
AcDbLine
 10
293.2503603080558
 20
216.0325470711488
 30
0.0
 11
274.1728362609598
 21
216.032547071149
 31
0.0
  0
LINE
  5
2DF
330
2
100
AcDbEntity
  8
L-ZISSEN
100
AcDbLine
 10
269.1728362609608
 20
219.0325470711479
 30
0.0
 11
290.5561049037251
 21
219.0325470711477
 31
0.0
  0
LINE
  5
2E0
330
2
100
AcDbEntity
  8
L-ZISSEN
100
AcDbLine
 10
269.1728362609574
 20
211.0325470711491
 30
0.0
 11
269.1728362609574
 21
219.5325470711491
 31
0.0
  0
LINE
  5
2E1
330
2
100
AcDbEntity
  8
L-ZISSEN
100
AcDbLine
 10
274.1728362609603
 20
216.032547071149
 30
0.0
 11
272.6728362609612
 21
211.0325470711482
 31
0.0
  0
LINE
  5
2E2
330
2
100
AcDbEntity
  8
L-ZISSEN
100
AcDbLine
 10
272.6728362609595
 20
210.5325470711491
 30
0.0
 11
274.6728362609595
 21
216.032547071149
 31
0.0
  0
LINE
  5
2E3
330
2
100
AcDbEntity
  8
L-ZISSEN
100
AcDbLine
 10
269.1728362609574
 20
211.0325470711491
 30
0.0
 11
272.8546544427778
 21
211.0325470711493
 31
0.0
  0
LINE
  5
2E4
330
2
100
AcDbEntity
  8
L-ZISSEN
100
AcDbLine
 10
286.6728362609595
 20
216.032547071149
 30
0.0
 11
289.4136514562315
 21
203.2420761598798
 31
0.0
  0
ARC
  5
2E5
330
2
100
AcDbEntity
  8
L-ZISSEN
100
AcDbCircle
 10
288.435849042154
 20
203.0325470711491
 30
0.0
 40
1.0
100
AcDbArc
 50
270.0
 51
12.09475707701048
  0
LINE
  5
2E6
330
2
100
AcDbEntity
  8
L-ZISSEN
100
AcDbLine
 10
314.1728362609608
 20
47.99999999999954
 30
0.0
 11
314.1728362609608
 21
40.99999999999954
 31
0.0
  0
LINE
  5
2E7
330
2
100
AcDbEntity
  8
L-ZISSEN
100
AcDbLine
 10
327.6728362609626
 20
47.99999999999954
 30
0.0
 11
327.6728362609626
 21
40.99999999999954
 31
0.0
  0
ARC
  5
2E8
330
2
100
AcDbEntity
  8
L-ZISSEN
100
AcDbCircle
 10
366.6717058985937
 20
51.97680233119672
 30
0.0
 40
6.523174687348231
100
AcDbArc
 50
355.2882861395763
 51
184.9475628706162
  0
LINE
  5
2E9
330
2
100
AcDbEntity
  8
L-TYUSIN
100
AcDbLine
 10
366.6728362609605
 20
39.50087472087216
 30
0.0
 11
366.6728362609605
 21
60.45088578671766
 31
0.0
  0
LINE
  5
2EA
330
2
100
AcDbEntity
  8
L-TYUSIN
100
AcDbLine
 10
366.6728362609605
 20
39.52499446707679
 30
0.0
 11
366.6728362609605
 21
60.4750055329223
 31
0.0
  0
ARC
  5
2EB
330
2
100
AcDbEntity
  8
L-ZISSEN
100
AcDbCircle
 10
366.6717058985937
 20
48.00251434561506
 30
0.0
 40
6.502511452774129
100
AcDbArc
 50
178.0823193444422
 51
1.180907304195713
  0
LINE
  5
2EC
330
2
100
AcDbEntity
  8
L-TYUSIN
100
AcDbLine
 10
358.6158417449237
 20
50.0
 30
0.0
 11
374.7298307769974
 21
50.0
 31
0.0
  0
LINE
  5
2ED
330
2
100
AcDbEntity
  8
L-ZISSEN
100
AcDbLine
 10
360.1728362609605
 20
48.22011174107183
 30
0.0
 11
360.1728362609605
 21
51.41421772892773
 31
0.0
  0
LINE
  5
2EE
330
2
100
AcDbEntity
  8
L-ZISSEN
100
AcDbLine
 10
373.1728362609605
 20
48.13652630392926
 30
0.0
 11
373.1728362609605
 21
51.44097398818735
 31
0.0
  0
LINE
  5
2EF
330
2
100
AcDbEntity
  8
L-ZISSEN
100
AcDbLine
 10
354.6728362609623
 20
63.0
 30
0.0
 11
378.672836260961
 21
63.0
 31
0.0
  0
LINE
  5
2F0
330
2
100
AcDbEntity
  8
L-ZISSEN
100
AcDbLine
 10
429.9048870685299
 20
38.00000000000181
 30
0.0
 11
436.440785453392
 21
38.00000000000136
 31
0.0
  0
LINE
  5
2F1
330
2
100
AcDbEntity
  8
L-ZISSEN
100
AcDbLine
 10
425.1728362609609
 20
31.5
 30
0.0
 11
441.1728362609609
 21
31.5
 31
0.0
  0
LINE
  5
2F2
330
2
100
AcDbEntity
  8
L-ZISSEN
100
AcDbLine
 10
409.1728362609609
 20
30.30000000000132
 30
0.0
 11
425.1728362609614
 21
30.30000000000109
 31
0.0
  0
LINE
  5
2F3
330
2
100
AcDbEntity
  8
L-ZISSEN
100
AcDbLine
 10
426.1728362609609
 20
31.5
 30
0.0
 11
426.1728362609609
 21
45.30000000000086
 31
0.0
  0
LINE
  5
2F4
330
2
100
AcDbEntity
  8
L-ZISSEN
100
AcDbLine
 10
412.1728362609609
 20
30.30000000000086
 30
0.0
 11
412.1728362609609
 21
45.30000000000086
 31
0.0
  0
LINE
  5
2F5
330
2
100
AcDbEntity
  8
L-ZISSEN
100
AcDbLine
 10
428.1728362609611
 20
31.5
 30
0.0
 11
428.1728362609611
 21
35.00000000000136
 31
0.0
  0
LINE
  5
2F6
330
2
100
AcDbEntity
  8
L-ZISSEN
100
AcDbLine
 10
428.1728362609611
 20
35.00000000000136
 30
0.0
 11
429.9048870685298
 21
38.00000000000136
 31
0.0
  0
LINE
  5
2F7
330
2
100
AcDbEntity
  8
L-ZISSEN
100
AcDbLine
 10
426.1728362609609
 20
45.30000000000086
 30
0.0
 11
412.1728362609609
 21
45.30000000000086
 31
0.0
  0
LINE
  5
2F8
330
2
100
AcDbEntity
  8
L-ZISSEN
100
AcDbLine
 10
438.1728362609609
 20
35.00000000000091
 30
0.0
 11
438.1728362609609
 21
31.5
 31
0.0
  0
LINE
  5
2F9
330
2
100
AcDbEntity
  8
L-ZISSEN
100
AcDbLine
 10
438.1728362609611
 20
35.00000000000136
 30
0.0
 11
436.4407854533925
 21
38.00000000000136
 31
0.0
  0
ARC
  5
2FA
330
2
100
AcDbEntity
  8
L-ZISSEN
100
AcDbCircle
 10
389.1728362609609
 20
200.0325470711491
 30
0.0
 40
2.5
100
AcDbArc
 50
126.8698976458419
 51
53.13010235415806
  0
LINE
  5
2FB
330
2
100
AcDbEntity
  8
L-ZISSEN
100
AcDbLine
 10
454.6728362609609
 20
192.5325470711493
 30
0.0
 11
383.6728362609609
 21
192.5325470711488
 31
0.0
  0
LINE
  5
2FC
330
2
100
AcDbEntity
  8
L-ZISSEN
100
AcDbLine
 10
374.1728362609609
 20
219.0325470711479
 30
0.0
 11
419.7728362609613
 21
219.0325470711475
 31
0.0
  0
LINE
  5
2FD
330
2
100
AcDbEntity
  8
L-ZISSEN
100
AcDbLine
 10
420.6728362609609
 20
216.0325470711488
 30
0.0
 11
379.17283626096
 21
216.0325470711488
 31
0.0
  0
LINE
  5
2FE
330
2
100
AcDbEntity
  8
L-ZISSEN
100
AcDbLine
 10
393.4358490421576
 20
202.0325470711491
 30
0.0
 11
339.9098234797687
 21
202.0325470711491
 31
0.0
  0
LINE
  5
2FF
330
2
100
AcDbEntity
  8
L-SOUZOU
100
AcDbLine
 10
334.5728362609611
 20
187.0325470711491
 30
0.0
 11
334.5728362609611
 21
172.5325470711491
 31
0.0
  0
ARC
  5
300
330
2
100
AcDbEntity
  8
L-SOUZOU
100
AcDbCircle
 10
333.672836260961
 20
165.0325470711491
 30
0.0
 40
1.5
100
AcDbArc
 50
270.0
 51
0.0
  0
LINE
  5
301
330
2
100
AcDbEntity
  8
L-SOUZOU
100
AcDbLine
 10
335.172836260961
 20
172.5325470711491
 30
0.0
 11
335.172836260961
 21
165.0325470711491
 31
0.0
  0
LINE
  5
302
330
2
100
AcDbEntity
  8
L-ZISSEN
100
AcDbLine
 10
337.7895676181963
 20
219.0325470711475
 30
0.0
 11
359.1728362609612
 21
219.0325470711475
 31
0.0
  0
LINE
  5
303
330
2
100
AcDbEntity
  8
L-ZISSEN
100
AcDbLine
 10
354.1728362609617
 20
216.0325470711486
 30
0.0
 11
335.0953122138655
 21
216.0325470711486
 31
0.0
  0
LINE
  5
304
330
2
100
AcDbEntity
  8
L-ZISSEN
100
AcDbLine
 10
336.1728362609608
 20
200.5325470711491
 30
0.0
 11
340.8228362609607
 21
216.0325470711486
 31
0.0
  0
LINE
  5
305
330
2
100
AcDbEntity
  8
L-SOUZOU
100
AcDbLine
 10
320.9072815538644
 20
197.5325470711491
 30
0.0
 11
307.4383909680574
 21
197.5325470711491
 31
0.0
  0
LINE
  5
306
330
2
100
AcDbEntity
  8
L-SOUZOU
100
AcDbLine
 10
320.9728362609609
 20
196.0325470711491
 30
0.0
 11
307.3728362609609
 21
196.0325470711491
 31
0.0
  0
LINE
  5
307
330
2
100
AcDbEntity
  8
L-SOUZOU
100
AcDbLine
 10
307.3728362609612
 20
196.0325470711491
 30
0.0
 11
307.3728362609609
 21
188.5325470711491
 31
0.0
  0
LINE
  5
308
330
2
100
AcDbEntity
  8
L-SOUZOU
100
AcDbLine
 10
308.2943909680574
 20
197.5325470711491
 30
0.0
 11
307.4107766403732
 21
196.6489327434649
 31
0.0
  0
LINE
  5
309
330
2
100
AcDbEntity
  8
L-SOUZOU
100
AcDbLine
 10
307.5321456531695
 20
200.5325470711491
 30
0.0
 11
307.391513625501
 21
196.0325470711495
 31
0.0
  0
LINE
  5
30A
330
2
100
AcDbEntity
  8
L-SOUZOU
100
AcDbLine
 10
308.3881456531697
 20
200.5325470711491
 30
0.0
 11
308.2943909680574
 21
197.5325470711491
 31
0.0
  0
LINE
  5
30B
330
2
100
AcDbEntity
  8
L-SOUZOU
100
AcDbLine
 10
320.9728362609609
 20
196.0325470711491
 30
0.0
 11
320.9728362609613
 21
188.5325470711491
 31
0.0
  0
LINE
  5
30C
330
2
100
AcDbEntity
  8
L-SOUZOU
100
AcDbLine
 10
320.0512815538644
 20
197.5325470711491
 30
0.0
 11
320.9348958815488
 21
196.6489327434649
 31
0.0
  0
LINE
  5
30D
330
2
100
AcDbEntity
  8
L-SOUZOU
100
AcDbLine
 10
320.8135268687523
 20
200.5325470711491
 30
0.0
 11
320.9541588964208
 21
196.0325470711495
 31
0.0
  0
LINE
  5
30E
330
2
100
AcDbEntity
  8
L-SOUZOU
100
AcDbLine
 10
319.9575268687523
 20
200.5325470711491
 30
0.0
 11
320.0512815538644
 21
197.5325470711491
 31
0.0
  0
ARC
  5
30F
330
2
100
AcDbEntity
  8
L-SOUZOU
100
AcDbCircle
 10
333.0728362609611
 20
187.0325470711491
 30
0.0
 40
1.5
100
AcDbArc
 50
0.0
 51
89.99999999999998
  0
LINE
  5
310
330
2
100
AcDbEntity
  8
L-ZISSEN
100
AcDbLine
 10
341.6728362609632
 20
216.032547071149
 30
0.0
 11
338.9320210656914
 21
203.2420761598798
 31
0.0
  0
ARC
  5
311
330
2
100
AcDbEntity
  8
L-ZISSEN
100
AcDbCircle
 10
339.9098234797685
 20
203.0325470711491
 30
0.0
 40
1.0
100
AcDbArc
 50
167.9052429229894
 51
270.0
  0
LINE
  5
312
330
2
100
AcDbEntity
  8
L-ZISSEN
100
AcDbLine
 10
380.9768903150147
 20
202.0325470711491
 30
0.0
 11
383.6728362609609
 21
192.5325470711488
 31
0.0
  0
LINE
  5
313
330
2
100
AcDbEntity
  8
L-ZISSEN
100
AcDbLine
 10
351.1823323333919
 20
192.5325470711493
 30
0.0
 11
353.2884316284997
 21
202.0325470711491
 31
0.0
  0
LINE
  5
314
330
2
100
AcDbEntity
  8
L-ZISSEN
100
AcDbLine
 10
374.1728362609614
 20
211.0325470711504
 30
0.0
 11
359.1728362609647
 21
211.0325470711491
 31
0.0
  0
LINE
  5
315
330
2
100
AcDbEntity
  8
L-ZISSEN
100
AcDbLine
 10
377.6728362609631
 20
210.5325470711491
 30
0.0
 11
355.6728362609632
 21
210.5325470711491
 31
0.0
  0
LINE
  5
316
330
2
100
AcDbEntity
  8
L-ZISSEN
100
AcDbLine
 10
376.1728362609632
 20
219.5325470711491
 30
0.0
 11
357.1728362609632
 21
219.5325470711491
 31
0.0
  0
LINE
  5
317
330
2
100
AcDbEntity
  8
L-ZISSEN
100
AcDbLine
 10
359.1728362609647
 20
211.0325470711491
 30
0.0
 11
359.1728362609647
 21
219.5325470711491
 31
0.0
  0
LINE
  5
318
330
2
100
AcDbEntity
  8
L-ZISSEN
100
AcDbLine
 10
354.1728362609612
 20
216.032547071149
 30
0.0
 11
355.6728362609603
 21
211.0325470711482
 31
0.0
  0
LINE
  5
319
330
2
100
AcDbEntity
  8
L-ZISSEN
100
AcDbLine
 10
355.6728362609632
 20
210.5325470711491
 30
0.0
 11
353.6728362609632
 21
216.032547071149
 31
0.0
  0
LINE
  5
31A
330
2
100
AcDbEntity
  8
L-ZISSEN
100
AcDbLine
 10
359.1728362609647
 20
211.0325470711491
 30
0.0
 11
355.4910180791452
 21
211.0325470711491
 31
0.0
  0
LINE
  5
31B
330
2
100
AcDbEntity
  8
L-ZISSEN
100
AcDbLine
 10
374.1728362609604
 20
211.0325470711479
 30
0.0
 11
374.1728362609606
 21
219.5325470711491
 31
0.0
  0
LINE
  5
31C
330
2
100
AcDbEntity
  8
L-ZISSEN
100
AcDbLine
 10
379.1728362609604
 20
216.0325470711488
 30
0.0
 11
377.6728362609613
 21
211.0325470711479
 31
0.0
  0
LINE
  5
31D
330
2
100
AcDbEntity
  8
L-ZISSEN
100
AcDbLine
 10
377.6728362609631
 20
210.5325470711491
 30
0.0
 11
379.6728362609631
 21
216.032547071149
 31
0.0
  0
LINE
  5
31E
330
2
100
AcDbEntity
  8
L-ZISSEN
100
AcDbLine
 10
374.1728362609609
 20
211.0325470711479
 30
0.0
 11
377.8546544427809
 21
211.0325470711479
 31
0.0
  0
LINE
  5
31F
330
2
100
AcDbEntity
  8
L-ZISSEN
100
AcDbLine
 10
397.1728362609614
 20
201.0325470711491
 30
0.0
 11
441.1728362609604
 21
201.0325470711491
 31
0.0
  0
CIRCLE
  5
320
330
2
100
AcDbEntity
  8
L-ZISSEN
100
AcDbCircle
 10
433.1728362609609
 20
215.0325470711491
 30
0.0
 40
8.0
  0
LINE
  5
321
330
2
100
AcDbEntity
  8
L-ZISSEN
100
AcDbLine
 10
397.1728362609609
 20
201.0325470711488
 30
0.0
 11
392.6728362609609
 21
216.0325470711488
 31
0.0
  0
LINE
  5
322
330
2
100
AcDbEntity
  8
L-ZISSEN
100
AcDbLine
 10
391.6728362609632
 20
216.032547071149
 30
0.0
 11
394.4136514562352
 21
203.2420761598798
 31
0.0
  0
ARC
  5
323
330
2
100
AcDbEntity
  8
L-ZISSEN
100
AcDbCircle
 10
393.4358490421576
 20
203.0325470711491
 30
0.0
 40
1.0
100
AcDbArc
 50
270.0
 51
12.09475707701048
  0
LINE
  5
324
330
2
100
AcDbEntity
  8
L-ZISSEN
100
AcDbLine
 10
425.1728362609609
 20
201.0325470711488
 30
0.0
 11
419.7728362609613
 21
219.0325470711477
 31
0.0
  0
LINE
  5
325
330
2
100
AcDbEntity
  8
L-ZISSEN
100
AcDbLine
 10
459.9228362609609
 20
211.0325470711479
 30
0.0
 11
454.6728362609609
 21
192.5325470711488
 31
0.0
  0
CIRCLE
  5
326
330
2
100
AcDbEntity
  8
L-ZISSEN
100
AcDbCircle
 10
449.1728362609609
 20
200.0325470711491
 30
0.0
 40
2.5
  0
LINE
  5
327
330
2
100
AcDbEntity
  8
L-ZISSEN
100
AcDbLine
 10
459.1728362609618
 20
216.0325470711488
 30
0.0
 11
445.6728362609604
 21
216.0325470711488
 31
0.0
  0
LINE
  5
328
330
2
100
AcDbEntity
  8
L-ZISSEN
100
AcDbLine
 10
446.5728362609601
 20
219.0325470711475
 30
0.0
 11
464.1728362609609
 21
219.0325470711477
 31
0.0
  0
LINE
  5
329
330
2
100
AcDbEntity
  8
L-ZISSEN
100
AcDbLine
 10
441.1728362609609
 20
201.0325470711488
 30
0.0
 11
446.5728362609605
 21
219.0325470711475
 31
0.0
  0
LINE
  5
32A
330
2
100
AcDbEntity
  8
L-ZISSEN
100
AcDbLine
 10
459.1728362609614
 20
216.0325470711488
 30
0.0
 11
460.6728362609604
 21
211.0325470711479
 31
0.0
  0
LINE
  5
32B
330
2
100
AcDbEntity
  8
L-ZISSEN
100
AcDbLine
 10
464.1728362609609
 20
211.0325470711479
 30
0.0
 11
459.9228362609614
 21
211.0325470711479
 31
0.0
  0
LINE
  5
32C
330
2
100
AcDbEntity
  8
L-ZISSEN
100
AcDbLine
 10
351.1823323333919
 20
282.532547071149
 30
0.0
 11
277.1633401885317
 21
282.532547071149
 31
0.0
  0
LINE
  5
32D
330
2
100
AcDbEntity
  8
L-TYUSIN
100
AcDbLine
 10
264.1728362609608
 20
237.5325470711491
 30
0.0
 11
364.1728362609608
 21
237.5325470711491
 31
0.0
  0
LINE
  5
32E
330
2
100
AcDbEntity
  8
L-ZISSEN
100
AcDbLine
 10
292.1728362609612
 20
274.5325470711491
 30
0.0
 11
336.1728362609603
 21
274.5325470711491
 31
0.0
  0
LINE
  5
32F
330
2
100
AcDbEntity
  8
L-TYUSIN
100
AcDbLine
 10
259.172836260961
 20
237.5325470711491
 30
0.0
 11
159.172836260961
 21
237.5325470711491
 31
0.0
  0
LINE
  5
330
330
2
100
AcDbEntity
  8
L-ZISSEN
100
AcDbLine
 10
187.1728362609615
 20
274.0325470711491
 30
0.0
 11
231.1728362609605
 21
274.0325470711491
 31
0.0
  0
LINE
  5
331
330
2
100
AcDbEntity
  8
L-ZISSEN
100
AcDbLine
 10
173.672836260961
 20
282.532547071149
 30
0.0
 11
244.672836260961
 21
282.532547071149
 31
0.0
  0
LINE
  5
332
330
2
100
AcDbEntity
  8
L-ZISSEN
100
AcDbLine
 10
169.1728362609605
 20
259.0325470711491
 30
0.0
 11
249.1728362609619
 21
259.0325470711491
 31
0.0
  0
LINE
  5
333
330
2
100
AcDbEntity
  8
L-ZISSEN
100
AcDbLine
 10
164.172836260961
 20
256.0325470711502
 30
0.0
 11
254.1728362609605
 21
256.0325470711504
 31
0.0
  0
CIRCLE
  5
334
330
2
100
AcDbEntity
  8
L-ZISSEN
100
AcDbCircle
 10
179.1728362609609
 20
275.0325470711491
 30
0.0
 40
2.5
  0
LINE
  5
335
330
2
100
AcDbEntity
  8
L-ZISSEN
100
AcDbLine
 10
168.422836260961
 20
264.03254707115
 30
0.0
 11
173.672836260961
 21
282.532547071149
 31
0.0
  0
LINE
  5
336
330
2
100
AcDbEntity
  8
L-ZISSEN
100
AcDbLine
 10
169.1728362609605
 20
259.0325470711491
 30
0.0
 11
167.6728362609614
 21
264.03254707115
 31
0.0
  0
LINE
  5
337
330
2
100
AcDbEntity
  8
L-ZISSEN
100
AcDbLine
 10
164.1728362609615
 20
264.0325470711477
 30
0.0
 11
168.4228362609596
 21
264.0325470711477
 31
0.0
  0
LINE
  5
338
330
2
100
AcDbEntity
  8
L-ZISSEN
100
AcDbLine
 10
187.172836260961
 20
274.0325470711491
 30
0.0
 11
182.672836260961
 21
259.0325470711491
 31
0.0
  0
LINE
  5
339
330
2
100
AcDbEntity
  8
L-ZISSEN
100
AcDbLine
 10
277.1633401885317
 20
282.532547071149
 30
0.0
 11
275.0572408934235
 21
273.0325470711477
 31
0.0
  0
LINE
  5
33A
330
2
100
AcDbEntity
  8
L-ZISSEN
100
AcDbLine
 10
273.6728362609595
 20
273.0325470711477
 30
0.0
 11
273.6728362609595
 21
307.5325470711486
 31
0.0
  0
LINE
  5
33B
330
2
100
AcDbEntity
  8
L-ZISSEN
100
AcDbLine
 10
247.3687822069077
 20
273.0325470711477
 30
0.0
 11
244.672836260961
 21
282.532547071149
 31
0.0
  0
ARC
  5
33C
330
2
100
AcDbEntity
  8
L-ZISSEN
100
AcDbCircle
 10
239.1728362609609
 20
275.0325470711491
 30
0.0
 40
2.5
100
AcDbArc
 50
306.8698976457939
 51
233.130102354206
  0
LINE
  5
33D
330
2
100
AcDbEntity
  8
L-ZISSEN
100
AcDbLine
 10
249.6728362609595
 20
307.5325470711486
 30
0.0
 11
249.6728362609595
 21
273.0325470711477
 31
0.0
  0
LINE
  5
33E
330
2
100
AcDbEntity
  8
L-ZISSEN
100
AcDbLine
 10
292.1728362609608
 20
274.5325470711491
 30
0.0
 11
287.5228362609607
 21
259.0325470711491
 31
0.0
  0
LINE
  5
33F
330
2
100
AcDbEntity
  8
L-ZISSEN
100
AcDbLine
 10
289.6728362609595
 20
273.0325470711477
 30
0.0
 11
233.6728362609595
 21
273.0325470711477
 31
0.0
  0
LINE
  5
340
330
2
100
AcDbEntity
  8
L-ZISSEN
100
AcDbLine
 10
254.1728362609615
 20
264.0325470711477
 30
0.0
 11
269.1728362609572
 21
264.0325470711491
 31
0.0
  0
LINE
  5
341
330
2
100
AcDbEntity
  8
L-ZISSEN
100
AcDbLine
 10
252.1728362609595
 20
255.532547071149
 30
0.0
 11
271.1728362609595
 21
255.532547071149
 31
0.0
  0
LINE
  5
342
330
2
100
AcDbEntity
  8
L-ZISSEN
100
AcDbLine
 10
248.6728362609595
 20
260.0325470711477
 30
0.0
 11
236.6728362609595
 21
260.0325470711477
 31
0.0
  0
LINE
  5
343
330
2
100
AcDbEntity
  8
L-ZISSEN
100
AcDbLine
 10
231.172836260961
 20
274.0325470711491
 30
0.0
 11
235.672836260961
 21
259.0325470711491
 31
0.0
  0
LINE
  5
344
330
2
100
AcDbEntity
  8
L-ZISSEN
100
AcDbLine
 10
236.6728362609595
 20
260.0325470711477
 30
0.0
 11
233.6728362609595
 21
273.0325470711477
 31
0.0
  0
LINE
  5
345
330
2
100
AcDbEntity
  8
L-ZISSEN
100
AcDbLine
 10
254.1728362609615
 20
264.0325470711477
 30
0.0
 11
254.1728362609613
 21
255.5325470711493
 31
0.0
  0
LINE
  5
346
330
2
100
AcDbEntity
  8
L-ZISSEN
100
AcDbLine
 10
254.1728362609603
 20
255.5325470711493
 30
0.0
 11
254.1728362609601
 21
264.0325470711477
 31
0.0
  0
LINE
  5
347
330
2
100
AcDbEntity
  8
L-ZISSEN
100
AcDbLine
 10
248.6728362609595
 20
260.0325470711477
 30
0.0
 11
250.6728362609595
 21
265.0325470711477
 31
0.0
  0
LINE
  5
348
330
2
100
AcDbEntity
  8
L-ZISSEN
100
AcDbLine
 10
249.1728362609614
 20
259.0325470711491
 30
0.0
 11
250.6728362609606
 21
264.03254707115
 31
0.0
  0
LINE
  5
349
330
2
100
AcDbEntity
  8
L-ZISSEN
100
AcDbLine
 10
254.6728362609595
 20
264.0325470711477
 30
0.0
 11
254.6728362609595
 21
265.0325470711477
 31
0.0
  0
LINE
  5
34A
330
2
100
AcDbEntity
  8
L-ZISSEN
100
AcDbLine
 10
254.1728362609605
 20
264.0325470711477
 30
0.0
 11
250.2728362609595
 21
264.0325470711475
 31
0.0
  0
LINE
  5
34B
330
2
100
AcDbEntity
  8
L-ZISSEN
100
AcDbLine
 10
254.6728362609595
 20
265.0325470711477
 30
0.0
 11
250.6728362609595
 21
265.0325470711477
 31
0.0
  0
LINE
  5
34C
330
2
100
AcDbEntity
  8
L-ZISSEN
100
AcDbLine
 10
274.6728362609595
 20
260.0325470711477
 30
0.0
 11
286.6728362609595
 21
260.0325470711477
 31
0.0
  0
LINE
  5
34D
330
2
100
AcDbEntity
  8
L-ZISSEN
100
AcDbLine
 10
274.1728362609603
 20
259.0325470711491
 30
0.0
 11
293.2503603080557
 21
259.0325470711491
 31
0.0
  0
LINE
  5
34E
330
2
100
AcDbEntity
  8
L-ZISSEN
100
AcDbLine
 10
269.1728362609608
 20
256.0325470711502
 30
0.0
 11
290.5561049037249
 21
256.03254707115
 31
0.0
  0
LINE
  5
34F
330
2
100
AcDbEntity
  8
L-ZISSEN
100
AcDbLine
 10
269.1728362609574
 20
255.532547071149
 30
0.0
 11
269.1728362609572
 21
264.0325470711491
 31
0.0
  0
LINE
  5
350
330
2
100
AcDbEntity
  8
L-ZISSEN
100
AcDbLine
 10
274.1728362609603
 20
259.0325470711491
 30
0.0
 11
272.6728362609612
 21
264.03254707115
 31
0.0
  0
LINE
  5
351
330
2
100
AcDbEntity
  8
L-ZISSEN
100
AcDbLine
 10
274.6728362609595
 20
260.0325470711477
 30
0.0
 11
272.6728362609595
 21
265.0325470711477
 31
0.0
  0
LINE
  5
352
330
2
100
AcDbEntity
  8
L-ZISSEN
100
AcDbLine
 10
273.0728362609589
 20
264.0325470711491
 30
0.0
 11
269.1728362609574
 21
264.0325470711491
 31
0.0
  0
LINE
  5
353
330
2
100
AcDbEntity
  8
L-ZISSEN
100
AcDbLine
 10
268.6728362609595
 20
265.0325470711477
 30
0.0
 11
272.6728362609595
 21
265.0325470711477
 31
0.0
  0
LINE
  5
354
330
2
100
AcDbEntity
  8
L-ZISSEN
100
AcDbLine
 10
268.6728362609595
 20
264.0325470711477
 30
0.0
 11
268.6728362609595
 21
265.0325470711477
 31
0.0
  0
LINE
  5
355
330
2
100
AcDbEntity
  8
L-ZISSEN
100
AcDbLine
 10
273.0658570591266
 20
264.0499950757298
 30
0.0
 11
273.0619889296373
 21
264.0325470711491
 31
0.0
  0
LINE
  5
356
330
2
100
AcDbEntity
  8
L-ZISSEN
100
AcDbLine
 10
286.6728362609595
 20
260.0325470711477
 30
0.0
 11
289.6728362609595
 21
273.0325470711477
 31
0.0
  0
LINE
  5
357
330
2
100
AcDbEntity
  8
L-ZISSEN
100
AcDbLine
 10
273.6728362609595
 20
296.5325470711488
 30
0.0
 11
249.6728362609595
 21
296.5325470711488
 31
0.0
  0
LINE
  5
358
330
2
100
AcDbEntity
  8
L-ZISSEN
100
AcDbLine
 10
273.6728362609595
 20
307.5325470711488
 30
0.0
 11
249.6728362609595
 21
307.5325470711488
 31
0.0
  0
LINE
  5
359
330
2
100
AcDbEntity
  8
L-TYUSIN
100
AcDbLine
 10
261.6728362609595
 20
291.5575415382261
 30
0.0
 11
261.6728362609595
 21
312.5075526040716
 31
0.0
  0
ARC
  5
35A
330
2
100
AcDbEntity
  8
L-ZISSEN
100
AcDbCircle
 10
389.1728362609609
 20
275.0325470711491
 30
0.0
 40
2.5
100
AcDbArc
 50
306.8698976457939
 51
233.130102354206
  0
LINE
  5
35B
330
2
100
AcDbEntity
  8
L-ZISSEN
100
AcDbLine
 10
383.6728362609609
 20
282.5325470711488
 30
0.0
 11
454.6728362609609
 21
282.5325470711488
 31
0.0
  0
LINE
  5
35C
330
2
100
AcDbEntity
  8
L-ZISSEN
100
AcDbLine
 10
379.6728362609631
 20
260.0325470711477
 30
0.0
 11
391.6728362609632
 21
260.0325470711477
 31
0.0
  0
LINE
  5
35D
330
2
100
AcDbEntity
  8
L-ZISSEN
100
AcDbLine
 10
374.1728362609609
 20
256.0325470711502
 30
0.0
 11
419.7728362609617
 21
256.0325470711502
 31
0.0
  0
LINE
  5
35E
330
2
100
AcDbEntity
  8
L-ZISSEN
100
AcDbLine
 10
379.1728362609604
 20
259.0325470711491
 30
0.0
 11
420.6728362609614
 21
259.0325470711491
 31
0.0
  0
LINE
  5
35F
330
2
100
AcDbEntity
  8
L-ZISSEN
100
AcDbLine
 10
394.6728362609632
 20
273.0325470711477
 30
0.0
 11
338.6728362609632
 21
273.0325470711477
 31
0.0
  0
LINE
  5
360
330
2
100
AcDbEntity
  8
L-TYUSIN
100
AcDbLine
 10
469.1728362609609
 20
237.5325470711489
 30
0.0
 11
369.1728362609609
 21
237.5325470711489
 31
0.0
  0
LINE
  5
361
330
2
100
AcDbEntity
  8
L-ZISSEN
100
AcDbLine
 10
380.9768903150145
 20
273.0325470711477
 30
0.0
 11
383.6728362609609
 21
282.532547071149
 31
0.0
  0
LINE
  5
362
330
2
100
AcDbEntity
  8
L-ZISSEN
100
AcDbLine
 10
351.1823323333919
 20
282.532547071149
 30
0.0
 11
353.2884316285
 21
273.0325470711477
 31
0.0
  0
LINE
  5
363
330
2
100
AcDbEntity
  8
L-ZISSEN
100
AcDbLine
 10
354.6728362609631
 20
307.5325470711486
 30
0.0
 11
354.6728362609631
 21
273.0325470711477
 31
0.0
  0
LINE
  5
364
330
2
100
AcDbEntity
  8
L-ZISSEN
100
AcDbLine
 10
378.6728362609632
 20
273.0325470711477
 30
0.0
 11
378.6728362609632
 21
307.5325470711486
 31
0.0
  0
LINE
  5
365
330
2
100
AcDbEntity
  8
L-ZISSEN
100
AcDbLine
 10
336.1728362609608
 20
274.5325470711491
 30
0.0
 11
340.8228362609607
 21
259.0325470711491
 31
0.0
  0
LINE
  5
366
330
2
100
AcDbEntity
  8
L-ZISSEN
100
AcDbLine
 10
353.6728362609632
 20
260.0325470711477
 30
0.0
 11
341.6728362609632
 21
260.0325470711477
 31
0.0
  0
LINE
  5
367
330
2
100
AcDbEntity
  8
L-ZISSEN
100
AcDbLine
 10
337.7895676181967
 20
256.0325470711502
 30
0.0
 11
359.1728362609603
 21
256.0325470711504
 31
0.0
  0
LINE
  5
368
330
2
100
AcDbEntity
  8
L-ZISSEN
100
AcDbLine
 10
335.0953122138658
 20
259.0325470711491
 30
0.0
 11
354.1728362609617
 21
259.0325470711491
 31
0.0
  0
LINE
  5
369
330
2
100
AcDbEntity
  8
L-ZISSEN
100
AcDbLine
 10
341.6728362609632
 20
260.0325470711477
 30
0.0
 11
338.6728362609632
 21
273.0325470711477
 31
0.0
  0
LINE
  5
36A
330
2
100
AcDbEntity
  8
L-ZISSEN
100
AcDbLine
 10
374.1728362609614
 20
264.0325470711477
 30
0.0
 11
359.1728362609647
 21
264.0325470711491
 31
0.0
  0
LINE
  5
36B
330
2
100
AcDbEntity
  8
L-ZISSEN
100
AcDbLine
 10
357.1728362609632
 20
255.532547071149
 30
0.0
 11
376.1728362609632
 21
255.532547071149
 31
0.0
  0
LINE
  5
36C
330
2
100
AcDbEntity
  8
L-ZISSEN
100
AcDbLine
 10
359.1728362609647
 20
255.532547071149
 30
0.0
 11
359.1728362609647
 21
264.0325470711491
 31
0.0
  0
LINE
  5
36D
330
2
100
AcDbEntity
  8
L-ZISSEN
100
AcDbLine
 10
353.6728362609632
 20
260.0325470711477
 30
0.0
 11
355.6728362609632
 21
265.0325470711477
 31
0.0
  0
LINE
  5
36E
330
2
100
AcDbEntity
  8
L-ZISSEN
100
AcDbLine
 10
354.1728362609612
 20
259.0325470711491
 30
0.0
 11
355.6728362609603
 21
264.03254707115
 31
0.0
  0
LINE
  5
36F
330
2
100
AcDbEntity
  8
L-ZISSEN
100
AcDbLine
 10
355.2836835922859
 20
264.0325470711491
 30
0.0
 11
359.1728362609647
 21
264.0325470711491
 31
0.0
  0
LINE
  5
370
330
2
100
AcDbEntity
  8
L-ZISSEN
100
AcDbLine
 10
359.6728362609632
 20
265.0325470711477
 30
0.0
 11
355.6728362609632
 21
265.0325470711477
 31
0.0
  0
LINE
  5
371
330
2
100
AcDbEntity
  8
L-ZISSEN
100
AcDbLine
 10
355.2798154627964
 20
264.0499950757309
 30
0.0
 11
355.2836835922861
 21
264.0325470711491
 31
0.0
  0
LINE
  5
372
330
2
100
AcDbEntity
  8
L-ZISSEN
100
AcDbLine
 10
359.6728362609632
 20
264.0325470711477
 30
0.0
 11
359.6728362609632
 21
265.0325470711477
 31
0.0
  0
LINE
  5
373
330
2
100
AcDbEntity
  8
L-ZISSEN
100
AcDbLine
 10
379.1728362609604
 20
259.0325470711488
 30
0.0
 11
377.6728362609613
 21
264.03254707115
 31
0.0
  0
LINE
  5
374
330
2
100
AcDbEntity
  8
L-ZISSEN
100
AcDbLine
 10
374.1728362609616
 20
255.5325470711493
 30
0.0
 11
374.1728362609618
 21
264.0325470711477
 31
0.0
  0
LINE
  5
375
330
2
100
AcDbEntity
  8
L-ZISSEN
100
AcDbLine
 10
379.6728362609631
 20
260.0325470711477
 30
0.0
 11
377.6728362609631
 21
265.0325470711477
 31
0.0
  0
LINE
  5
376
330
2
100
AcDbEntity
  8
L-ZISSEN
100
AcDbLine
 10
374.1728362609614
 20
264.0325470711477
 30
0.0
 11
378.0728362609632
 21
264.0325470711475
 31
0.0
  0
LINE
  5
377
330
2
100
AcDbEntity
  8
L-ZISSEN
100
AcDbLine
 10
373.6728362609632
 20
265.0325470711477
 30
0.0
 11
377.6728362609631
 21
265.0325470711477
 31
0.0
  0
LINE
  5
378
330
2
100
AcDbEntity
  8
L-ZISSEN
100
AcDbLine
 10
373.6728362609632
 20
264.0325470711477
 30
0.0
 11
373.6728362609632
 21
265.0325470711477
 31
0.0
  0
LINE
  5
379
330
2
100
AcDbEntity
  8
L-TYUSIN
100
AcDbLine
 10
366.6728362609591
 20
291.5575415382261
 30
0.0
 11
366.6728362609591
 21
312.5075526040716
 31
0.0
  0
LINE
  5
37A
330
2
100
AcDbEntity
  8
L-ZISSEN
100
AcDbLine
 10
378.6728362609632
 20
296.5325470711488
 30
0.0
 11
354.6728362609631
 21
296.5325470711488
 31
0.0
  0
LINE
  5
37B
330
2
100
AcDbEntity
  8
L-ZISSEN
100
AcDbLine
 10
378.6728362609632
 20
307.5325470711488
 30
0.0
 11
354.6728362609631
 21
307.5325470711488
 31
0.0
  0
CIRCLE
  5
37C
330
2
100
AcDbEntity
  8
L-ZISSEN
100
AcDbCircle
 10
449.1728362609609
 20
275.0325470711491
 30
0.0
 40
2.5
  0
LINE
  5
37D
330
2
100
AcDbEntity
  8
L-ZISSEN
100
AcDbLine
 10
459.9228362609609
 20
264.03254707115
 30
0.0
 11
454.6728362609609
 21
282.532547071149
 31
0.0
  0
LINE
  5
37E
330
2
100
AcDbEntity
  8
L-ZISSEN
100
AcDbLine
 10
397.1728362609614
 20
274.0325470711488
 30
0.0
 11
441.1728362609604
 21
274.0325470711488
 31
0.0
  0
CIRCLE
  5
37F
330
2
100
AcDbEntity
  8
L-ZISSEN
100
AcDbCircle
 10
433.1728362609609
 20
262.0325470711488
 30
0.0
 40
3.267949192431018
  0
CIRCLE
  5
380
330
2
100
AcDbEntity
  8
L-ZISSEN
100
AcDbCircle
 10
433.1728362609609
 20
262.0325470711488
 30
0.0
 40
5.0
  0
CIRCLE
  5
381
330
2
100
AcDbEntity
  8
L-ZISSEN
100
AcDbCircle
 10
419.1728362609609
 20
237.5325470711491
 30
0.0
 40
10.25
  0
CIRCLE
  5
382
330
2
100
AcDbEntity
  8
L-ZISSEN
100
AcDbCircle
 10
419.1728362609609
 20
237.5325470711491
 30
0.0
 40
11.0
  0
CIRCLE
  5
383
330
2
100
AcDbEntity
  8
L-ZISSEN
100
AcDbCircle
 10
419.1728362609609
 20
237.5325470711491
 30
0.0
 40
7.0
  0
LINE
  5
384
330
2
100
AcDbEntity
  8
L-ZISSEN
100
AcDbLine
 10
397.1728362609609
 20
274.0325470711488
 30
0.0
 11
392.6728362609609
 21
259.0325470711491
 31
0.0
  0
LINE
  5
385
330
2
100
AcDbEntity
  8
L-ZISSEN
100
AcDbLine
 10
391.6728362609632
 20
260.0325470711477
 30
0.0
 11
394.6728362609632
 21
273.0325470711477
 31
0.0
  0
LINE
  5
386
330
2
100
AcDbEntity
  8
L-ZISSEN
100
AcDbLine
 10
425.1728362609609
 20
274.0325470711488
 30
0.0
 11
419.7728362609617
 21
256.0325470711502
 31
0.0
  0
LINE
  5
387
330
2
100
AcDbEntity
  8
L-ZISSEN
100
AcDbLine
 10
445.6728362609609
 20
259.0325470711491
 30
0.0
 11
459.1728362609614
 21
259.0325470711491
 31
0.0
  0
LINE
  5
388
330
2
100
AcDbEntity
  8
L-ZISSEN
100
AcDbLine
 10
446.5728362609605
 20
256.0325470711502
 30
0.0
 11
464.1728362609609
 21
256.0325470711502
 31
0.0
  0
LINE
  5
389
330
2
100
AcDbEntity
  8
L-ZISSEN
100
AcDbLine
 10
441.1728362609609
 20
274.0325470711488
 30
0.0
 11
446.5728362609605
 21
256.0325470711502
 31
0.0
  0
LINE
  5
38A
330
2
100
AcDbEntity
  8
L-ZISSEN
100
AcDbLine
 10
459.1728362609614
 20
259.0325470711488
 30
0.0
 11
460.6728362609604
 21
264.03254707115
 31
0.0
  0
LINE
  5
38B
330
2
100
AcDbEntity
  8
L-ZISSEN
100
AcDbLine
 10
464.1728362609605
 20
264.0325470711477
 30
0.0
 11
459.9228362609623
 21
264.0325470711477
 31
0.0
  0
LINE
  5
38C
330
2
100
AcDbEntity
  8
L-TYUSIN
100
AcDbLine
 10
556.476693482844
 20
-286.6396806662901
 30
0.0
 11
556.476693482844
 21
343.3603677856384
 31
0.0
  0
LINE
  5
38D
330
2
100
AcDbEntity
  8
L-ZISSEN
100
AcDbLine
 10
601.4766934828442
 20
24.71878463888606
 30
0.0
 11
601.4766934828442
 21
38.21878463888606
 31
0.0
  0
LINE
  5
38E
330
2
100
AcDbEntity
  8
L-ZISSEN
100
AcDbLine
 10
621.4766934828442
 20
24.71878463888606
 30
0.0
 11
621.4766934828442
 21
38.21878463888606
 31
0.0
  0
LINE
  5
38F
330
2
100
AcDbEntity
  8
L-ZISSEN
100
AcDbLine
 10
751.4766934828442
 20
24.71878463888652
 30
0.0
 11
751.4766934828442
 21
38.21878463888651
 31
0.0
  0
LINE
  5
390
330
2
100
AcDbEntity
  8
L-ZISSEN
100
AcDbLine
 10
771.4766934828442
 20
24.71878463888652
 30
0.0
 11
771.4766934828442
 21
38.21878463888651
 31
0.0
  0
LINE
  5
391
330
2
100
AcDbEntity
  8
L-TYUSIN
100
AcDbLine
 10
556.476693482844
 20
-4.483712273010951
 30
0.0
 11
1026.476693482843
 21
-4.483712273010951
 31
0.0
  0
LINE
  5
392
330
2
100
AcDbEntity
  8
L-ZISSEN
100
AcDbLine
 10
717.8321026024775
 20
-165.964220529609
 30
0.0
 11
717.8321026024773
 21
-168.8509718755572
 31
0.0
  0
POLYLINE
  5
393
330
2
100
AcDbEntity
  8
L-ZISSEN
100
AcDb2dPolyline
 66
     1
 10
0.0
 20
0.0
 30
0.0
 70
     1
  0
VERTEX
  5
5C6
330
393
100
AcDbEntity
  8
L-ZISSEN
100
AcDbVertex
100
AcDb2dVertex
 10
610.2266934828442
 20
-168.1292840390701
 30
0.0
  0
VERTEX
  5
5C7
330
393
100
AcDbEntity
  8
L-ZISSEN
100
AcDbVertex
100
AcDb2dVertex
 10
611.4766934828442
 20
-168.8509718755572
 30
0.0
  0
VERTEX
  5
5C8
330
393
100
AcDbEntity
  8
L-ZISSEN
100
AcDbVertex
100
AcDb2dVertex
 10
612.7266934828441
 20
-168.1292840390701
 30
0.0
  0
VERTEX
  5
5C9
330
393
100
AcDbEntity
  8
L-ZISSEN
100
AcDbVertex
100
AcDb2dVertex
 10
612.7266934828441
 20
-166.6859083660961
 30
0.0
  0
VERTEX
  5
5CA
330
393
100
AcDbEntity
  8
L-ZISSEN
100
AcDbVertex
100
AcDb2dVertex
 10
611.4766934828442
 20
-165.964220529609
 30
0.0
  0
VERTEX
  5
5CB
330
393
100
AcDbEntity
  8
L-ZISSEN
100
AcDbVertex
100
AcDb2dVertex
 10
610.2266934828442
 20
-166.6859083660961
 30
0.0
  0
SEQEND
  5
5CC
330
393
100
AcDbEntity
  8
L-ZISSEN
  0
LINE
  5
394
330
2
100
AcDbEntity
  8
L-ZISSEN
100
AcDbLine
 10
643.0808218925144
 20
-171.257596202583
 30
0.0
 11
643.0808218925144
 21
-158.1575962025822
 31
0.0
  0
LINE
  5
395
330
2
100
AcDbEntity
  8
L-ZISSEN
100
AcDbLine
 10
643.080821892514
 20
-185.2575962025839
 30
0.0
 11
643.0808218925148
 21
-161.9386407863239
 31
0.0
  0
CIRCLE
  5
396
330
2
100
AcDbEntity
  8
L-ZISSEN
100
AcDbCircle
 10
611.4766934828442
 20
-167.4075962025831
 30
0.0
 40
3.75
  0
LINE
  5
397
330
2
100
AcDbEntity
  8
L-ZISSEN
100
AcDbLine
 10
640.7325605443254
 20
-158.1575962025835
 30
0.0
 11
639.0166995423487
 21
-237.4031895335229
 31
0.0
  0
LINE
  5
398
330
2
100
AcDbEntity
  8
L-ZISSEN
100
AcDbLine
 10
620.226693482844
 20
-162.1575962025835
 30
0.0
 11
620.2266934828458
 21
-239.1575962025835
 31
0.0
  0
LINE
  5
399
330
2
100
AcDbEntity
  8
L-ZISSEN
100
AcDbLine
 10
602.7266934828439
 20
-162.1575962025835
 30
0.0
 11
602.7266934828458
 21
-239.1575962025835
 31
0.0
  0
LINE
  5
39A
330
2
100
AcDbEntity
  8
L-ZISSEN
100
AcDbLine
 10
582.2208264213629
 20
-158.1575962025835
 30
0.0
 11
583.9366874233396
 21
-237.4031895335229
 31
0.0
  0
LINE
  5
39B
330
2
100
AcDbEntity
  8
L-ZISSEN
100
AcDbLine
 10
641.8808218925146
 20
-174.2575962025844
 30
0.0
 11
641.8808218925146
 21
-168.4575962025828
 31
0.0
  0
LINE
  5
39C
330
2
100
AcDbEntity
  8
L-ZISSEN
100
AcDbLine
 10
651.0808218925144
 20
-165.0330481063547
 30
0.0
 11
651.0808218925144
 21
-169.3172170889524
 31
0.0
  0
LINE
  5
39D
330
2
100
AcDbEntity
  8
L-ZISSEN
100
AcDbLine
 10
790.7325605443254
 20
-158.1575962025831
 30
0.0
 11
789.0166995423485
 21
-237.4031895335224
 31
0.0
  0
LINE
  5
39E
330
2
100
AcDbEntity
  8
L-ZISSEN
100
AcDbLine
 10
772.4766934828437
 20
-144.9575962025828
 30
0.0
 11
772.4766934828437
 21
-173.7575962025835
 31
0.0
  0
LINE
  5
39F
330
2
100
AcDbEntity
  8
L-ZISSEN
100
AcDbLine
 10
750.4766934828437
 20
-144.9575962025828
 30
0.0
 11
750.4766934828437
 21
-173.7575962025835
 31
0.0
  0
LINE
  5
3A0
330
2
100
AcDbEntity
  8
L-ZISSEN
100
AcDbLine
 10
719.7321026024772
 20
-162.1575962025831
 30
0.0
 11
719.7321026024789
 21
-239.1575962025831
 31
0.0
  0
LINE
  5
3A1
330
2
100
AcDbEntity
  8
L-ZISSEN
 48
0.3
100
AcDbLine
 10
734.3298857979942
 20
-239.1575962025831
 30
0.0
 11
734.3298857979942
 21
-162.1575962025831
 31
0.0
  0
LINE
  5
3A2
330
2
100
AcDbEntity
  8
L-ZISSEN
100
AcDbLine
 10
729.2321026024771
 20
-162.1575962025831
 30
0.0
 11
729.232102602479
 21
-239.1575962025831
 31
0.0
  0
LINE
  5
3A3
330
2
100
AcDbEntity
  8
L-ZISSEN
100
AcDbLine
 10
770.6245952437698
 20
-167.3740833899628
 30
0.0
 11
761.4766934828439
 21
-169.2892514427308
 31
0.0
  0
LINE
  5
3A4
330
2
100
AcDbEntity
  8
L-ZISSEN
100
AcDbLine
 10
761.4766934828439
 20
-171.2575962025825
 30
0.0
 11
772.2738809828422
 21
-168.3783462025826
 31
0.0
  0
LINE
  5
3A5
330
2
100
AcDbEntity
  8
L-ZISSEN
100
AcDbLine
 10
761.4766934828439
 20
-171.2575962025825
 30
0.0
 11
750.679505982842
 21
-168.3783462025826
 31
0.0
  0
LINE
  5
3A6
330
2
100
AcDbEntity
  8
L-ZISSEN
100
AcDbLine
 10
752.3287917219181
 20
-167.3740833899628
 30
0.0
 11
761.4766934828439
 21
-169.2892514427308
 31
0.0
  0
LINE
  5
3A7
330
2
100
AcDbEntity
  8
L-ZISSEN
100
AcDbLine
 10
651.0808218925144
 20
-169.3172170889524
 30
0.0
 11
643.0808218925144
 21
-171.257596202583
 31
0.0
  0
LINE
  5
3A8
330
2
100
AcDbEntity
  8
L-ZISSEN
100
AcDbLine
 10
613.976693482844
 20
-173.6575962025835
 30
0.0
 11
613.976693482844
 21
-227.6575962025836
 31
0.0
  0
LINE
  5
3A9
330
2
100
AcDbEntity
  8
L-ZISSEN
100
AcDbLine
 10
608.9766934828439
 20
-227.6575962025836
 30
0.0
 11
608.9766934828439
 21
-173.6575962025835
 31
0.0
  0
LINE
  5
3AA
330
2
100
AcDbEntity
  8
L-ZISSEN
100
AcDbLine
 10
602.7266934828439
 20
-239.1575962025835
 30
0.0
 11
620.226693482844
 21
-239.157596202584
 31
0.0
  0
ARC
  5
3AB
330
2
100
AcDbEntity
  8
L-ZISSEN
100
AcDbCircle
 10
607.5549871115499
 20
-267.1625388372708
 30
0.0
 40
15.50496374778473
100
AcDbArc
 50
75.34890043484998
 51
104.4621424617041
  0
ARC
  5
3AC
330
2
100
AcDbEntity
  8
L-ZISSEN
100
AcDbCircle
 10
607.555591879362
 20
-239.5214489520653
 30
0.0
 40
15.15026028548078
100
AcDbArc
 50
255.189247992802
 51
284.999709110692
  0
LINE
  5
3AD
330
2
100
AcDbEntity
  8
L-ZISSEN
100
AcDbLine
 10
602.0415262146248
 20
-248.1575962025845
 30
0.0
 11
620.9118607510633
 21
-248.1575962025845
 31
0.0
  0
LINE
  5
3AE
330
2
100
AcDbEntity
  8
L-ZISSEN
100
AcDbLine
 10
602.0415262146252
 20
-251.6575962025845
 30
0.0
 11
620.9118607510633
 21
-251.6575962025845
 31
0.0
  0
ARC
  5
3AF
330
2
100
AcDbEntity
  8
L-ZISSEN
100
AcDbCircle
 10
593.9333478315847
 20
-237.1447699479076
 30
0.0
 40
10.0
100
AcDbArc
 50
181.0000000000278
 51
265.1315559371166
  0
LINE
  5
3B0
330
2
100
AcDbEntity
  8
L-ZISSEN
100
AcDbLine
 10
602.041526214625
 20
-248.1575962025845
 30
0.0
 11
593.0846661510277
 21
-247.1086918366563
 31
0.0
  0
LINE
  5
3B1
330
2
100
AcDbEntity
  8
L-ZISSEN
100
AcDbLine
 10
602.041526214625
 20
-248.1575962025845
 30
0.0
 11
602.0415262146252
 21
-251.6575962025845
 31
0.0
  0
LINE
  5
3B2
330
2
100
AcDbEntity
  8
L-ZISSEN
100
AcDbLine
 10
603.6827734828441
 20
-252.1488829722325
 30
0.0
 11
603.6827734828441
 21
-254.1683484323452
 31
0.0
  0
ARC
  5
3B3
330
2
100
AcDbEntity
  8
L-ZISSEN
100
AcDbCircle
 10
629.0200391341036
 20
-237.1447699479076
 30
0.0
 40
10.0
100
AcDbArc
 50
274.8684440628817
 51
358.9999999999721
  0
LINE
  5
3B4
330
2
100
AcDbEntity
  8
L-ZISSEN
100
AcDbLine
 10
620.9118607510633
 20
-248.1575962025845
 30
0.0
 11
629.8687208146607
 21
-247.1086918366563
 31
0.0
  0
ARC
  5
3B5
330
2
100
AcDbEntity
  8
L-ZISSEN
100
AcDbCircle
 10
615.3977950863272
 20
-239.5214489520653
 30
0.0
 40
15.15026028548078
100
AcDbArc
 50
255.0002908893079
 51
284.8107520071978
  0
LINE
  5
3B6
330
2
100
AcDbEntity
  8
L-ZISSEN
100
AcDbLine
 10
614.5094922610996
 20
-256.5997811127804
 30
0.0
 11
617.0094922610997
 21
-256.5997811127804
 31
0.0
  0
LINE
  5
3B7
330
2
100
AcDbEntity
  8
L-ZISSEN
100
AcDbLine
 10
617.2094922610995
 20
-266.6586157022889
 30
0.0
 11
605.8094922611007
 21
-266.6586157022889
 31
0.0
  0
LINE
  5
3B8
330
2
100
AcDbEntity
  8
L-ZISSEN
100
AcDbLine
 10
606.9414291232056
 20
-254.659255623666
 30
0.0
 11
616.0100529809417
 21
-254.6593327866144
 31
0.0
  0
LINE
  5
3B9
330
2
100
AcDbEntity
  8
L-ZISSEN
100
AcDbLine
 10
615.5094922611033
 20
-256.5997811127804
 30
0.0
 11
615.5094922611033
 21
-266.6586157022889
 31
0.0
  0
LINE
  5
3BA
330
2
100
AcDbEntity
  8
L-ZISSEN
100
AcDbLine
 10
610.509492261101
 20
-256.5997811127804
 30
0.0
 11
610.509492261101
 21
-266.6586157022889
 31
0.0
  0
LINE
  5
3BB
330
2
100
AcDbEntity
  8
L-ZISSEN
100
AcDbLine
 10
611.5094922611024
 20
-256.5997811127804
 30
0.0
 11
611.5094922611024
 21
-266.6586157022889
 31
0.0
  0
LINE
  5
3BC
330
2
100
AcDbEntity
  8
L-ZISSEN
100
AcDbLine
 10
612.5094922611014
 20
-256.5997811127804
 30
0.0
 11
612.5094922611014
 21
-266.6586157022889
 31
0.0
  0
LINE
  5
3BD
330
2
100
AcDbEntity
  8
L-ZISSEN
100
AcDbLine
 10
613.5094922611005
 20
-256.5997811127804
 30
0.0
 11
613.5094922611005
 21
-266.6586157022889
 31
0.0
  0
LINE
  5
3BE
330
2
100
AcDbEntity
  8
L-ZISSEN
100
AcDbLine
 10
614.5094922610996
 20
-256.5997811127804
 30
0.0
 11
614.5094922610996
 21
-266.6586157022889
 31
0.0
  0
LINE
  5
3BF
330
2
100
AcDbEntity
  8
L-ZISSEN
100
AcDbLine
 10
605.5094922611011
 20
-266.3586157022887
 30
0.0
 11
605.5094922611011
 21
-257.0997811127804
 31
0.0
  0
LINE
  5
3C0
330
2
100
AcDbEntity
  8
L-ZISSEN
100
AcDbLine
 10
606.5094922611002
 20
-256.5997811127804
 30
0.0
 11
606.5094922611002
 21
-266.6586157022889
 31
0.0
  0
LINE
  5
3C1
330
2
100
AcDbEntity
  8
L-ZISSEN
100
AcDbLine
 10
605.8094922611007
 20
-266.6586157022889
 30
0.0
 11
605.5094922611011
 21
-266.3586157022887
 31
0.0
  0
LINE
  5
3C2
330
2
100
AcDbEntity
  8
L-ZISSEN
100
AcDbLine
 10
606.5094922610983
 20
-256.5997811127804
 30
0.0
 11
606.0094922611011
 21
-256.0997811127804
 31
0.0
  0
LINE
  5
3C3
330
2
100
AcDbEntity
  8
L-ZISSEN
100
AcDbLine
 10
606.0094922610983
 20
-256.5997811127804
 30
0.0
 11
605.5094922611011
 21
-257.0997811127804
 31
0.0
  0
LINE
  5
3C4
330
2
100
AcDbEntity
  8
L-ZISSEN
100
AcDbLine
 10
609.509492261102
 20
-256.5997811127804
 30
0.0
 11
609.509492261102
 21
-266.6586157022889
 31
0.0
  0
LINE
  5
3C5
330
2
100
AcDbEntity
  8
L-ZISSEN
100
AcDbLine
 10
607.5094922610992
 20
-256.5997811127804
 30
0.0
 11
607.5094922610992
 21
-266.6586157022889
 31
0.0
  0
LINE
  5
3C6
330
2
100
AcDbEntity
  8
L-ZISSEN
100
AcDbLine
 10
608.5094922611006
 20
-256.5997811127804
 30
0.0
 11
608.5094922611006
 21
-266.6586157022889
 31
0.0
  0
LINE
  5
3C7
330
2
100
AcDbEntity
  8
L-ZISSEN
100
AcDbLine
 10
606.5094922611024
 20
-254.659312313417
 30
0.0
 11
606.5094922610983
 21
-256.5997811127804
 31
0.0
  0
LINE
  5
3C8
330
2
100
AcDbEntity
  8
L-ZISSEN
100
AcDbLine
 10
606.0094922611011
 20
-256.0997811127804
 30
0.0
 11
606.0094922611011
 21
-254.6586157022888
 31
0.0
  0
LINE
  5
3C9
330
2
100
AcDbEntity
  8
L-ZISSEN
100
AcDbLine
 10
606.0094922610983
 20
-256.5997811127804
 30
0.0
 11
614.5094922610996
 21
-256.5997811127804
 31
0.0
  0
LINE
  5
3CA
330
2
100
AcDbEntity
  8
L-ZISSEN
100
AcDbLine
 10
616.5094922611024
 20
-256.5997811127804
 30
0.0
 11
616.5094922611045
 21
-266.6586157022889
 31
0.0
  0
LINE
  5
3CB
330
2
100
AcDbEntity
  8
L-ZISSEN
100
AcDbLine
 10
617.5094922610992
 20
-257.0997811127804
 30
0.0
 11
617.5094922610992
 21
-266.3586157022887
 31
0.0
  0
LINE
  5
3CC
330
2
100
AcDbEntity
  8
L-ZISSEN
100
AcDbLine
 10
617.2094922610995
 20
-266.6586157022889
 30
0.0
 11
617.5094922610992
 21
-266.3586157022887
 31
0.0
  0
LINE
  5
3CD
330
2
100
AcDbEntity
  8
L-ZISSEN
100
AcDbLine
 10
616.5094922610997
 20
-256.5997811127804
 30
0.0
 11
617.0094922610992
 21
-256.0997811127804
 31
0.0
  0
LINE
  5
3CE
330
2
100
AcDbEntity
  8
L-ZISSEN
100
AcDbLine
 10
617.0094922610997
 20
-256.5997811127804
 30
0.0
 11
617.5094922610992
 21
-257.0997811127804
 31
0.0
  0
LINE
  5
3CF
330
2
100
AcDbEntity
  8
L-ZISSEN
100
AcDbLine
 10
616.5094922611038
 20
-254.6599619647108
 30
0.0
 11
616.5094922610997
 21
-256.5997811127804
 31
0.0
  0
LINE
  5
3D0
330
2
100
AcDbEntity
  8
L-ZISSEN
100
AcDbLine
 10
617.0094922610992
 20
-256.0997811127799
 30
0.0
 11
617.0094922610992
 21
-254.6586157022888
 31
0.0
  0
ARC
  5
3D1
330
2
100
AcDbEntity
  8
L-ZISSEN
100
AcDbCircle
 10
615.3983998541393
 20
-267.1625388372708
 30
0.0
 40
15.50496374778473
100
AcDbArc
 50
75.53785753829584
 51
104.65109956515
  0
LINE
  5
3D2
330
2
100
AcDbEntity
  8
L-ZISSEN
100
AcDbLine
 10
611.4766934828447
 20
-252.1617348602349
 30
0.0
 11
611.4766934828447
 21
-254.1565587728628
 31
0.0
  0
LINE
  5
3D3
330
2
100
AcDbEntity
  8
L-ZISSEN
100
AcDbLine
 10
611.4766934828447
 20
-252.1617348602349
 30
0.0
 11
611.4766934828447
 21
-254.1565587728628
 31
0.0
  0
LINE
  5
3D4
330
2
100
AcDbEntity
  8
L-ZISSEN
100
AcDbLine
 10
611.4766934828447
 20
-252.1617348602349
 30
0.0
 11
611.4766934828447
 21
-254.1565587728628
 31
0.0
  0
LINE
  5
3D5
330
2
100
AcDbEntity
  8
L-ZISSEN
100
AcDbLine
 10
611.4766934828447
 20
-252.1617348602349
 30
0.0
 11
611.4766934828447
 21
-254.1565587728628
 31
0.0
  0
LINE
  5
3D6
330
2
100
AcDbEntity
  8
L-ZISSEN
100
AcDbLine
 10
620.9118607510633
 20
-248.1575962025845
 30
0.0
 11
620.9118607510632
 21
-251.6575962025845
 31
0.0
  0
LINE
  5
3D7
330
2
100
AcDbEntity
  8
L-ZISSEN
100
AcDbLine
 10
619.2706134828451
 20
-252.1488829722325
 30
0.0
 11
619.2706134828451
 21
-254.1683484323452
 31
0.0
  0
LINE
  5
3D8
330
2
100
AcDbEntity
  8
L-TYUSIN
100
AcDbLine
 10
617.7266934828442
 20
-233.907596202584
 30
0.0
 11
605.2266934828442
 21
-233.907596202584
 31
0.0
  0
POLYLINE
  5
3D9
330
2
100
AcDbEntity
  8
L-ZISSEN
100
AcDb2dPolyline
 66
     1
 10
0.0
 20
0.0
 30
0.0
 70
     1
  0
VERTEX
  5
5CD
330
3D9
100
AcDbEntity
  8
L-ZISSEN
100
AcDbVertex
100
AcDb2dVertex
 10
610.2266934828442
 20
-233.185908366097
 30
0.0
  0
VERTEX
  5
5CE
330
3D9
100
AcDbEntity
  8
L-ZISSEN
100
AcDbVertex
100
AcDb2dVertex
 10
611.4766934828442
 20
-232.4642205296099
 30
0.0
  0
VERTEX
  5
5CF
330
3D9
100
AcDbEntity
  8
L-ZISSEN
100
AcDbVertex
100
AcDb2dVertex
 10
612.7266934828441
 20
-233.185908366097
 30
0.0
  0
VERTEX
  5
5D0
330
3D9
100
AcDbEntity
  8
L-ZISSEN
100
AcDbVertex
100
AcDb2dVertex
 10
612.7266934828441
 20
-234.629284039071
 30
0.0
  0
VERTEX
  5
5D1
330
3D9
100
AcDbEntity
  8
L-ZISSEN
100
AcDbVertex
100
AcDb2dVertex
 10
611.4766934828442
 20
-235.3509718755581
 30
0.0
  0
VERTEX
  5
5D2
330
3D9
100
AcDbEntity
  8
L-ZISSEN
100
AcDbVertex
100
AcDb2dVertex
 10
610.2266934828442
 20
-234.629284039071
 30
0.0
  0
SEQEND
  5
5D3
330
3D9
100
AcDbEntity
  8
L-ZISSEN
  0
CIRCLE
  5
3DA
330
2
100
AcDbEntity
  8
L-ZISSEN
100
AcDbCircle
 10
611.4766934828442
 20
-233.907596202584
 30
0.0
 40
3.75
  0
LINE
  5
3DB
330
2
100
AcDbEntity
  8
L-ZISSEN
100
AcDbLine
 10
613.976693482844
 20
-227.6575962025836
 30
0.0
 11
608.9766934828439
 21
-227.6575962025836
 31
0.0
  0
LINE
  5
3DC
330
2
100
AcDbEntity
  8
L-ZISSEN
100
AcDbLine
 10
608.9766934828439
 20
-173.6575962025835
 30
0.0
 11
613.976693482844
 21
-173.6575962025835
 31
0.0
  0
LINE
  5
3DD
330
2
100
AcDbEntity
  8
L-ZISSEN
100
AcDbLine
 10
640.0808218925139
 20
-188.257596202583
 30
0.0
 11
643.080821892514
 21
-185.2575962025839
 31
0.0
  0
LINE
  5
3DE
330
2
100
AcDbEntity
  8
L-ZISSEN
100
AcDbLine
 10
643.0808218925144
 20
-176.757596202583
 30
0.0
 11
643.5808218925144
 21
-176.757596202583
 31
0.0
  0
LINE
  5
3DF
330
2
100
AcDbEntity
  8
L-ZISSEN
100
AcDbLine
 10
643.0808218925144
 20
-180.757596202583
 30
0.0
 11
643.5808218925144
 21
-180.757596202583
 31
0.0
  0
ARC
  5
3E0
330
2
100
AcDbEntity
  8
L-ZISSEN
100
AcDbCircle
 10
642.3126400743321
 20
-178.757596202583
 30
0.0
 40
2.368181818181991
100
AcDbArc
 50
302.3784125140453
 51
57.62158748595464
  0
LINE
  5
3E1
330
2
100
AcDbEntity
  8
L-ZISSEN
100
AcDbLine
 10
640.3839561491704
 20
-174.2575962025844
 30
0.0
 11
643.0808218925148
 21
-174.2575962025844
 31
0.0
  0
LINE
  5
3E2
330
2
100
AcDbEntity
  8
L-ZISSEN
 48
0.3
100
AcDbLine
 10
733.029885797994
 20
-239.1575962025831
 30
0.0
 11
734.3298857979942
 21
-239.1575962025831
 31
0.0
  0
ARC
  5
3E3
330
2
100
AcDbEntity
  8
L-ZISSEN
100
AcDbCircle
 10
743.9333478315846
 20
-237.1447699479072
 30
0.0
 40
10.0
100
AcDbArc
 50
191.6119735011068
 51
265.1315559371166
  0
LINE
  5
3E4
330
2
100
AcDbEntity
  8
L-TYUSIN
100
AcDbLine
 10
735.8729783116939
 20
-234.1575962025831
 30
0.0
 11
712.8321026024775
 21
-234.1575962025831
 31
0.0
  0
ARC
  5
3E5
330
2
100
AcDbEntity
  8
L-ZISSEN
100
AcDbCircle
 10
720.1441051702548
 20
-232.4328096867661
 30
0.0
 40
2.312215931624567
100
AcDbArc
 50
100.2640683722056
 51
180.7783719766075
  0
LINE
  5
3E6
330
2
100
AcDbEntity
  8
L-ZISSEN
100
AcDbLine
 10
719.7321026024772
 20
-239.1575962025831
 30
0.0
 11
729.2321026024771
 21
-239.1575962025835
 31
0.0
  0
LINE
  5
3E7
330
2
100
AcDbEntity
  8
L-ZISSEN
100
AcDbLine
 10
717.8321026024775
 20
-235.3509718755576
 30
0.0
 11
717.8321026024773
 21
-232.4642205296099
 31
0.0
  0
ARC
  5
3E8
330
2
100
AcDbEntity
  8
L-ZISSEN
100
AcDbCircle
 10
720.1441051702548
 20
-235.3823827184019
 30
0.0
 40
2.312215931624567
100
AcDbArc
 50
179.2216280233924
 51
259.7359316277934
  0
LINE
  5
3E9
330
2
100
AcDbEntity
  8
L-ZISSEN
100
AcDbLine
 10
729.232102602479
 20
-239.1575962025831
 30
0.0
 11
733.029885797994
 21
-239.1575962025831
 31
0.0
  0
ARC
  5
3EA
330
2
100
AcDbEntity
  8
L-ZISSEN
100
AcDbCircle
 10
720.1441051702548
 20
-168.882382718401
 30
0.0
 40
2.312215931624567
100
AcDbArc
 50
179.2216280233924
 51
259.7359316277934
  0
LINE
  5
3EB
330
2
100
AcDbEntity
  8
L-ZISSEN
100
AcDbLine
 10
770.9118607510633
 20
-248.157596202584
 30
0.0
 11
779.8687208146609
 21
-247.1086918366558
 31
0.0
  0
ARC
  5
3EC
330
2
100
AcDbEntity
  8
L-ZISSEN
100
AcDbCircle
 10
754.7311766445955
 20
-249.3879066467375
 30
0.0
 40
5.271330170370607
100
AcDbArc
 50
245.0771192748288
 51
295.25233899665
  0
ARC
  5
3ED
330
2
100
AcDbEntity
  8
L-ZISSEN
100
AcDbCircle
 10
754.7311766445955
 20
-256.9293247578398
 30
0.0
 40
5.271330170370607
100
AcDbArc
 50
64.74766100340899
 51
114.9228807251711
  0
LINE
  5
3EE
330
2
100
AcDbEntity
  8
L-ZISSEN
100
AcDbLine
 10
752.0415262146259
 20
-248.157596202584
 30
0.0
 11
770.9118607510633
 21
-248.157596202584
 31
0.0
  0
LINE
  5
3EF
330
2
100
AcDbEntity
  8
L-ZISSEN
100
AcDbLine
 10
752.0415262146264
 20
-251.657596202584
 30
0.0
 11
770.9118607510633
 21
-251.657596202584
 31
0.0
  0
LINE
  5
3F0
330
2
100
AcDbEntity
  8
L-ZISSEN
100
AcDbLine
 10
754.7311766445955
 20
-254.6592368171082
 30
0.0
 11
768.2222103210938
 21
-254.6600335868797
 31
0.0
  0
LINE
  5
3F1
330
2
100
AcDbEntity
  8
L-ZISSEN
100
AcDbLine
 10
754.7311766445955
 20
-251.65799458747
 30
0.0
 11
768.2222103210938
 21
-251.6571978176985
 31
0.0
  0
LINE
  5
3F2
330
2
100
AcDbEntity
  8
L-ZISSEN
100
AcDbLine
 10
752.041526214625
 20
-248.157596202584
 30
0.0
 11
743.0846661510274
 21
-247.1086918366558
 31
0.0
  0
LINE
  5
3F3
330
2
100
AcDbEntity
  8
L-ZISSEN
100
AcDbLine
 10
752.0415262146259
 20
-248.157596202584
 30
0.0
 11
752.0415262146264
 21
-251.657596202584
 31
0.0
  0
LINE
  5
3F4
330
2
100
AcDbEntity
  8
L-ZISSEN
100
AcDbLine
 10
752.509848641016
 20
-252.148882972232
 30
0.0
 11
752.509848641016
 21
-254.1683484323448
 31
0.0
  0
ARC
  5
3F5
330
2
100
AcDbEntity
  8
L-ZISSEN
100
AcDbCircle
 10
768.2222103210938
 20
-249.3887034165081
 30
0.0
 40
5.271330170371532
100
AcDbArc
 50
244.740893316577
 51
295.711645114866
  0
ARC
  5
3F6
330
2
100
AcDbEntity
  8
L-ZISSEN
100
AcDbCircle
 10
761.5094922611001
 20
-234.0175530283713
 30
0.0
 40
20.64106267391694
100
AcDbArc
 50
257.3236813122694
 51
282.4944195184274
  0
LINE
  5
3F7
330
2
100
AcDbEntity
  8
L-ZISSEN
100
AcDbLine
 10
764.5094922610996
 20
-256.5997811127799
 30
0.0
 11
767.0094922610997
 21
-256.5997811127799
 31
0.0
  0
LINE
  5
3F8
330
2
100
AcDbEntity
  8
L-ZISSEN
100
AcDbLine
 10
767.2094922610995
 20
-266.6586157022884
 30
0.0
 11
755.8094922611007
 21
-266.6586157022884
 31
0.0
  0
LINE
  5
3F9
330
2
100
AcDbEntity
  8
L-ZISSEN
100
AcDbLine
 10
758.5094922611006
 20
-256.5997811127799
 30
0.0
 11
758.5094922611008
 21
-266.6586157022884
 31
0.0
  0
LINE
  5
3FA
330
2
100
AcDbEntity
  8
L-ZISSEN
100
AcDbLine
 10
759.509492261102
 20
-256.5997811127799
 30
0.0
 11
759.5094922611021
 21
-266.6586157022884
 31
0.0
  0
LINE
  5
3FB
330
2
100
AcDbEntity
  8
L-ZISSEN
100
AcDbLine
 10
760.509492261101
 20
-256.5997811127799
 30
0.0
 11
760.5094922611012
 21
-266.6586157022884
 31
0.0
  0
LINE
  5
3FC
330
2
100
AcDbEntity
  8
L-ZISSEN
100
AcDbLine
 10
764.5094922610996
 20
-256.5997811127799
 30
0.0
 11
764.5094922610996
 21
-266.6586157022884
 31
0.0
  0
LINE
  5
3FD
330
2
100
AcDbEntity
  8
L-ZISSEN
100
AcDbLine
 10
765.5094922611033
 20
-256.5997811127799
 30
0.0
 11
765.5094922611035
 21
-266.6586157022884
 31
0.0
  0
LINE
  5
3FE
330
2
100
AcDbEntity
  8
L-ZISSEN
100
AcDbLine
 10
761.5094922611024
 20
-256.5997811127799
 30
0.0
 11
761.5094922611026
 21
-266.6586157022884
 31
0.0
  0
LINE
  5
3FF
330
2
100
AcDbEntity
  8
L-ZISSEN
100
AcDbLine
 10
762.5094922611014
 20
-256.5997811127799
 30
0.0
 11
762.5094922611017
 21
-266.6586157022884
 31
0.0
  0
LINE
  5
400
330
2
100
AcDbEntity
  8
L-ZISSEN
100
AcDbLine
 10
763.5094922611005
 20
-256.5997811127799
 30
0.0
 11
763.5094922611008
 21
-266.6586157022884
 31
0.0
  0
LINE
  5
401
330
2
100
AcDbEntity
  8
L-ZISSEN
100
AcDbLine
 10
755.5094922611008
 20
-266.3586157022887
 30
0.0
 11
755.5094922611011
 21
-257.0997811127799
 31
0.0
  0
LINE
  5
402
330
2
100
AcDbEntity
  8
L-ZISSEN
100
AcDbLine
 10
756.5094922611002
 20
-256.5997811127799
 30
0.0
 11
756.5094922611003
 21
-266.6586157022884
 31
0.0
  0
LINE
  5
403
330
2
100
AcDbEntity
  8
L-ZISSEN
100
AcDbLine
 10
757.5094922610992
 20
-256.5997811127799
 30
0.0
 11
757.5094922610992
 21
-266.6586157022884
 31
0.0
  0
LINE
  5
404
330
2
100
AcDbEntity
  8
L-ZISSEN
100
AcDbLine
 10
755.8094922611007
 20
-266.6586157022884
 30
0.0
 11
755.5094922611011
 21
-266.3586157022887
 31
0.0
  0
LINE
  5
405
330
2
100
AcDbEntity
  8
L-ZISSEN
100
AcDbLine
 10
756.5094922610983
 20
-256.5997811127799
 30
0.0
 11
756.0094922611011
 21
-256.0997811127799
 31
0.0
  0
LINE
  5
406
330
2
100
AcDbEntity
  8
L-ZISSEN
100
AcDbLine
 10
756.0094922610983
 20
-256.5997811127799
 30
0.0
 11
755.5094922611011
 21
-257.0997811127799
 31
0.0
  0
LINE
  5
407
330
2
100
AcDbEntity
  8
L-ZISSEN
100
AcDbLine
 10
756.0094922611011
 20
-256.0997811127799
 30
0.0
 11
756.0094922611011
 21
-254.6586157022884
 31
0.0
  0
LINE
  5
408
330
2
100
AcDbEntity
  8
L-ZISSEN
100
AcDbLine
 10
756.5094922611026
 20
-254.6593123134166
 30
0.0
 11
756.5094922610983
 21
-256.5997811127799
 31
0.0
  0
LINE
  5
409
330
2
100
AcDbEntity
  8
L-ZISSEN
100
AcDbLine
 10
756.0094922610983
 20
-256.5997811127799
 30
0.0
 11
764.5094922610996
 21
-256.5997811127799
 31
0.0
  0
LINE
  5
40A
330
2
100
AcDbEntity
  8
L-ZISSEN
100
AcDbLine
 10
766.5094922611024
 20
-256.5997811127799
 30
0.0
 11
766.5094922611045
 21
-266.6586157022884
 31
0.0
  0
LINE
  5
40B
330
2
100
AcDbEntity
  8
L-ZISSEN
100
AcDbLine
 10
767.5094922610992
 20
-257.0997811127799
 30
0.0
 11
767.5094922610992
 21
-266.3586157022887
 31
0.0
  0
LINE
  5
40C
330
2
100
AcDbEntity
  8
L-ZISSEN
100
AcDbLine
 10
767.2094922610995
 20
-266.6586157022884
 30
0.0
 11
767.5094922610992
 21
-266.3586157022887
 31
0.0
  0
LINE
  5
40D
330
2
100
AcDbEntity
  8
L-ZISSEN
100
AcDbLine
 10
767.0094922610997
 20
-256.5997811127799
 30
0.0
 11
767.5094922610992
 21
-257.0997811127799
 31
0.0
  0
LINE
  5
40E
330
2
100
AcDbEntity
  8
L-ZISSEN
100
AcDbLine
 10
766.5094922610997
 20
-256.5997811127799
 30
0.0
 11
767.0094922610992
 21
-256.0997811127799
 31
0.0
  0
LINE
  5
40F
330
2
100
AcDbEntity
  8
L-ZISSEN
100
AcDbLine
 10
767.0094922610994
 20
-256.0997811127795
 30
0.0
 11
767.0094922610992
 21
-254.6586157022884
 31
0.0
  0
LINE
  5
410
330
2
100
AcDbEntity
  8
L-ZISSEN
100
AcDbLine
 10
766.5094922611039
 20
-254.6599619647108
 30
0.0
 11
766.5094922610997
 21
-256.5997811127799
 31
0.0
  0
ARC
  5
411
330
2
100
AcDbEntity
  8
L-ZISSEN
100
AcDbCircle
 10
768.2222103210938
 20
-256.9285279880691
 30
0.0
 40
5.271330170371789
100
AcDbArc
 50
64.28835488513391
 51
115.259106683423
  0
LINE
  5
412
330
2
100
AcDbEntity
  8
L-ZISSEN
100
AcDbLine
 10
765.9728678981173
 20
-252.1612037459749
 30
0.0
 11
765.9728678981173
 21
-254.1560276586028
 31
0.0
  0
LINE
  5
413
330
2
100
AcDbEntity
  8
L-ZISSEN
100
AcDbLine
 10
756.9799559430816
 20
-252.1617348602376
 30
0.0
 11
756.9799559430885
 21
-254.1554965443406
 31
0.0
  0
ARC
  5
414
330
2
100
AcDbEntity
  8
L-ZISSEN
100
AcDbCircle
 10
761.5094922611001
 20
-272.2996783762055
 30
0.0
 40
20.64106267391679
100
AcDbArc
 50
77.50558048157261
 51
102.6763186877408
  0
LINE
  5
415
330
2
100
AcDbEntity
  8
L-ZISSEN
100
AcDbLine
 10
770.9118607510633
 20
-248.157596202584
 30
0.0
 11
770.9118607510629
 21
-251.657596202584
 31
0.0
  0
LINE
  5
416
330
2
100
AcDbEntity
  8
L-ZISSEN
100
AcDbLine
 10
770.5091358811865
 20
-252.1791182091942
 30
0.0
 11
770.5091358811865
 21
-254.1381131953821
 31
0.0
  0
ARC
  5
417
330
2
100
AcDbEntity
  8
L-ZISSEN
100
AcDbCircle
 10
779.0200391341039
 20
-237.1447699479072
 30
0.0
 40
10.0
100
AcDbArc
 50
274.8684440628817
 51
358.9999999999721
  0
LINE
  5
418
330
2
100
AcDbEntity
  8
L-ZISSEN
100
AcDbLine
 10
751.4766934828437
 20
-188.2575962025826
 30
0.0
 11
771.4766934828437
 21
-188.2575962025826
 31
0.0
  0
LINE
  5
419
330
2
100
AcDbEntity
  8
L-ZISSEN
100
AcDbLine
 10
751.8766934828443
 20
-185.2575962025835
 30
0.0
 11
771.0766934828441
 21
-185.2575962025835
 31
0.0
  0
LINE
  5
41A
330
2
100
AcDbEntity
  8
L-TYUSIN
100
AcDbLine
 10
753.8766934828442
 20
-178.7575962025826
 30
0.0
 11
769.0766934828441
 21
-178.7575962025826
 31
0.0
  0
LINE
  5
41B
330
2
100
AcDbEntity
  8
L-ZISSEN
100
AcDbLine
 10
753.8766934828442
 20
-182.2575962025825
 30
0.0
 11
769.0766934828441
 21
-182.2575962025825
 31
0.0
  0
LINE
  5
41C
330
2
100
AcDbEntity
  8
L-ZISSEN
100
AcDbLine
 10
753.8766934828442
 20
-183.2575962025826
 30
0.0
 11
769.0766934828441
 21
-183.2575962025826
 31
0.0
  0
CIRCLE
  5
41D
330
2
100
AcDbEntity
  8
L-ZISSEN
100
AcDbCircle
 10
757.2266934828437
 20
-178.7575962025826
 30
0.0
 40
2.0
  0
LINE
  5
41E
330
2
100
AcDbEntity
  8
L-ZISSEN
100
AcDbLine
 10
751.4766934828437
 20
-174.2575962025825
 30
0.0
 11
751.4766934828437
 21
-188.2575962025826
 31
0.0
  0
LINE
  5
41F
330
2
100
AcDbEntity
  8
L-ZISSEN
100
AcDbLine
 10
753.8766934828438
 20
-169.2309295359168
 30
0.0
 11
753.8766934828442
 21
-183.2575962025826
 31
0.0
  0
LINE
  5
420
330
2
100
AcDbEntity
  8
L-ZISSEN
100
AcDbLine
 10
751.8766934828434
 20
-174.2575962025825
 30
0.0
 11
751.8766934828443
 21
-185.2575962025825
 31
0.0
  0
LINE
  5
421
330
2
100
AcDbEntity
  8
L-ZISSEN
100
AcDbLine
 10
751.8766934828443
 20
-185.2575962025825
 30
0.0
 11
751.4766934828437
 21
-188.2575962025826
 31
0.0
  0
LINE
  5
422
330
2
100
AcDbEntity
  8
L-ZISSEN
100
AcDbLine
 10
750.9766934828437
 20
-174.2575962025834
 30
0.0
 11
753.8766934828438
 21
-174.2575962025839
 31
0.0
  0
ARC
  5
423
330
2
100
AcDbEntity
  8
L-ZISSEN
100
AcDbCircle
 10
750.9766934828437
 20
-173.7575962025835
 30
0.0
 40
0.5
100
AcDbArc
 50
180.0
 51
270.0
  0
LINE
  5
424
330
2
100
AcDbEntity
  8
L-TYUSIN
100
AcDbLine
 10
765.7266934828446
 20
-175.5075962025825
 30
0.0
 11
765.7266934828446
 21
-182.0075962025826
 31
0.0
  0
LINE
  5
425
330
2
100
AcDbEntity
  8
L-ZISSEN
100
AcDbLine
 10
769.0766934828441
 20
-169.2309295359159
 30
0.0
 11
769.0766934828441
 21
-183.2575962025826
 31
0.0
  0
LINE
  5
426
330
2
100
AcDbEntity
  8
L-ZISSEN
100
AcDbLine
 10
771.4766934828446
 20
-174.2575962025825
 30
0.0
 11
771.4766934828446
 21
-188.2575962025826
 31
0.0
  0
LINE
  5
427
330
2
100
AcDbEntity
  8
L-ZISSEN
100
AcDbLine
 10
771.0766934828441
 20
-174.2575962025825
 30
0.0
 11
771.0766934828441
 21
-185.2575962025835
 31
0.0
  0
LINE
  5
428
330
2
100
AcDbEntity
  8
L-TYUSIN
100
AcDbLine
 10
757.2266934828437
 20
-175.5075962025825
 30
0.0
 11
757.2266934828437
 21
-182.0075962025826
 31
0.0
  0
LINE
  5
429
330
2
100
AcDbEntity
  8
L-ZISSEN
100
AcDbLine
 10
771.0766934828441
 20
-185.2575962025835
 30
0.0
 11
771.4766934828446
 21
-188.2575962025826
 31
0.0
  0
CIRCLE
  5
42A
330
2
100
AcDbEntity
  8
L-ZISSEN
100
AcDbCircle
 10
765.7266934828446
 20
-178.7575962025826
 30
0.0
 40
2.0
  0
ARC
  5
42B
330
2
100
AcDbEntity
  8
L-ZISSEN
100
AcDbCircle
 10
761.4766934828442
 20
-173.0075962025825
 30
0.0
 40
1.25
100
AcDbArc
 50
180.0
 51
0.0
  0
LINE
  5
42C
330
2
100
AcDbEntity
  8
L-ZISSEN
100
AcDbLine
 10
760.2266934828442
 20
-173.0075962025825
 30
0.0
 11
760.2266934828442
 21
-170.9242628692495
 31
0.0
  0
LINE
  5
42D
330
2
100
AcDbEntity
  8
L-ZISSEN
100
AcDbLine
 10
762.7266934828441
 20
-173.0075962025825
 30
0.0
 11
762.7266934828441
 21
-170.9242628692495
 31
0.0
  0
LINE
  5
42E
330
2
100
AcDbEntity
  8
L-ZISSEN
100
AcDbLine
 10
769.0766934828441
 20
-174.2575962025839
 30
0.0
 11
771.9766934828437
 21
-174.2575962025834
 31
0.0
  0
ARC
  5
42F
330
2
100
AcDbEntity
  8
L-ZISSEN
100
AcDbCircle
 10
771.9766934828437
 20
-173.7575962025835
 30
0.0
 40
0.5
100
AcDbArc
 50
270.0
 51
0.0
  0
LINE
  5
430
330
2
100
AcDbEntity
  8
L-ZISSEN
100
AcDbLine
 10
645.2808218925147
 20
-164.4222497139794
 30
0.0
 11
651.0808218925144
 21
-165.0330481063547
 31
0.0
  0
TEXT
  5
431
330
2
100
AcDbEntity
  8
L-ZISSEN
100
AcDbText
 10
578.3856097840737
 20
-25.83133715911936
 30
0.0
 40
4.5
  1
MODEL NO. CH8- 00-*04*
100
AcDbText
  0
LINE
  5
432
330
2
100
AcDbEntity
  8
L-ZISSEN
100
AcDbLine
 10
609.940250923649
 20
-143.3782469029597
 30
0.0
 11
596.4766934828442
 21
-132.1586157022889
 31
0.0
  0
LINE
  5
433
330
2
100
AcDbEntity
  8
L-ZISSEN
100
AcDbLine
 10
592.9766934828446
 20
-158.1575962025826
 30
0.0
 11
607.726693482844
 21
-158.1575962025826
 31
0.0
  0
LINE
  5
434
330
2
100
AcDbEntity
  8
L-ZISSEN
100
AcDbLine
 10
602.7266934828439
 20
-162.1575962025835
 30
0.0
 11
620.226693482844
 21
-162.1575962025831
 31
0.0
  0
LINE
  5
435
330
2
100
AcDbEntity
  8
L-ZISSEN
100
AcDbLine
 10
581.5207088826171
 20
-158.1575962025835
 30
0.0
 11
584.9766934828446
 21
-158.1575962025835
 31
0.0
  0
LINE
  5
436
330
2
100
AcDbEntity
  8
L-ZISSEN
100
AcDbLine
 10
581.27332254781
 20
-144.6586157022889
 30
0.0
 11
581.5207088826171
 21
-158.1575962025835
 31
0.0
  0
LINE
  5
437
330
2
100
AcDbEntity
  8
L-ZISSEN
100
AcDbLine
 10
592.9766934828446
 20
-148.1575962025845
 30
0.0
 11
592.9766934828446
 21
-158.1575962025835
 31
0.0
  0
LINE
  5
438
330
2
100
AcDbEntity
  8
L-ZISSEN
100
AcDbLine
 10
584.9766934828446
 20
-148.1575962025845
 30
0.0
 11
584.9766934828446
 21
-158.1575962025835
 31
0.0
  0
LINE
  5
439
330
2
100
AcDbEntity
  8
L-ZISSEN
100
AcDbLine
 10
584.9766934828446
 20
-148.1575962025845
 30
0.0
 11
592.9766934828446
 21
-148.1575962025845
 31
0.0
  0
TEXT
  5
43A
330
2
100
AcDbEntity
  8
L-ZISSEN
100
AcDbText
 10
583.4766934828442
 20
-134.4086157022889
 30
0.0
 40
4.5
  1
P.P
100
AcDbText
  0
LINE
  5
43B
330
2
100
AcDbEntity
  8
L-ZISSEN
100
AcDbLine
 10
596.4766934828442
 20
-132.1586157022889
 30
0.0
 11
594.4766934828442
 21
-132.1586157022889
 31
0.0
  0
SOLID
  5
43C
330
2
100
AcDbEntity
  8
L-ZISSEN
100
AcDbTrace
 10
609.726856123761
 20
-143.6343206628257
 30
0.0
 11
610.1536457235372
 21
-143.1221731430941
 31
0.0
 12
611.4766934828439
 22
-144.6586157022889
 32
0.0
 13
611.4766934828439
 23
-144.6586157022889
 33
0.0
  0
LINE
  5
43D
330
2
100
AcDbEntity
  8
L-ZISSEN
100
AcDbLine
 10
629.9766934828446
 20
-158.1575962025817
 30
0.0
 11
615.2266934828435
 21
-158.1575962025835
 31
0.0
  0
LINE
  5
43E
330
2
100
AcDbEntity
  8
L-ZISSEN
100
AcDbLine
 10
615.2266934828437
 20
-148.157596202584
 30
0.0
 11
615.2266934828435
 21
-158.1575962025826
 31
0.0
  0
LINE
  5
43F
330
2
100
AcDbEntity
  8
L-ZISSEN
100
AcDbLine
 10
607.726693482844
 20
-148.157596202584
 30
0.0
 11
607.726693482844
 21
-158.1575962025826
 31
0.0
  0
LINE
  5
440
330
2
100
AcDbEntity
  8
L-TYUSIN
100
AcDbLine
 10
617.7266934828442
 20
-167.4075962025831
 30
0.0
 11
605.2266934828442
 21
-167.4075962025831
 31
0.0
  0
LINE
  5
441
330
2
100
AcDbEntity
  8
L-ZISSEN
100
AcDbLine
 10
615.2266934828439
 20
-148.157596202584
 30
0.0
 11
607.726693482844
 21
-148.157596202584
 31
0.0
  0
LINE
  5
442
330
2
100
AcDbEntity
  8
L-ZISSEN
100
AcDbLine
 10
641.5462079440228
 20
-149.6575962025844
 30
0.0
 11
641.5462079440228
 21
-158.1575962025826
 31
0.0
  0
LINE
  5
443
330
2
100
AcDbEntity
  8
L-ZISSEN
100
AcDbLine
 10
635.4880479211021
 20
-148.1575962025845
 30
0.0
 11
635.4880479211021
 21
-158.1575962025817
 31
0.0
  0
LINE
  5
444
330
2
100
AcDbEntity
  8
L-ZISSEN
100
AcDbLine
 10
645.2808218925147
 20
-144.9575962025833
 30
0.0
 11
645.2808218925147
 21
-164.4222497139794
 31
0.0
  0
LINE
  5
445
330
2
100
AcDbEntity
  8
L-ZISSEN
100
AcDbLine
 10
643.5687095782084
 20
-149.6575962025844
 30
0.0
 11
643.5687095782084
 21
-158.1575962025826
 31
0.0
  0
LINE
  5
446
330
2
100
AcDbEntity
  8
L-ZISSEN
100
AcDbLine
 10
629.9766934828446
 20
-148.1575962025826
 30
0.0
 11
629.9766934828446
 21
-158.1575962025817
 31
0.0
  0
LINE
  5
447
330
2
100
AcDbEntity
  8
L-ZISSEN
100
AcDbLine
 10
635.4880479211021
 20
-158.1575962025817
 30
0.0
 11
640.7325605443254
 21
-158.1575962025817
 31
0.0
  0
LINE
  5
448
330
2
100
AcDbEntity
  8
L-ZISSEN
100
AcDbLine
 10
640.9512809110467
 20
-167.1751325976529
 30
0.0
 11
640.9512809110474
 21
-158.1575962025835
 31
0.0
  0
LINE
  5
449
330
2
100
AcDbEntity
  8
L-ZISSEN
100
AcDbLine
 10
640.9512809110474
 20
-168.4575962025833
 30
0.0
 11
640.9512809110474
 21
-158.1575962025835
 31
0.0
  0
LINE
  5
44A
330
2
100
AcDbEntity
  8
L-ZISSEN
100
AcDbLine
 10
640.7325605443254
 20
-158.1575962025835
 30
0.0
 11
641.4326780830712
 21
-158.1575962025835
 31
0.0
  0
LINE
  5
44B
330
2
100
AcDbEntity
  8
L-ZISSEN
100
AcDbLine
 10
643.0808218925144
 20
-168.4575962025833
 30
0.0
 11
640.9512809110474
 21
-168.4575962025828
 31
0.0
  0
LINE
  5
44C
330
2
100
AcDbEntity
  8
L-ZISSEN
100
AcDbLine
 10
643.5687095782084
 20
-158.1575962025826
 30
0.0
 11
640.9059699766401
 21
-158.1575962025826
 31
0.0
  0
LINE
  5
44D
330
2
100
AcDbEntity
  8
L-ZISSEN
100
AcDbLine
 10
629.9766934828437
 20
-148.1575962025826
 30
0.0
 11
635.4880479211021
 21
-148.1575962025845
 31
0.0
  0
LINE
  5
44E
330
2
100
AcDbEntity
  8
L-ZISSEN
100
AcDbLine
 10
645.2808218925147
 20
-144.9575962025833
 30
0.0
 11
643.0808218925144
 21
-144.9575962025833
 31
0.0
  0
LINE
  5
44F
330
2
100
AcDbEntity
  8
L-ZISSEN
100
AcDbLine
 10
643.0808218925144
 20
-144.6586157022889
 30
0.0
 11
643.0808218925144
 21
-144.9575962025828
 31
0.0
  0
LINE
  5
450
330
2
100
AcDbEntity
  8
L-ZISSEN
100
AcDbLine
 10
643.0808218925144
 20
-149.6575962025844
 30
0.0
 11
643.0808218925144
 21
-144.9575962025828
 31
0.0
  0
LINE
  5
451
330
2
100
AcDbEntity
  8
L-ZISSEN
100
AcDbLine
 10
643.5687095782084
 20
-149.6575962025844
 30
0.0
 11
641.5462079440228
 21
-149.6575962025844
 31
0.0
  0
TEXT
  5
452
330
2
100
AcDbEntity
  8
L-ZISSEN
100
AcDbText
 10
638.5055439364553
 20
-22.54236335011273
 30
0.0
 40
4.5
  1
6
100
AcDbText
  0
TEXT
  5
453
330
2
100
AcDbEntity
  8
L-ZISSEN
100
AcDbText
 10
638.5055439364553
 20
-28.89938163614624
 30
0.0
 40
4.5
  1
8
100
AcDbText
  0
LINE
  5
454
330
2
100
AcDbEntity
  8
L-ZISSEN
100
AcDbLine
 10
601.4766934828442
 20
24.71878463888606
 30
0.0
 11
621.4766934828442
 21
24.71878463888606
 31
0.0
  0
LINE
  5
455
330
2
100
AcDbEntity
  8
L-ZISSEN
 48
0.3
100
AcDbLine
 10
734.3298857979942
 20
-162.1575962025831
 30
0.0
 11
732.3322201412236
 21
-162.1575962025831
 31
0.0
  0
LINE
  5
456
330
2
100
AcDbEntity
  8
L-ZISSEN
100
AcDbLine
 10
731.5207088826171
 20
-158.1575962025831
 30
0.0
 11
734.9766934828446
 21
-158.1575962025831
 31
0.0
  0
LINE
  5
457
330
2
100
AcDbEntity
  8
L-TYUSIN
100
AcDbLine
 10
712.8321026024775
 20
-167.1575962025835
 30
0.0
 11
737.3537773121277
 21
-167.1575962025831
 31
0.0
  0
LINE
  5
458
330
2
100
AcDbEntity
  8
L-ZISSEN
100
AcDbLine
 10
731.2733225478102
 20
-144.6586157022889
 30
0.0
 11
731.5207088826171
 21
-158.1575962025831
 31
0.0
  0
LINE
  5
459
330
2
100
AcDbEntity
  8
L-ZISSEN
100
AcDbLine
 10
719.7321026024772
 20
-162.1575962025831
 30
0.0
 11
729.2321026024771
 21
-162.1575962025831
 31
0.0
  0
ARC
  5
45A
330
2
100
AcDbEntity
  8
L-ZISSEN
100
AcDbCircle
 10
720.1441051702548
 20
-165.9328096867652
 30
0.0
 40
2.312215931624567
100
AcDbArc
 50
100.2640683722056
 51
180.7783719766075
  0
LINE
  5
45B
330
2
100
AcDbEntity
  8
L-ZISSEN
100
AcDbLine
 10
729.2321026024771
 20
-162.1575962025831
 30
0.0
 11
732.3322201412236
 21
-162.1575962025831
 31
0.0
  0
LINE
  5
45C
330
2
100
AcDbEntity
  8
L-ZISSEN
100
AcDbLine
 10
732.2208264213639
 20
-158.1575962025831
 30
0.0
 11
732.2586802200521
 21
-162.1575962025831
 31
0.0
  0
LINE
  5
45D
330
2
100
AcDbEntity
  8
L-ZISSEN
100
AcDbLine
 10
727.5207088826171
 20
-162.1575962025831
 30
0.0
 11
730.9766934828446
 21
-162.1575962025831
 31
0.0
  0
LINE
  5
45E
330
2
100
AcDbEntity
  8
L-ZISSEN
100
AcDbLine
 10
779.9766934828446
 20
-158.1575962025813
 30
0.0
 11
772.9766934828447
 21
-158.1575962025822
 31
0.0
  0
LINE
  5
45F
330
2
100
AcDbEntity
  8
L-ZISSEN
100
AcDbLine
 10
761.4766934828439
 20
-165.1775202616818
 30
0.0
 11
752.3287917219181
 21
-163.8706771529782
 31
0.0
  0
LINE
  5
460
330
2
100
AcDbEntity
  8
L-ZISSEN
100
AcDbLine
 10
773.476693482844
 20
-144.9575962025828
 30
0.0
 11
749.4766934828439
 21
-144.9575962025828
 31
0.0
  0
LINE
  5
461
330
2
100
AcDbEntity
  8
L-ZISSEN
100
AcDbLine
 10
761.4766934828439
 20
-164.5393462025826
 30
0.0
 11
751.3993184828421
 21
-163.0997212025827
 31
0.0
  0
LINE
  5
462
330
2
100
AcDbEntity
  8
L-ZISSEN
100
AcDbLine
 10
759.077318482844
 20
-149.1833462025829
 30
0.0
 11
755.2383184828438
 21
-149.1833462025829
 31
0.0
  0
LINE
  5
463
330
2
100
AcDbEntity
  8
L-ZISSEN
100
AcDbLine
 10
759.077318482844
 20
-149.1833462025829
 30
0.0
 11
755.2383184828438
 21
-149.1833462025829
 31
0.0
  0
LINE
  5
464
330
2
100
AcDbEntity
  8
L-ZISSEN
100
AcDbLine
 10
759.077318482844
 20
-150.1430962025828
 30
0.0
 11
755.2383184828438
 21
-150.1430962025828
 31
0.0
  0
LINE
  5
465
330
2
100
AcDbEntity
  8
L-ZISSEN
100
AcDbLine
 10
759.077318482844
 20
-150.1430962025828
 30
0.0
 11
755.2383184828438
 21
-150.1430962025828
 31
0.0
  0
LINE
  5
466
330
2
100
AcDbEntity
  8
L-ZISSEN
100
AcDbLine
 10
750.6795059828423
 20
-144.9575962025828
 30
0.0
 11
750.679505982842
 21
-168.3783462025826
 31
0.0
  0
LINE
  5
467
330
2
100
AcDbEntity
  8
L-ZISSEN
100
AcDbLine
 10
749.1766934828445
 20
-149.657596202584
 30
0.0
 11
749.1766934828445
 21
-158.1575962025822
 31
0.0
  0
LINE
  5
468
330
2
100
AcDbEntity
  8
L-ZISSEN
100
AcDbLine
 10
751.3993184828421
 20
-144.9575962025828
 30
0.0
 11
751.3993184828421
 21
-163.0997212025827
 31
0.0
  0
LINE
  5
469
330
2
100
AcDbEntity
  8
L-ZISSEN
100
AcDbLine
 10
742.9766934828446
 20
-148.157596202584
 30
0.0
 11
742.9766934828446
 21
-158.1575962025831
 31
0.0
  0
LINE
  5
46A
330
2
100
AcDbEntity
  8
L-ZISSEN
100
AcDbLine
 10
734.9766934828446
 20
-148.157596202584
 30
0.0
 11
734.9766934828446
 21
-158.1575962025831
 31
0.0
  0
LINE
  5
46B
330
2
100
AcDbEntity
  8
L-ZISSEN
100
AcDbLine
 10
742.9766934828446
 20
-158.1575962025822
 30
0.0
 11
749.9766934828446
 21
-158.1575962025822
 31
0.0
  0
LINE
  5
46C
330
2
100
AcDbEntity
  8
L-ZISSEN
100
AcDbLine
 10
752.3287917219181
 20
-163.8706771529782
 30
0.0
 11
752.3287917219181
 21
-167.3740833899628
 31
0.0
  0
LINE
  5
46D
330
2
100
AcDbEntity
  8
L-ZISSEN
100
AcDbLine
 10
750.679505982842
 20
-168.3783462025826
 30
0.0
 11
752.3287917219181
 21
-167.3740833899628
 31
0.0
  0
LINE
  5
46E
330
2
100
AcDbEntity
  8
L-ZISSEN
100
AcDbLine
 10
752.3287917219181
 20
-163.8706771529782
 30
0.0
 11
751.3993184828421
 21
-163.0997212025827
 31
0.0
  0
LINE
  5
46F
330
2
100
AcDbEntity
  8
L-ZISSEN
100
AcDbLine
 10
752.3287917219181
 20
-163.2325030938791
 30
0.0
 11
751.3993184828421
 21
-163.0997212025827
 31
0.0
  0
LINE
  5
470
330
2
100
AcDbEntity
  8
L-ZISSEN
100
AcDbLine
 10
749.1766934828445
 20
-158.1575962025822
 30
0.0
 11
750.4766934828437
 21
-158.1575962025822
 31
0.0
  0
LINE
  5
471
330
2
100
AcDbEntity
  8
L-ZISSEN
100
AcDbLine
 10
734.9766934828446
 20
-148.157596202584
 30
0.0
 11
742.9766934828446
 21
-148.157596202584
 31
0.0
  0
LINE
  5
472
330
2
100
AcDbEntity
  8
L-ZISSEN
100
AcDbLine
 10
749.1766934828445
 20
-149.657596202584
 30
0.0
 11
750.4766934828437
 21
-149.657596202584
 31
0.0
  0
LINE
  5
473
330
2
100
AcDbEntity
  8
L-ZISSEN
100
AcDbLine
 10
749.4766934828442
 20
-144.6586157022889
 30
0.0
 11
749.4766934828439
 21
-144.9575962025828
 31
0.0
  0
LINE
  5
474
330
2
100
AcDbEntity
  8
L-ZISSEN
100
AcDbLine
 10
755.2383184828438
 20
-150.1430962025828
 30
0.0
 11
755.2383184828438
 21
-151.1028462025828
 31
0.0
  0
LINE
  5
475
330
2
100
AcDbEntity
  8
L-ZISSEN
100
AcDbLine
 10
755.2383184828438
 20
-151.1028462025828
 30
0.0
 11
752.8389434828438
 21
-149.6632212025829
 31
0.0
  0
LINE
  5
476
330
2
100
AcDbEntity
  8
L-ZISSEN
100
AcDbLine
 10
755.2383184828438
 20
-149.1833462025829
 30
0.0
 11
755.2383184828438
 21
-148.2235962025829
 31
0.0
  0
LINE
  5
477
330
2
100
AcDbEntity
  8
L-ZISSEN
100
AcDbLine
 10
755.2383184828438
 20
-148.2235962025829
 30
0.0
 11
752.8389434828438
 21
-149.6632212025829
 31
0.0
  0
LINE
  5
478
330
2
100
AcDbEntity
  8
L-ZISSEN
100
AcDbLine
 10
772.2738809828422
 20
-144.9575962025828
 30
0.0
 11
772.2738809828422
 21
-168.3783462025826
 31
0.0
  0
LINE
  5
479
330
2
100
AcDbEntity
  8
L-ZISSEN
100
AcDbLine
 10
758.5974434828456
 20
-154.9418462025819
 30
0.0
 11
761.4766934828455
 21
-159.7405962025818
 31
0.0
  0
LINE
  5
47A
330
2
100
AcDbEntity
  8
L-ZISSEN
100
AcDbLine
 10
764.3559434828457
 20
-154.9418462025819
 30
0.0
 11
761.4766934828455
 21
-159.7405962025818
 31
0.0
  0
LINE
  5
47B
330
2
100
AcDbEntity
  8
L-ZISSEN
100
AcDbLine
 10
773.7766934828449
 20
-149.657596202584
 30
0.0
 11
773.7766934828439
 21
-158.1575962025822
 31
0.0
  0
LINE
  5
47C
330
2
100
AcDbEntity
  8
L-ZISSEN
100
AcDbLine
 10
771.5540684828422
 20
-144.9575962025828
 30
0.0
 11
771.5540684828422
 21
-163.0997212025827
 31
0.0
  0
LINE
  5
47D
330
2
100
AcDbEntity
  8
L-ZISSEN
100
AcDbLine
 10
761.4766934828439
 20
-165.1775202616818
 30
0.0
 11
770.6245952437698
 21
-163.8706771529782
 31
0.0
  0
LINE
  5
47E
330
2
100
AcDbEntity
  8
L-ZISSEN
100
AcDbLine
 10
761.4766934828439
 20
-164.5393462025826
 30
0.0
 11
771.5540684828422
 21
-163.0997212025827
 31
0.0
  0
LINE
  5
47F
330
2
100
AcDbEntity
  8
L-ZISSEN
100
AcDbLine
 10
761.4766934828439
 20
-164.5393462025826
 30
0.0
 11
761.4766934828439
 21
-165.1775202616818
 31
0.0
  0
LINE
  5
480
330
2
100
AcDbEntity
  8
L-ZISSEN
100
AcDbLine
 10
770.6245952437698
 20
-163.8706771529782
 30
0.0
 11
770.6245952437698
 21
-167.3740833899628
 31
0.0
  0
LINE
  5
481
330
2
100
AcDbEntity
  8
L-ZISSEN
100
AcDbLine
 10
772.2738809828422
 20
-168.3783462025826
 30
0.0
 11
770.6245952437698
 21
-167.3740833899628
 31
0.0
  0
LINE
  5
482
330
2
100
AcDbEntity
  8
L-ZISSEN
100
AcDbLine
 10
770.6245952437698
 20
-163.2325030938791
 30
0.0
 11
771.5540684828422
 21
-163.0997212025827
 31
0.0
  0
LINE
  5
483
330
2
100
AcDbEntity
  8
L-ZISSEN
100
AcDbLine
 10
770.6245952437698
 20
-163.8706771529782
 30
0.0
 11
771.5540684828422
 21
-163.0997212025827
 31
0.0
  0
LINE
  5
484
330
2
100
AcDbEntity
  8
L-ZISSEN
100
AcDbLine
 10
773.7766934828439
 20
-158.1575962025822
 30
0.0
 11
772.4766934828437
 21
-158.1575962025831
 31
0.0
  0
LINE
  5
485
330
2
100
AcDbEntity
  8
L-ZISSEN
100
AcDbLine
 10
773.7766934828439
 20
-158.1575962025822
 30
0.0
 11
772.4766934828437
 21
-158.1575962025822
 31
0.0
  0
LINE
  5
486
330
2
100
AcDbEntity
  8
L-ZISSEN
100
AcDbLine
 10
763.8760684828439
 20
-149.183346202582
 30
0.0
 11
767.7150684828441
 21
-149.183346202582
 31
0.0
  0
LINE
  5
487
330
2
100
AcDbEntity
  8
L-ZISSEN
100
AcDbLine
 10
763.8760684828439
 20
-149.183346202582
 30
0.0
 11
767.7150684828441
 21
-149.183346202582
 31
0.0
  0
LINE
  5
488
330
2
100
AcDbEntity
  8
L-ZISSEN
100
AcDbLine
 10
763.8760684828439
 20
-150.1430962025819
 30
0.0
 11
767.7150684828441
 21
-150.1430962025819
 31
0.0
  0
LINE
  5
489
330
2
100
AcDbEntity
  8
L-ZISSEN
100
AcDbLine
 10
763.8760684828439
 20
-150.1430962025819
 30
0.0
 11
767.7150684828441
 21
-150.1430962025819
 31
0.0
  0
LINE
  5
48A
330
2
100
AcDbEntity
  8
L-ZISSEN
100
AcDbLine
 10
762.4364434828455
 20
-147.263846202582
 30
0.0
 11
760.5169434828455
 21
-147.263846202582
 31
0.0
  0
LINE
  5
48B
330
2
100
AcDbEntity
  8
L-ZISSEN
100
AcDbLine
 10
760.5169434828455
 20
-154.9418462025819
 30
0.0
 11
758.5974434828456
 21
-154.9418462025819
 31
0.0
  0
LINE
  5
48C
330
2
100
AcDbEntity
  8
L-ZISSEN
100
AcDbLine
 10
759.077318482844
 20
-149.1833462025829
 30
0.0
 11
759.077318482844
 21
-150.1430962025828
 31
0.0
  0
LINE
  5
48D
330
2
100
AcDbEntity
  8
L-ZISSEN
100
AcDbLine
 10
760.5169434828455
 20
-147.263846202582
 30
0.0
 11
760.5169434828455
 21
-154.9418462025819
 31
0.0
  0
LINE
  5
48E
330
2
100
AcDbEntity
  8
L-ZISSEN
100
AcDbLine
 10
760.5169434828455
 20
-147.263846202582
 30
0.0
 11
760.5169434828455
 21
-154.9418462025819
 31
0.0
  0
LINE
  5
48F
330
2
100
AcDbEntity
  8
L-ZISSEN
100
AcDbLine
 10
763.8760684828439
 20
-149.183346202582
 30
0.0
 11
763.8760684828439
 21
-150.1430962025819
 31
0.0
  0
LINE
  5
490
330
2
100
AcDbEntity
  8
L-ZISSEN
100
AcDbLine
 10
762.4364434828455
 20
-147.263846202582
 30
0.0
 11
762.4364434828455
 21
-154.9418462025819
 31
0.0
  0
LINE
  5
491
330
2
100
AcDbEntity
  8
L-ZISSEN
100
AcDbLine
 10
762.4364434828455
 20
-147.263846202582
 30
0.0
 11
762.4364434828455
 21
-154.9418462025819
 31
0.0
  0
LINE
  5
492
330
2
100
AcDbEntity
  8
L-ZISSEN
100
AcDbLine
 10
762.4364434828455
 20
-154.9418462025819
 30
0.0
 11
764.3559434828457
 21
-154.9418462025819
 31
0.0
  0
LINE
  5
493
330
2
100
AcDbEntity
  8
L-ZISSEN
100
AcDbLine
 10
773.7766934828449
 20
-149.657596202584
 30
0.0
 11
772.4766934828437
 21
-149.657596202584
 31
0.0
  0
LINE
  5
494
330
2
100
AcDbEntity
  8
L-ZISSEN
100
AcDbLine
 10
773.4766934828437
 20
-144.6586157022884
 30
0.0
 11
773.4766934828437
 21
-144.9575962025828
 31
0.0
  0
LINE
  5
495
330
2
100
AcDbEntity
  8
L-ZISSEN
100
AcDbLine
 10
767.7150684828441
 20
-150.1430962025819
 30
0.0
 11
767.7150684828441
 21
-151.1028462025819
 31
0.0
  0
LINE
  5
496
330
2
100
AcDbEntity
  8
L-ZISSEN
100
AcDbLine
 10
767.7150684828441
 20
-149.183346202582
 30
0.0
 11
767.7150684828441
 21
-148.223596202582
 31
0.0
  0
LINE
  5
497
330
2
100
AcDbEntity
  8
L-ZISSEN
100
AcDbLine
 10
767.7150684828441
 20
-151.1028462025819
 30
0.0
 11
770.1144434828441
 21
-149.663221202582
 31
0.0
  0
LINE
  5
498
330
2
100
AcDbEntity
  8
L-ZISSEN
100
AcDbLine
 10
767.7150684828441
 20
-148.223596202582
 30
0.0
 11
770.1144434828441
 21
-149.663221202582
 31
0.0
  0
LINE
  5
499
330
2
100
AcDbEntity
  8
L-ZISSEN
100
AcDbLine
 10
785.4880479211021
 20
-148.157596202584
 30
0.0
 11
785.4880479211021
 21
-158.1575962025813
 31
0.0
  0
LINE
  5
49A
330
2
100
AcDbEntity
  8
L-ZISSEN
100
AcDbLine
 10
779.9766934828446
 20
-148.1575962025822
 30
0.0
 11
779.9766934828446
 21
-158.1575962025813
 31
0.0
  0
LINE
  5
49B
330
2
100
AcDbEntity
  8
L-ZISSEN
100
AcDbLine
 10
791.6129765982698
 20
-144.6586157022889
 30
0.0
 11
791.4326780830713
 21
-158.1575962025831
 31
0.0
  0
LINE
  5
49C
330
2
100
AcDbEntity
  8
L-ZISSEN
100
AcDbLine
 10
785.4880479211021
 20
-158.1575962025813
 30
0.0
 11
790.7325605443254
 21
-158.1575962025813
 31
0.0
  0
LINE
  5
49D
330
2
100
AcDbEntity
  8
L-ZISSEN
100
AcDbLine
 10
790.7325605443254
 20
-158.1575962025831
 30
0.0
 11
791.4326780830713
 21
-158.1575962025831
 31
0.0
  0
LINE
  5
49E
330
2
100
AcDbEntity
  8
L-ZISSEN
100
AcDbLine
 10
779.9766934828437
 20
-148.1575962025822
 30
0.0
 11
785.4880479211021
 21
-148.157596202584
 31
0.0
  0
LINE
  5
49F
330
2
100
AcDbEntity
  8
L-ZISSEN
100
AcDbLine
 10
751.4766934828442
 20
24.71878463888652
 30
0.0
 11
771.4766934828442
 21
24.71878463888652
 31
0.0
  0
LINE
  5
4A0
330
2
100
AcDbEntity
  8
L-ZISSEN
100
AcDbLine
 10
971.5094922610994
 20
-171.2575962025825
 30
0.0
 11
982.3066797610975
 21
-168.3783462025826
 31
0.0
  0
LINE
  5
4A1
330
2
100
AcDbEntity
  8
L-ZISSEN
100
AcDbLine
 10
971.5094922610994
 20
-171.2575962025825
 30
0.0
 11
960.7123047610974
 21
-168.3783462025826
 31
0.0
  0
LINE
  5
4A2
330
2
100
AcDbEntity
  8
L-ZISSEN
100
AcDbLine
 10
960.5094922610989
 20
-144.9575962025828
 30
0.0
 11
960.5094922610989
 21
-173.7575962025835
 31
0.0
  0
LINE
  5
4A3
330
2
100
AcDbEntity
  8
L-ZISSEN
100
AcDbLine
 10
982.509492261099
 20
-144.9575962025828
 30
0.0
 11
982.509492261099
 21
-173.7575962025835
 31
0.0
  0
LINE
  5
4A4
330
2
100
AcDbEntity
  8
L-ZISSEN
100
AcDbLine
 10
939.2649013807325
 20
-162.1575962025831
 30
0.0
 11
939.2649013807343
 21
-239.1575962025831
 31
0.0
  0
LINE
  5
4A5
330
2
100
AcDbEntity
  8
L-ZISSEN
 48
0.3
100
AcDbLine
 10
944.3626845762494
 20
-239.1575962025831
 30
0.0
 11
944.3626845762494
 21
-162.1575962025831
 31
0.0
  0
LINE
  5
4A6
330
2
100
AcDbEntity
  8
L-ZISSEN
100
AcDbLine
 10
929.7649013807324
 20
-162.1575962025831
 30
0.0
 11
929.7649013807342
 21
-239.1575962025831
 31
0.0
  0
LINE
  5
4A7
330
2
100
AcDbEntity
  8
L-ZISSEN
100
AcDbLine
 10
927.8649013807328
 20
-165.964220529609
 30
0.0
 11
927.8649013807328
 21
-168.8509718755572
 31
0.0
  0
LINE
  5
4A8
330
2
100
AcDbEntity
  8
L-ZISSEN
100
AcDbLine
 10
980.6573940220253
 20
-167.3740833899628
 30
0.0
 11
971.5094922610994
 21
-169.2892514427308
 31
0.0
  0
LINE
  5
4A9
330
2
100
AcDbEntity
  8
L-ZISSEN
100
AcDbLine
 10
962.3615905001736
 20
-167.3740833899628
 30
0.0
 11
971.5094922610994
 21
-169.2892514427308
 31
0.0
  0
LINE
  5
4AA
330
2
100
AcDbEntity
  8
L-ZISSEN
100
AcDbLine
 10
1000.76535932258
 20
-158.1575962025831
 30
0.0
 11
999.0494983206037
 21
-237.4031895335224
 31
0.0
  0
ARC
  5
4AB
330
2
100
AcDbEntity
  8
L-ZISSEN
100
AcDbCircle
 10
989.052837912359
 20
-237.1447699479072
 30
0.0
 40
10.0
100
AcDbArc
 50
274.8684440628817
 51
358.9999999999721
  0
ARC
  5
4AC
330
2
100
AcDbEntity
  8
L-ZISSEN
100
AcDbCircle
 10
953.9661466098397
 20
-237.1447699479072
 30
0.0
 40
10.0
100
AcDbArc
 50
191.6119735011068
 51
265.1315559371182
  0
ARC
  5
4AD
330
2
100
AcDbEntity
  8
L-ZISSEN
100
AcDbCircle
 10
930.1769039485099
 20
-232.4328096867661
 30
0.0
 40
2.312215931624567
100
AcDbArc
 50
100.2640683722016
 51
180.7783719766075
  0
ARC
  5
4AE
330
2
100
AcDbEntity
  8
L-ZISSEN
100
AcDbCircle
 10
930.1769039485099
 20
-235.3823827184019
 30
0.0
 40
2.312215931624567
100
AcDbArc
 50
179.2216280233924
 51
259.7359316277982
  0
LINE
  5
4AF
330
2
100
AcDbEntity
  8
L-TYUSIN
100
AcDbLine
 10
945.9057770899491
 20
-234.1575962025831
 30
0.0
 11
922.8649013807327
 21
-234.1575962025831
 31
0.0
  0
LINE
  5
4B0
330
2
100
AcDbEntity
  8
L-ZISSEN
100
AcDbLine
 10
929.7649013807324
 20
-239.1575962025831
 30
0.0
 11
939.2649013807325
 21
-239.1575962025835
 31
0.0
  0
LINE
  5
4B1
330
2
100
AcDbEntity
  8
L-ZISSEN
100
AcDbLine
 10
927.8649013807328
 20
-235.3509718755576
 30
0.0
 11
927.8649013807328
 21
-232.4642205296099
 31
0.0
  0
LINE
  5
4B2
330
2
100
AcDbEntity
  8
L-ZISSEN
 48
0.3
100
AcDbLine
 10
943.0626845762493
 20
-239.1575962025831
 30
0.0
 11
944.3626845762494
 21
-239.1575962025831
 31
0.0
  0
LINE
  5
4B3
330
2
100
AcDbEntity
  8
L-ZISSEN
100
AcDbLine
 10
939.2649013807343
 20
-239.1575962025831
 30
0.0
 11
943.0626845762493
 21
-239.1575962025831
 31
0.0
  0
LINE
  5
4B4
330
2
100
AcDbEntity
  8
L-ZISSEN
100
AcDbLine
 10
980.1697462989446
 20
-253.1575962025844
 30
0.0
 11
962.8492382232558
 21
-253.1575962025844
 31
0.0
  0
LINE
  5
4B5
330
2
100
AcDbEntity
  8
L-ZISSEN
100
AcDbLine
 10
962.0743249928816
 20
-251.157596202584
 30
0.0
 11
980.9446595293186
 21
-251.157596202584
 31
0.0
  0
LINE
  5
4B6
330
2
100
AcDbEntity
  8
L-ZISSEN
100
AcDbLine
 10
962.0743249928812
 20
-248.157596202584
 30
0.0
 11
980.9446595293186
 21
-248.157596202584
 31
0.0
  0
LINE
  5
4B7
330
2
100
AcDbEntity
  8
L-ZISSEN
100
AcDbLine
 10
962.0743249928803
 20
-248.157596202584
 30
0.0
 11
953.1174649292827
 21
-247.1086918366558
 31
0.0
  0
LINE
  5
4B8
330
2
100
AcDbEntity
  8
L-ZISSEN
100
AcDbLine
 10
962.0743249928812
 20
-248.157596202584
 30
0.0
 11
962.0743249928814
 21
-251.157596202584
 31
0.0
  0
LINE
  5
4B9
330
2
100
AcDbEntity
  8
L-ZISSEN
100
AcDbLine
 10
962.8492382232558
 20
-253.1575962025844
 30
0.0
 11
962.8492382232558
 21
-251.1575962025844
 31
0.0
  0
LINE
  5
4BA
330
2
100
AcDbEntity
  8
L-ZISSEN
100
AcDbLine
 10
967.1793652421779
 20
-253.1575962025844
 30
0.0
 11
967.1793652421779
 21
-251.1575962025844
 31
0.0
  0
LINE
  5
4BB
330
2
100
AcDbEntity
  8
L-ZISSEN
100
AcDbLine
 10
980.9446595293186
 20
-248.157596202584
 30
0.0
 11
989.9015195929163
 21
-247.1086918366558
 31
0.0
  0
LINE
  5
4BC
330
2
100
AcDbEntity
  8
L-ZISSEN
100
AcDbLine
 10
980.9446595293186
 20
-248.157596202584
 30
0.0
 11
980.9446595293181
 21
-251.157596202584
 31
0.0
  0
LINE
  5
4BD
330
2
100
AcDbEntity
  8
L-ZISSEN
100
AcDbLine
 10
980.1697462989446
 20
-253.1575962025844
 30
0.0
 11
980.1697462989446
 21
-251.1575962025844
 31
0.0
  0
LINE
  5
4BE
330
2
100
AcDbEntity
  8
L-ZISSEN
100
AcDbLine
 10
975.8396192800223
 20
-253.1575962025844
 30
0.0
 11
975.8396192800223
 21
-251.1575962025844
 31
0.0
  0
ARC
  5
4BF
330
2
100
AcDbEntity
  8
L-ZISSEN
100
AcDbCircle
 10
930.1769039485099
 20
-168.882382718401
 30
0.0
 40
2.312215931624567
100
AcDbArc
 50
179.2216280233924
 51
259.7359316277982
  0
ARC
  5
4C0
330
2
100
AcDbEntity
  8
L-ZISSEN
100
AcDbCircle
 10
971.5094922610994
 20
-173.0075962025825
 30
0.0
 40
1.25
100
AcDbArc
 50
180.0
 51
0.0
  0
LINE
  5
4C1
330
2
100
AcDbEntity
  8
L-TYUSIN
100
AcDbLine
 10
963.9094922610995
 20
-178.7575962025826
 30
0.0
 11
979.1094922610993
 21
-178.7575962025826
 31
0.0
  0
LINE
  5
4C2
330
2
100
AcDbEntity
  8
L-ZISSEN
100
AcDbLine
 10
963.9094922610995
 20
-183.2575962025826
 30
0.0
 11
979.1094922610993
 21
-183.2575962025826
 31
0.0
  0
LINE
  5
4C3
330
2
100
AcDbEntity
  8
L-ZISSEN
100
AcDbLine
 10
963.9094922610995
 20
-182.2575962025825
 30
0.0
 11
979.1094922610993
 21
-182.2575962025825
 31
0.0
  0
LINE
  5
4C4
330
2
100
AcDbEntity
  8
L-ZISSEN
100
AcDbLine
 10
961.9094922610996
 20
-185.2575962025835
 30
0.0
 11
981.1094922610994
 21
-185.2575962025835
 31
0.0
  0
LINE
  5
4C5
330
2
100
AcDbEntity
  8
L-ZISSEN
100
AcDbLine
 10
961.5094922610991
 20
-188.2575962025826
 30
0.0
 11
981.509492261099
 21
-188.2575962025826
 31
0.0
  0
LINE
  5
4C6
330
2
100
AcDbEntity
  8
L-ZISSEN
100
AcDbLine
 10
963.9094922610992
 20
-169.2309295359168
 30
0.0
 11
963.9094922610995
 21
-183.2575962025826
 31
0.0
  0
LINE
  5
4C7
330
2
100
AcDbEntity
  8
L-ZISSEN
100
AcDbLine
 10
961.9094922610987
 20
-174.2575962025825
 30
0.0
 11
961.9094922610996
 21
-185.2575962025825
 31
0.0
  0
LINE
  5
4C8
330
2
100
AcDbEntity
  8
L-ZISSEN
100
AcDbLine
 10
961.5094922610991
 20
-174.2575962025825
 30
0.0
 11
961.5094922610991
 21
-188.2575962025826
 31
0.0
  0
LINE
  5
4C9
330
2
100
AcDbEntity
  8
L-TYUSIN
100
AcDbLine
 10
967.259492261099
 20
-175.5075962025825
 30
0.0
 11
967.259492261099
 21
-182.0075962025826
 31
0.0
  0
LINE
  5
4CA
330
2
100
AcDbEntity
  8
L-ZISSEN
100
AcDbLine
 10
961.9094922610996
 20
-185.2575962025825
 30
0.0
 11
961.5094922610991
 21
-188.2575962025826
 31
0.0
  0
LINE
  5
4CB
330
2
100
AcDbEntity
  8
L-ZISSEN
100
AcDbLine
 10
970.2594922610995
 20
-173.0075962025825
 30
0.0
 11
970.2594922610995
 21
-170.9242628692495
 31
0.0
  0
ARC
  5
4CC
330
2
100
AcDbEntity
  8
L-ZISSEN
100
AcDbCircle
 10
961.009492261099
 20
-173.7575962025835
 30
0.0
 40
0.5
100
AcDbArc
 50
180.0
 51
270.0
  0
LINE
  5
4CD
330
2
100
AcDbEntity
  8
L-ZISSEN
100
AcDbLine
 10
961.009492261099
 20
-174.2575962025834
 30
0.0
 11
963.9094922610992
 21
-174.2575962025839
 31
0.0
  0
CIRCLE
  5
4CE
330
2
100
AcDbEntity
  8
L-ZISSEN
100
AcDbCircle
 10
967.259492261099
 20
-178.7575962025826
 30
0.0
 40
2.0
  0
LINE
  5
4CF
330
2
100
AcDbEntity
  8
L-ZISSEN
100
AcDbLine
 10
981.1094922610994
 20
-174.2575962025825
 30
0.0
 11
981.1094922610994
 21
-185.2575962025835
 31
0.0
  0
LINE
  5
4D0
330
2
100
AcDbEntity
  8
L-ZISSEN
100
AcDbLine
 10
979.1094922610993
 20
-169.2309295359159
 30
0.0
 11
979.1094922610993
 21
-183.2575962025826
 31
0.0
  0
LINE
  5
4D1
330
2
100
AcDbEntity
  8
L-TYUSIN
100
AcDbLine
 10
975.7594922611
 20
-175.5075962025825
 30
0.0
 11
975.7594922611
 21
-182.0075962025826
 31
0.0
  0
LINE
  5
4D2
330
2
100
AcDbEntity
  8
L-ZISSEN
100
AcDbLine
 10
981.5094922610999
 20
-174.2575962025825
 30
0.0
 11
981.5094922610999
 21
-188.2575962025826
 31
0.0
  0
LINE
  5
4D3
330
2
100
AcDbEntity
  8
L-ZISSEN
100
AcDbLine
 10
981.1094922610994
 20
-185.2575962025835
 30
0.0
 11
981.5094922610999
 21
-188.2575962025826
 31
0.0
  0
LINE
  5
4D4
330
2
100
AcDbEntity
  8
L-ZISSEN
100
AcDbLine
 10
979.1094922610993
 20
-174.2575962025839
 30
0.0
 11
982.0094922610989
 21
-174.2575962025834
 31
0.0
  0
LINE
  5
4D5
330
2
100
AcDbEntity
  8
L-ZISSEN
100
AcDbLine
 10
972.7594922610995
 20
-173.0075962025825
 30
0.0
 11
972.7594922610995
 21
-170.9242628692495
 31
0.0
  0
CIRCLE
  5
4D6
330
2
100
AcDbEntity
  8
L-ZISSEN
100
AcDbCircle
 10
975.7594922611
 20
-178.7575962025826
 30
0.0
 40
2.0
  0
ARC
  5
4D7
330
2
100
AcDbEntity
  8
L-ZISSEN
100
AcDbCircle
 10
982.0094922610989
 20
-173.7575962025835
 30
0.0
 40
0.5
100
AcDbArc
 50
270.0
 51
0.0
  0
LINE
  5
4D8
330
2
100
AcDbEntity
  8
L-ZISSEN
100
AcDbLine
 10
990.0094922610989
 20
-148.1575962025822
 30
0.0
 11
995.5208466993575
 21
-148.157596202584
 31
0.0
  0
LINE
  5
4D9
330
2
100
AcDbEntity
  8
L-ZISSEN
100
AcDbLine
 10
945.0094922610999
 20
-148.157596202584
 30
0.0
 11
953.0094922610999
 21
-148.157596202584
 31
0.0
  0
ARC
  5
4DA
330
2
100
AcDbEntity
  8
L-ZISSEN
100
AcDbCircle
 10
930.1769039485099
 20
-165.9328096867652
 30
0.0
 40
2.312215931624567
100
AcDbArc
 50
100.2640683722016
 51
180.7783719766075
  0
LINE
  5
4DB
330
2
100
AcDbEntity
  8
L-TYUSIN
100
AcDbLine
 10
922.8649013807327
 20
-167.1575962025835
 30
0.0
 11
947.386576090383
 21
-167.1575962025831
 31
0.0
  0
LINE
  5
4DC
330
2
100
AcDbEntity
  8
L-ZISSEN
100
AcDbLine
 10
941.3061213260656
 20
-144.6586157022889
 30
0.0
 11
941.5535076608723
 21
-158.1575962025831
 31
0.0
  0
LINE
  5
4DD
330
2
100
AcDbEntity
  8
L-ZISSEN
100
AcDbLine
 10
945.0094922610999
 20
-148.157596202584
 30
0.0
 11
945.0094922610999
 21
-158.1575962025831
 31
0.0
  0
LINE
  5
4DE
330
2
100
AcDbEntity
  8
L-ZISSEN
100
AcDbLine
 10
929.7649013807324
 20
-162.1575962025831
 30
0.0
 11
939.2649013807325
 21
-162.1575962025831
 31
0.0
  0
LINE
  5
4DF
330
2
100
AcDbEntity
  8
L-ZISSEN
100
AcDbLine
 10
941.5535076608723
 20
-158.1575962025831
 30
0.0
 11
945.0094922610999
 21
-158.1575962025831
 31
0.0
  0
LINE
  5
4E0
330
2
100
AcDbEntity
  8
L-ZISSEN
 48
0.3
100
AcDbLine
 10
944.3626845762494
 20
-162.1575962025831
 30
0.0
 11
942.3650189194788
 21
-162.1575962025831
 31
0.0
  0
LINE
  5
4E1
330
2
100
AcDbEntity
  8
L-ZISSEN
100
AcDbLine
 10
942.2536251996191
 20
-158.1575962025831
 30
0.0
 11
942.2914789983076
 21
-162.1575962025831
 31
0.0
  0
LINE
  5
4E2
330
2
100
AcDbEntity
  8
L-ZISSEN
100
AcDbLine
 10
939.2649013807325
 20
-162.1575962025831
 30
0.0
 11
942.3650189194788
 21
-162.1575962025831
 31
0.0
  0
LINE
  5
4E3
330
2
100
AcDbEntity
  8
L-ZISSEN
100
AcDbLine
 10
972.4692422611008
 20
-147.263846202582
 30
0.0
 11
970.5497422611008
 21
-147.263846202582
 31
0.0
  0
LINE
  5
4E4
330
2
100
AcDbEntity
  8
L-ZISSEN
100
AcDbLine
 10
968.6302422611008
 20
-154.9418462025819
 30
0.0
 11
971.5094922611008
 21
-159.7405962025818
 31
0.0
  0
LINE
  5
4E5
330
2
100
AcDbEntity
  8
L-ZISSEN
100
AcDbLine
 10
971.5094922610994
 20
-164.5393462025826
 30
0.0
 11
961.4321172610972
 21
-163.0997212025827
 31
0.0
  0
LINE
  5
4E6
330
2
100
AcDbEntity
  8
L-ZISSEN
100
AcDbLine
 10
971.5094922610994
 20
-165.1775202616818
 30
0.0
 11
962.3615905001736
 21
-163.8706771529782
 31
0.0
  0
LINE
  5
4E7
330
2
100
AcDbEntity
  8
L-ZISSEN
100
AcDbLine
 10
983.5094922610995
 20
-144.9575962025828
 30
0.0
 11
959.5094922610995
 21
-144.9575962025828
 31
0.0
  0
LINE
  5
4E8
330
2
100
AcDbEntity
  8
L-ZISSEN
100
AcDbLine
 10
953.0094922610999
 20
-148.157596202584
 30
0.0
 11
953.0094922610999
 21
-158.1575962025831
 31
0.0
  0
LINE
  5
4E9
330
2
100
AcDbEntity
  8
L-ZISSEN
100
AcDbLine
 10
961.4321172610972
 20
-144.9575962025828
 30
0.0
 11
961.4321172610972
 21
-163.0997212025827
 31
0.0
  0
LINE
  5
4EA
330
2
100
AcDbEntity
  8
L-ZISSEN
100
AcDbLine
 10
959.2094922610996
 20
-149.657596202584
 30
0.0
 11
959.2094922610996
 21
-158.1575962025822
 31
0.0
  0
LINE
  5
4EB
330
2
100
AcDbEntity
  8
L-ZISSEN
100
AcDbLine
 10
960.7123047610977
 20
-144.9575962025828
 30
0.0
 11
960.7123047610974
 21
-168.3783462025826
 31
0.0
  0
LINE
  5
4EC
330
2
100
AcDbEntity
  8
L-ZISSEN
100
AcDbLine
 10
959.2094922610996
 20
-158.1575962025822
 30
0.0
 11
960.5094922610989
 21
-158.1575962025822
 31
0.0
  0
LINE
  5
4ED
330
2
100
AcDbEntity
  8
L-ZISSEN
100
AcDbLine
 10
953.0094922610999
 20
-158.1575962025822
 30
0.0
 11
960.0094922610999
 21
-158.1575962025822
 31
0.0
  0
LINE
  5
4EE
330
2
100
AcDbEntity
  8
L-ZISSEN
100
AcDbLine
 10
962.3615905001736
 20
-163.8706771529782
 30
0.0
 11
961.4321172610972
 21
-163.0997212025827
 31
0.0
  0
LINE
  5
4EF
330
2
100
AcDbEntity
  8
L-ZISSEN
100
AcDbLine
 10
962.3615905001736
 20
-163.8706771529782
 30
0.0
 11
962.3615905001736
 21
-167.3740833899628
 31
0.0
  0
LINE
  5
4F0
330
2
100
AcDbEntity
  8
L-ZISSEN
100
AcDbLine
 10
962.3615905001736
 20
-163.2325030938791
 30
0.0
 11
961.4321172610972
 21
-163.0997212025827
 31
0.0
  0
LINE
  5
4F1
330
2
100
AcDbEntity
  8
L-ZISSEN
100
AcDbLine
 10
960.7123047610974
 20
-168.3783462025826
 30
0.0
 11
962.3615905001736
 21
-167.3740833899628
 31
0.0
  0
LINE
  5
4F2
330
2
100
AcDbEntity
  8
L-ZISSEN
100
AcDbLine
 10
959.2094922610996
 20
-149.657596202584
 30
0.0
 11
960.5094922610989
 21
-149.657596202584
 31
0.0
  0
LINE
  5
4F3
330
2
100
AcDbEntity
  8
L-ZISSEN
100
AcDbLine
 10
959.5094922610995
 20
-144.6586157022889
 30
0.0
 11
959.5094922610995
 21
-144.9575962025828
 31
0.0
  0
LINE
  5
4F4
330
2
100
AcDbEntity
  8
L-ZISSEN
100
AcDbLine
 10
969.1101172610995
 20
-149.1833462025829
 30
0.0
 11
969.1101172610995
 21
-150.1430962025828
 31
0.0
  0
LINE
  5
4F5
330
2
100
AcDbEntity
  8
L-ZISSEN
100
AcDbLine
 10
970.5497422611008
 20
-154.9418462025819
 30
0.0
 11
968.6302422611008
 21
-154.9418462025819
 31
0.0
  0
LINE
  5
4F6
330
2
100
AcDbEntity
  8
L-ZISSEN
100
AcDbLine
 10
970.5497422611008
 20
-147.263846202582
 30
0.0
 11
970.5497422611008
 21
-154.9418462025819
 31
0.0
  0
LINE
  5
4F7
330
2
100
AcDbEntity
  8
L-ZISSEN
100
AcDbLine
 10
970.5497422611008
 20
-147.263846202582
 30
0.0
 11
970.5497422611008
 21
-154.9418462025819
 31
0.0
  0
LINE
  5
4F8
330
2
100
AcDbEntity
  8
L-ZISSEN
100
AcDbLine
 10
965.271117261099
 20
-149.1833462025829
 30
0.0
 11
965.271117261099
 21
-148.2235962025829
 31
0.0
  0
LINE
  5
4F9
330
2
100
AcDbEntity
  8
L-ZISSEN
100
AcDbLine
 10
965.271117261099
 20
-150.1430962025828
 30
0.0
 11
965.271117261099
 21
-151.1028462025828
 31
0.0
  0
LINE
  5
4FA
330
2
100
AcDbEntity
  8
L-ZISSEN
100
AcDbLine
 10
965.271117261099
 20
-148.2235962025829
 30
0.0
 11
962.8717422610991
 21
-149.6632212025829
 31
0.0
  0
LINE
  5
4FB
330
2
100
AcDbEntity
  8
L-ZISSEN
100
AcDbLine
 10
965.271117261099
 20
-151.1028462025828
 30
0.0
 11
962.8717422610991
 21
-149.6632212025829
 31
0.0
  0
LINE
  5
4FC
330
2
100
AcDbEntity
  8
L-ZISSEN
100
AcDbLine
 10
969.1101172610995
 20
-150.1430962025828
 30
0.0
 11
965.271117261099
 21
-150.1430962025828
 31
0.0
  0
LINE
  5
4FD
330
2
100
AcDbEntity
  8
L-ZISSEN
100
AcDbLine
 10
969.1101172610995
 20
-150.1430962025828
 30
0.0
 11
965.271117261099
 21
-150.1430962025828
 31
0.0
  0
LINE
  5
4FE
330
2
100
AcDbEntity
  8
L-ZISSEN
100
AcDbLine
 10
969.1101172610995
 20
-149.1833462025829
 30
0.0
 11
965.271117261099
 21
-149.1833462025829
 31
0.0
  0
LINE
  5
4FF
330
2
100
AcDbEntity
  8
L-ZISSEN
100
AcDbLine
 10
969.1101172610995
 20
-149.1833462025829
 30
0.0
 11
965.271117261099
 21
-149.1833462025829
 31
0.0
  0
LINE
  5
500
330
2
100
AcDbEntity
  8
L-ZISSEN
100
AcDbLine
 10
990.0094922611
 20
-148.1575962025822
 30
0.0
 11
990.0094922611
 21
-158.1575962025813
 31
0.0
  0
LINE
  5
501
330
2
100
AcDbEntity
  8
L-ZISSEN
100
AcDbLine
 10
974.3887422611011
 20
-154.9418462025819
 30
0.0
 11
971.5094922611008
 21
-159.7405962025818
 31
0.0
  0
LINE
  5
502
330
2
100
AcDbEntity
  8
L-ZISSEN
100
AcDbLine
 10
983.8094922611
 20
-149.657596202584
 30
0.0
 11
983.8094922610991
 21
-158.1575962025822
 31
0.0
  0
LINE
  5
503
330
2
100
AcDbEntity
  8
L-ZISSEN
100
AcDbLine
 10
981.5868672610974
 20
-144.9575962025828
 30
0.0
 11
981.5868672610974
 21
-163.0997212025827
 31
0.0
  0
LINE
  5
504
330
2
100
AcDbEntity
  8
L-ZISSEN
100
AcDbLine
 10
982.3066797610975
 20
-144.9575962025828
 30
0.0
 11
982.3066797610975
 21
-168.3783462025826
 31
0.0
  0
LINE
  5
505
330
2
100
AcDbEntity
  8
L-ZISSEN
100
AcDbLine
 10
980.6573940220253
 20
-163.8706771529782
 30
0.0
 11
981.5868672610974
 21
-163.0997212025827
 31
0.0
  0
LINE
  5
506
330
2
100
AcDbEntity
  8
L-ZISSEN
100
AcDbLine
 10
980.6573940220253
 20
-163.2325030938791
 30
0.0
 11
981.5868672610974
 21
-163.0997212025827
 31
0.0
  0
LINE
  5
507
330
2
100
AcDbEntity
  8
L-ZISSEN
100
AcDbLine
 10
971.5094922610994
 20
-164.5393462025826
 30
0.0
 11
981.5868672610974
 21
-163.0997212025827
 31
0.0
  0
LINE
  5
508
330
2
100
AcDbEntity
  8
L-ZISSEN
100
AcDbLine
 10
982.3066797610975
 20
-168.3783462025826
 30
0.0
 11
980.6573940220253
 21
-167.3740833899628
 31
0.0
  0
LINE
  5
509
330
2
100
AcDbEntity
  8
L-ZISSEN
100
AcDbLine
 10
980.6573940220253
 20
-163.8706771529782
 30
0.0
 11
980.6573940220253
 21
-167.3740833899628
 31
0.0
  0
LINE
  5
50A
330
2
100
AcDbEntity
  8
L-ZISSEN
100
AcDbLine
 10
971.5094922610994
 20
-164.5393462025826
 30
0.0
 11
971.5094922610994
 21
-165.1775202616818
 31
0.0
  0
LINE
  5
50B
330
2
100
AcDbEntity
  8
L-ZISSEN
100
AcDbLine
 10
971.5094922610994
 20
-165.1775202616818
 30
0.0
 11
980.6573940220253
 21
-163.8706771529782
 31
0.0
  0
LINE
  5
50C
330
2
100
AcDbEntity
  8
L-ZISSEN
100
AcDbLine
 10
983.8094922610991
 20
-158.1575962025822
 30
0.0
 11
982.509492261099
 21
-158.1575962025822
 31
0.0
  0
LINE
  5
50D
330
2
100
AcDbEntity
  8
L-ZISSEN
100
AcDbLine
 10
983.8094922610991
 20
-158.1575962025822
 30
0.0
 11
982.509492261099
 21
-158.1575962025831
 31
0.0
  0
LINE
  5
50E
330
2
100
AcDbEntity
  8
L-ZISSEN
100
AcDbLine
 10
990.0094922611
 20
-158.1575962025813
 30
0.0
 11
983.0094922610999
 21
-158.1575962025822
 31
0.0
  0
LINE
  5
50F
330
2
100
AcDbEntity
  8
L-ZISSEN
100
AcDbLine
 10
973.9088672610995
 20
-150.1430962025819
 30
0.0
 11
977.7478672610994
 21
-150.1430962025819
 31
0.0
  0
LINE
  5
510
330
2
100
AcDbEntity
  8
L-ZISSEN
100
AcDbLine
 10
973.9088672610995
 20
-150.1430962025819
 30
0.0
 11
977.7478672610994
 21
-150.1430962025819
 31
0.0
  0
LINE
  5
511
330
2
100
AcDbEntity
  8
L-ZISSEN
100
AcDbLine
 10
973.9088672610995
 20
-149.183346202582
 30
0.0
 11
977.7478672610994
 21
-149.183346202582
 31
0.0
  0
LINE
  5
512
330
2
100
AcDbEntity
  8
L-ZISSEN
100
AcDbLine
 10
973.9088672610995
 20
-149.183346202582
 30
0.0
 11
977.7478672610994
 21
-149.183346202582
 31
0.0
  0
LINE
  5
513
330
2
100
AcDbEntity
  8
L-ZISSEN
100
AcDbLine
 10
973.9088672610995
 20
-149.183346202582
 30
0.0
 11
973.9088672610995
 21
-150.1430962025819
 31
0.0
  0
LINE
  5
514
330
2
100
AcDbEntity
  8
L-ZISSEN
100
AcDbLine
 10
972.4692422611008
 20
-154.9418462025819
 30
0.0
 11
974.3887422611011
 21
-154.9418462025819
 31
0.0
  0
LINE
  5
515
330
2
100
AcDbEntity
  8
L-ZISSEN
100
AcDbLine
 10
972.4692422611008
 20
-147.263846202582
 30
0.0
 11
972.4692422611008
 21
-154.9418462025819
 31
0.0
  0
LINE
  5
516
330
2
100
AcDbEntity
  8
L-ZISSEN
100
AcDbLine
 10
972.4692422611008
 20
-147.263846202582
 30
0.0
 11
972.4692422611008
 21
-154.9418462025819
 31
0.0
  0
LINE
  5
517
330
2
100
AcDbEntity
  8
L-ZISSEN
100
AcDbLine
 10
977.7478672610994
 20
-149.183346202582
 30
0.0
 11
977.7478672610994
 21
-148.223596202582
 31
0.0
  0
LINE
  5
518
330
2
100
AcDbEntity
  8
L-ZISSEN
100
AcDbLine
 10
977.7478672610994
 20
-150.1430962025819
 30
0.0
 11
977.7478672610994
 21
-151.1028462025819
 31
0.0
  0
LINE
  5
519
330
2
100
AcDbEntity
  8
L-ZISSEN
100
AcDbLine
 10
977.7478672610994
 20
-148.223596202582
 30
0.0
 11
980.1472422610993
 21
-149.663221202582
 31
0.0
  0
LINE
  5
51A
330
2
100
AcDbEntity
  8
L-ZISSEN
100
AcDbLine
 10
977.7478672610994
 20
-151.1028462025819
 30
0.0
 11
980.1472422610993
 21
-149.663221202582
 31
0.0
  0
LINE
  5
51B
330
2
100
AcDbEntity
  8
L-ZISSEN
100
AcDbLine
 10
983.509492261099
 20
-144.6586157022884
 30
0.0
 11
983.509492261099
 21
-144.9575962025828
 31
0.0
  0
LINE
  5
51C
330
2
100
AcDbEntity
  8
L-ZISSEN
100
AcDbLine
 10
983.8094922611
 20
-149.657596202584
 30
0.0
 11
982.509492261099
 21
-149.657596202584
 31
0.0
  0
TEXT
  5
51D
330
2
100
AcDbEntity
  8
L-ZISSEN
100
AcDbText
 10
838.5094922611001
 20
-24.40861570228935
 30
0.0
 40
4.5
  1
P.P
100
AcDbText
  0
LINE
  5
51E
330
2
100
AcDbEntity
  8
L-ZISSEN
100
AcDbLine
 10
864.9730497019051
 20
-33.3782469029602
 30
0.0
 11
851.5094922611002
 21
-22.15861570228935
 31
0.0
  0
LINE
  5
51F
330
2
100
AcDbEntity
  8
L-ZISSEN
100
AcDbLine
 10
851.5094922611002
 20
-22.15861570228935
 30
0.0
 11
849.5094922611
 21
-22.15861570228935
 31
0.0
  0
SOLID
  5
520
330
2
100
AcDbEntity
  8
L-ZISSEN
100
AcDbTrace
 10
864.7596549020169
 20
-33.63432066282621
 30
0.0
 11
865.1864445017933
 21
-33.12217314309464
 31
0.0
 12
866.5094922610999
 22
-34.65861570228935
 32
0.0
 13
866.5094922610999
 23
-34.65861570228935
 33
0.0
  0
LINE
  5
521
330
2
100
AcDbEntity
  8
L-ZISSEN
100
AcDbLine
 10
995.5208466993575
 20
-148.157596202584
 30
0.0
 11
995.5208466993575
 21
-158.1575962025813
 31
0.0
  0
LINE
  5
522
330
2
100
AcDbEntity
  8
L-ZISSEN
100
AcDbLine
 10
1001.645775376525
 20
-144.6586157022889
 30
0.0
 11
1001.465476861326
 21
-158.1575962025831
 31
0.0
  0
LINE
  5
523
330
2
100
AcDbEntity
  8
L-ZISSEN
100
AcDbLine
 10
1000.76535932258
 20
-158.1575962025831
 30
0.0
 11
1001.465476861326
 21
-158.1575962025831
 31
0.0
  0
LINE
  5
524
330
2
100
AcDbEntity
  8
L-ZISSEN
100
AcDbLine
 10
995.5208466993575
 20
-158.1575962025813
 30
0.0
 11
1000.76535932258
 21
-158.1575962025813
 31
0.0
  0
LINE
  5
525
330
2
100
AcDbEntity
  8
L-ZISSEN
100
AcDbLine
 10
650.4766934828428
 20
144.7696778505055
 30
0.0
 11
644.9766934828455
 21
142.8292987368754
 31
0.0
  0
LINE
  5
526
330
2
100
AcDbEntity
  8
L-ZISSEN
100
AcDbLine
 10
646.4766934828442
 20
149.7187846388865
 30
0.0
 11
650.4766934828428
 21
149.0538468331037
 31
0.0
  0
LINE
  5
527
330
2
100
AcDbEntity
  8
L-ZISSEN
100
AcDbLine
 10
641.4766934828414
 20
65.37579503207189
 30
0.0
 11
641.4766934828442
 21
170.7187846388865
 31
0.0
  0
LINE
  5
528
330
2
100
AcDbEntity
  8
L-ZISSEN
100
AcDbLine
 10
636.7566934828444
 20
160.3800457272541
 30
0.0
 11
636.7566934828417
 21
77.88004572725504
 31
0.0
  0
LINE
  5
529
330
2
100
AcDbEntity
  8
L-ZISSEN
100
AcDbLine
 10
586.1966934828417
 20
160.3800457272541
 30
0.0
 11
586.1966934828444
 21
77.88004572725322
 31
0.0
  0
LINE
  5
52A
330
2
100
AcDbEntity
  8
L-ZISSEN
100
AcDbLine
 10
581.4766934828415
 20
65.37579503207189
 30
0.0
 11
581.4766934828441
 21
170.7187846388865
 31
0.0
  0
LINE
  5
52B
330
2
100
AcDbEntity
  8
L-ZISSEN
100
AcDbLine
 10
594.6266934828448
 20
160.3800457272541
 30
0.0
 11
594.6266934828448
 21
77.88004572725549
 31
0.0
  0
LINE
  5
52C
330
2
100
AcDbEntity
  8
L-ZISSEN
100
AcDbLine
 10
628.3266934828414
 20
160.3800457272541
 30
0.0
 11
628.3266934828414
 21
77.88004572725322
 31
0.0
  0
LINE
  5
52D
330
2
100
AcDbEntity
  8
L-ZISSEN
100
AcDbLine
 10
632.5416934828429
 20
75.88004572725322
 30
0.0
 11
636.7566934828398
 21
77.88004572725412
 31
0.0
  0
LINE
  5
52E
330
2
100
AcDbEntity
  8
L-ZISSEN
100
AcDbLine
 10
594.6266934828424
 20
77.88004572725412
 30
0.0
 11
590.4116934828409
 21
75.88004572725322
 31
0.0
  0
LINE
  5
52F
330
2
100
AcDbEntity
  8
L-ZISSEN
100
AcDbLine
 10
590.4116934828409
 20
75.88004572725322
 30
0.0
 11
586.1966934828417
 21
77.88004572725412
 31
0.0
  0
LINE
  5
530
330
2
100
AcDbEntity
  8
L-ZISSEN
100
AcDbLine
 10
628.326693482839
 20
77.88004572725412
 30
0.0
 11
632.5416934828429
 21
75.88004572725322
 31
0.0
  0
LINE
  5
531
330
2
100
AcDbEntity
  8
L-ZISSEN
100
AcDbLine
 10
599.4766934828442
 20
53.91878463888634
 30
0.0
 11
623.4766934828442
 21
53.91878463888634
 31
0.0
  0
LINE
  5
532
330
2
100
AcDbEntity
  8
L-ZISSEN
100
AcDbLine
 10
599.4766934828442
 20
55.41878463888633
 30
0.0
 11
623.4766934828442
 21
55.41878463888633
 31
0.0
  0
LINE
  5
533
330
2
100
AcDbEntity
  8
L-ZISSEN
100
AcDbLine
 10
599.4766934828442
 20
51.41878463888634
 30
0.0
 11
623.4766934828442
 21
51.41878463888634
 31
0.0
  0
LINE
  5
534
330
2
100
AcDbEntity
  8
L-ZISSEN
100
AcDbLine
 10
622.4766934828442
 20
42.41878463888588
 30
0.0
 11
600.4766934828442
 21
42.41878463888588
 31
0.0
  0
LINE
  5
535
330
2
100
AcDbEntity
  8
L-ZISSEN
100
AcDbLine
 10
601.4766934828442
 20
38.91878463888588
 30
0.0
 11
621.4766934828442
 21
38.91878463888588
 31
0.0
  0
LINE
  5
536
330
2
100
AcDbEntity
  8
L-ZISSEN
100
AcDbLine
 10
601.4766934828442
 20
38.21878463888606
 30
0.0
 11
621.4766934828442
 21
38.21878463888606
 31
0.0
  0
LINE
  5
537
330
2
100
AcDbEntity
  8
L-ZISSEN
100
AcDbLine
 10
599.4766934828442
 20
51.41878463888634
 30
0.0
 11
599.4766934828442
 21
55.41878463888633
 31
0.0
  0
LINE
  5
538
330
2
100
AcDbEntity
  8
L-ZISSEN
100
AcDbLine
 10
601.4766934828442
 20
38.91878463888588
 30
0.0
 11
601.4766934828442
 21
42.41878463888588
 31
0.0
  0
LINE
  5
539
330
2
100
AcDbEntity
  8
L-ZISSEN
100
AcDbLine
 10
602.4766934828441
 20
38.21878463888606
 30
0.0
 11
602.4766934828447
 21
38.91878463888588
 31
0.0
  0
LINE
  5
53A
330
2
100
AcDbEntity
  8
L-ZISSEN
100
AcDbLine
 10
600.4766934828442
 20
51.41878463888588
 30
0.0
 11
600.4766934828442
 21
42.41878463888588
 31
0.0
  0
ARC
  5
53B
330
2
100
AcDbEntity
  8
L-ZISSEN
100
AcDbCircle
 10
589.4766934828415
 20
65.37579503207189
 30
0.0
 40
8.000000000000113
100
AcDbArc
 50
180.0
 51
256.0937629347658
  0
ARC
  5
53C
330
2
100
AcDbEntity
  8
L-ZISSEN
100
AcDbCircle
 10
611.4766934828419
 20
154.2321901575428
 30
0.0
 40
99.53938471878538
100
AcDbArc
 50
256.0937629349483
 51
263.0758486315294
  0
LINE
  5
53D
330
2
100
AcDbEntity
  8
L-ZISSEN
100
AcDbLine
 10
623.4766934828442
 20
51.41878463888634
 30
0.0
 11
623.4766934828442
 21
55.41878463888633
 31
0.0
  0
LINE
  5
53E
330
2
100
AcDbEntity
  8
L-ZISSEN
100
AcDbLine
 10
621.4766934828442
 20
38.91878463888588
 30
0.0
 11
621.4766934828444
 21
42.41878463888588
 31
0.0
  0
LINE
  5
53F
330
2
100
AcDbEntity
  8
L-ZISSEN
100
AcDbLine
 10
620.4766934828446
 20
38.21878463888606
 30
0.0
 11
620.4766934828442
 21
38.91878463888588
 31
0.0
  0
LINE
  5
540
330
2
100
AcDbEntity
  8
L-ZISSEN
100
AcDbLine
 10
622.4766934828442
 20
51.41878463888588
 30
0.0
 11
622.4766934828442
 21
42.41878463888588
 31
0.0
  0
ARC
  5
541
330
2
100
AcDbEntity
  8
L-ZISSEN
100
AcDbCircle
 10
611.4766934828419
 20
154.2321901575428
 30
0.0
 40
99.53938471878515
100
AcDbArc
 50
276.9241513684738
 51
283.9062370650414
  0
ARC
  5
542
330
2
100
AcDbEntity
  8
L-ZISSEN
100
AcDbCircle
 10
633.4766934828401
 20
65.37579503207189
 30
0.0
 40
8.000000000000113
100
AcDbArc
 50
283.9062370650517
 51
0.0
  0
LINE
  5
543
330
2
100
AcDbEntity
  8
L-ZISSEN
100
AcDbLine
 10
609.9402509236495
 20
171.9991534382147
 30
0.0
 11
596.4766934828444
 21
183.2187846388856
 31
0.0
  0
LINE
  5
544
330
2
100
AcDbEntity
  8
L-ZISSEN
100
AcDbLine
 10
586.1966934828417
 20
160.3800457272541
 30
0.0
 11
594.6266934828448
 21
160.3800457272541
 31
0.0
  0
LINE
  5
545
330
2
100
AcDbEntity
  8
L-ZISSEN
100
AcDbLine
 10
646.4766934828442
 20
170.7187846388856
 30
0.0
 11
646.4766934828442
 21
149.7187846388865
 31
0.0
  0
LINE
  5
546
330
2
100
AcDbEntity
  8
L-ZISSEN
100
AcDbLine
 10
641.4766934828442
 20
170.7187846388865
 30
0.0
 11
641.4766934828442
 21
129.3947901846872
 31
0.0
  0
LINE
  5
547
330
2
100
AcDbEntity
  8
L-ZISSEN
100
AcDbLine
 10
644.7907888073957
 20
142.8292987368754
 30
0.0
 11
644.7907888073957
 21
170.7187846388856
 31
0.0
  0
LINE
  5
548
330
2
100
AcDbEntity
  8
L-ZISSEN
100
AcDbLine
 10
643.0271146636239
 20
137.2453023534267
 30
0.0
 11
644.7907888073957
 21
144.7252781008705
 31
0.0
  0
LINE
  5
549
330
2
100
AcDbEntity
  8
L-ZISSEN
100
AcDbLine
 10
641.5405308328679
 20
137.5958181242499
 30
0.0
 11
643.3042049766397
 21
145.0757938716938
 31
0.0
  0
LINE
  5
54A
330
2
100
AcDbEntity
  8
L-ZISSEN
100
AcDbLine
 10
643.0271146636239
 20
137.2453023534267
 30
0.0
 11
641.4766934828442
 21
137.2453023534267
 31
0.0
  0
LINE
  5
54B
330
2
100
AcDbEntity
  8
L-ZISSEN
100
AcDbLine
 10
643.3042049766397
 20
146.9117623418046
 30
0.0
 11
643.3042049766397
 21
145.0757938716938
 31
0.0
  0
LINE
  5
54C
330
2
100
AcDbEntity
  8
L-ZISSEN
100
AcDbLine
 10
644.7907888073957
 20
144.7252781008705
 30
0.0
 11
644.7907888073957
 21
146.9117623418055
 31
0.0
  0
LINE
  5
54D
330
2
100
AcDbEntity
  8
L-ZISSEN
100
AcDbLine
 10
644.9766934828455
 20
142.8292987368754
 30
0.0
 11
644.7907888073957
 21
142.8292987368754
 31
0.0
  0
LINE
  5
54E
330
2
100
AcDbEntity
  8
L-ZISSEN
100
AcDbLine
 10
644.7907888073957
 20
146.9117623418055
 30
0.0
 11
641.4766934828442
 21
146.9117623418055
 31
0.0
  0
SOLID
  5
54F
330
2
100
AcDbEntity
  8
L-ZISSEN
100
AcDbTrace
 10
609.7268561237613
 20
171.7430796783487
 30
0.0
 11
610.1536457235376
 21
172.2552271980803
 31
0.0
 12
611.4766934828442
 22
170.7187846388856
 32
0.0
 13
611.4766934828442
 23
170.7187846388856
 33
0.0
  0
LINE
  5
550
330
2
100
AcDbEntity
  8
L-ZISSEN
100
AcDbLine
 10
636.7566934828444
 20
160.3800457272541
 30
0.0
 11
628.3266934828414
 21
160.3800457272541
 31
0.0
  0
TEXT
  5
551
330
2
100
AcDbEntity
  8
L-ZISSEN
100
AcDbText
 10
583.4766934828444
 20
180.9687846388856
 30
0.0
 40
4.5
  1
P.P
100
AcDbText
  0
LINE
  5
552
330
2
100
AcDbEntity
  8
L-ZISSEN
100
AcDbLine
 10
596.4766934828444
 20
183.2187846388856
 30
0.0
 11
594.4766934828444
 21
183.2187846388856
 31
0.0
  0
LINE
  5
553
330
2
100
AcDbEntity
  8
L-ZISSEN
100
AcDbLine
 10
731.4766934828441
 20
65.37579503207189
 30
0.0
 11
731.4766934828441
 21
170.7187846388856
 31
0.0
  0
LINE
  5
554
330
2
100
AcDbEntity
  8
L-ZISSEN
100
AcDbLine
 10
736.196693482844
 20
160.3800457272545
 30
0.0
 11
736.196693482844
 21
77.88004572725412
 31
0.0
  0
LINE
  5
555
330
2
100
AcDbEntity
  8
L-ZISSEN
100
AcDbLine
 10
744.6266934828448
 20
160.3800457272545
 30
0.0
 11
744.6266934828448
 21
77.88004572725412
 31
0.0
  0
LINE
  5
556
330
2
100
AcDbEntity
  8
L-ZISSEN
100
AcDbLine
 10
778.3266934828437
 20
160.3800457272545
 30
0.0
 11
778.3266934828437
 21
77.88004572725322
 31
0.0
  0
LINE
  5
557
330
2
100
AcDbEntity
  8
L-ZISSEN
100
AcDbLine
 10
786.7566934828444
 20
160.3800457272545
 30
0.0
 11
786.7566934828444
 21
77.88004572725322
 31
0.0
  0
LINE
  5
558
330
2
100
AcDbEntity
  8
L-ZISSEN
100
AcDbLine
 10
791.4766934828414
 20
65.37579503207189
 30
0.0
 11
791.4766934828442
 21
170.7187846388869
 31
0.0
  0
ARC
  5
559
330
2
100
AcDbEntity
  8
L-ZISSEN
100
AcDbCircle
 10
739.4766934828415
 20
65.37579503207189
 30
0.0
 40
8.000000000000113
100
AcDbArc
 50
180.0
 51
256.0937629347658
  0
LINE
  5
55A
330
2
100
AcDbEntity
  8
L-ZISSEN
100
AcDbLine
 10
782.5416934828451
 20
75.88004572725322
 30
0.0
 11
786.7566934828444
 21
77.88004572725412
 31
0.0
  0
LINE
  5
55B
330
2
100
AcDbEntity
  8
L-ZISSEN
100
AcDbLine
 10
778.3266934828437
 20
77.88004572725322
 30
0.0
 11
782.5416934828451
 21
75.88004572725322
 31
0.0
  0
LINE
  5
55C
330
2
100
AcDbEntity
  8
L-ZISSEN
100
AcDbLine
 10
744.6266934828448
 20
77.88004572725322
 30
0.0
 11
740.4116934828432
 21
75.88004572725322
 31
0.0
  0
LINE
  5
55D
330
2
100
AcDbEntity
  8
L-ZISSEN
100
AcDbLine
 10
740.4116934828432
 20
75.88004572725322
 30
0.0
 11
736.196693482844
 21
77.88004572725412
 31
0.0
  0
ARC
  5
55E
330
2
100
AcDbEntity
  8
L-ZISSEN
100
AcDbCircle
 10
761.4766934828419
 20
154.2321901575428
 30
0.0
 40
99.53938471878515
100
AcDbArc
 50
276.9241513684738
 51
283.9062370650414
  0
LINE
  5
55F
330
2
100
AcDbEntity
  8
L-ZISSEN
100
AcDbLine
 10
773.4766934828442
 20
51.41878463888634
 30
0.0
 11
773.4766934828442
 21
55.41878463888633
 31
0.0
  0
LINE
  5
560
330
2
100
AcDbEntity
  8
L-ZISSEN
100
AcDbLine
 10
749.4766934828442
 20
51.41878463888634
 30
0.0
 11
749.4766934828442
 21
55.41878463888633
 31
0.0
  0
LINE
  5
561
330
2
100
AcDbEntity
  8
L-ZISSEN
100
AcDbLine
 10
749.4766934828442
 20
51.41878463888634
 30
0.0
 11
773.4766934828442
 21
51.41878463888634
 31
0.0
  0
LINE
  5
562
330
2
100
AcDbEntity
  8
L-ZISSEN
100
AcDbLine
 10
772.4766934828442
 20
42.41878463888542
 30
0.0
 11
750.4766934828442
 21
42.41878463888542
 31
0.0
  0
LINE
  5
563
330
2
100
AcDbEntity
  8
L-ZISSEN
100
AcDbLine
 10
751.4766934828442
 20
38.91878463888542
 30
0.0
 11
771.4766934828442
 21
38.91878463888542
 31
0.0
  0
LINE
  5
564
330
2
100
AcDbEntity
  8
L-ZISSEN
100
AcDbLine
 10
751.4766934828442
 20
38.21878463888651
 30
0.0
 11
771.4766934828442
 21
38.21878463888651
 31
0.0
  0
LINE
  5
565
330
2
100
AcDbEntity
  8
L-ZISSEN
100
AcDbLine
 10
751.4766934828442
 20
38.91878463888542
 30
0.0
 11
751.4766934828442
 21
42.41878463888542
 31
0.0
  0
LINE
  5
566
330
2
100
AcDbEntity
  8
L-ZISSEN
100
AcDbLine
 10
752.4766934828441
 20
38.21878463888651
 30
0.0
 11
752.4766934828447
 21
38.91878463888542
 31
0.0
  0
LINE
  5
567
330
2
100
AcDbEntity
  8
L-ZISSEN
100
AcDbLine
 10
750.4766934828442
 20
51.41878463888542
 30
0.0
 11
750.4766934828442
 21
42.41878463888542
 31
0.0
  0
LINE
  5
568
330
2
100
AcDbEntity
  8
L-ZISSEN
100
AcDbLine
 10
771.4766934828442
 20
38.91878463888542
 30
0.0
 11
771.4766934828444
 21
42.41878463888542
 31
0.0
  0
LINE
  5
569
330
2
100
AcDbEntity
  8
L-ZISSEN
100
AcDbLine
 10
770.4766934828446
 20
38.21878463888651
 30
0.0
 11
770.4766934828442
 21
38.91878463888542
 31
0.0
  0
LINE
  5
56A
330
2
100
AcDbEntity
  8
L-ZISSEN
100
AcDbLine
 10
772.4766934828442
 20
51.41878463888542
 30
0.0
 11
772.4766934828442
 21
42.41878463888542
 31
0.0
  0
LINE
  5
56B
330
2
100
AcDbEntity
  8
L-ZISSEN
100
AcDbLine
 10
749.4766934828442
 20
53.91878463888634
 30
0.0
 11
773.4766934828442
 21
53.91878463888634
 31
0.0
  0
LINE
  5
56C
330
2
100
AcDbEntity
  8
L-ZISSEN
100
AcDbLine
 10
749.4766934828442
 20
55.41878463888633
 30
0.0
 11
773.4766934828442
 21
55.41878463888633
 31
0.0
  0
ARC
  5
56D
330
2
100
AcDbEntity
  8
L-ZISSEN
100
AcDbCircle
 10
761.4766934828419
 20
154.2321901575428
 30
0.0
 40
99.53938471878538
100
AcDbArc
 50
256.0937629349483
 51
263.0758486315294
  0
ARC
  5
56E
330
2
100
AcDbEntity
  8
L-ZISSEN
100
AcDbCircle
 10
783.4766934828401
 20
65.37579503207189
 30
0.0
 40
8.000000000000113
100
AcDbArc
 50
283.9062370650517
 51
0.0
  0
LINE
  5
56F
330
2
100
AcDbEntity
  8
L-ZISSEN
100
AcDbLine
 10
650.4766934828428
 20
149.0538468331037
 30
0.0
 11
650.4766934828428
 21
144.7696778505055
 31
0.0
  0
LINE
  5
570
330
2
100
AcDbEntity
  8
L-ZISSEN
100
AcDbLine
 10
757.7266934828465
 20
156.9687846388869
 30
0.0
 11
761.4766934828464
 21
150.7187846388869
 31
0.0
  0
LINE
  5
571
330
2
100
AcDbEntity
  8
L-ZISSEN
100
AcDbLine
 10
765.2266934828465
 20
156.9687846388869
 30
0.0
 11
761.4766934828464
 21
150.7187846388869
 31
0.0
  0
LINE
  5
572
330
2
100
AcDbEntity
  8
L-ZISSEN
100
AcDbLine
 10
774.6016934828419
 20
170.7187846388856
 30
0.0
 11
774.6016934828419
 21
146.3437846388856
 31
0.0
  0
LINE
  5
573
330
2
100
AcDbEntity
  8
L-ZISSEN
100
AcDbLine
 10
775.5391934828419
 20
170.7187846388856
 30
0.0
 11
775.5391934828419
 21
146.9295092717529
 31
0.0
  0
LINE
  5
574
330
2
100
AcDbEntity
  8
L-ZISSEN
100
AcDbLine
 10
775.5391934828419
 20
170.7187846388856
 30
0.0
 11
775.5391934828419
 21
131.9687846388856
 31
0.0
  0
LINE
  5
575
330
2
100
AcDbEntity
  8
L-ZISSEN
100
AcDbLine
 10
748.3516934828419
 20
170.7187846388856
 30
0.0
 11
748.3516934828419
 21
146.3437846388856
 31
0.0
  0
LINE
  5
576
330
2
100
AcDbEntity
  8
L-ZISSEN
100
AcDbLine
 10
747.4141934828419
 20
170.7187846388856
 30
0.0
 11
747.4141934828419
 21
146.9295092717529
 31
0.0
  0
LINE
  5
577
330
2
100
AcDbEntity
  8
L-ZISSEN
100
AcDbLine
 10
747.4141934828419
 20
170.7187846388856
 30
0.0
 11
747.4141934828419
 21
131.9687846388856
 31
0.0
  0
LINE
  5
578
330
2
100
AcDbEntity
  8
L-ZISSEN
100
AcDbLine
 10
748.6641934828441
 20
130.7187846388856
 30
0.0
 11
774.2891934828442
 21
130.7187846388856
 31
0.0
  0
LINE
  5
579
330
2
100
AcDbEntity
  8
L-ZISSEN
100
AcDbLine
 10
761.4766934828442
 20
135.7187846388856
 30
0.0
 11
747.4141934828419
 21
139.4687846388856
 31
0.0
  0
LINE
  5
57A
330
2
100
AcDbEntity
  8
L-ZISSEN
100
AcDbLine
 10
761.4766934828442
 20
143.6376123816585
 30
0.0
 11
749.5622603480098
 21
145.339674258063
 31
0.0
  0
LINE
  5
57B
330
2
100
AcDbEntity
  8
L-ZISSEN
100
AcDbLine
 10
749.5622603480098
 20
140.7767591278411
 30
0.0
 11
761.4766934828442
 21
138.2824011534103
 31
0.0
  0
LINE
  5
57C
330
2
100
AcDbEntity
  8
L-ZISSEN
100
AcDbLine
 10
761.4766934828442
 20
144.4687846388856
 30
0.0
 11
748.3516934828419
 21
146.3437846388856
 31
0.0
  0
ARC
  5
57D
330
2
100
AcDbEntity
  8
L-ZISSEN
100
AcDbCircle
 10
748.6641934828441
 20
131.9687846388856
 30
0.0
 40
1.250000000000568
100
AcDbArc
 50
180.0
 51
270.0
  0
LINE
  5
57E
330
2
100
AcDbEntity
  8
L-ZISSEN
100
AcDbLine
 10
752.1016934828442
 20
138.2187846388865
 30
0.0
 11
752.1016934828419
 21
130.7187846388856
 31
0.0
  0
LINE
  5
57F
330
2
100
AcDbEntity
  8
L-ZISSEN
100
AcDbLine
 10
749.5622603480098
 20
145.339674258063
 30
0.0
 11
749.5622603480098
 21
140.7767591278411
 31
0.0
  0
LINE
  5
580
330
2
100
AcDbEntity
  8
L-ZISSEN
100
AcDbLine
 10
749.5622603480098
 20
145.339674258063
 30
0.0
 11
748.3516934828419
 21
146.3437846388856
 31
0.0
  0
LINE
  5
581
330
2
100
AcDbEntity
  8
L-ZISSEN
100
AcDbLine
 10
749.5622603480098
 20
146.1708465152905
 30
0.0
 11
748.3516934828419
 21
146.3437846388856
 31
0.0
  0
LINE
  5
582
330
2
100
AcDbEntity
  8
L-ZISSEN
100
AcDbLine
 10
747.4141934828419
 20
139.4687846388856
 30
0.0
 11
749.5622603480098
 21
140.7767591278411
 31
0.0
  0
LINE
  5
583
330
2
100
AcDbEntity
  8
L-ZISSEN
100
AcDbLine
 10
773.3911266176785
 20
140.7767591278411
 30
0.0
 11
761.4766934828442
 21
138.2824011534103
 31
0.0
  0
LINE
  5
584
330
2
100
AcDbEntity
  8
L-ZISSEN
100
AcDbLine
 10
761.4766934828442
 20
135.7187846388856
 30
0.0
 11
775.5391934828419
 21
139.4687846388856
 31
0.0
  0
ARC
  5
585
330
2
100
AcDbEntity
  8
L-ZISSEN
100
AcDbCircle
 10
761.4766934828442
 20
134.4687846388856
 30
0.0
 40
1.250000000000568
100
AcDbArc
 50
180.0
 51
0.0
  0
LINE
  5
586
330
2
100
AcDbEntity
  8
L-ZISSEN
100
AcDbLine
 10
760.2266934828419
 20
136.05211797222
 30
0.0
 11
760.2266934828442
 21
134.4687846388856
 31
0.0
  0
LINE
  5
587
330
2
100
AcDbEntity
  8
L-ZISSEN
100
AcDbLine
 10
762.7266934828441
 20
136.0521179722195
 30
0.0
 11
762.7266934828441
 21
134.4687846388856
 31
0.0
  0
LINE
  5
588
330
2
100
AcDbEntity
  8
L-ZISSEN
100
AcDbLine
 10
761.4766934828442
 20
135.7187846388856
 30
0.0
 11
761.4766934828442
 21
138.2824011534103
 31
0.0
  0
ARC
  5
589
330
2
100
AcDbEntity
  8
L-ZISSEN
100
AcDbCircle
 10
774.2891934828442
 20
131.9687846388856
 30
0.0
 40
1.249999999999715
100
AcDbArc
 50
270.0
 51
0.0
  0
LINE
  5
58A
330
2
100
AcDbEntity
  8
L-ZISSEN
100
AcDbLine
 10
770.8516934828419
 20
138.2187846388856
 30
0.0
 11
770.8516934828419
 21
130.7187846388856
 31
0.0
  0
LINE
  5
58B
330
2
100
AcDbEntity
  8
L-ZISSEN
100
AcDbLine
 10
761.4766934828442
 20
143.6376123816585
 30
0.0
 11
773.3911266176785
 21
145.339674258063
 31
0.0
  0
LINE
  5
58C
330
2
100
AcDbEntity
  8
L-ZISSEN
100
AcDbLine
 10
761.4766934828442
 20
144.4687846388856
 30
0.0
 11
774.6016934828419
 21
146.3437846388856
 31
0.0
  0
CIRCLE
  5
58D
330
2
100
AcDbEntity
  8
L-ZISSEN
100
AcDbCircle
 10
761.4766934828442
 20
140.7223299377124
 30
0.0
 40
1.25
  0
LINE
  5
58E
330
2
100
AcDbEntity
  8
L-TYUSIN
100
AcDbLine
 10
759.2898999202891
 20
140.7223299377124
 30
0.0
 11
763.4846798952009
 21
140.7223299377124
 31
0.0
  0
LINE
  5
58F
330
2
100
AcDbEntity
  8
L-ZISSEN
100
AcDbLine
 10
761.4766934828442
 20
144.4687846388856
 30
0.0
 11
761.4766934828442
 21
143.6376123816585
 31
0.0
  0
LINE
  5
590
330
2
100
AcDbEntity
  8
L-ZISSEN
100
AcDbLine
 10
773.3911266176785
 20
145.339674258063
 30
0.0
 11
773.3911266176785
 21
140.7767591278411
 31
0.0
  0
LINE
  5
591
330
2
100
AcDbEntity
  8
L-ZISSEN
100
AcDbLine
 10
775.5391934828419
 20
139.4687846388856
 30
0.0
 11
773.3911266176785
 21
140.7767591278411
 31
0.0
  0
LINE
  5
592
330
2
100
AcDbEntity
  8
L-ZISSEN
100
AcDbLine
 10
773.3911266176785
 20
146.1708465152905
 30
0.0
 11
774.6016934828419
 21
146.3437846388856
 31
0.0
  0
LINE
  5
593
330
2
100
AcDbEntity
  8
L-ZISSEN
100
AcDbLine
 10
773.3911266176785
 20
145.339674258063
 30
0.0
 11
774.6016934828419
 21
146.3437846388856
 31
0.0
  0
LINE
  5
594
330
2
100
AcDbEntity
  8
L-ZISSEN
100
AcDbLine
 10
758.3516934828442
 20
164.4687846388856
 30
0.0
 11
753.3516934828441
 21
164.4687846388856
 31
0.0
  0
LINE
  5
595
330
2
100
AcDbEntity
  8
L-ZISSEN
100
AcDbLine
 10
758.3516934828442
 20
164.4687846388856
 30
0.0
 11
753.3516934828441
 21
164.4687846388856
 31
0.0
  0
LINE
  5
596
330
2
100
AcDbEntity
  8
L-ZISSEN
100
AcDbLine
 10
758.3516934828442
 20
163.2187846388856
 30
0.0
 11
753.3516934828441
 21
163.2187846388856
 31
0.0
  0
LINE
  5
597
330
2
100
AcDbEntity
  8
L-ZISSEN
100
AcDbLine
 10
758.3516934828442
 20
163.2187846388856
 30
0.0
 11
753.3516934828441
 21
163.2187846388856
 31
0.0
  0
LINE
  5
598
330
2
100
AcDbEntity
  8
L-ZISSEN
100
AcDbLine
 10
753.3516934828441
 20
161.9687846388856
 30
0.0
 11
750.2266934828441
 21
163.8437846388856
 31
0.0
  0
LINE
  5
599
330
2
100
AcDbEntity
  8
L-ZISSEN
100
AcDbLine
 10
736.196693482844
 20
160.3800457272545
 30
0.0
 11
744.6266934828448
 21
160.3800457272545
 31
0.0
  0
LINE
  5
59A
330
2
100
AcDbEntity
  8
L-ZISSEN
100
AcDbLine
 10
753.3516934828441
 20
163.2187846388856
 30
0.0
 11
753.3516934828441
 21
161.9687846388856
 31
0.0
  0
LINE
  5
59B
330
2
100
AcDbEntity
  8
L-ZISSEN
100
AcDbLine
 10
753.3516934828441
 20
165.7187846388856
 30
0.0
 11
750.2266934828441
 21
163.8437846388856
 31
0.0
  0
LINE
  5
59C
330
2
100
AcDbEntity
  8
L-ZISSEN
100
AcDbLine
 10
753.3516934828441
 20
164.4687846388856
 30
0.0
 11
753.3516934828441
 21
165.7187846388856
 31
0.0
  0
LINE
  5
59D
330
2
100
AcDbEntity
  8
L-ZISSEN
100
AcDbLine
 10
769.6016934828442
 20
161.9687846388865
 30
0.0
 11
772.7266934828442
 21
163.8437846388865
 31
0.0
  0
LINE
  5
59E
330
2
100
AcDbEntity
  8
L-ZISSEN
100
AcDbLine
 10
758.3516934828442
 20
164.4687846388856
 30
0.0
 11
758.3516934828442
 21
163.2187846388856
 31
0.0
  0
LINE
  5
59F
330
2
100
AcDbEntity
  8
L-ZISSEN
100
AcDbLine
 10
764.6016934828442
 20
164.4687846388865
 30
0.0
 11
764.6016934828442
 21
163.2187846388865
 31
0.0
  0
LINE
  5
5A0
330
2
100
AcDbEntity
  8
L-ZISSEN
100
AcDbLine
 10
760.2266934828464
 20
166.9687846388869
 30
0.0
 11
760.2266934828464
 21
156.9687846388869
 31
0.0
  0
LINE
  5
5A1
330
2
100
AcDbEntity
  8
L-ZISSEN
100
AcDbLine
 10
760.2266934828464
 20
166.9687846388869
 30
0.0
 11
760.2266934828464
 21
156.9687846388869
 31
0.0
  0
LINE
  5
5A2
330
2
100
AcDbEntity
  8
L-ZISSEN
100
AcDbLine
 10
762.7266934828464
 20
166.9687846388869
 30
0.0
 11
762.7266934828464
 21
156.9687846388869
 31
0.0
  0
LINE
  5
5A3
330
2
100
AcDbEntity
  8
L-ZISSEN
100
AcDbLine
 10
762.7266934828464
 20
166.9687846388869
 30
0.0
 11
762.7266934828464
 21
156.9687846388869
 31
0.0
  0
LINE
  5
5A4
330
2
100
AcDbEntity
  8
L-ZISSEN
100
AcDbLine
 10
764.6016934828442
 20
163.2187846388865
 30
0.0
 11
769.6016934828442
 21
163.2187846388865
 31
0.0
  0
LINE
  5
5A5
330
2
100
AcDbEntity
  8
L-ZISSEN
100
AcDbLine
 10
764.6016934828442
 20
163.2187846388865
 30
0.0
 11
769.6016934828442
 21
163.2187846388865
 31
0.0
  0
LINE
  5
5A6
330
2
100
AcDbEntity
  8
L-ZISSEN
100
AcDbLine
 10
760.2266934828464
 20
156.9687846388869
 30
0.0
 11
757.7266934828465
 21
156.9687846388869
 31
0.0
  0
LINE
  5
5A7
330
2
100
AcDbEntity
  8
L-ZISSEN
100
AcDbLine
 10
762.7266934828464
 20
156.9687846388869
 30
0.0
 11
765.2266934828465
 21
156.9687846388869
 31
0.0
  0
LINE
  5
5A8
330
2
100
AcDbEntity
  8
L-ZISSEN
100
AcDbLine
 10
769.6016934828442
 20
163.2187846388865
 30
0.0
 11
769.6016934828442
 21
161.9687846388865
 31
0.0
  0
LINE
  5
5A9
330
2
100
AcDbEntity
  8
L-ZISSEN
100
AcDbLine
 10
764.6016934828442
 20
164.4687846388865
 30
0.0
 11
769.6016934828442
 21
164.4687846388865
 31
0.0
  0
LINE
  5
5AA
330
2
100
AcDbEntity
  8
L-ZISSEN
100
AcDbLine
 10
764.6016934828442
 20
164.4687846388865
 30
0.0
 11
769.6016934828442
 21
164.4687846388865
 31
0.0
  0
LINE
  5
5AB
330
2
100
AcDbEntity
  8
L-ZISSEN
100
AcDbLine
 10
762.7266934828464
 20
166.9687846388869
 30
0.0
 11
760.2266934828464
 21
166.9687846388869
 31
0.0
  0
LINE
  5
5AC
330
2
100
AcDbEntity
  8
L-ZISSEN
100
AcDbLine
 10
769.6016934828442
 20
165.7187846388865
 30
0.0
 11
772.7266934828442
 21
163.8437846388865
 31
0.0
  0
LINE
  5
5AD
330
2
100
AcDbEntity
  8
L-ZISSEN
100
AcDbLine
 10
769.6016934828442
 20
164.4687846388865
 30
0.0
 11
769.6016934828442
 21
165.7187846388865
 31
0.0
  0
LINE
  5
5AE
330
2
100
AcDbEntity
  8
L-ZISSEN
100
AcDbLine
 10
786.7566934828444
 20
160.3800457272545
 30
0.0
 11
778.3266934828437
 21
160.3800457272545
 31
0.0
  0
TEXT
  5
5AF
330
2
100
AcDbEntity
  8
L-ZISSEN
100
AcDbText
 10
578.3856097840739
 20
320.1365562819901
 30
0.0
 40
4.5
  1
MODEL NO. CH8- 00-*02*
100
AcDbText
  0
TEXT
  5
5B0
330
2
100
AcDbEntity
  8
L-ZISSEN
100
AcDbText
 10
638.5055439364555
 20
323.4255300909967
 30
0.0
 40
4.5
  1
6
100
AcDbText
  0
TEXT
  5
5B1
330
2
100
AcDbEntity
  8
L-ZISSEN
100
AcDbText
 10
638.5055439364555
 20
317.0685118049632
 30
0.0
 40
4.5
  1
8
100
AcDbText
  0
LINE
  5
5B2
330
2
100
AcDbEntity
  8
L-ZISSEN
100
AcDbLine
 10
864.9402509236493
 20
281.9991534382143
 30
0.0
 11
851.4766934828442
 21
293.2187846388851
 31
0.0
  0
TEXT
  5
5B3
330
2
100
AcDbEntity
  8
L-ZISSEN
100
AcDbText
 10
838.4766934828443
 20
290.9687846388851
 30
0.0
 40
4.5
  1
P.P
100
AcDbText
  0
LINE
  5
5B4
330
2
100
AcDbEntity
  8
L-ZISSEN
100
AcDbLine
 10
851.4766934828442
 20
293.2187846388851
 30
0.0
 11
849.4766934828442
 21
293.2187846388851
 31
0.0
  0
SOLID
  5
5B5
330
2
100
AcDbEntity
  8
L-ZISSEN
100
AcDbTrace
 10
864.7268561237611
 20
281.7430796783483
 30
0.0
 11
865.1536457235375
 21
282.2552271980798
 31
0.0
 12
866.476693482844
 22
280.7187846388851
 32
0.0
 13
866.476693482844
 23
280.7187846388851
 33
0.0
  0
ENDSEC
  0
SECTION
  2
OBJECTS
  0
DICTIONARY
  5
A
330
0
100
AcDbDictionary
  3
ACAD_GROUP
350
25
  3
ACAD_LAYOUT
350
E
  3
ACAD_MLINESTYLE
350
26
  3
ACAD_PLOTSETTINGS
350
27
1001
ACAD
1000
TREAT_AS_HARD
1070
     0
1000
TREAT_AS_HARD
1070
     0
  0
DICTIONARY
  5
16
330
15
100
AcDbDictionary
  3
ACAD_LAYERSTATES
350
17
1001
ACAD
1000
TREAT_AS_HARD
1070
     1
1000
TREAT_AS_HARD
1070
     1
  0
DICTIONARY
  5
3
330
2
100
AcDbDictionary
  3
ACAD_LAYOUTSELFREF
350
5BD
1001
ACAD
1000
TREAT_AS_HARD
1070
     1
1000
TREAT_AS_HARD
1070
     1
  0
DICTIONARY
  5
10
330
F
100
AcDbDictionary
  3
ACAD_LAYOUTSELFREF
350
5BE
1001
ACAD
1000
TREAT_AS_HARD
1070
     1
1000
TREAT_AS_HARD
1070
     1
  0
DICTIONARY
  5
25
102
{ACAD_REACTORS
330
A
102
}
330
A
100
AcDbDictionary
1001
ACAD
1000
TREAT_AS_HARD
1070
     0
1000
TREAT_AS_HARD
1070
     0
  0
DICTIONARY
  5
E
102
{ACAD_REACTORS
330
A
102
}
330
A
100
AcDbDictionary
1001
ACAD
1000
TREAT_AS_HARD
1070
     0
1000
TREAT_AS_HARD
1070
     0
  0
DICTIONARY
  5
26
102
{ACAD_REACTORS
330
A
102
}
330
A
100
AcDbDictionary
  3
STANDARD
350
2A
1001
ACAD
1000
TREAT_AS_HARD
1070
     0
1000
TREAT_AS_HARD
1070
     0
  0
DICTIONARY
  5
27
102
{ACAD_REACTORS
330
A
102
}
330
A
100
AcDbDictionary
1001
ACAD
1000
TREAT_AS_HARD
1070
     0
1000
TREAT_AS_HARD
1070
     0
  0
DICTIONARY
  5
17
102
{ACAD_REACTORS
330
16
102
}
330
16
100
AcDbDictionary
1001
ACAD
1000
TREAT_AS_HARD
1070
     0
1000
TREAT_AS_HARD
1070
     0
  0
XRECORD
  5
5BD
102
{ACAD_REACTORS
330
3
102
}
330
3
100
AcDbXrecord
340
2
  0
XRECORD
  5
5BE
102
{ACAD_REACTORS
330
10
102
}
330
10
100
AcDbXrecord
340
F
  0
MLINESTYLE
  5
2A
102
{ACAD_REACTORS
330
26
102
}
330
26
100
AcDbMlineStyle
  2
STANDARD
 70
     0
  3

 62
     0
 51
90.0
 52
90.0
 71
     2
 49
0.5
 62
   256
  6
BYLAYER
 49
-0.5
 62
   256
  6
BYLAYER
  0
ENDSEC
  0
EOF
