  0
SECTION
  2
HEADER
  9
$ACADVER
  1
AC1012
  9
$DWGCODEPAGE
  3
dos932
  9
$INSBASE
 10
0.0
 20
0.0
 30
0.0
  9
$EXTMIN
 10
-59.89463512603174
 20
-154.0313319692231
 30
0.0
  9
$EXTMAX
 10
906.9252161219765
 20
305.4250498064329
 30
0.0
  9
$LIMMIN
 10
0.0
 20
0.0
  9
$LIMMAX
 10
297.0
 20
210.0
  9
$ORTHOMODE
 70
     1
  9
$REGENMODE
 70
     1
  9
$FILLMODE
 70
     1
  9
$QTEXTMODE
 70
     0
  9
$MIRRTEXT
 70
     1
  9
$DRAGMODE
 70
     2
  9
$LTSCALE
 40
1.0
  9
$OSMODE
 70
    39
  9
$ATTMODE
 70
     1
  9
$TEXTSIZE
 40
5.599999999999999
  9
$TRACEWID
 40
0.05
  9
$TEXTSTYLE
  7
STANDARD
  9
$CLAYER
  8
L-TYUSIN
  9
$CELTYPE
  6
BYLAYER
  9
$CECOLOR
 62
   256
  9
$CELTSCALE
 40
1.0
  9
$DELOBJ
 70
     1
  9
$DISPSILH
 70
     0
  9
$DIMSCALE
 40
2.0
  9
$DIMASZ
 40
2.0
  9
$DIMEXO
 40
1.0
  9
$DIMDLI
 40
8.0
  9
$DIMRND
 40
0.0
  9
$DIMDLE
 40
0.0
  9
$DIMEXE
 40
0.8
  9
$DIMTP
 40
0.0
  9
$DIMTM
 40
0.0
  9
$DIMTXT
 40
2.799999999999999
  9
$DIMCEN
 40
0.0
  9
$DIMTSZ
 40
0.0
  9
$DIMTOL
 70
     0
  9
$DIMLIM
 70
     0
  9
$DIMTIH
 70
     0
  9
$DIMTOH
 70
     0
  9
$DIMSE1
 70
     0
  9
$DIMSE2
 70
     0
  9
$DIMTAD
 70
     0
  9
$DIMZIN
 70
    12
  9
$DIMBLK
  1

  9
$DIMASO
 70
     1
  9
$DIMSHO
 70
     0
  9
$DIMPOST
  1

  9
$DIMAPOST
  1

  9
$DIMALT
 70
     0
  9
$DIMALTD
 70
     2
  9
$DIMALTF
 40
25.4
  9
$DIMLFAC
 40
1.0
  9
$DIMTOFL
 70
     1
  9
$DIMTVP
 40
1.0
  9
$DIMTIX
 70
     1
  9
$DIMSOXD
 70
     0
  9
$DIMSAH
 70
     0
  9
$DIMBLK1
  1

  9
$DIMBLK2
  1

  9
$DIMSTYLE
  2
STANDARD
  9
$DIMCLRD
 70
     0
  9
$DIMCLRE
 70
     0
  9
$DIMCLRT
 70
     0
  9
$DIMTFAC
 40
1.0
  9
$DIMGAP
 40
0.8
  9
$DIMJUST
 70
     0
  9
$DIMSD1
 70
     0
  9
$DIMSD2
 70
     0
  9
$DIMTOLJ
 70
     1
  9
$DIMTZIN
 70
     0
  9
$DIMALTZ
 70
     0
  9
$DIMALTTZ
 70
     0
  9
$DIMFIT
 70
     3
  9
$DIMUPT
 70
     0
  9
$DIMUNIT
 70
     2
  9
$DIMDEC
 70
     8
  9
$DIMTDEC
 70
     8
  9
$DIMALTU
 70
     2
  9
$DIMALTTD
 70
     2
  9
$DIMTXSTY
  7
STANDARD
  9
$DIMAUNIT
 70
     0
  9
$LUNITS
 70
     2
  9
$LUPREC
 70
     4
  9
$SKETCHINC
 40
0.1
  9
$FILLETRAD
 40
1.5
  9
$AUNITS
 70
     0
  9
$AUPREC
 70
     0
  9
$MENU
  1
.
  9
$ELEVATION
 40
0.0
  9
$PELEVATION
 40
0.0
  9
$THICKNESS
 40
0.0
  9
$LIMCHECK
 70
     0
  9
$BLIPMODE
 70
     0
  9
$CHAMFERA
 40
3.0
  9
$CHAMFERB
 40
3.0
  9
$CHAMFERC
 40
0.0
  9
$CHAMFERD
 40
0.0
  9
$SKPOLY
 70
     0
  9
$TDCREATE
 40
2453354.092125822
  9
$TDUPDATE
 40
2455072.575815972
  9
$TDINDWG
 40
11.5322411343
  9
$TDUSRTIMER
 40
11.5322411343
  9
$USRTIMER
 70
     1
  9
$ANGBASE
 50
0.0
  9
$ANGDIR
 70
     0
  9
$PDMODE
 70
     0
  9
$PDSIZE
 40
0.0
  9
$PLINEWID
 40
0.0
  9
$COORDS
 70
     0
  9
$SPLFRAME
 70
     0
  9
$SPLINETYPE
 70
     6
  9
$SPLINESEGS
 70
     8
  9
$ATTDIA
 70
     0
  9
$ATTREQ
 70
     1
  9
$HANDLING
 70
-16383
  9
$HANDSEED
  5
62A
  9
$SURFTAB1
 70
     6
  9
$SURFTAB2
 70
     6
  9
$SURFTYPE
 70
     6
  9
$SURFU
 70
     6
  9
$SURFV
 70
     6
  9
$UCSNAME
  2

  9
$UCSORG
 10
0.0
 20
0.0
 30
0.0
  9
$UCSXDIR
 10
1.0
 20
0.0
 30
0.0
  9
$UCSYDIR
 10
0.0
 20
1.0
 30
0.0
  9
$PUCSNAME
  2

  9
$PUCSORG
 10
0.0
 20
0.0
 30
0.0
  9
$PUCSXDIR
 10
1.0
 20
0.0
 30
0.0
  9
$PUCSYDIR
 10
0.0
 20
1.0
 30
0.0
  9
$USERI1
 70
     0
  9
$USERI2
 70
     0
  9
$USERI3
 70
     0
  9
$USERI4
 70
     0
  9
$USERI5
 70
     0
  9
$USERR1
 40
0.0
  9
$USERR2
 40
0.0
  9
$USERR3
 40
0.0
  9
$USERR4
 40
0.0
  9
$USERR5
 40
0.0
  9
$WORLDVIEW
 70
     1
  9
$SHADEDGE
 70
     3
  9
$SHADEDIF
 70
    70
  9
$TILEMODE
 70
     1
  9
$MAXACTVP
 70
    48
  9
$PINSBASE
 10
0.0
 20
0.0
 30
0.0
  9
$PLIMCHECK
 70
     0
  9
$PEXTMIN
 10
0.0
 20
0.0
 30
0.0
  9
$PEXTMAX
 10
0.0
 20
0.0
 30
0.0
  9
$PLIMMIN
 10
0.0
 20
0.0
  9
$PLIMMAX
 10
0.0
 20
0.0
  9
$UNITMODE
 70
     0
  9
$VISRETAIN
 70
     0
  9
$PLINEGEN
 70
     0
  9
$PSLTSCALE
 70
     0
  9
$TREEDEPTH
 70
  3020
  9
$PICKSTYLE
 70
     1
  9
$CMLSTYLE
  2
STANDARD
  9
$CMLJUST
 70
     0
  9
$CMLSCALE
 40
1.0
  9
$SAVEIMAGES
 70
     1
  0
ENDSEC
  0
SECTION
  2
CLASSES
  0
CLASS
  1
ACDBDICTIONARYWDFLT
  2
AcDbDictionaryWithDefault
  3
AutoCAD 2000
 90
    32768
280
     0
281
     0
  0
CLASS
  1
ACDBPLACEHOLDER
  2
AcDbPlaceHolder
  3
AutoCAD 2000
 90
    32768
280
     0
281
     0
  0
CLASS
  1
LAYOUT
  2
AcDbLayout
  3
AutoCAD 2000
 90
    32768
280
     0
281
     0
  0
CLASS
  1
DICTIONARYVAR
  2
AcDbDictionaryVar
  3
AutoCAD 2000
 90
    32768
280
     0
281
     0
  0
CLASS
  1
TABLESTYLE
  2
AcDbTableStyle
  3
ObjectDBX Classes
 90
    34815
280
     1
281
     0
  0
CLASS
  1
ACAD_PROXY_OBJECT_WRAPPER
  2
AcDbProxyObjectWrapper
  3
AutoCAD 2000
 90
    32768
280
     0
281
     0
  0
CLASS
  1
LONG_TRANSACTION
  2
AcDbLongTransaction
  3
AutoCAD 2000
 90
    32768
280
     0
281
     0
  0
CLASS
  1
LWPOLYLINE
  2
AcDbPolyline
  3
AutoCAD 2000
 90
    32768
280
     0
281
     1
  0
CLASS
  1
HATCH
  2
AcDbHatch
  3
AutoCAD 2000
 90
    32768
280
     0
281
     1
  0
CLASS
  1
XRECORD
  2
AcDbXrecord
  3
AutoCAD 2000
 90
    32768
280
     0
281
     0
  0
CLASS
  1
LONG_TRANSACTION
  2
AcDbLongTransaction
  3
AutoCAD 2000
 90
    32768
280
     0
281
     0
  0
CLASS
  1
LWPOLYLINE
  2
AcDbPolyline
  3
AutoCAD 2000
 90
    32768
280
     0
281
     1
  0
CLASS
  1
HATCH
  2
AcDbHatch
  3
AutoCAD 2000
 90
    32768
280
     0
281
     1
  0
CLASS
  1
XRECORD
  2
AcDbXrecord
  3
AutoCAD 2000
 90
    32768
280
     0
281
     0
  0
CLASS
  1
LONG_TRANSACTION
  2
AcDbLongTransaction
  3
AutoCAD 2000
 90
    32768
280
     0
281
     0
  0
CLASS
  1
LWPOLYLINE
  2
AcDbPolyline
  3
AutoCAD 2000
 90
    32768
280
     0
281
     1
  0
CLASS
  1
HATCH
  2
AcDbHatch
  3
AutoCAD 2000
 90
    32768
280
     0
281
     1
  0
CLASS
  1
XRECORD
  2
AcDbXrecord
  3
AutoCAD 2000
 90
    32768
280
     0
281
     0
  0
CLASS
  1
LONG_TRANSACTION
  2
AcDbLongTransaction
  3
AutoCAD 2000
 90
    32768
280
     0
281
     0
  0
CLASS
  1
LWPOLYLINE
  2
AcDbPolyline
  3
AutoCAD 2000
 90
    32768
280
     0
281
     1
  0
CLASS
  1
HATCH
  2
AcDbHatch
  3
AutoCAD 2000
 90
    32768
280
     0
281
     1
  0
CLASS
  1
XRECORD
  2
AcDbXrecord
  3
AutoCAD 2000
 90
    32768
280
     0
281
     0
  0
CLASS
  1
LONG_TRANSACTION
  2
AcDbLongTransaction
  3
AutoCAD 2000
 90
    32768
280
     0
281
     0
  0
CLASS
  1
LWPOLYLINE
  2
AcDbPolyline
  3
AutoCAD 2000
 90
    32768
280
     0
281
     1
  0
CLASS
  1
HATCH
  2
AcDbHatch
  3
AutoCAD 2000
 90
    32768
280
     0
281
     1
  0
CLASS
  1
XRECORD
  2
AcDbXrecord
  3
AutoCAD 2000
 90
    32768
280
     0
281
     0
  0
CLASS
  1
LONG_TRANSACTION
  2
AcDbLongTransaction
  3
AutoCAD 2000
 90
    32768
280
     0
281
     0
  0
CLASS
  1
LWPOLYLINE
  2
AcDbPolyline
  3
AutoCAD 2000
 90
    32768
280
     0
281
     1
  0
CLASS
  1
HATCH
  2
AcDbHatch
  3
AutoCAD 2000
 90
    32768
280
     0
281
     1
  0
CLASS
  1
XRECORD
  2
AcDbXrecord
  3
AutoCAD 2000
 90
    32768
280
     0
281
     0
  0
CLASS
  1
LONG_TRANSACTION
  2
AcDbLongTransaction
  3
AutoCAD 2000
 90
    32768
280
     0
281
     0
  0
CLASS
  1
LWPOLYLINE
  2
AcDbPolyline
  3
AutoCAD 2000
 90
    32768
280
     0
281
     1
  0
CLASS
  1
HATCH
  2
AcDbHatch
  3
AutoCAD 2000
 90
    32768
280
     0
281
     1
  0
CLASS
  1
XRECORD
  2
AcDbXrecord
  3
AutoCAD 2000
 90
    32768
280
     0
281
     0
  0
CLASS
  1
LONG_TRANSACTION
  2
AcDbLongTransaction
  3
AutoCAD 2000
 90
    32768
280
     0
281
     0
  0
CLASS
  1
LWPOLYLINE
  2
AcDbPolyline
  3
AutoCAD 2000
 90
    32768
280
     0
281
     1
  0
CLASS
  1
HATCH
  2
AcDbHatch
  3
AutoCAD 2000
 90
    32768
280
     0
281
     1
  0
CLASS
  1
XRECORD
  2
AcDbXrecord
  3
AutoCAD 2000
 90
    32768
280
     0
281
     0
  0
CLASS
  1
LONG_TRANSACTION
  2
AcDbLongTransaction
  3
AutoCAD 2000
 90
    32768
280
     0
281
     0
  0
CLASS
  1
LWPOLYLINE
  2
AcDbPolyline
  3
AutoCAD 2000
 90
    32768
280
     0
281
     1
  0
CLASS
  1
HATCH
  2
AcDbHatch
  3
AutoCAD 2000
 90
    32768
280
     0
281
     1
  0
CLASS
  1
XRECORD
  2
AcDbXrecord
  3
AutoCAD 2000
 90
    32768
280
     0
281
     0
  0
CLASS
  1
LONG_TRANSACTION
  2
AcDbLongTransaction
  3
AutoCAD 2000
 90
    32768
280
     0
281
     0
  0
CLASS
  1
LWPOLYLINE
  2
AcDbPolyline
  3
AutoCAD 2000
 90
    32768
280
     0
281
     1
  0
CLASS
  1
HATCH
  2
AcDbHatch
  3
AutoCAD 2000
 90
    32768
280
     0
281
     1
  0
CLASS
  1
XRECORD
  2
AcDbXrecord
  3
AutoCAD 2000
 90
    32768
280
     0
281
     0
  0
CLASS
  1
LONG_TRANSACTION
  2
AcDbLongTransaction
  3
AutoCAD 2000
 90
    32768
280
     0
281
     0
  0
CLASS
  1
LWPOLYLINE
  2
AcDbPolyline
  3
AutoCAD 2000
 90
    32768
280
     0
281
     1
  0
CLASS
  1
HATCH
  2
AcDbHatch
  3
AutoCAD 2000
 90
    32768
280
     0
281
     1
  0
CLASS
  1
XRECORD
  2
AcDbXrecord
  3
AutoCAD 2000
 90
    32768
280
     0
281
     0
  0
CLASS
  1
LONG_TRANSACTION
  2
AcDbLongTransaction
  3
AutoCAD 2000
 90
    32768
280
     0
281
     0
  0
CLASS
  1
LWPOLYLINE
  2
AcDbPolyline
  3
AutoCAD 2000
 90
    32768
280
     0
281
     1
  0
CLASS
  1
HATCH
  2
AcDbHatch
  3
AutoCAD 2000
 90
    32768
280
     0
281
     1
  0
CLASS
  1
XRECORD
  2
AcDbXrecord
  3
AutoCAD 2000
 90
    32768
280
     0
281
     0
  0
CLASS
  1
LONG_TRANSACTION
  2
AcDbLongTransaction
  3
AutoCAD 2000
 90
    32768
280
     0
281
     0
  0
CLASS
  1
LWPOLYLINE
  2
AcDbPolyline
  3
AutoCAD 2000
 90
    32768
280
     0
281
     1
  0
CLASS
  1
HATCH
  2
AcDbHatch
  3
AutoCAD 2000
 90
    32768
280
     0
281
     1
  0
CLASS
  1
XRECORD
  2
AcDbXrecord
  3
AutoCAD 2000
 90
    32768
280
     0
281
     0
  0
CLASS
  1
LONG_TRANSACTION
  2
AcDbLongTransaction
  3
AutoCAD 2000
 90
    32768
280
     0
281
     0
  0
CLASS
  1
LWPOLYLINE
  2
AcDbPolyline
  3
AutoCAD 2000
 90
    32768
280
     0
281
     1
  0
CLASS
  1
HATCH
  2
AcDbHatch
  3
AutoCAD 2000
 90
    32768
280
     0
281
     1
  0
CLASS
  1
XRECORD
  2
AcDbXrecord
  3
AutoCAD 2000
 90
    32768
280
     0
281
     0
  0
CLASS
  1
LONG_TRANSACTION
  2
AcDbLongTransaction
  3
AutoCAD 2000
 90
    32768
280
     0
281
     0
  0
CLASS
  1
LWPOLYLINE
  2
AcDbPolyline
  3
AutoCAD 2000
 90
    32768
280
     0
281
     1
  0
CLASS
  1
HATCH
  2
AcDbHatch
  3
AutoCAD 2000
 90
    32768
280
     0
281
     1
  0
CLASS
  1
XRECORD
  2
AcDbXrecord
  3
AutoCAD 2000
 90
    32768
280
     0
281
     0
  0
CLASS
  1
LONG_TRANSACTION
  2
AcDbLongTransaction
  3
AutoCAD 2000
 90
    32768
280
     0
281
     0
  0
CLASS
  1
LWPOLYLINE
  2
AcDbPolyline
  3
AutoCAD 2000
 90
    32768
280
     0
281
     1
  0
CLASS
  1
HATCH
  2
AcDbHatch
  3
AutoCAD 2000
 90
    32768
280
     0
281
     1
  0
CLASS
  1
XRECORD
  2
AcDbXrecord
  3
AutoCAD 2000
 90
    32768
280
     0
281
     0
  0
ENDSEC
  0
SECTION
  2
TABLES
  0
TABLE
  2
VPORT
  5
20
330
0
100
AcDbSymbolTable
 70
     3
  0
VPORT
  5
612
330
20
100
AcDbSymbolTableRecord
100
AcDbViewportTableRecord
  2
*ACTIVE
 70
     0
 10
0.0
 20
0.0
 11
1.0
 21
1.0
 12
423.5152904979724
 22
75.69685891860491
 13
0.0
 23
0.0
 14
1.0
 24
1.0
 15
4.0
 25
4.0
 16
0.0
 26
0.0
 36
1.0
 17
0.0
 27
0.0
 37
0.0
 40
603.7728755647689
 41
1.60759493670886
 42
50.0
 43
0.0
 44
0.0
 50
0.0
 51
0.0
 71
    16
 72
   100
 73
     1
 74
     0
 75
     0
 76
     0
 77
     0
 78
     0
  0
ENDTAB
  0
TABLE
  2
LTYPE
  5
1B
330
0
100
AcDbSymbolTable
 70
     3
  0
LTYPE
  5
1C
330
1B
100
AcDbSymbolTableRecord
100
AcDbLinetypeTableRecord
  2
BYBLOCK
 70
     0
  3

 72
    65
 73
     0
 40
0.0
  0
LTYPE
  5
1D
330
1B
100
AcDbSymbolTableRecord
100
AcDbLinetypeTableRecord
  2
BYLAYER
 70
     0
  3

 72
    65
 73
     0
 40
0.0
  0
LTYPE
  5
B
330
1B
100
AcDbSymbolTableRecord
100
AcDbLinetypeTableRecord
  2
CONTINUOUS
 70
     0
  3
Solid line
 72
    65
 73
     0
 40
0.0
  0
LTYPE
  5
29
330
1B
100
AcDbSymbolTableRecord
100
AcDbLinetypeTableRecord
  2
CENTER
 70
     0
  3

 72
    65
 73
     4
 40
18.0
 49
15.0
 74
     4
 75
     0
340
0
 46
1.0
 50
0.0
 44
0.0
 45
0.0
 49
-1.0
 74
     4
 75
     0
340
0
 46
1.0
 50
0.0
 44
0.0
 45
0.0
 49
1.0
 74
     4
 75
     0
340
0
 46
1.0
 50
0.0
 44
0.0
 45
0.0
 49
-1.0
 74
     4
 75
     0
340
0
 46
1.0
 50
0.0
 44
0.0
 45
0.0
  0
LTYPE
  5
58
330
1B
100
AcDbSymbolTableRecord
100
AcDbLinetypeTableRecord
  2
PHANTOM
 70
     0
  3
----- - - ----- - - ----- - - ----- - - -----
 72
    65
 73
     6
 40
22.5
 49
15.0
 74
     0
 49
-1.5
 74
     0
 49
1.5
 74
     0
 49
-1.5
 74
     0
 49
1.5
 74
     0
 49
-1.5
 74
     0
  0
ENDTAB
  0
TABLE
  2
LAYER
  5
15
102
{ACAD_XDICTIONARY
360
16
102
}
330
0
100
AcDbSymbolTable
 70
     5
  0
LAYER
  5
6
330
15
100
AcDbSymbolTableRecord
100
AcDbLayerTableRecord
  2
0
 70
     0
 62
     7
  6
CONTINUOUS
  0
LAYER
  5
2D
330
15
100
AcDbSymbolTableRecord
100
AcDbLayerTableRecord
  2
L-ZISSEN
 70
     0
 62
     7
  6
CONTINUOUS
  0
LAYER
  5
28
330
15
100
AcDbSymbolTableRecord
100
AcDbLayerTableRecord
  2
L-TYUSIN
 70
     0
 62
     1
  6
CENTER
  0
LAYER
  5
1CE
330
15
100
AcDbSymbolTableRecord
100
AcDbLayerTableRecord
  2
L-SAISEN
 70
     0
 62
     6
  6
CONTINUOUS
  0
LAYER
  5
57
330
15
100
AcDbSymbolTableRecord
100
AcDbLayerTableRecord
  2
L-SOUZOU
 70
     0
 62
     2
  6
PHANTOM
  0
ENDTAB
  0
TABLE
  2
STYLE
  5
18
330
0
100
AcDbSymbolTable
 70
     1
  0
STYLE
  5
19
330
18
100
AcDbSymbolTableRecord
100
AcDbTextStyleTableRecord
  2
STANDARD
 70
     0
 40
0.0
 41
1.0
 50
0.0
 71
     0
 42
5.599999999999999
  3
txt.shx
  4

  0
ENDTAB
  0
TABLE
  2
VIEW
  5
1E
330
0
100
AcDbSymbolTable
 70
     0
  0
ENDTAB
  0
TABLE
  2
UCS
  5
1F
330
0
100
AcDbSymbolTable
 70
     0
  0
ENDTAB
  0
TABLE
  2
APPID
  5
22
330
0
100
AcDbSymbolTable
 70
     1
  0
APPID
  5
A
330
22
100
AcDbSymbolTableRecord
100
AcDbRegAppTableRecord
  2
ACAD
 70
     0
  0
ENDTAB
  0
TABLE
  2
DIMSTYLE
  5
23
330
0
100
AcDbSymbolTable
 70
     1
  0
DIMSTYLE
105
2B
330
23
100
AcDbSymbolTableRecord
100
AcDbDimStyleTableRecord
  2
STANDARD
 70
     0
  3

  4

  5

  6

  7

 40
1.0
 41
0.18
 42
0.0625
 43
0.38
 44
0.18
 45
0.0
 46
0.0
 47
0.0
 48
0.0
140
0.18
141
0.09
142
0.0
143
25.4
144
1.0
145
0.0
146
1.0
147
0.09
 71
     0
 72
     0
 73
     1
 74
     1
 75
     0
 76
     0
 77
     0
 78
     0
170
     0
171
     2
172
     0
173
     0
174
     0
175
     0
176
     0
177
     0
178
     0
270
     2
271
     4
272
     4
273
     2
274
     2
340
19
275
     0
280
     0
281
     0
282
     0
283
     1
284
     0
285
     0
286
     0
287
     3
288
     0
  0
ENDTAB
  0
TABLE
  2
BLOCK_RECORD
  5
1
330
0
100
AcDbSymbolTable
 70
     0
  0
BLOCK_RECORD
  5
2
102
{ACAD_XDICTIONARY
360
3
102
}
330
1
100
AcDbSymbolTableRecord
100
AcDbBlockTableRecord
  2
*MODEL_SPACE
  0
BLOCK_RECORD
  5
F
102
{ACAD_XDICTIONARY
360
10
102
}
330
1
100
AcDbSymbolTableRecord
100
AcDbBlockTableRecord
  2
*PAPER_SPACE
  0
ENDTAB
  0
ENDSEC
  0
SECTION
  2
BLOCKS
  0
BLOCK
  5
5
330
2
100
AcDbEntity
  8
0
100
AcDbBlockBegin
  2
*MODEL_SPACE
 70
     0
 10
0.0
 20
0.0
 30
0.0
  3
*MODEL_SPACE
  1

  0
ENDBLK
  5
C
330
2
100
AcDbEntity
  8
0
100
AcDbBlockEnd
  0
BLOCK
  5
12
330
F
100
AcDbEntity
 67
     1
  8
0
100
AcDbBlockBegin
  2
*PAPER_SPACE
 70
     0
 10
0.0
 20
0.0
 30
0.0
  3
*PAPER_SPACE
  1

  0
ENDBLK
  5
13
330
F
100
AcDbEntity
 67
     1
  8
0
100
AcDbBlockEnd
  0
ENDSEC
  0
SECTION
  2
ENTITIES
  0
LINE
  5
2C
330
2
100
AcDbEntity
  8
L-ZISSEN
100
AcDbLine
 10
540.3887735627818
 20
251.5972692845198
 30
0.0
 11
526.9252161219767
 21
262.8169004851906
 31
0.0
  0
LINE
  5
2E
330
2
100
AcDbEntity
  8
L-ZISSEN
100
AcDbLine
 10
529.9252161219765
 20
131.0169004851914
 30
0.0
 11
553.9252161219764
 21
131.0169004851914
 31
0.0
  0
LINE
  5
2F
330
2
100
AcDbEntity
  8
L-ZISSEN
100
AcDbLine
 10
529.9252161219765
 20
135.0169004851913
 30
0.0
 11
553.9252161219764
 21
135.0169004851913
 31
0.0
  0
LINE
  5
30
330
2
100
AcDbEntity
  8
L-ZISSEN
100
AcDbLine
 10
529.9252161219765
 20
133.5169004851914
 30
0.0
 11
553.9252161219764
 21
133.5169004851914
 31
0.0
  0
TEXT
  5
31
330
2
100
AcDbEntity
  8
L-ZISSEN
100
AcDbText
 10
506.3378686196599
 20
294.5088314682925
 30
0.0
 40
4.5
  1
MODEL NO. B64-600-*0 *
100
AcDbText
  0
LINE
  5
32
330
2
100
AcDbEntity
  8
L-ZISSEN
100
AcDbLine
 10
540.3887735627818
 20
1.861339244882401
 30
0.0
 11
526.9252161219767
 21
13.08097044555324
 31
0.0
  0
LINE
  5
33
330
2
100
AcDbEntity
  8
L-ZISSEN
100
AcDbLine
 10
523.4252161219772
 20
-12.91801005474098
 30
0.0
 11
538.1752161219765
 21
-12.91801005474098
 31
0.0
  0
LINE
  5
34
330
2
100
AcDbEntity
  8
L-ZISSEN
100
AcDbLine
 10
532.4900488537576
 20
-102.9180100547419
 30
0.0
 11
523.5331887901602
 21
-101.8691056888146
 31
0.0
  0
TEXT
  5
35
330
2
100
AcDbEntity
  8
L-ZISSEN
100
AcDbText
 10
506.3378686196599
 20
59.95535489375197
 30
0.0
 40
4.5
  1
MODEL NO. B64-600-*04*
100
AcDbText
  0
LINE
  5
36
330
2
100
AcDbEntity
  8
L-TYUSIN
100
AcDbLine
 10
486.9252161219765
 20
84.31690048519158
 30
0.0
 11
906.9252161219765
 21
84.31690048519158
 31
0.0
  0
SOLID
  5
37
330
2
100
AcDbEntity
  8
L-ZISSEN
100
AcDbTrace
 10
160.5253872714065
 20
2.309534306199566
 30
0.0
 11
159.9879551325902
 21
1.915058526699795
 31
0.0
 12
161.4400985404965
 22
0.5
 32
0.0
 13
161.4400985404965
 23
0.5
 33
0.0
  0
LINE
  5
38
330
2
100
AcDbEntity
  8
L-ZISSEN
100
AcDbLine
 10
160.256671201999
 20
2.11229641645059
 30
0.0
 11
142.6435455204527
 21
26.10834458520821
 31
0.0
  0
LINE
  5
39
330
2
100
AcDbEntity
  8
L-TYUSIN
100
AcDbLine
 10
419.4400985404959
 20
-0.000000000001819
 30
0.0
 11
156.4400985404965
 21
0.0000000000009095
 31
0.0
  0
LINE
  5
3A
330
2
100
AcDbEntity
  8
L-TYUSIN
100
AcDbLine
 10
156.4400985404961
 20
200.0000000000009
 30
0.0
 11
419.4400985404954
 21
200.0000000000009
 31
0.0
  0
TEXT
  5
3B
330
2
100
AcDbEntity
  8
L-ZISSEN
100
AcDbText
 10
-47.04384095927889
 20
210.5383813981461
 30
0.0
 40
4.5
  1
MODEL NO. CH4-600-*010
100
AcDbText
  0
LINE
  5
3C
330
2
100
AcDbEntity
  8
L-ZISSEN
100
AcDbLine
 10
-21.49999999999999
 20
13.0
 30
0.0
 11
-31.0
 21
13.0
 31
0.0
  0
LINE
  5
3D
330
2
100
AcDbEntity
  8
L-ZISSEN
100
AcDbLine
 10
-35.0
 20
-12.5
 30
0.0
 11
-21.49999999999999
 21
-12.5
 31
0.0
  0
LINE
  5
3E
330
2
100
AcDbEntity
  8
L-ZISSEN
100
AcDbLine
 10
-25.28000000000247
 20
-46.33873891163239
 30
0.0
 11
-16.84999999999945
 21
-46.33873891163239
 31
0.0
  0
LINE
  5
3F
330
2
100
AcDbEntity
  8
L-ZISSEN
100
AcDbLine
 10
-35.0
 20
-36.0
 30
0.0
 11
35.0
 21
-36.0
 31
0.0
  0
ARC
  5
40
330
2
100
AcDbEntity
  8
L-ZISSEN
100
AcDbCircle
 10
-21.9999999999909
 20
-122.4036840439885
 30
0.0
 40
8.000000000000113
100
AcDbArc
 50
180.0
 51
256.0937629347642
  0
LINE
  5
41
330
2
100
AcDbEntity
  8
L-ZISSEN
100
AcDbLine
 10
-21.06500000000096
 20
-116.3387389116323
 30
0.0
 11
-25.2800000000002
 21
-114.3387389116305
 31
0.0
  0
LINE
  5
42
330
2
100
AcDbEntity
  8
L-ZISSEN
100
AcDbLine
 10
-1.627356869252025
 20
-37.16263047444044
 30
0.0
 11
-47.02424605812836
 21
-69.59547161275622
 31
0.0
  0
LINE
  5
43
330
2
100
AcDbEntity
  8
L-ZISSEN
100
AcDbLine
 10
-43.0
 20
50.0
 30
0.0
 11
-43.0
 21
-50.0
 31
0.0
  0
LINE
  5
44
330
2
100
AcDbEntity
  8
L-ZISSEN
100
AcDbLine
 10
-50.0
 20
-50.0
 30
0.0
 11
-50.0
 21
50.0
 31
0.0
  0
LINE
  5
45
330
2
100
AcDbEntity
  8
L-ZISSEN
100
AcDbLine
 10
-47.02424605812836
 20
-69.59547161275622
 30
0.0
 11
-49.02424605812837
 21
-69.59547161275622
 31
0.0
  0
LINE
  5
46
330
2
100
AcDbEntity
  8
L-ZISSEN
100
AcDbLine
 10
-50.0
 20
-50.0
 30
0.0
 11
-43.0
 21
-50.0
 31
0.0
  0
LINE
  5
47
330
2
100
AcDbEntity
  8
L-TYUSIN
100
AcDbLine
 10
-55.0
 20
-40.0
 30
0.0
 11
-38.0
 21
-40.0
 31
0.0
  0
TEXT
  5
48
330
2
100
AcDbEntity
  8
L-ZISSEN
100
AcDbText
 10
-59.89463512603174
 20
-71.84214584070651
 30
0.0
 40
4.5
  1
P.P
100
AcDbText
  0
LINE
  5
49
330
2
100
AcDbEntity
  8
L-ZISSEN
100
AcDbLine
 10
-30.00000000000227
 20
-122.4036840439894
 30
0.0
 11
-30.0
 21
-36.0
 31
0.0
  0
LINE
  5
4A
330
2
100
AcDbEntity
  8
L-ZISSEN
100
AcDbLine
 10
-25.28000000000247
 20
-46.33873891163239
 30
0.0
 11
-25.2800000000002
 21
-114.3387389116305
 31
0.0
  0
LINE
  5
4B
330
2
100
AcDbEntity
  8
L-ZISSEN
100
AcDbLine
 10
-29.1621621621623
 20
13.0
 30
0.0
 11
-43.0
 21
21.0
 31
0.0
  0
LINE
  5
4C
330
2
100
AcDbEntity
  8
L-ZISSEN
100
AcDbLine
 10
-35.0
 20
-16.375
 30
0.0
 11
-43.0
 21
-21.0
 31
0.0
  0
LINE
  5
4D
330
2
100
AcDbEntity
  8
L-ZISSEN
100
AcDbLine
 10
-31.0
 20
-12.5
 30
0.0
 11
-31.0
 21
13.0
 31
0.0
  0
LINE
  5
4E
330
2
100
AcDbEntity
  8
L-ZISSEN
100
AcDbLine
 10
-35.0
 20
-36.0
 30
0.0
 11
-35.0
 21
-12.5
 31
0.0
  0
LINE
  5
4F
330
2
100
AcDbEntity
  8
L-ZISSEN
100
AcDbLine
 10
-50.0
 20
50.0
 30
0.0
 11
-43.0
 21
50.0
 31
0.0
  0
LINE
  5
50
330
2
100
AcDbEntity
  8
L-TYUSIN
100
AcDbLine
 10
-55.0
 20
40.0
 30
0.0
 11
-38.0
 21
40.0
 31
0.0
  0
LINE
  5
51
330
2
100
AcDbEntity
  8
L-ZISSEN
100
AcDbLine
 10
13.85640646055128
 20
34.50000000001
 30
0.0
 11
13.85640646055128
 21
29.50000000001
 31
0.0
  0
LINE
  5
52
330
2
100
AcDbEntity
  8
L-ZISSEN
100
AcDbLine
 10
6.928203230275471
 20
35.50000000000909
 30
0.0
 11
6.928203230275471
 21
29.50000000001455
 31
0.0
  0
LINE
  5
53
330
2
100
AcDbEntity
  8
L-ZISSEN
100
AcDbLine
 10
-13.85640646055105
 20
34.50000000000909
 30
0.0
 11
-13.85640646055105
 21
29.50000000001
 31
0.0
  0
LINE
  5
54
330
2
100
AcDbEntity
  8
L-ZISSEN
100
AcDbLine
 10
-6.928203230275244
 20
35.50000000000818
 30
0.0
 11
-6.928203230275244
 21
29.50000000001455
 31
0.0
  0
LINE
  5
55
330
2
100
AcDbEntity
  8
L-TYUSIN
100
AcDbLine
 10
0.0
 20
56.00000000000182
 30
0.0
 11
0.0
 21
-154.0313319692231
 31
0.0
  0
LINE
  5
56
330
2
100
AcDbEntity
  8
L-SOUZOU
100
AcDbLine
 10
60.25000000000455
 20
-20.99999999999727
 30
0.0
 11
67.75000000000455
 21
-20.99999999999727
 31
0.0
  0
LINE
  5
59
330
2
100
AcDbEntity
  8
L-SOUZOU
100
AcDbLine
 10
60.25000000000455
 20
21.00000000000272
 30
0.0
 11
67.75000000000455
 21
21.00000000000272
 31
0.0
  0
LINE
  5
5A
330
2
100
AcDbEntity
  8
L-TYUSIN
100
AcDbLine
 10
-20.23995631755042
 20
0.0
 30
0.0
 11
74.25
 21
0.0
 31
0.0
  0
LINE
  5
5B
330
2
100
AcDbEntity
  8
L-ZISSEN
100
AcDbLine
 10
14.5
 20
20.0
 30
0.0
 11
21.49999999999999
 21
13.0
 31
0.0
  0
LINE
  5
5C
330
2
100
AcDbEntity
  8
L-ZISSEN
100
AcDbLine
 10
25.2800000000002
 20
-46.33873891163239
 30
0.0
 11
16.84999999999718
 21
-46.33873891163239
 31
0.0
  0
LINE
  5
5D
330
2
100
AcDbEntity
  8
L-ZISSEN
100
AcDbLine
 10
21.49999999999999
 20
-23.5
 30
0.0
 11
-21.49999999999999
 21
-23.5
 31
0.0
  0
LINE
  5
5E
330
2
100
AcDbEntity
  8
L-ZISSEN
100
AcDbLine
 10
-21.49999999999999
 20
-20.0
 30
0.0
 11
21.49999999999999
 21
-20.0
 31
0.0
  0
LINE
  5
5F
330
2
100
AcDbEntity
  8
L-ZISSEN
100
AcDbLine
 10
25.00000000000011
 20
24.50000000001
 30
0.0
 11
-24.99999999999988
 21
24.50000000001
 31
0.0
  0
LINE
  5
60
330
2
100
AcDbEntity
  8
L-ZISSEN
100
AcDbLine
 10
-23.49999999999988
 20
29.50000000001455
 30
0.0
 11
23.49999999999829
 21
29.50000000001455
 31
0.0
  0
ARC
  5
61
330
2
100
AcDbEntity
  8
L-ZISSEN
100
AcDbCircle
 10
0.000000000003638
 20
-33.54728891851664
 30
0.0
 40
99.53938471878515
100
AcDbArc
 50
275.3320776948647
 51
283.906237065043
  0
LINE
  5
62
330
2
100
AcDbEntity
  8
L-ZISSEN
100
AcDbLine
 10
21.06500000000096
 20
-116.3387389116323
 30
0.0
 11
25.27999999999792
 21
-114.3387389116305
 31
0.0
  0
LINE
  5
63
330
2
100
AcDbEntity
  8
L-ZISSEN
100
AcDbLine
 10
14.5
 20
20.0
 30
0.0
 11
-14.5
 21
20.0
 31
0.0
  0
CIRCLE
  5
64
330
2
100
AcDbEntity
  8
L-ZISSEN
100
AcDbCircle
 10
0.0
 20
0.0
 30
0.0
 40
9.272893136968036
  0
ARC
  5
65
330
2
100
AcDbEntity
  8
L-ZISSEN
100
AcDbCircle
 10
0.0000000000013642
 20
-154.641062673917
 30
0.0
 40
20.64106267391679
100
AcDbArc
 50
77.50558048157066
 51
102.6763186877436
  0
ARC
  5
66
330
2
100
AcDbEntity
  8
L-ZISSEN
100
AcDbCircle
 10
0.0
 20
-116.3589373260829
 30
0.0
 40
20.64106267391694
100
AcDbArc
 50
257.3236813122691
 51
282.4944195184277
  0
LINE
  5
67
330
2
100
AcDbEntity
  8
L-ZISSEN
100
AcDbLine
 10
9.000000000002273
 20
-132.6559495400506
 30
0.0
 11
-9.249999999998181
 21
-132.6559495400506
 31
0.0
  0
LINE
  5
68
330
2
100
AcDbEntity
  8
L-ZISSEN
100
AcDbLine
 10
6.000000000000454
 20
-133.859551200564
 30
0.0
 11
-8.999999999999545
 21
-133.859551200564
 31
0.0
  0
LINE
  5
69
330
2
100
AcDbEntity
  8
L-ZISSEN
100
AcDbLine
 10
6.000000000000454
 20
-133.859551200564
 30
0.0
 11
-8.999999999999545
 21
-133.859551200564
 31
0.0
  0
LINE
  5
6A
330
2
100
AcDbEntity
  8
L-ZISSEN
100
AcDbLine
 10
-6.85923419779192
 20
-134.0
 30
0.0
 11
6.000000000000454
 21
-134.0
 31
0.0
  0
LINE
  5
6B
330
2
100
AcDbEntity
  8
L-ZISSEN
100
AcDbLine
 10
-6.778315616504642
 20
-137.0006211148192
 30
0.0
 11
6.712718059993676
 21
-137.0014178845913
 31
0.0
  0
LINE
  5
6C
330
2
100
AcDbEntity
  8
L-ZISSEN
100
AcDbLine
 10
-5.500000000001818
 20
-138.9411654104915
 30
0.0
 11
2.999999999999545
 21
-138.9411654104915
 31
0.0
  0
LINE
  5
6D
330
2
100
AcDbEntity
  8
L-ZISSEN
100
AcDbLine
 10
5.699999999999363
 20
-149.0
 30
0.0
 11
-5.699999999999363
 21
-149.0
 31
0.0
  0
LINE
  5
6E
330
2
100
AcDbEntity
  8
L-ZISSEN
100
AcDbLine
 10
-16.84999999999945
 20
-46.33873891163239
 30
0.0
 11
-16.84999999999945
 21
-114.3387389116305
 31
0.0
  0
ARC
  5
6F
330
2
100
AcDbEntity
  8
L-ZISSEN
100
AcDbCircle
 10
0.000000000003638
 20
-33.54728891851664
 30
0.0
 40
99.53938471878538
100
AcDbArc
 50
256.0937629349474
 51
264.6679223051352
  0
LINE
  5
70
330
2
100
AcDbEntity
  8
L-ZISSEN
100
AcDbLine
 10
-16.84999999999945
 20
-114.3387389116305
 30
0.0
 11
-21.06500000000096
 21
-116.3387389116323
 31
0.0
  0
LINE
  5
71
330
2
100
AcDbEntity
  8
L-ZISSEN
100
AcDbLine
 10
-4.529536318017107
 20
-134.5031191579491
 30
0.0
 11
-4.529536318010286
 21
-136.4968808420526
 31
0.0
  0
LINE
  5
72
330
2
100
AcDbEntity
  8
L-ZISSEN
100
AcDbLine
 10
-8.999643620082679
 20
-134.4902672699436
 30
0.0
 11
-8.999643620082679
 21
-136.5097327300563
 31
0.0
  0
LINE
  5
73
330
2
100
AcDbEntity
  8
L-ZISSEN
100
AcDbLine
 10
-4.999999999997612
 20
-137.0006966111286
 30
0.0
 11
-5.000000000001818
 21
-138.9411654104915
 31
0.0
  0
LINE
  5
74
330
2
100
AcDbEntity
  8
L-ZISSEN
100
AcDbLine
 10
-2.999999999999545
 20
-138.9411654104915
 30
0.0
 11
-2.999999999999431
 21
-149.0
 31
0.0
  0
LINE
  5
75
330
2
100
AcDbEntity
  8
L-ZISSEN
100
AcDbLine
 10
-5.0
 20
-138.9411654104915
 30
0.0
 11
-4.999999999999886
 21
-149.0
 31
0.0
  0
LINE
  5
76
330
2
100
AcDbEntity
  8
L-ZISSEN
100
AcDbLine
 10
-4.000000000000909
 20
-138.9411654104915
 30
0.0
 11
-4.000000000000909
 21
-149.0
 31
0.0
  0
LINE
  5
77
330
2
100
AcDbEntity
  8
L-ZISSEN
100
AcDbLine
 10
-5.49999999999909
 20
-138.4411654104915
 30
0.0
 11
-5.49999999999909
 21
-137.0
 31
0.0
  0
LINE
  5
78
330
2
100
AcDbEntity
  8
L-ZISSEN
100
AcDbLine
 10
-5.500000000001818
 20
-138.9411654104915
 30
0.0
 11
-5.99999999999909
 21
-139.4411654104915
 31
0.0
  0
LINE
  5
79
330
2
100
AcDbEntity
  8
L-ZISSEN
100
AcDbLine
 10
-5.699999999999363
 20
-149.0
 30
0.0
 11
-5.99999999999909
 21
-148.7000000000007
 31
0.0
  0
LINE
  5
7A
330
2
100
AcDbEntity
  8
L-ZISSEN
100
AcDbLine
 10
-5.999999999999204
 20
-148.7000000000007
 30
0.0
 11
-5.99999999999909
 21
-139.4411654104915
 31
0.0
  0
ARC
  5
7B
330
2
100
AcDbEntity
  8
L-ZISSEN
100
AcDbCircle
 10
-6.778315616504642
 20
-131.7292909444495
 30
0.0
 40
5.271330170370607
100
AcDbArc
 50
245.0771192748281
 51
295.252338996647
  0
LINE
  5
7C
330
2
100
AcDbEntity
  8
L-ZISSEN
100
AcDbLine
 10
-5.000000000001818
 20
-138.9411654104915
 30
0.0
 11
-5.49999999999909
 21
-138.4411654104915
 31
0.0
  0
LINE
  5
7D
330
2
100
AcDbEntity
  8
L-ZISSEN
100
AcDbLine
 10
-8.999999999999545
 20
-133.859551200564
 30
0.0
 11
-8.999999999999545
 21
-132.6559495400506
 31
0.0
  0
ARC
  5
7E
330
2
100
AcDbEntity
  8
L-ZISSEN
100
AcDbCircle
 10
-6.778315616503277
 20
-139.2707090555513
 30
0.0
 40
5.271330170370607
100
AcDbArc
 50
64.74766100341266
 51
114.9228807251718
  0
LINE
  5
7F
330
2
100
AcDbEntity
  8
L-ZISSEN
100
AcDbLine
 10
-1.999999999998181
 20
-138.9411654104915
 30
0.0
 11
-1.999999999998067
 21
-149.0
 31
0.0
  0
LINE
  5
80
330
2
100
AcDbEntity
  8
L-ZISSEN
100
AcDbLine
 10
-23.49999999999988
 20
29.50000000001455
 30
0.0
 11
-24.99999999999988
 21
28.00000000001455
 31
0.0
  0
LINE
  5
81
330
2
100
AcDbEntity
  8
L-ZISSEN
100
AcDbLine
 10
-24.99999999999988
 20
28.00000000001364
 30
0.0
 11
-24.99999999999988
 21
13.00000000000091
 31
0.0
  0
LINE
  5
82
330
2
100
AcDbEntity
  8
L-ZISSEN
100
AcDbLine
 10
-14.5
 20
20.0
 30
0.0
 11
-21.49999999999999
 21
13.0
 31
0.0
  0
LINE
  5
83
330
2
100
AcDbEntity
  8
L-ZISSEN
100
AcDbLine
 10
-21.49999999999999
 20
-36.0
 30
0.0
 11
-21.49999999999999
 21
13.0
 31
0.0
  0
LINE
  5
84
330
2
100
AcDbEntity
  8
L-ZISSEN
100
AcDbLine
 10
16.84999999999718
 20
-46.33873891163239
 30
0.0
 11
16.84999999999718
 21
-114.3387389116305
 31
0.0
  0
LINE
  5
85
330
2
100
AcDbEntity
  8
L-ZISSEN
100
AcDbLine
 10
8.999643620087681
 20
-134.5205025069062
 30
0.0
 11
8.999643620087681
 21
-136.4794974930937
 31
0.0
  0
LINE
  5
86
330
2
100
AcDbEntity
  8
L-ZISSEN
100
AcDbLine
 10
4.463375637018543
 20
-134.502588043686
 30
0.0
 11
4.463375637018543
 21
-136.4974119563139
 31
0.0
  0
LINE
  5
87
330
2
100
AcDbEntity
  8
L-ZISSEN
100
AcDbLine
 10
2.999999999999545
 20
-138.9411654104915
 30
0.0
 11
5.499999999999545
 21
-138.9411654104915
 31
0.0
  0
ARC
  5
88
330
2
100
AcDbEntity
  8
L-ZISSEN
100
AcDbCircle
 10
6.712718059993676
 20
-131.7300877142197
 30
0.0
 40
5.271330170371532
100
AcDbArc
 50
244.7408933165791
 51
295.7116451148639
  0
LINE
  5
89
330
2
100
AcDbEntity
  8
L-ZISSEN
100
AcDbLine
 10
2.000000000000454
 20
-138.9411654104915
 30
0.0
 11
2.000000000000568
 21
-149.0
 31
0.0
  0
LINE
  5
8A
330
2
100
AcDbEntity
  8
L-ZISSEN
100
AcDbLine
 10
2.999999999999545
 20
-138.9411654104915
 30
0.0
 11
2.999999999999545
 21
-149.0
 31
0.0
  0
LINE
  5
8B
330
2
100
AcDbEntity
  8
L-ZISSEN
100
AcDbLine
 10
4.000000000003183
 20
-138.9411654104915
 30
0.0
 11
4.000000000003296
 21
-149.0
 31
0.0
  0
LINE
  5
8C
330
2
100
AcDbEntity
  8
L-ZISSEN
100
AcDbLine
 10
5.499999999999204
 20
-138.4411654104915
 30
0.0
 11
5.49999999999909
 21
-137.0
 31
0.0
  0
LINE
  5
8D
330
2
100
AcDbEntity
  8
L-ZISSEN
100
AcDbLine
 10
5.499999999999545
 20
-138.9411654104915
 30
0.0
 11
5.99999999999909
 21
-139.4411654104915
 31
0.0
  0
LINE
  5
8E
330
2
100
AcDbEntity
  8
L-ZISSEN
100
AcDbLine
 10
4.999999999999545
 20
-138.9411654104915
 30
0.0
 11
5.49999999999909
 21
-138.4411654104915
 31
0.0
  0
LINE
  5
8F
330
2
100
AcDbEntity
  8
L-ZISSEN
100
AcDbLine
 10
5.000000000003751
 20
-137.0013462624228
 30
0.0
 11
4.999999999999545
 21
-138.9411654104915
 31
0.0
  0
LINE
  5
90
330
2
100
AcDbEntity
  8
L-ZISSEN
100
AcDbLine
 10
5.699999999999363
 20
-149.0
 30
0.0
 11
5.99999999999909
 21
-148.7000000000007
 31
0.0
  0
LINE
  5
91
330
2
100
AcDbEntity
  8
L-ZISSEN
100
AcDbLine
 10
5.000000000002273
 20
-138.9411654104915
 30
0.0
 11
5.00000000000432
 21
-149.0
 31
0.0
  0
LINE
  5
92
330
2
100
AcDbEntity
  8
L-ZISSEN
100
AcDbLine
 10
5.99999999999909
 20
-139.4411654104915
 30
0.0
 11
5.99999999999909
 21
-148.7000000000007
 31
0.0
  0
ARC
  5
93
330
2
100
AcDbEntity
  8
L-ZISSEN
100
AcDbCircle
 10
6.71271805999504
 20
-139.2699122857811
 30
0.0
 40
5.271330170371789
100
AcDbArc
 50
64.28835488513612
 51
115.2591066834208
  0
LINE
  5
94
330
2
100
AcDbEntity
  8
L-ZISSEN
100
AcDbLine
 10
3.000000000000909
 20
-134.0
 30
0.0
 11
3.000000000000909
 21
-133.859551200564
 31
0.0
  0
LINE
  5
95
330
2
100
AcDbEntity
  8
L-ZISSEN
100
AcDbLine
 10
9.250000000003183
 20
-132.6559495400506
 30
0.0
 11
9.000000000002273
 21
-132.6559495400506
 31
0.0
  0
LINE
  5
96
330
2
100
AcDbEntity
  8
L-ZISSEN
100
AcDbLine
 10
8.875000000001818
 20
-133.8595512005631
 30
0.0
 11
8.875000000001818
 21
-132.6559495400506
 31
0.0
  0
LINE
  5
97
330
2
100
AcDbEntity
  8
L-ZISSEN
100
AcDbLine
 10
6.000000000000454
 20
-134.0
 30
0.0
 11
6.834972979096619
 21
-134.0
 31
0.0
  0
LINE
  5
98
330
2
100
AcDbEntity
  8
L-ZISSEN
100
AcDbLine
 10
9.000000000002273
 20
-133.859551200564
 30
0.0
 11
6.000000000000454
 21
-133.859551200564
 31
0.0
  0
LINE
  5
99
330
2
100
AcDbEntity
  8
L-ZISSEN
100
AcDbLine
 10
9.000000000002273
 20
-133.859551200564
 30
0.0
 11
6.000000000000454
 21
-133.859551200564
 31
0.0
  0
LINE
  5
9A
330
2
100
AcDbEntity
  8
L-ZISSEN
100
AcDbLine
 10
-0.9999999999990905
 20
-138.9411654104915
 30
0.0
 11
-0.9999999999989768
 21
-149.0
 31
0.0
  0
LINE
  5
9B
330
2
100
AcDbEntity
  8
L-ZISSEN
100
AcDbLine
 10
0.0000000000022737
 20
-138.9411654104915
 30
0.0
 11
0.0000000000023874
 21
-149.0
 31
0.0
  0
LINE
  5
9C
330
2
100
AcDbEntity
  8
L-ZISSEN
100
AcDbLine
 10
1.000000000001364
 20
-138.9411654104915
 30
0.0
 11
1.000000000001477
 21
-149.0
 31
0.0
  0
LINE
  5
9D
330
2
100
AcDbEntity
  8
L-ZISSEN
100
AcDbLine
 10
16.84999999999718
 20
-114.3387389116305
 30
0.0
 11
21.06500000000096
 21
-116.3387389116323
 31
0.0
  0
SOLID
  5
9E
330
2
100
AcDbEntity
  8
L-ZISSEN
100
AcDbTrace
 10
-1.821128614992176
 20
-36.89140432956446
 30
0.0
 11
-1.433585123511875
 21
-37.43385661931643
 31
0.0
 12
0.0
 22
-36.0
 32
0.0
 13
0.0
 23
-36.0
 33
0.0
  0
ARC
  5
9F
330
2
100
AcDbEntity
  8
L-SOUZOU
100
AcDbCircle
 10
45.75000000000421
 20
18.90000000000327
 30
0.0
 40
1.5
100
AcDbArc
 50
90.0
 51
180.0
  0
ARC
  5
A0
330
2
100
AcDbEntity
  8
L-SOUZOU
100
AcDbCircle
 10
45.75000000000421
 20
-18.89999999999781
 30
0.0
 40
1.5
100
AcDbArc
 50
180.0
 51
270.0
  0
LINE
  5
A1
330
2
100
AcDbEntity
  8
L-ZISSEN
100
AcDbLine
 10
25.2800000000002
 20
-46.33873891163239
 30
0.0
 11
25.27999999999792
 21
-114.3387389116305
 31
0.0
  0
LINE
  5
A2
330
2
100
AcDbEntity
  8
L-ZISSEN
100
AcDbLine
 10
29.99999999999772
 20
-122.4036840439894
 30
0.0
 11
30.0
 21
-36.0
 31
0.0
  0
ARC
  5
A3
330
2
100
AcDbEntity
  8
L-ZISSEN
100
AcDbCircle
 10
22.00000000000773
 20
-122.4036840439885
 30
0.0
 40
8.000000000000113
100
AcDbArc
 50
283.9062370650525
 51
0.0
  0
LINE
  5
A4
330
2
100
AcDbEntity
  8
L-SOUZOU
100
AcDbLine
 10
30.99999999999909
 20
5.745626155664467
 30
0.0
 11
35.25000000000455
 21
5.87844529290669
 31
0.0
  0
LINE
  5
A5
330
2
100
AcDbEntity
  8
L-SOUZOU
100
AcDbLine
 10
30.99999999999909
 20
-5.745626155657191
 30
0.0
 11
35.25000000000455
 21
-5.878445292900323
 31
0.0
  0
LINE
  5
A6
330
2
100
AcDbEntity
  8
L-SOUZOU
100
AcDbLine
 10
31.0
 20
-6.601626155657868
 30
0.0
 11
36.75000000000455
 21
-6.78132263545649
 31
0.0
  0
LINE
  5
A7
330
2
100
AcDbEntity
  8
L-SOUZOU
100
AcDbLine
 10
31.0
 20
6.601626155664234
 30
0.0
 11
36.75000000000455
 21
6.781322635462856
 31
0.0
  0
LINE
  5
A8
330
2
100
AcDbEntity
  8
L-ZISSEN
100
AcDbLine
 10
21.49999999999999
 20
-12.5
 30
0.0
 11
35.0
 21
-12.5
 31
0.0
  0
LINE
  5
A9
330
2
100
AcDbEntity
  8
L-ZISSEN
100
AcDbLine
 10
33.31409532455154
 20
-59.80702229708004
 30
0.0
 11
30.0
 21
-59.80702229708004
 31
0.0
  0
LINE
  5
AA
330
2
100
AcDbEntity
  8
L-ZISSEN
100
AcDbLine
 10
31.55042118077972
 20
-69.47348228545888
 30
0.0
 11
33.31409532455154
 21
-61.99350653801594
 31
0.0
  0
LINE
  5
AB
330
2
100
AcDbEntity
  8
L-ZISSEN
100
AcDbLine
 10
31.0
 20
-12.5
 30
0.0
 11
31.0
 21
13.0
 31
0.0
  0
LINE
  5
AC
330
2
100
AcDbEntity
  8
L-ZISSEN
100
AcDbLine
 10
25.00000000000011
 20
28.00000000001455
 30
0.0
 11
23.49999999999829
 21
29.50000000001455
 31
0.0
  0
LINE
  5
AD
330
2
100
AcDbEntity
  8
L-ZISSEN
100
AcDbLine
 10
25.0
 20
13.00000000000091
 30
0.0
 11
25.00000000000011
 21
28.00000000001546
 31
0.0
  0
LINE
  5
AE
330
2
100
AcDbEntity
  8
L-ZISSEN
100
AcDbLine
 10
31.0
 20
13.0
 30
0.0
 11
21.49999999999999
 21
13.0
 31
0.0
  0
LINE
  5
AF
330
2
100
AcDbEntity
  8
L-ZISSEN
100
AcDbLine
 10
30.0
 20
-36.0
 30
0.0
 11
30.0
 21
-77.32399445419833
 31
0.0
  0
LINE
  5
B0
330
2
100
AcDbEntity
  8
L-ZISSEN
100
AcDbLine
 10
31.82751149379555
 20
-59.80702229708185
 30
0.0
 11
31.82751149379555
 21
-61.6429907671918
 31
0.0
  0
LINE
  5
B1
330
2
100
AcDbEntity
  8
L-ZISSEN
100
AcDbLine
 10
31.55042118077972
 20
-69.47348228545888
 30
0.0
 11
30.0
 21
-69.47348228545888
 31
0.0
  0
LINE
  5
B2
330
2
100
AcDbEntity
  8
L-ZISSEN
100
AcDbLine
 10
30.06383735002373
 20
-69.12296651463657
 30
0.0
 11
31.82751149379555
 21
-61.6429907671918
 31
0.0
  0
LINE
  5
B3
330
2
100
AcDbEntity
  8
L-ZISSEN
100
AcDbLine
 10
21.49999999999999
 20
13.0
 30
0.0
 11
21.49999999999999
 21
-36.0
 31
0.0
  0
LINE
  5
B4
330
2
100
AcDbEntity
  8
L-SOUZOU
100
AcDbLine
 10
35.25000000000455
 20
5.87844529290669
 30
0.0
 11
36.13361432768852
 21
6.762059620591571
 31
0.0
  0
LINE
  5
B5
330
2
100
AcDbEntity
  8
L-SOUZOU
100
AcDbLine
 10
35.25000000000455
 20
-5.878445292900323
 30
0.0
 11
36.13361432768852
 21
-6.762059620584295
 31
0.0
  0
LINE
  5
B6
330
2
100
AcDbEntity
  8
L-SOUZOU
100
AcDbLine
 10
35.25000000000455
 20
6.734445292907366
 30
0.0
 11
35.25000000000455
 21
-6.73444529290009
 31
0.0
  0
LINE
  5
B7
330
2
100
AcDbEntity
  8
L-SOUZOU
100
AcDbLine
 10
36.75000000000455
 20
6.800000000003819
 30
0.0
 11
36.75000000000455
 21
-6.799999999996543
 31
0.0
  0
LINE
  5
B8
330
2
100
AcDbEntity
  8
L-SOUZOU
100
AcDbLine
 10
44.25000000000454
 20
18.90000000000236
 30
0.0
 11
44.25000000000454
 21
-18.89999999999781
 31
0.0
  0
LINE
  5
B9
330
2
100
AcDbEntity
  8
L-SOUZOU
100
AcDbLine
 10
36.75000000000455
 20
6.800000000003819
 30
0.0
 11
44.25000000000454
 21
6.800000000003819
 31
0.0
  0
LINE
  5
BA
330
2
100
AcDbEntity
  8
L-SOUZOU
100
AcDbLine
 10
36.75000000000455
 20
-6.799999999996543
 30
0.0
 11
44.25000000000454
 21
-6.799999999996543
 31
0.0
  0
LINE
  5
BB
330
2
100
AcDbEntity
  8
L-ZISSEN
100
AcDbLine
 10
35.0
 20
-57.0
 30
0.0
 11
38.99999999999863
 21
-57.66493780578276
 31
0.0
  0
LINE
  5
BC
330
2
100
AcDbEntity
  8
L-ZISSEN
100
AcDbLine
 10
38.99999999999863
 20
-57.66493780578276
 30
0.0
 11
38.99999999999863
 21
-61.94910678838096
 31
0.0
  0
LINE
  5
BD
330
2
100
AcDbEntity
  8
L-ZISSEN
100
AcDbLine
 10
33.31409532455154
 20
-61.99350653801594
 30
0.0
 11
33.31409532455154
 21
-59.80702229708004
 31
0.0
  0
LINE
  5
BE
330
2
100
AcDbEntity
  8
L-ZISSEN
100
AcDbLine
 10
35.0
 20
-36.0
 30
0.0
 11
35.0
 21
-57.0
 31
0.0
  0
LINE
  5
BF
330
2
100
AcDbEntity
  8
L-ZISSEN
100
AcDbLine
 10
33.50000000000136
 20
-63.88948590201107
 30
0.0
 11
33.31409532455154
 21
-63.88948590201107
 31
0.0
  0
LINE
  5
C0
330
2
100
AcDbEntity
  8
L-ZISSEN
100
AcDbLine
 10
33.31409532455154
 20
-63.88948590201107
 30
0.0
 11
33.31409532455154
 21
-36.0
 31
0.0
  0
LINE
  5
C1
330
2
100
AcDbEntity
  8
L-ZISSEN
100
AcDbLine
 10
38.99999999999863
 20
-61.94910678838096
 30
0.0
 11
33.50000000000136
 21
-63.88948590201107
 31
0.0
  0
LINE
  5
C2
330
2
100
AcDbEntity
  8
L-ZISSEN
100
AcDbLine
 10
35.0
 20
-36.0
 30
0.0
 11
35.0
 21
-12.5
 31
0.0
  0
LINE
  5
C3
330
2
100
AcDbEntity
  8
L-SOUZOU
100
AcDbLine
 10
45.75000000000454
 20
20.40000000000236
 30
0.0
 11
60.25000000000455
 21
20.40000000000236
 31
0.0
  0
LINE
  5
C4
330
2
100
AcDbEntity
  8
L-SOUZOU
100
AcDbLine
 10
45.75000000000454
 20
-20.39999999999781
 30
0.0
 11
60.25000000000455
 21
-20.39999999999781
 31
0.0
  0
LINE
  5
C5
330
2
100
AcDbEntity
  8
L-SOUZOU
100
AcDbLine
 10
60.25000000000455
 20
21.00000000000272
 30
0.0
 11
60.25000000000455
 21
-20.99999999999727
 31
0.0
  0
ARC
  5
C6
330
2
100
AcDbEntity
  8
L-SOUZOU
100
AcDbCircle
 10
67.75000000000421
 20
-19.49999999999727
 30
0.0
 40
1.5
100
AcDbArc
 50
270.0
 51
0.0
  0
ARC
  5
C7
330
2
100
AcDbEntity
  8
L-SOUZOU
100
AcDbCircle
 10
67.75000000000421
 20
19.50000000000272
 30
0.0
 40
1.5
100
AcDbArc
 50
0.0
 51
90.0
  0
LINE
  5
C8
330
2
100
AcDbEntity
  8
L-SOUZOU
100
AcDbLine
 10
69.25000000000455
 20
19.50000000000272
 30
0.0
 11
69.25000000000455
 21
-19.49999999999727
 31
0.0
  0
TEXT
  5
C9
330
2
100
AcDbEntity
  8
L-ZISSEN
100
AcDbText
 10
120.901547152777
 20
18.32050354491184
 30
0.0
 40
4.5
  1
Rc3/4
100
AcDbText
  0
LINE
  5
CA
330
2
100
AcDbEntity
  8
L-ZISSEN
100
AcDbLine
 10
142.6435455204527
 20
26.10834458520821
 30
0.0
 11
123.2053337753459
 21
26.10834458520821
 31
0.0
  0
TEXT
  5
CB
330
2
100
AcDbEntity
  8
L-ZISSEN
100
AcDbText
 10
124.6452018981881
 20
26.82794758936324
 30
0.0
 40
4.5
  1
IN
100
AcDbText
  0
LINE
  5
CC
330
2
100
AcDbEntity
  8
L-ZISSEN
100
AcDbLine
 10
-12.85640646055344
 20
35.50000000000909
 30
0.0
 11
12.85640646054957
 21
35.50000000001
 31
0.0
  0
LINE
  5
CD
330
2
100
AcDbEntity
  8
L-ZISSEN
100
AcDbLine
 10
7.000000000000113
 20
43.50000000000363
 30
0.0
 11
-6.999999999999886
 21
43.50000000000363
 31
0.0
  0
LINE
  5
CE
330
2
100
AcDbEntity
  8
L-ZISSEN
100
AcDbLine
 10
-12.85640646055287
 20
35.50000000000909
 30
0.0
 11
-13.85640646055105
 21
34.50000000000909
 31
0.0
  0
LINE
  5
CF
330
2
100
AcDbEntity
  8
L-ZISSEN
100
AcDbLine
 10
-6.999999999999886
 20
35.50000000000909
 30
0.0
 11
-6.999999999999886
 21
43.50000000000363
 31
0.0
  0
LINE
  5
D0
330
2
100
AcDbEntity
  8
L-ZISSEN
100
AcDbLine
 10
7.000000000000113
 20
35.50000000000909
 30
0.0
 11
7.000000000000113
 21
43.50000000000363
 31
0.0
  0
LINE
  5
D1
330
2
100
AcDbEntity
  8
L-ZISSEN
100
AcDbLine
 10
13.85640646055128
 20
34.50000000001
 30
0.0
 11
12.85640646054946
 21
35.50000000001
 31
0.0
  0
LINE
  5
D2
330
2
100
AcDbEntity
  8
L-ZISSEN
100
AcDbLine
 10
308.9400985404931
 20
-11.90689711856521
 30
0.0
 11
355.9400985404931
 21
-11.90689711856521
 31
0.0
  0
LINE
  5
D3
330
2
100
AcDbEntity
  8
L-ZISSEN
100
AcDbLine
 10
355.9400985404931
 20
11.99999999999909
 30
0.0
 11
308.9400985404931
 21
11.99999999999909
 31
0.0
  0
LINE
  5
D4
330
2
100
AcDbEntity
  8
L-ZISSEN
100
AcDbLine
 10
344.461750373388
 20
17.9913392668468
 30
0.0
 11
370.5321366068873
 21
17.99133926684771
 31
0.0
  0
LINE
  5
D5
330
2
100
AcDbEntity
  8
L-ZISSEN
100
AcDbLine
 10
342.9400985404957
 20
-12.4999999999909
 30
0.0
 11
410.940098540496
 21
-12.4999999999909
 31
0.0
  0
LINE
  5
D6
330
2
100
AcDbEntity
  8
L-ZISSEN
100
AcDbLine
 10
339.440098540496
 20
-35.99999999999727
 30
0.0
 11
414.4400985404957
 21
-35.99999999999545
 31
0.0
  0
LINE
  5
D7
330
2
100
AcDbEntity
  8
L-ZISSEN
100
AcDbLine
 10
339.4400985404958
 20
20.00000000000363
 30
0.0
 11
414.440098540496
 21
20.00000000000363
 31
0.0
  0
LINE
  5
D8
330
2
100
AcDbEntity
  8
L-ZISSEN
100
AcDbLine
 10
356.0657583175071
 20
218.5000000000008
 30
0.0
 11
344.3004781505252
 21
218.5000000000008
 31
0.0
  0
LINE
  5
D9
330
2
100
AcDbEntity
  8
L-ZISSEN
100
AcDbLine
 10
356.0657583175071
 20
181.50000000001
 30
0.0
 11
344.3004781505252
 21
181.50000000001
 31
0.0
  0
LINE
  5
DA
330
2
100
AcDbEntity
  8
L-ZISSEN
100
AcDbLine
 10
341.1900985404973
 20
214.5000000000009
 30
0.0
 11
370.5321366068865
 21
214.5000000000009
 31
0.0
  0
LINE
  5
DB
330
2
100
AcDbEntity
  8
L-ZISSEN
100
AcDbLine
 10
371.2526442604762
 20
217.7500000000009
 30
0.0
 11
343.940098540495
 21
217.7500000000009
 31
0.0
  0
LINE
  5
DC
330
2
100
AcDbEntity
  8
L-ZISSEN
100
AcDbLine
 10
371.2526442604762
 20
182.2500000000009
 30
0.0
 11
343.9400985404954
 21
182.2500000000009
 31
0.0
  0
LINE
  5
DD
330
2
100
AcDbEntity
  8
L-ZISSEN
100
AcDbLine
 10
341.1900985404973
 20
185.5000000000009
 30
0.0
 11
370.5321366068865
 21
185.5000000000009
 31
0.0
  0
LINE
  5
DE
330
2
100
AcDbEntity
  8
L-ZISSEN
100
AcDbLine
 10
306.9400985404979
 20
229.5000000000009
 30
0.0
 11
357.9400985404973
 21
229.5000000000009
 31
0.0
  0
LINE
  5
DF
330
2
100
AcDbEntity
  8
L-ZISSEN
100
AcDbLine
 10
306.9400985404979
 20
170.5000000000099
 30
0.0
 11
357.9400985404973
 21
170.5000000000099
 31
0.0
  0
LINE
  5
E0
330
2
100
AcDbEntity
  8
L-TYUSIN
100
AcDbLine
 10
287.9400985404913
 20
40.50000000000454
 30
0.0
 11
287.9400985404913
 21
-121.4999999999945
 31
0.0
  0
LINE
  5
E1
330
2
100
AcDbEntity
  8
L-ZISSEN
100
AcDbLine
 10
287.0803632916106
 20
1.805783846930353
 30
0.0
 11
257.0928633521595
 21
64.79138676469847
 31
0.0
  0
LINE
  5
E2
330
2
100
AcDbEntity
  8
L-ZISSEN
100
AcDbLine
 10
287.9400985404931
 20
35.50000000000546
 30
0.0
 11
287.9400985404931
 21
29.50000000000546
 31
0.0
  0
LINE
  5
E3
330
2
100
AcDbEntity
  8
L-ZISSEN
100
AcDbLine
 10
299.9400985404932
 20
34.50000000000545
 30
0.0
 11
299.9400985404932
 21
29.50000000000546
 31
0.0
  0
LINE
  5
E4
330
2
100
AcDbEntity
  8
L-ZISSEN
100
AcDbLine
 10
275.9400985404931
 20
34.50000000000454
 30
0.0
 11
275.9400985404931
 21
29.50000000000546
 31
0.0
  0
LINE
  5
E5
330
2
100
AcDbEntity
  8
L-ZISSEN
100
AcDbLine
 10
252.9400985404882
 20
-19.99999999999181
 30
0.0
 11
250.4400985404881
 21
-19.99999999999181
 31
0.0
  0
LINE
  5
E6
330
2
100
AcDbEntity
  8
L-ZISSEN
100
AcDbLine
 10
250.4400985404881
 20
-23.49999999999181
 30
0.0
 11
252.9400985404882
 21
-23.49999999999181
 31
0.0
  0
LINE
  5
E7
330
2
100
AcDbEntity
  8
L-ZISSEN
100
AcDbLine
 10
250.4400985404931
 20
19.99999999999909
 30
0.0
 11
262.9400985404931
 21
19.99999999999909
 31
0.0
  0
LINE
  5
E8
330
2
100
AcDbEntity
  8
L-ZISSEN
100
AcDbLine
 10
250.4400985404933
 20
14.99999999999909
 30
0.0
 11
253.940098540493
 21
14.99999999999909
 31
0.0
  0
LINE
  5
E9
330
2
100
AcDbEntity
  8
L-ZISSEN
100
AcDbLine
 10
250.4400985404931
 20
-28.49999999999454
 30
0.0
 11
325.4400985404931
 21
-28.49999999999454
 31
0.0
  0
LINE
  5
EA
330
2
100
AcDbEntity
  8
L-ZISSEN
100
AcDbLine
 10
325.4400985404931
 20
-12.4999999999909
 30
0.0
 11
250.4400985404931
 21
-12.4999999999909
 31
0.0
  0
LINE
  5
EB
330
2
100
AcDbEntity
  8
L-ZISSEN
100
AcDbLine
 10
219.9400985404926
 20
-11.9068971185643
 30
0.0
 11
266.9400985404926
 21
-11.9068971185643
 31
0.0
  0
LINE
  5
EC
330
2
100
AcDbEntity
  8
L-ZISSEN
100
AcDbLine
 10
266.9400985404926
 20
12.0
 30
0.0
 11
219.9400985404926
 21
12.0
 31
0.0
  0
LINE
  5
ED
330
2
100
AcDbEntity
  8
L-ZISSEN
100
AcDbLine
 10
210.8545316753315
 20
-65.94202551104263
 30
0.0
 11
198.9400985404972
 21
-68.43638348547301
 31
0.0
  0
LINE
  5
EE
330
2
100
AcDbEntity
  8
L-ZISSEN
100
AcDbLine
 10
198.9400985404972
 20
-70.99999999999818
 30
0.0
 11
213.0025985404949
 21
-67.24999999999818
 31
0.0
  0
LINE
  5
EF
330
2
100
AcDbEntity
  8
L-ZISSEN
100
AcDbLine
 10
202.0650985404972
 20
-42.24999999999726
 30
0.0
 11
207.0650985404972
 21
-42.24999999999726
 31
0.0
  0
LINE
  5
F0
330
2
100
AcDbEntity
  8
L-ZISSEN
100
AcDbLine
 10
202.0650985404972
 20
-42.24999999999726
 30
0.0
 11
207.0650985404972
 21
-42.24999999999726
 31
0.0
  0
LINE
  5
F1
330
2
100
AcDbEntity
  8
L-ZISSEN
100
AcDbLine
 10
202.0650985404972
 20
-43.49999999999726
 30
0.0
 11
207.0650985404972
 21
-43.49999999999726
 31
0.0
  0
LINE
  5
F2
330
2
100
AcDbEntity
  8
L-ZISSEN
100
AcDbLine
 10
202.0650985404972
 20
-43.49999999999726
 30
0.0
 11
207.0650985404972
 21
-43.49999999999726
 31
0.0
  0
LINE
  5
F3
330
2
100
AcDbEntity
  8
L-ZISSEN
100
AcDbLine
 10
198.9400985404972
 20
-62.24999999999818
 30
0.0
 11
212.065098540495
 21
-60.37499999999818
 31
0.0
  0
LINE
  5
F4
330
2
100
AcDbEntity
  8
L-ZISSEN
100
AcDbLine
 10
198.9400985404972
 20
-63.08117225722526
 30
0.0
 11
210.8545316753315
 21
-61.37911038082075
 31
0.0
  0
ARC
  5
F5
330
2
100
AcDbEntity
  8
L-ZISSEN
100
AcDbCircle
 10
205.6528166004909
 20
-131.730087714217
 30
0.0
 40
5.271330170371532
100
AcDbArc
 50
244.7408933165821
 51
295.7116451148495
  0
ARC
  5
F6
330
2
100
AcDbEntity
  8
L-ZISSEN
100
AcDbCircle
 10
205.6528166004923
 20
-139.2699122857784
 30
0.0
 40
5.271330170371789
100
AcDbArc
 50
64.28835488515037
 51
115.2591066834178
  0
LINE
  5
F7
330
2
100
AcDbEntity
  8
L-ZISSEN
100
AcDbLine
 10
207.9400985404995
 20
-133.8595512005613
 30
0.0
 11
204.9400985404977
 21
-133.8595512005613
 31
0.0
  0
LINE
  5
F8
330
2
100
AcDbEntity
  8
L-ZISSEN
100
AcDbLine
 10
207.9400985404995
 20
-133.8595512005613
 30
0.0
 11
204.9400985404977
 21
-133.8595512005613
 31
0.0
  0
LINE
  5
F9
330
2
100
AcDbEntity
  8
L-ZISSEN
100
AcDbLine
 10
232.9400985404969
 20
-12.49999999999181
 30
0.0
 11
164.9400985404963
 21
-12.49999999999181
 31
0.0
  0
LINE
  5
FA
330
2
100
AcDbEntity
  8
L-ZISSEN
100
AcDbLine
 10
161.4400985404963
 20
20.00000000000363
 30
0.0
 11
236.440098540497
 21
20.00000000000454
 31
0.0
  0
LINE
  5
FB
330
2
100
AcDbEntity
  8
L-ZISSEN
100
AcDbLine
 10
161.4400985404968
 20
-35.99999999999909
 30
0.0
 11
236.4400985404967
 21
-35.99999999999727
 31
0.0
  0
LINE
  5
FC
330
2
100
AcDbEntity
  8
L-ZISSEN
100
AcDbLine
 10
166.2400985404967
 20
17.9913392668468
 30
0.0
 11
231.6400985404966
 21
17.99133926684953
 31
0.0
  0
LINE
  5
FD
330
2
100
AcDbEntity
  8
L-ZISSEN
100
AcDbLine
 10
218.6275528205155
 20
13.75000000000091
 30
0.0
 11
179.2526442604776
 21
13.75000000000091
 31
0.0
  0
LINE
  5
FE
330
2
100
AcDbEntity
  8
L-ZISSEN
100
AcDbLine
 10
207.9400985404995
 20
-132.6559495400488
 30
0.0
 11
189.6900985404945
 21
-132.6559495400479
 31
0.0
  0
LINE
  5
FF
330
2
100
AcDbEntity
  8
L-ZISSEN
100
AcDbLine
 10
186.1275985404972
 20
-75.99999999999818
 30
0.0
 11
211.7525985404972
 21
-75.99999999999818
 31
0.0
  0
ARC
  5
100
330
2
100
AcDbEntity
  8
L-ZISSEN
100
AcDbCircle
 10
198.9400985404986
 20
-33.54728891851482
 30
0.0
 40
99.53938471878538
100
AcDbArc
 50
256.0937629349475
 51
264.6679223051352
  0
LINE
  5
101
330
2
100
AcDbEntity
  8
L-ZISSEN
100
AcDbLine
 10
168.9400985404972
 20
-122.4036840439857
 30
0.0
 11
168.9400985404972
 21
-35.99999999999818
 31
0.0
  0
LINE
  5
102
330
2
100
AcDbEntity
  8
L-ZISSEN
100
AcDbLine
 10
182.0900985404978
 20
-46.33873891162875
 30
0.0
 11
182.0900985404978
 21
-114.3387389116287
 31
0.0
  0
LINE
  5
103
330
2
100
AcDbEntity
  8
L-ZISSEN
100
AcDbLine
 10
173.660098540497
 20
-46.33873891162875
 30
0.0
 11
173.660098540497
 21
-114.3387389116287
 31
0.0
  0
ARC
  5
104
330
2
100
AcDbEntity
  8
L-ZISSEN
100
AcDbCircle
 10
176.9400985404981
 20
-122.4036840439857
 30
0.0
 40
8.000000000000113
100
AcDbArc
 50
180.0
 51
256.0937629349475
  0
LINE
  5
105
330
2
100
AcDbEntity
  8
L-ZISSEN
100
AcDbLine
 10
177.8750985404963
 20
-116.3387389116287
 30
0.0
 11
173.660098540497
 21
-114.3387389116287
 31
0.0
  0
LINE
  5
106
330
2
100
AcDbEntity
  8
L-ZISSEN
100
AcDbLine
 10
182.0900985404978
 20
-114.3387389116287
 30
0.0
 11
177.8750985404963
 21
-116.3387389116287
 31
0.0
  0
LINE
  5
107
330
2
100
AcDbEntity
  8
L-ZISSEN
100
AcDbLine
 10
166.2400985404965
 20
17.9913392668468
 30
0.0
 11
164.9400985404963
 21
15.00000000000363
 31
0.0
  0
LINE
  5
108
330
2
100
AcDbEntity
  8
L-ZISSEN
100
AcDbLine
 10
161.4400985404963
 20
15.00000000000363
 30
0.0
 11
164.9400985404963
 21
15.00000000000363
 31
0.0
  0
LINE
  5
109
330
2
100
AcDbEntity
  8
L-ZISSEN
100
AcDbLine
 10
169.9472205948168
 20
-35.99999999999909
 30
0.0
 11
169.9472205948168
 21
-12.49999999999181
 31
0.0
  0
LINE
  5
10A
330
2
100
AcDbEntity
  8
L-ZISSEN
100
AcDbLine
 10
161.4400985404968
 20
-23.49999999999181
 30
0.0
 11
163.9400985404968
 21
-23.49999999999181
 31
0.0
  0
LINE
  5
10B
330
2
100
AcDbEntity
  8
L-ZISSEN
100
AcDbLine
 10
163.9400985404968
 20
-19.99999999999181
 30
0.0
 11
161.4400985404968
 21
-19.99999999999181
 31
0.0
  0
LINE
  5
10C
330
2
100
AcDbEntity
  8
L-ZISSEN
100
AcDbLine
 10
163.9400985404968
 20
-23.49999999999181
 30
0.0
 11
163.9400985404968
 21
-19.99999999999181
 31
0.0
  0
LINE
  5
10D
330
2
100
AcDbEntity
  8
L-ZISSEN
100
AcDbLine
 10
161.4400985404968
 20
-35.99999999999909
 30
0.0
 11
161.4400985404968
 21
-23.49999999999181
 31
0.0
  0
LINE
  5
10E
330
2
100
AcDbEntity
  8
L-ZISSEN
100
AcDbLine
 10
161.4400985404969
 20
-19.99999999999181
 30
0.0
 11
161.4400985404963
 21
20.00000000000363
 31
0.0
  0
LINE
  5
10F
330
2
100
AcDbEntity
  8
L-ZISSEN
100
AcDbLine
 10
166.2400985404965
 20
17.9913392668468
 30
0.0
 11
166.2400985404965
 21
-12.49999999999181
 31
0.0
  0
LINE
  5
110
330
2
100
AcDbEntity
  8
L-ZISSEN
100
AcDbLine
 10
164.9400985404963
 20
15.00000000000363
 30
0.0
 11
164.9400985404963
 21
-12.49999999999181
 31
0.0
  0
LINE
  5
111
330
2
100
AcDbEntity
  8
L-ZISSEN
100
AcDbLine
 10
173.660098540497
 20
-46.33873891162875
 30
0.0
 11
182.0900985404978
 21
-46.33873891162875
 31
0.0
  0
LINE
  5
112
330
2
100
AcDbEntity
  8
L-ZISSEN
100
AcDbLine
 10
172.9400985404963
 20
-35.99999999999909
 30
0.0
 11
172.9400985404963
 21
-12.49999999999181
 31
0.0
  0
LINE
  5
113
330
2
100
AcDbEntity
  8
L-ZISSEN
100
AcDbLine
 10
182.1900985404963
 20
13.75000000000091
 30
0.0
 11
182.1900985404963
 21
-12.49999999999181
 31
0.0
  0
LINE
  5
114
330
2
100
AcDbEntity
  8
L-ZISSEN
100
AcDbLine
 10
179.2526442604776
 20
13.75000000000091
 30
0.0
 11
179.2526442604776
 21
-12.49999999999181
 31
0.0
  0
LINE
  5
115
330
2
100
AcDbEntity
  8
L-TYUSIN
100
AcDbLine
 10
198.9400985404972
 20
-153.9999999999972
 30
0.0
 11
198.9400985404976
 21
25.00000000000454
 31
0.0
  0
ARC
  5
116
330
2
100
AcDbEntity
  8
L-ZISSEN
100
AcDbCircle
 10
198.9400985404972
 20
-116.3589373260802
 30
0.0
 40
20.64106267391694
100
AcDbArc
 50
257.3236813122585
 51
282.4944195184325
  0
ARC
  5
117
330
2
100
AcDbEntity
  8
L-ZISSEN
100
AcDbCircle
 10
198.9400985404986
 20
-154.6410626739143
 30
0.0
 40
20.64106267391679
100
AcDbArc
 50
77.50558048156747
 51
102.6763186877541
  0
LINE
  5
118
330
2
100
AcDbEntity
  8
L-ZISSEN
100
AcDbLine
 10
192.1617829239926
 20
-137.0006211148174
 30
0.0
 11
205.6528166004909
 21
-137.0014178845885
 31
0.0
  0
LINE
  5
119
330
2
100
AcDbEntity
  8
L-ZISSEN
100
AcDbLine
 10
204.9400985404977
 20
-133.8595512005613
 30
0.0
 11
189.9400985404977
 21
-133.8595512005613
 31
0.0
  0
LINE
  5
11A
330
2
100
AcDbEntity
  8
L-ZISSEN
100
AcDbLine
 10
192.0808643427053
 20
-133.9999999999972
 30
0.0
 11
204.9400985404977
 21
-133.9999999999972
 31
0.0
  0
LINE
  5
11B
330
2
100
AcDbEntity
  8
L-ZISSEN
100
AcDbLine
 10
204.9400985404977
 20
-133.8595512005613
 30
0.0
 11
189.9400985404977
 21
-133.8595512005613
 31
0.0
  0
LINE
  5
11C
330
2
100
AcDbEntity
  8
L-ZISSEN
100
AcDbLine
 10
204.6400985404966
 20
-148.9999999999972
 30
0.0
 11
193.2400985404979
 21
-148.9999999999972
 31
0.0
  0
LINE
  5
11D
330
2
100
AcDbEntity
  8
L-ZISSEN
100
AcDbLine
 10
193.4400985404954
 20
-138.9411654104887
 30
0.0
 11
201.9400985404968
 21
-138.9411654104887
 31
0.0
  0
LINE
  5
11E
330
2
100
AcDbEntity
  8
L-ZISSEN
100
AcDbLine
 10
194.4105622224801
 20
-134.5031191579464
 30
0.0
 11
194.4105622224869
 21
-136.4968808420499
 31
0.0
  0
LINE
  5
11F
330
2
100
AcDbEntity
  8
L-ZISSEN
100
AcDbLine
 10
193.9400985404995
 20
-137.0006966111259
 30
0.0
 11
193.9400985404954
 21
-138.9411654104887
 31
0.0
  0
LINE
  5
120
330
2
100
AcDbEntity
  8
L-ZISSEN
100
AcDbLine
 10
193.9400985404972
 20
-138.9411654104887
 30
0.0
 11
193.9400985404972
 21
-148.9999999999972
 31
0.0
  0
LINE
  5
121
330
2
100
AcDbEntity
  8
L-ZISSEN
100
AcDbLine
 10
193.4400985404954
 20
-138.9411654104887
 30
0.0
 11
192.9400985404981
 21
-139.4411654104887
 31
0.0
  0
LINE
  5
122
330
2
100
AcDbEntity
  8
L-ZISSEN
100
AcDbLine
 10
193.2400985404979
 20
-148.9999999999972
 30
0.0
 11
192.9400985404981
 21
-148.699999999998
 31
0.0
  0
LINE
  5
123
330
2
100
AcDbEntity
  8
L-ZISSEN
100
AcDbLine
 10
189.9404549204145
 20
-134.4902672699408
 30
0.0
 11
189.9404549204145
 21
-136.5097327300536
 31
0.0
  0
LINE
  5
124
330
2
100
AcDbEntity
  8
L-ZISSEN
100
AcDbLine
 10
189.9400985404977
 20
-133.8595512005613
 30
0.0
 11
189.9400985404977
 21
-132.6559495400479
 31
0.0
  0
LINE
  5
125
330
2
100
AcDbEntity
  8
L-ZISSEN
100
AcDbLine
 10
189.9400985404977
 20
-133.8595512005613
 30
0.0
 11
189.9400985404977
 21
-132.6559495400479
 31
0.0
  0
LINE
  5
126
330
2
100
AcDbEntity
  8
L-ZISSEN
100
AcDbLine
 10
192.9400985404981
 20
-148.699999999998
 30
0.0
 11
192.9400985404981
 21
-139.4411654104887
 31
0.0
  0
LINE
  5
127
330
2
100
AcDbEntity
  8
L-ZISSEN
100
AcDbLine
 10
193.4400985404981
 20
-138.4411654104887
 30
0.0
 11
193.4400985404981
 21
-136.9999999999972
 31
0.0
  0
ARC
  5
128
330
2
100
AcDbEntity
  8
L-ZISSEN
100
AcDbCircle
 10
192.1617829239926
 20
-131.7292909444468
 30
0.0
 40
5.271330170370607
100
AcDbArc
 50
245.0771192748142
 51
295.2523389966543
  0
ARC
  5
129
330
2
100
AcDbEntity
  8
L-ZISSEN
100
AcDbCircle
 10
192.161782923994
 20
-139.2707090555486
 30
0.0
 40
5.271330170370607
100
AcDbArc
 50
64.74766100341494
 51
114.9228807251857
  0
LINE
  5
12A
330
2
100
AcDbEntity
  8
L-ZISSEN
100
AcDbLine
 10
193.9400985404954
 20
-138.9411654104887
 30
0.0
 11
193.4400985404981
 21
-138.4411654104887
 31
0.0
  0
LINE
  5
12B
330
2
100
AcDbEntity
  8
L-ZISSEN
100
AcDbLine
 10
203.4034741775158
 20
-134.5025880436842
 30
0.0
 11
203.4034741775158
 21
-136.4974119563121
 31
0.0
  0
LINE
  5
12C
330
2
100
AcDbEntity
  8
L-ZISSEN
100
AcDbLine
 10
204.4400985404964
 20
-138.4411654104887
 30
0.0
 11
204.4400985404963
 21
-136.9999999999972
 31
0.0
  0
LINE
  5
12D
330
2
100
AcDbEntity
  8
L-ZISSEN
100
AcDbLine
 10
204.4400985404968
 20
-138.9411654104887
 30
0.0
 11
204.9400985404963
 21
-139.4411654104887
 31
0.0
  0
LINE
  5
12E
330
2
100
AcDbEntity
  8
L-ZISSEN
100
AcDbLine
 10
203.9400985404968
 20
-138.9411654104887
 30
0.0
 11
204.4400985404963
 21
-138.4411654104887
 31
0.0
  0
LINE
  5
12F
330
2
100
AcDbEntity
  8
L-ZISSEN
100
AcDbLine
 10
203.940098540501
 20
-137.0013462624201
 30
0.0
 11
203.9400985404968
 21
-138.9411654104887
 31
0.0
  0
LINE
  5
130
330
2
100
AcDbEntity
  8
L-ZISSEN
100
AcDbLine
 10
204.9400985404977
 20
-133.9999999999972
 30
0.0
 11
205.7750715195938
 21
-133.9999999999972
 31
0.0
  0
LINE
  5
131
330
2
100
AcDbEntity
  8
L-ZISSEN
100
AcDbLine
 10
201.9400985404981
 20
-133.9999999999972
 30
0.0
 11
201.9400985404981
 21
-133.8595512005613
 31
0.0
  0
LINE
  5
132
330
2
100
AcDbEntity
  8
L-ZISSEN
100
AcDbLine
 10
201.9400985404968
 20
-138.9411654104887
 30
0.0
 11
204.4400985404968
 21
-138.9411654104887
 31
0.0
  0
LINE
  5
133
330
2
100
AcDbEntity
  8
L-ZISSEN
100
AcDbLine
 10
204.6400985404966
 20
-148.9999999999972
 30
0.0
 11
204.9400985404963
 21
-148.699999999998
 31
0.0
  0
LINE
  5
134
330
2
100
AcDbEntity
  8
L-ZISSEN
100
AcDbLine
 10
196.940098540499
 20
-138.9411654104887
 30
0.0
 11
196.940098540499
 21
-148.9999999999972
 31
0.0
  0
LINE
  5
135
330
2
100
AcDbEntity
  8
L-ZISSEN
100
AcDbLine
 10
197.9400985404981
 20
-138.9411654104887
 30
0.0
 11
197.9400985404981
 21
-148.9999999999972
 31
0.0
  0
LINE
  5
136
330
2
100
AcDbEntity
  8
L-ZISSEN
100
AcDbLine
 10
198.9400985404995
 20
-138.9411654104887
 30
0.0
 11
198.9400985404995
 21
-148.9999999999972
 31
0.0
  0
LINE
  5
137
330
2
100
AcDbEntity
  8
L-ZISSEN
100
AcDbLine
 10
199.9400985404986
 20
-138.9411654104887
 30
0.0
 11
199.9400985404986
 21
-148.9999999999972
 31
0.0
  0
LINE
  5
138
330
2
100
AcDbEntity
  8
L-ZISSEN
100
AcDbLine
 10
200.9400985404977
 20
-138.9411654104887
 30
0.0
 11
200.9400985404978
 21
-148.9999999999972
 31
0.0
  0
LINE
  5
139
330
2
100
AcDbEntity
  8
L-ZISSEN
100
AcDbLine
 10
201.9400985404968
 20
-138.9411654104887
 30
0.0
 11
201.9400985404968
 21
-148.9999999999972
 31
0.0
  0
LINE
  5
13A
330
2
100
AcDbEntity
  8
L-ZISSEN
100
AcDbLine
 10
202.9400985405004
 20
-138.9411654104887
 30
0.0
 11
202.9400985405005
 21
-148.9999999999972
 31
0.0
  0
LINE
  5
13B
330
2
100
AcDbEntity
  8
L-ZISSEN
100
AcDbLine
 10
203.9400985404995
 20
-138.9411654104887
 30
0.0
 11
203.9400985405015
 21
-148.9999999999972
 31
0.0
  0
LINE
  5
13C
330
2
100
AcDbEntity
  8
L-ZISSEN
100
AcDbLine
 10
204.9400985404963
 20
-139.4411654104887
 30
0.0
 11
204.9400985404963
 21
-148.699999999998
 31
0.0
  0
LINE
  5
13D
330
2
100
AcDbEntity
  8
L-ZISSEN
100
AcDbLine
 10
195.9400985404977
 20
-138.9411654104887
 30
0.0
 11
195.9400985404977
 21
-148.9999999999972
 31
0.0
  0
LINE
  5
13E
330
2
100
AcDbEntity
  8
L-ZISSEN
100
AcDbLine
 10
194.9400985404963
 20
-138.9411654104887
 30
0.0
 11
194.9400985404963
 21
-148.9999999999972
 31
0.0
  0
LINE
  5
13F
330
2
100
AcDbEntity
  8
L-ZISSEN
100
AcDbLine
 10
187.0256654056629
 20
-65.94202551104263
 30
0.0
 11
198.9400985404972
 21
-68.43638348547301
 31
0.0
  0
LINE
  5
140
330
2
100
AcDbEntity
  8
L-ZISSEN
100
AcDbLine
 10
198.9400985404972
 20
-70.99999999999818
 30
0.0
 11
184.877598540495
 21
-67.24999999999818
 31
0.0
  0
LINE
  5
141
330
2
100
AcDbEntity
  8
L-ZISSEN
100
AcDbLine
 10
198.9400985404972
 20
-63.08117225722526
 30
0.0
 11
187.0256654056629
 21
-61.37911038082075
 31
0.0
  0
LINE
  5
142
330
2
100
AcDbEntity
  8
L-ZISSEN
100
AcDbLine
 10
198.9400985404972
 20
-62.24999999999818
 30
0.0
 11
185.815098540495
 21
-60.37499999999818
 31
0.0
  0
LINE
  5
143
330
2
100
AcDbEntity
  8
L-ZISSEN
100
AcDbLine
 10
195.8150985404972
 20
-42.24999999999818
 30
0.0
 11
190.8150985404972
 21
-42.24999999999818
 31
0.0
  0
LINE
  5
144
330
2
100
AcDbEntity
  8
L-ZISSEN
100
AcDbLine
 10
195.8150985404972
 20
-42.24999999999818
 30
0.0
 11
190.8150985404972
 21
-42.24999999999818
 31
0.0
  0
LINE
  5
145
330
2
100
AcDbEntity
  8
L-ZISSEN
100
AcDbLine
 10
195.8150985404972
 20
-43.49999999999818
 30
0.0
 11
190.8150985404972
 21
-43.49999999999818
 31
0.0
  0
LINE
  5
146
330
2
100
AcDbEntity
  8
L-ZISSEN
100
AcDbLine
 10
195.8150985404972
 20
-43.49999999999818
 30
0.0
 11
190.8150985404972
 21
-43.49999999999818
 31
0.0
  0
LINE
  5
147
330
2
100
AcDbEntity
  8
L-ZISSEN
100
AcDbLine
 10
184.877598540495
 20
-35.99999999999818
 30
0.0
 11
184.877598540495
 21
-74.74999999999818
 31
0.0
  0
LINE
  5
148
330
2
100
AcDbEntity
  8
L-ZISSEN
100
AcDbLine
 10
187.0256654056629
 20
-61.37911038082075
 30
0.0
 11
187.0256654056629
 21
-65.94202551104263
 31
0.0
  0
LINE
  5
149
330
2
100
AcDbEntity
  8
L-ZISSEN
100
AcDbLine
 10
189.5650985404972
 20
-68.49999999999727
 30
0.0
 11
189.565098540495
 21
-75.99999999999818
 31
0.0
  0
ARC
  5
14A
330
2
100
AcDbEntity
  8
L-ZISSEN
100
AcDbCircle
 10
186.1275985404972
 20
-74.74999999999818
 30
0.0
 40
1.250000000000568
100
AcDbArc
 50
180.0
 51
270.0
  0
LINE
  5
14B
330
2
100
AcDbEntity
  8
L-ZISSEN
100
AcDbLine
 10
184.877598540495
 20
-67.24999999999818
 30
0.0
 11
187.0256654056629
 21
-65.94202551104263
 31
0.0
  0
LINE
  5
14C
330
2
100
AcDbEntity
  8
L-ZISSEN
100
AcDbLine
 10
190.8150985404972
 20
-42.24999999999818
 30
0.0
 11
190.8150985404972
 21
-40.99999999999818
 31
0.0
  0
LINE
  5
14D
330
2
100
AcDbEntity
  8
L-ZISSEN
100
AcDbLine
 10
190.8150985404972
 20
-43.49999999999818
 30
0.0
 11
190.8150985404972
 21
-44.74999999999818
 31
0.0
  0
LINE
  5
14E
330
2
100
AcDbEntity
  8
L-ZISSEN
100
AcDbLine
 10
187.0256654056629
 20
-61.37911038082075
 30
0.0
 11
185.815098540495
 21
-60.37499999999818
 31
0.0
  0
LINE
  5
14F
330
2
100
AcDbEntity
  8
L-ZISSEN
100
AcDbLine
 10
187.0256654056629
 20
-60.54793812359275
 30
0.0
 11
185.815098540495
 21
-60.37499999999818
 31
0.0
  0
LINE
  5
150
330
2
100
AcDbEntity
  8
L-ZISSEN
100
AcDbLine
 10
190.8150985404972
 20
-44.74999999999818
 30
0.0
 11
187.6900985404972
 21
-42.87499999999818
 31
0.0
  0
LINE
  5
151
330
2
100
AcDbEntity
  8
L-ZISSEN
100
AcDbLine
 10
185.815098540495
 20
-35.99999999999818
 30
0.0
 11
185.815098540495
 21
-60.37499999999818
 31
0.0
  0
LINE
  5
152
330
2
100
AcDbEntity
  8
L-ZISSEN
100
AcDbLine
 10
184.877598540495
 20
-35.99999999999818
 30
0.0
 11
184.877598540495
 21
-59.78927536713036
 31
0.0
  0
LINE
  5
153
330
2
100
AcDbEntity
  8
L-ZISSEN
100
AcDbLine
 10
190.8150985404972
 20
-40.99999999999818
 30
0.0
 11
187.6900985404972
 21
-42.87499999999818
 31
0.0
  0
CIRCLE
  5
154
330
2
100
AcDbEntity
  8
L-ZISSEN
100
AcDbCircle
 10
198.9400985404972
 20
-65.99645470117138
 30
0.0
 40
1.25
  0
LINE
  5
155
330
2
100
AcDbEntity
  8
L-TYUSIN
100
AcDbLine
 10
196.7533049779422
 20
-65.99645470117138
 30
0.0
 11
200.948084952854
 21
-65.99645470117138
 31
0.0
  0
LINE
  5
156
330
2
100
AcDbEntity
  8
L-ZISSEN
100
AcDbLine
 10
198.9400985404972
 20
-70.99999999999818
 30
0.0
 11
198.9400985404972
 21
-68.43638348547301
 31
0.0
  0
LINE
  5
157
330
2
100
AcDbEntity
  8
L-ZISSEN
100
AcDbLine
 10
200.1900985404972
 20
-70.66666666666424
 30
0.0
 11
200.1900985404972
 21
-72.24999999999818
 31
0.0
  0
LINE
  5
158
330
2
100
AcDbEntity
  8
L-ZISSEN
100
AcDbLine
 10
197.690098540495
 20
-70.66666666666333
 30
0.0
 11
197.6900985404972
 21
-72.24999999999818
 31
0.0
  0
ARC
  5
159
330
2
100
AcDbEntity
  8
L-ZISSEN
100
AcDbCircle
 10
198.9400985404972
 20
-72.24999999999818
 30
0.0
 40
1.250000000000568
100
AcDbArc
 50
180.0
 51
0.0
  0
LINE
  5
15A
330
2
100
AcDbEntity
  8
L-ZISSEN
100
AcDbLine
 10
195.1900985404995
 20
-49.74999999999636
 30
0.0
 11
198.9400985404995
 21
-55.99999999999636
 31
0.0
  0
LINE
  5
15B
330
2
100
AcDbEntity
  8
L-ZISSEN
100
AcDbLine
 10
197.6900985404995
 20
-49.74999999999636
 30
0.0
 11
195.1900985404995
 21
-49.74999999999636
 31
0.0
  0
LINE
  5
15C
330
2
100
AcDbEntity
  8
L-ZISSEN
100
AcDbLine
 10
200.1900985404995
 20
-39.74999999999636
 30
0.0
 11
197.6900985404995
 21
-39.74999999999636
 31
0.0
  0
LINE
  5
15D
330
2
100
AcDbEntity
  8
L-ZISSEN
100
AcDbLine
 10
202.6900985404995
 20
-49.74999999999636
 30
0.0
 11
198.9400985404995
 21
-55.99999999999636
 31
0.0
  0
LINE
  5
15E
330
2
100
AcDbEntity
  8
L-ZISSEN
100
AcDbLine
 10
200.1900985404995
 20
-49.74999999999636
 30
0.0
 11
202.6900985404995
 21
-49.74999999999636
 31
0.0
  0
LINE
  5
15F
330
2
100
AcDbEntity
  8
L-ZISSEN
100
AcDbLine
 10
195.8150985404972
 20
-42.24999999999818
 30
0.0
 11
195.8150985404972
 21
-43.49999999999818
 31
0.0
  0
LINE
  5
160
330
2
100
AcDbEntity
  8
L-ZISSEN
100
AcDbLine
 10
197.6900985404995
 20
-39.74999999999636
 30
0.0
 11
197.6900985404995
 21
-49.74999999999636
 31
0.0
  0
LINE
  5
161
330
2
100
AcDbEntity
  8
L-ZISSEN
100
AcDbLine
 10
197.6900985404995
 20
-39.74999999999636
 30
0.0
 11
197.6900985404995
 21
-49.74999999999636
 31
0.0
  0
LINE
  5
162
330
2
100
AcDbEntity
  8
L-ZISSEN
100
AcDbLine
 10
200.1900985404995
 20
-39.74999999999636
 30
0.0
 11
200.1900985404995
 21
-49.74999999999636
 31
0.0
  0
LINE
  5
163
330
2
100
AcDbEntity
  8
L-ZISSEN
100
AcDbLine
 10
200.1900985404995
 20
-39.74999999999636
 30
0.0
 11
200.1900985404995
 21
-49.74999999999636
 31
0.0
  0
LINE
  5
164
330
2
100
AcDbEntity
  8
L-ZISSEN
100
AcDbLine
 10
202.0650985404972
 20
-42.24999999999726
 30
0.0
 11
202.0650985404972
 21
-43.49999999999726
 31
0.0
  0
LINE
  5
165
330
2
100
AcDbEntity
  8
L-ZISSEN
100
AcDbLine
 10
198.9400985404972
 20
-62.24999999999818
 30
0.0
 11
198.9400985404972
 21
-63.08117225722526
 31
0.0
  0
ARC
  5
166
330
2
100
AcDbEntity
  8
L-ZISSEN
100
AcDbCircle
 10
220.9400985404968
 20
-122.4036840439866
 30
0.0
 40
8.000000000000113
100
AcDbArc
 50
283.9062370652546
 51
0.0
  0
LINE
  5
167
330
2
100
AcDbEntity
  8
L-ZISSEN
100
AcDbLine
 10
224.2200985404974
 20
-46.33873891162875
 30
0.0
 11
224.2200985404974
 21
-114.3387389116287
 31
0.0
  0
LINE
  5
168
330
2
100
AcDbEntity
  8
L-ZISSEN
100
AcDbLine
 10
215.7900985404967
 20
-46.33873891162875
 30
0.0
 11
215.7900985404967
 21
-114.3387389116287
 31
0.0
  0
LINE
  5
169
330
2
100
AcDbEntity
  8
L-ZISSEN
100
AcDbLine
 10
228.940098540495
 20
-122.4036840439866
 30
0.0
 11
228.9400985404972
 21
-35.99999999999636
 31
0.0
  0
LINE
  5
16A
330
2
100
AcDbEntity
  8
L-ZISSEN
100
AcDbLine
 10
215.7900985404967
 20
-114.3387389116287
 30
0.0
 11
220.0050985404982
 21
-116.3387389116287
 31
0.0
  0
ARC
  5
16B
330
2
100
AcDbEntity
  8
L-ZISSEN
100
AcDbCircle
 10
198.9400985404986
 20
-33.54728891851482
 30
0.0
 40
99.53938471878553
100
AcDbArc
 50
275.3320776948647
 51
283.9062370650525
  0
LINE
  5
16C
330
2
100
AcDbEntity
  8
L-ZISSEN
100
AcDbLine
 10
207.9397421605849
 20
-134.5205025069035
 30
0.0
 11
207.9397421605849
 21
-136.479497493091
 31
0.0
  0
LINE
  5
16D
330
2
100
AcDbEntity
  8
L-ZISSEN
100
AcDbLine
 10
207.9400985404995
 20
-133.8595512005613
 30
0.0
 11
207.9400985404995
 21
-132.6559495400488
 31
0.0
  0
LINE
  5
16E
330
2
100
AcDbEntity
  8
L-ZISSEN
100
AcDbLine
 10
207.9400985404995
 20
-133.8595512005613
 30
0.0
 11
207.9400985404995
 21
-132.6559495400488
 31
0.0
  0
LINE
  5
16F
330
2
100
AcDbEntity
  8
L-ZISSEN
100
AcDbLine
 10
208.1900985405027
 20
-132.6559495400479
 30
0.0
 11
207.9400985404995
 21
-132.6559495400488
 31
0.0
  0
LINE
  5
170
330
2
100
AcDbEntity
  8
L-ZISSEN
100
AcDbLine
 10
220.0050985404982
 20
-116.3387389116287
 30
0.0
 11
224.2200985404974
 21
-114.3387389116287
 31
0.0
  0
LINE
  5
171
330
2
100
AcDbEntity
  8
L-ZISSEN
100
AcDbLine
 10
224.2200985404974
 20
-46.33873891162875
 30
0.0
 11
215.7900985404967
 21
-46.33873891162875
 31
0.0
  0
LINE
  5
172
330
2
100
AcDbEntity
  8
L-ZISSEN
100
AcDbLine
 10
213.0025985404949
 20
-35.99999999999818
 30
0.0
 11
213.0025985404949
 21
-74.74999999999818
 31
0.0
  0
LINE
  5
173
330
2
100
AcDbEntity
  8
L-ZISSEN
100
AcDbLine
 10
210.8545316753315
 20
-61.37911038082075
 30
0.0
 11
210.8545316753315
 21
-65.94202551104263
 31
0.0
  0
ARC
  5
174
330
2
100
AcDbEntity
  8
L-ZISSEN
100
AcDbCircle
 10
211.7525985404972
 20
-74.74999999999818
 30
0.0
 40
1.249999999999715
100
AcDbArc
 50
270.0
 51
0.0
  0
LINE
  5
175
330
2
100
AcDbEntity
  8
L-ZISSEN
100
AcDbLine
 10
213.0025985404949
 20
-67.24999999999818
 30
0.0
 11
210.8545316753315
 21
-65.94202551104263
 31
0.0
  0
LINE
  5
176
330
2
100
AcDbEntity
  8
L-ZISSEN
100
AcDbLine
 10
208.3150985404949
 20
-68.49999999999818
 30
0.0
 11
208.3150985404949
 21
-75.99999999999818
 31
0.0
  0
LINE
  5
177
330
2
100
AcDbEntity
  8
L-ZISSEN
100
AcDbLine
 10
210.8545316753315
 20
-60.54793812359275
 30
0.0
 11
212.065098540495
 21
-60.37499999999818
 31
0.0
  0
LINE
  5
178
330
2
100
AcDbEntity
  8
L-ZISSEN
100
AcDbLine
 10
210.8545316753315
 20
-61.37911038082075
 30
0.0
 11
212.065098540495
 21
-60.37499999999818
 31
0.0
  0
LINE
  5
179
330
2
100
AcDbEntity
  8
L-ZISSEN
100
AcDbLine
 10
213.0025985404949
 20
-35.99999999999818
 30
0.0
 11
213.0025985404949
 21
-59.78927536713036
 31
0.0
  0
LINE
  5
17A
330
2
100
AcDbEntity
  8
L-ZISSEN
100
AcDbLine
 10
212.065098540495
 20
-35.99999999999818
 30
0.0
 11
212.065098540495
 21
-60.37499999999818
 31
0.0
  0
LINE
  5
17B
330
2
100
AcDbEntity
  8
L-ZISSEN
100
AcDbLine
 10
207.0650985404972
 20
-42.24999999999726
 30
0.0
 11
207.0650985404972
 21
-40.99999999999726
 31
0.0
  0
LINE
  5
17C
330
2
100
AcDbEntity
  8
L-ZISSEN
100
AcDbLine
 10
207.0650985404972
 20
-43.49999999999726
 30
0.0
 11
207.0650985404972
 21
-44.74999999999726
 31
0.0
  0
LINE
  5
17D
330
2
100
AcDbEntity
  8
L-ZISSEN
100
AcDbLine
 10
207.0650985404972
 20
-44.74999999999726
 30
0.0
 11
210.1900985404972
 21
-42.87499999999726
 31
0.0
  0
LINE
  5
17E
330
2
100
AcDbEntity
  8
L-ZISSEN
100
AcDbLine
 10
207.0650985404972
 20
-40.99999999999726
 30
0.0
 11
210.1900985404972
 21
-42.87499999999726
 31
0.0
  0
LINE
  5
17F
330
2
100
AcDbEntity
  8
L-ZISSEN
100
AcDbLine
 10
215.6900985404969
 20
13.75000000000091
 30
0.0
 11
215.6900985404969
 21
-12.49999999999181
 31
0.0
  0
LINE
  5
180
330
2
100
AcDbEntity
  8
L-ZISSEN
100
AcDbLine
 10
219.9400985404926
 20
12.0
 30
0.0
 11
219.9400985404926
 21
-11.9068971185643
 31
0.0
  0
LINE
  5
181
330
2
100
AcDbEntity
  8
L-ZISSEN
100
AcDbLine
 10
224.9400985404969
 20
-35.99999999999909
 30
0.0
 11
224.9400985404969
 21
-12.49999999999181
 31
0.0
  0
LINE
  5
182
330
2
100
AcDbEntity
  8
L-ZISSEN
100
AcDbLine
 10
227.9329764861764
 20
-35.99999999999909
 30
0.0
 11
227.9329764861764
 21
-12.49999999999181
 31
0.0
  0
LINE
  5
183
330
2
100
AcDbEntity
  8
L-ZISSEN
100
AcDbLine
 10
218.6275528205157
 20
13.75000000000091
 30
0.0
 11
218.6275528205158
 21
-12.49999999999181
 31
0.0
  0
LINE
  5
184
330
2
100
AcDbEntity
  8
L-ZISSEN
100
AcDbLine
 10
252.1900985404925
 20
20.0
 30
0.0
 11
234.6900985404924
 21
20.0
 31
0.0
  0
LINE
  5
185
330
2
100
AcDbEntity
  8
L-ZISSEN
100
AcDbLine
 10
235.1900985404924
 20
23.0
 30
0.0
 11
251.6900985404924
 21
23.0
 31
0.0
  0
LINE
  5
186
330
2
100
AcDbEntity
  8
L-ZISSEN
100
AcDbLine
 10
235.1900985404924
 20
-23.0
 30
0.0
 11
251.6900985404924
 21
-23.0
 31
0.0
  0
LINE
  5
187
330
2
100
AcDbEntity
  8
L-ZISSEN
100
AcDbLine
 10
252.1900985404925
 20
-20.0
 30
0.0
 11
234.6900985404924
 21
-20.0
 31
0.0
  0
CIRCLE
  5
188
330
2
100
AcDbEntity
  8
L-ZISSEN
100
AcDbCircle
 10
243.4400985404924
 20
0.0
 30
0.0
 40
6.5
  0
CIRCLE
  5
189
330
2
100
AcDbEntity
  8
L-ZISSEN
100
AcDbCircle
 10
243.4400985404924
 20
0.0
 30
0.0
 40
3.299999999999999
  0
CIRCLE
  5
18A
330
2
100
AcDbEntity
  8
L-ZISSEN
100
AcDbCircle
 10
243.4400985404924
 20
0.0
 30
0.0
 40
3.0
  0
CIRCLE
  5
18B
330
2
100
AcDbEntity
  8
L-ZISSEN
100
AcDbCircle
 10
243.4400985404924
 20
0.0
 30
0.0
 40
3.0
  0
LINE
  5
18C
330
2
100
AcDbEntity
  8
L-ZISSEN
100
AcDbLine
 10
231.6400985404967
 20
-11.9068971185643
 30
0.0
 11
231.6400985404967
 21
-12.49999999999181
 31
0.0
  0
LINE
  5
18D
330
2
100
AcDbEntity
  8
L-ZISSEN
100
AcDbLine
 10
232.9400985404968
 20
-11.90689711856339
 30
0.0
 11
232.9400985404968
 21
-12.49999999999181
 31
0.0
  0
LINE
  5
18E
330
2
100
AcDbEntity
  8
0
100
AcDbLine
 10
236.4400985404965
 20
12.0
 30
0.0
 11
236.4400985404965
 21
17.5
 31
0.0
  0
LINE
  5
18F
330
2
100
AcDbEntity
  8
L-ZISSEN
100
AcDbLine
 10
236.440098540497
 20
12.0
 30
0.0
 11
236.440098540497
 21
20.00000000000363
 31
0.0
  0
LINE
  5
190
330
2
100
AcDbEntity
  8
L-ZISSEN
100
AcDbLine
 10
234.6900985404924
 20
20.0
 30
0.0
 11
235.1900985404924
 21
23.0
 31
0.0
  0
LINE
  5
191
330
2
100
AcDbEntity
  8
L-ZISSEN
100
AcDbLine
 10
234.6900985404924
 20
-20.0
 30
0.0
 11
235.1900985404924
 21
-23.0
 31
0.0
  0
LINE
  5
192
330
2
100
AcDbEntity
  8
L-ZISSEN
100
AcDbLine
 10
231.6400985404967
 20
17.9913392668468
 30
0.0
 11
232.940098540497
 21
15.00000000000363
 31
0.0
  0
LINE
  5
193
330
2
100
AcDbEntity
  8
L-ZISSEN
100
AcDbLine
 10
236.4400985404969
 20
15.00000000000363
 30
0.0
 11
232.9400985404971
 21
15.00000000000363
 31
0.0
  0
LINE
  5
194
330
2
100
AcDbEntity
  8
L-ZISSEN
100
AcDbLine
 10
236.4400985404967
 20
-35.99999999999909
 30
0.0
 11
236.4400985404967
 21
-23.49999999999181
 31
0.0
  0
LINE
  5
195
330
2
100
AcDbEntity
  8
L-ZISSEN
100
AcDbLine
 10
233.9400985404967
 20
-23.49999999999181
 30
0.0
 11
233.9400985404967
 21
-19.99999999999181
 31
0.0
  0
LINE
  5
196
330
2
100
AcDbEntity
  8
L-ZISSEN
100
AcDbLine
 10
233.9400985404968
 20
-23.49999999999181
 30
0.0
 11
233.9400985404968
 21
-19.99999999999181
 31
0.0
  0
LINE
  5
197
330
2
100
AcDbEntity
  8
L-ZISSEN
100
AcDbLine
 10
233.9400985404968
 20
-19.99999999999181
 30
0.0
 11
236.4400985404968
 21
-19.99999999999181
 31
0.0
  0
LINE
  5
198
330
2
100
AcDbEntity
  8
L-ZISSEN
100
AcDbLine
 10
236.4400985404968
 20
-23.49999999999181
 30
0.0
 11
233.9400985404968
 21
-23.49999999999181
 31
0.0
  0
LINE
  5
199
330
2
100
AcDbEntity
  8
L-ZISSEN
100
AcDbLine
 10
232.9400985404969
 20
15.00000000000363
 30
0.0
 11
232.9400985404969
 21
12.0
 31
0.0
  0
LINE
  5
19A
330
2
100
AcDbEntity
  8
L-ZISSEN
100
AcDbLine
 10
231.6400985404967
 20
17.99133926684953
 30
0.0
 11
231.6400985404967
 21
11.99999999999909
 31
0.0
  0
LINE
  5
19B
330
2
100
AcDbEntity
  8
0
100
AcDbLine
 10
236.4400985404965
 20
-19.24999999999181
 30
0.0
 11
236.4400985404965
 21
-11.9068971185643
 31
0.0
  0
LINE
  5
19C
330
2
100
AcDbEntity
  8
L-ZISSEN
100
AcDbLine
 10
236.4400985404968
 20
-19.99999999999181
 30
0.0
 11
236.4400985404969
 21
-11.90689711856339
 31
0.0
  0
LINE
  5
19D
330
2
100
AcDbEntity
  8
L-ZISSEN
100
AcDbLine
 10
250.4400985404931
 20
19.99999999999909
 30
0.0
 11
250.4400985404934
 21
12.0
 31
0.0
  0
LINE
  5
19E
330
2
100
AcDbEntity
  8
L-ZISSEN
100
AcDbLine
 10
250.4400985404938
 20
-11.9068971185643
 30
0.0
 11
250.4400985404939
 21
-20.0
 31
0.0
  0
LINE
  5
19F
330
2
100
AcDbEntity
  8
L-ZISSEN
100
AcDbLine
 10
250.4400985404931
 20
-23.0000000000009
 30
0.0
 11
250.4400985404931
 21
-28.49999999999454
 31
0.0
  0
LINE
  5
1A0
330
2
100
AcDbEntity
  8
L-ZISSEN
100
AcDbLine
 10
252.1900985404925
 20
20.0
 30
0.0
 11
251.6900985404924
 21
23.0
 31
0.0
  0
LINE
  5
1A1
330
2
100
AcDbEntity
  8
L-ZISSEN
100
AcDbLine
 10
252.1900985404925
 20
-20.0
 30
0.0
 11
251.6900985404924
 21
-23.0
 31
0.0
  0
LINE
  5
1A2
330
2
100
AcDbEntity
  8
L-TYUSIN
100
AcDbLine
 10
243.4400985404924
 20
9.0
 30
0.0
 11
243.4400985404924
 21
-9.0
 31
0.0
  0
LINE
  5
1A3
330
2
100
AcDbEntity
  8
L-ZISSEN
100
AcDbLine
 10
307.940098540493
 20
13.00000000000818
 30
0.0
 11
267.9400985404927
 21
13.00000000000818
 31
0.0
  0
CIRCLE
  5
1A4
330
2
100
AcDbEntity
  8
L-SOUZOU
100
AcDbCircle
 10
287.9400985404931
 20
0.0
 30
0.0
 40
18.0
  0
CIRCLE
  5
1A5
330
2
100
AcDbEntity
  8
L-SOUZOU
100
AcDbCircle
 10
287.9400985404931
 20
0.0
 30
0.0
 40
21.0
  0
ARC
  5
1A6
330
2
100
AcDbEntity
  8
L-ZISSEN
100
AcDbCircle
 10
287.9400985404931
 20
-110.1887061056413
 30
0.0
 40
67.68870610564736
100
AcDbArc
 50
79.42154710242792
 51
100.578452897572
  0
ARC
  5
1A7
330
2
100
AcDbEntity
  8
L-ZISSEN
100
AcDbCircle
 10
287.9400985404931
 20
19.18870610565227
 30
0.0
 40
67.68870610564736
100
AcDbArc
 50
259.4215471024278
 51
280.5784528975721
  0
LINE
  5
1A8
330
2
100
AcDbEntity
  8
L-ZISSEN
100
AcDbLine
 10
310.379508676281
 20
-64.49999999999454
 30
0.0
 11
265.5006884047125
 21
-64.49999999999454
 31
0.0
  0
LINE
  5
1A9
330
2
100
AcDbEntity
  8
L-ZISSEN
100
AcDbLine
 10
265.9400985404932
 20
-116.4999999999945
 30
0.0
 11
309.940098540495
 21
-116.4999999999945
 31
0.0
  0
LINE
  5
1AA
330
2
100
AcDbEntity
  8
L-ZISSEN
100
AcDbLine
 10
309.4400985404931
 20
-62.49999999999454
 30
0.0
 11
266.4400985404913
 21
-62.49999999999454
 31
0.0
  0
LINE
  5
1AB
330
2
100
AcDbEntity
  8
L-ZISSEN
100
AcDbLine
 10
266.7268951048967
 20
-42.49999999999454
 30
0.0
 11
309.1533019760896
 21
-42.49999999999454
 31
0.0
  0
LINE
  5
1AC
330
2
100
AcDbEntity
  8
L-ZISSEN
100
AcDbLine
 10
266.7268951048967
 20
-48.49999999999454
 30
0.0
 11
309.1533019760896
 21
-48.49999999999454
 31
0.0
  0
LINE
  5
1AD
330
2
100
AcDbEntity
  8
L-ZISSEN
100
AcDbLine
 10
312.2514398136877
 20
-52.4999999999909
 30
0.0
 11
263.6287572672986
 21
-52.4999999999909
 31
0.0
  0
LINE
  5
1AE
330
2
100
AcDbEntity
  8
L-ZISSEN
100
AcDbLine
 10
252.9400985404931
 20
-40.49999999999545
 30
0.0
 11
322.9400985404933
 21
-40.49999999999454
 31
0.0
  0
LINE
  5
1AF
330
2
100
AcDbEntity
  8
L-ZISSEN
100
AcDbLine
 10
264.4400985404931
 20
29.50000000001
 30
0.0
 11
311.4400985404913
 21
29.50000000001
 31
0.0
  0
LINE
  5
1B0
330
2
100
AcDbEntity
  8
L-ZISSEN
100
AcDbLine
 10
312.940098540493
 20
24.50000000000545
 30
0.0
 11
262.940098540493
 21
24.50000000000545
 31
0.0
  0
LINE
  5
1B1
330
2
100
AcDbEntity
  8
L-TYUSIN
100
AcDbLine
 10
296.3616985404886
 20
8.42160000000058
 30
0.0
 11
275.6384985404868
 21
-12.30159999999887
 31
0.0
  0
LINE
  5
1B2
330
2
100
AcDbEntity
  8
L-ZISSEN
100
AcDbLine
 10
263.9400985404968
 20
-114.099999999994
 30
0.0
 11
263.2009695928536
 21
-66.8359636814248
 31
0.0
  0
LINE
  5
1B3
330
2
100
AcDbEntity
  8
L-ZISSEN
100
AcDbLine
 10
263.9400985404968
 20
-114.099999999994
 30
0.0
 11
265.9400985404932
 21
-116.4999999999945
 31
0.0
  0
LINE
  5
1B4
330
2
100
AcDbEntity
  8
L-ZISSEN
100
AcDbLine
 10
264.4400985404931
 20
29.50000000001
 30
0.0
 11
262.9400985404931
 21
28.00000000001
 31
0.0
  0
LINE
  5
1B5
330
2
100
AcDbEntity
  8
L-ZISSEN
100
AcDbLine
 10
255.4617503733853
 20
17.99133926684317
 30
0.0
 11
267.9400985404926
 21
17.99133926684317
 31
0.0
  0
ARC
  5
1B6
330
2
100
AcDbEntity
  8
L-ZISSEN
100
AcDbCircle
 10
265.5006884047125
 20
-66.79999999999473
 30
0.0
 40
2.299999999999999
100
AcDbArc
 50
90.0
 51
180.8959352773338
  0
ARC
  5
1B7
330
2
100
AcDbEntity
  8
L-ZISSEN
100
AcDbCircle
 10
266.7268951048967
 20
-14.36804538250726
 30
0.0
 40
34.1319546174875
100
AcDbArc
 50
255.0820176392774
 51
284.9179823607225
  0
ARC
  5
1B8
330
2
100
AcDbEntity
  8
L-ZISSEN
100
AcDbCircle
 10
266.7268951048967
 20
-76.63195461748273
 30
0.0
 40
34.1319546174875
100
AcDbArc
 50
75.08201763927742
 51
104.9179823607225
  0
LINE
  5
1B9
330
2
100
AcDbEntity
  8
L-ZISSEN
100
AcDbLine
 10
263.8326437621886
 20
-37.60366223340224
 30
0.0
 11
265.0475533187959
 21
-37.60366223340224
 31
0.0
  0
LINE
  5
1BA
330
2
100
AcDbEntity
  8
L-ZISSEN
100
AcDbLine
 10
267.8112331567549
 20
-35.63252710028701
 30
0.0
 11
261.0689639242314
 21
-35.63252710028701
 31
0.0
  0
LINE
  5
1BB
330
2
100
AcDbEntity
  8
L-ZISSEN
100
AcDbLine
 10
261.0689639242314
 20
-34.48939319218425
 30
0.0
 11
267.8112331567549
 21
-34.48939319218425
 31
0.0
  0
LINE
  5
1BC
330
2
100
AcDbEntity
  8
L-ZISSEN
100
AcDbLine
 10
269.478535749025
 20
-34.48939319218425
 30
0.0
 11
252.940098540493
 21
-34.48939319218425
 31
0.0
  0
LINE
  5
1BD
330
2
100
AcDbEntity
  8
L-ZISSEN
100
AcDbLine
 10
252.9400985404882
 20
-23.49999999999181
 30
0.0
 11
252.9400985404882
 21
-19.99999999999181
 31
0.0
  0
LINE
  5
1BE
330
2
100
AcDbEntity
  8
L-ZISSEN
100
AcDbLine
 10
252.9400985404882
 20
-23.49999999999181
 30
0.0
 11
252.9400985404882
 21
-19.99999999999181
 31
0.0
  0
LINE
  5
1BF
330
2
100
AcDbEntity
  8
L-ZISSEN
100
AcDbLine
 10
262.9400985404931
 20
28.00000000001
 30
0.0
 11
262.9400985404931
 21
24.50000000000545
 31
0.0
  0
LINE
  5
1C0
330
2
100
AcDbEntity
  8
L-ZISSEN
100
AcDbLine
 10
262.9400985404931
 20
24.50000000000545
 30
0.0
 11
262.9400985404931
 21
19.99999999999909
 31
0.0
  0
LINE
  5
1C1
330
2
100
AcDbEntity
  8
L-ZISSEN
100
AcDbLine
 10
253.940098540493
 20
14.94803560106174
 30
0.0
 11
255.4617503733855
 21
17.99133926684317
 31
0.0
  0
LINE
  5
1C2
330
2
100
AcDbEntity
  8
L-ZISSEN
100
AcDbLine
 10
253.9400985404929
 20
14.94803560106174
 30
0.0
 11
253.9400985404929
 21
12.0
 31
0.0
  0
LINE
  5
1C3
330
2
100
AcDbEntity
  8
L-ZISSEN
100
AcDbLine
 10
255.4617503733855
 20
17.99133926684317
 30
0.0
 11
255.4617503733854
 21
11.99999999999909
 31
0.0
  0
LINE
  5
1C4
330
2
100
AcDbEntity
  8
L-ZISSEN
100
AcDbLine
 10
253.9400985404931
 20
-11.9068971185643
 30
0.0
 11
253.9400985404931
 21
-12.4999999999909
 31
0.0
  0
LINE
  5
1C5
330
2
100
AcDbEntity
  8
L-ZISSEN
100
AcDbLine
 10
255.4617503733854
 20
-11.9068971185643
 30
0.0
 11
255.4617503733854
 21
-12.4999999999909
 31
0.0
  0
LINE
  5
1C6
330
2
100
AcDbEntity
  8
L-ZISSEN
100
AcDbLine
 10
252.9400985404931
 20
-40.49999999999545
 30
0.0
 11
252.9400985404931
 21
-28.49999999999454
 31
0.0
  0
LINE
  5
1C7
330
2
100
AcDbEntity
  8
L-ZISSEN
100
AcDbLine
 10
257.9400985404932
 20
-12.4999999999909
 30
0.0
 11
257.9400985404932
 21
-28.49999999999454
 31
0.0
  0
LINE
  5
1C8
330
2
100
AcDbEntity
  8
L-ZISSEN
100
AcDbLine
 10
257.9400985404932
 20
-47.34959374133995
 30
0.0
 11
257.9400985404932
 21
-43.65040625864913
 31
0.0
  0
ARC
  5
1C9
330
2
100
AcDbEntity
  8
L-ZISSEN
100
AcDbCircle
 10
263.7737245226103
 20
-35.87381361187818
 30
0.0
 40
2.715501624969247
100
AcDbArc
 50
174.9022474682891
 51
271.2432652078082
  0
LINE
  5
1CA
330
2
100
AcDbEntity
  8
L-ZISSEN
100
AcDbLine
 10
263.8326437621886
 20
-38.5886759653722
 30
0.0
 11
263.8326437621886
 21
-37.60366223340224
 31
0.0
  0
LINE
  5
1CB
330
2
100
AcDbEntity
  8
L-ZISSEN
100
AcDbLine
 10
261.0689639242314
 20
-35.63252710028701
 30
0.0
 11
261.0689639242314
 21
-34.48939319218425
 31
0.0
  0
LINE
  5
1CC
330
2
100
AcDbEntity
  8
L-ZISSEN
100
AcDbLine
 10
261.9400985404932
 20
-42.83732627714925
 30
0.0
 11
261.9400985404932
 21
-40.49999999999454
 31
0.0
  0
LINE
  5
1CD
330
2
100
AcDbEntity
  8
L-SAISEN
100
AcDbLine
 10
263.6287572672949
 20
-42.64089891234926
 30
0.0
 11
263.6287572672949
 21
-40.49999999999454
 31
0.0
  0
LINE
  5
1CF
330
2
100
AcDbEntity
  8
L-ZISSEN
100
AcDbLine
 10
261.9400985404932
 20
-51.7685621409555
 30
0.0
 11
261.9400985404932
 21
-48.16267372284073
 31
0.0
  0
LINE
  5
1D0
330
2
100
AcDbEntity
  8
L-SAISEN
100
AcDbLine
 10
263.6287572672986
 20
-52.4999999999909
 30
0.0
 11
263.6287572672987
 21
-48.35910108763982
 31
0.0
  0
LINE
  5
1D1
330
2
100
AcDbEntity
  8
L-ZISSEN
100
AcDbLine
 10
263.6287572672986
 20
-52.4999999999909
 30
0.0
 11
261.9400985404932
 21
-51.7685621409555
 31
0.0
  0
LINE
  5
1D2
330
2
100
AcDbEntity
  8
L-ZISSEN
100
AcDbLine
 10
272.9400985404932
 20
13.00000000000818
 30
0.0
 11
272.940098540493
 21
-12.4999999999909
 31
0.0
  0
LINE
  5
1D3
330
2
100
AcDbEntity
  8
L-ZISSEN
100
AcDbLine
 10
267.9400985404927
 20
-12.4999999999909
 30
0.0
 11
267.9400985404926
 21
17.99133926684317
 31
0.0
  0
LINE
  5
1D4
330
2
100
AcDbEntity
  8
L-ZISSEN
100
AcDbLine
 10
275.5136916693003
 20
-47.34959374133995
 30
0.0
 11
275.5136916693003
 21
-43.65040625864913
 31
0.0
  0
LINE
  5
1D5
330
2
100
AcDbEntity
  8
L-ZISSEN
100
AcDbLine
 10
265.0475533187959
 20
-37.60366223340224
 30
0.0
 11
265.0475533187959
 21
-38.5886759653722
 31
0.0
  0
LINE
  5
1D6
330
2
100
AcDbEntity
  8
L-ZISSEN
100
AcDbLine
 10
266.4400985404913
 20
-62.49999999998999
 30
0.0
 11
266.4400985404913
 21
-52.4999999999909
 31
0.0
  0
LINE
  5
1D7
330
2
100
AcDbEntity
  8
L-ZISSEN
100
AcDbLine
 10
269.478535749025
 20
-40.49999999999454
 30
0.0
 11
269.478535749025
 21
-34.48939319218425
 31
0.0
  0
LINE
  5
1D8
330
2
100
AcDbEntity
  8
L-ZISSEN
100
AcDbLine
 10
267.8112331567549
 20
-34.48939319218425
 30
0.0
 11
267.8112331567549
 21
-35.63252710028701
 31
0.0
  0
LINE
  5
1D9
330
2
100
AcDbEntity
  8
L-ZISSEN
100
AcDbLine
 10
267.6900985404914
 20
-64.49999999999454
 30
0.0
 11
267.6900985404913
 21
-62.49999999998999
 31
0.0
  0
ARC
  5
1DA
330
2
100
AcDbEntity
  8
L-ZISSEN
100
AcDbCircle
 10
265.106472558376
 20
-35.87381361187818
 30
0.0
 40
2.715501624970328
100
AcDbArc
 50
268.7567347921917
 51
5.097752531710924
  0
LINE
  5
1DB
330
2
100
AcDbEntity
  8
L-ZISSEN
100
AcDbLine
 10
266.9400985404926
 20
-11.9068971185643
 30
0.0
 11
266.9400985404926
 21
12.0
 31
0.0
  0
SOLID
  5
1DC
330
2
100
AcDbEntity
  8
L-ZISSEN
100
AcDbTrace
 10
287.3813272660996
 20
1.949073055076951
 30
0.0
 11
286.7793993171232
 21
1.662494638783755
 31
0.0
 12
287.9400985404931
 22
0.0
 32
0.0
 13
287.9400985404931
 23
0.0
 33
0.0
  0
CIRCLE
  5
1DD
330
2
100
AcDbEntity
  8
L-SOUZOU
100
AcDbCircle
 10
287.9400985404929
 20
0.0
 30
0.0
 40
1.2
  0
ARC
  5
1DE
330
2
100
AcDbEntity
  8
L-SOUZOU
100
AcDbCircle
 10
287.9400985404929
 20
0.0
 30
0.0
 40
2.0
100
AcDbArc
 50
249.939999999777
 51
16.4805000000797
  0
ARC
  5
1DF
330
2
100
AcDbEntity
  8
L-SOUZOU
100
AcDbCircle
 10
287.9400985404929
 20
0.0
 30
0.0
 40
2.0
100
AcDbArc
 50
73.51949999986849
 51
200.0599999999725
  0
CIRCLE
  5
1E0
330
2
100
AcDbEntity
  8
L-ZISSEN
100
AcDbCircle
 10
287.9400985404931
 20
0.0
 30
0.0
 40
5.724999999999999
  0
CIRCLE
  5
1E1
330
2
100
AcDbEntity
  8
L-SAISEN
100
AcDbCircle
 10
287.9400985404931
 20
0.0
 30
0.0
 40
6.58
  0
ARC
  5
1E2
330
2
100
AcDbEntity
  8
L-SOUZOU
100
AcDbCircle
 10
276.9008985404878
 20
-11.02239999999983
 30
0.0
 40
0.4
100
AcDbArc
 50
136.7899999998952
 51
225.0000000000921
  0
ARC
  5
1E3
330
2
100
AcDbEntity
  8
L-SOUZOU
100
AcDbCircle
 10
276.9176985404883
 20
-11.03919999999925
 30
0.0
 40
0.4
100
AcDbArc
 50
225.0000000000921
 51
313.209999999828
  0
LINE
  5
1E4
330
2
100
AcDbEntity
  8
L-SOUZOU
100
AcDbLine
 10
276.6264985404873
 20
-11.31359999999949
 30
0.0
 11
276.6352985404861
 21
-11.32240000000001
 31
0.0
  0
LINE
  5
1E5
330
2
100
AcDbEntity
  8
L-SOUZOU
100
AcDbLine
 10
276.6264985404873
 20
-11.31359999999949
 30
0.0
 11
276.6176985404884
 21
-11.30479999999897
 31
0.0
  0
LINE
  5
1E6
330
2
100
AcDbEntity
  8
L-SOUZOU
100
AcDbLine
 10
286.0616985404885
 20
-0.6855999999997949
 30
0.0
 11
276.6088985404894
 21
-10.74799999999959
 31
0.0
  0
LINE
  5
1E7
330
2
100
AcDbEntity
  8
L-SOUZOU
100
AcDbLine
 10
287.25449854049
 20
-1.878399999999601
 30
0.0
 11
277.192098540489
 21
-11.33119999999962
 31
0.0
  0
LINE
  5
1E8
330
2
100
AcDbEntity
  8
L-SOUZOU
100
AcDbLine
 10
293.8800985404895
 20
7.636800000000221
 30
0.0
 11
288.5072985404891
 21
1.917600000000675
 31
0.0
  0
LINE
  5
1E9
330
2
100
AcDbEntity
  8
L-SOUZOU
100
AcDbLine
 10
295.5768985404888
 20
5.940000000000509
 30
0.0
 11
289.8576985404906
 21
0.5672000000004119
 31
0.0
  0
LINE
  5
1EA
330
2
100
AcDbEntity
  8
L-SOUZOU
100
AcDbLine
 10
293.8800985404895
 20
7.636800000000221
 30
0.0
 11
295.5768985404888
 21
5.940000000000509
 31
0.0
  0
LINE
  5
1EB
330
2
100
AcDbEntity
  8
L-ZISSEN
100
AcDbLine
 10
306.4016613319613
 20
-34.48939319218425
 30
0.0
 11
322.9400985404932
 21
-34.48939319218425
 31
0.0
  0
LINE
  5
1EC
330
2
100
AcDbEntity
  8
L-ZISSEN
100
AcDbLine
 10
325.4400985404931
 20
19.99999999999909
 30
0.0
 11
312.9400985404931
 21
19.99999999999909
 31
0.0
  0
LINE
  5
1ED
330
2
100
AcDbEntity
  8
L-ZISSEN
100
AcDbLine
 10
325.4400985404937
 20
14.99999999999909
 30
0.0
 11
321.9400985404939
 21
14.99999999999909
 31
0.0
  0
LINE
  5
1EE
330
2
100
AcDbEntity
  8
L-ZISSEN
100
AcDbLine
 10
311.9400985404968
 20
-114.099999999994
 30
0.0
 11
312.6792274881399
 21
-66.8359636814248
 31
0.0
  0
LINE
  5
1EF
330
2
100
AcDbEntity
  8
L-ZISSEN
100
AcDbLine
 10
311.9400985404968
 20
-114.099999999994
 30
0.0
 11
309.940098540495
 21
-116.4999999999945
 31
0.0
  0
ARC
  5
1F0
330
2
100
AcDbEntity
  8
L-ZISSEN
100
AcDbCircle
 10
310.379508676281
 20
-66.79999999999473
 30
0.0
 40
2.299999999999999
100
AcDbArc
 50
359.1040647226661
 51
90.0
  0
ARC
  5
1F1
330
2
100
AcDbEntity
  8
L-ZISSEN
100
AcDbCircle
 10
309.1533019760896
 20
-76.63195461748273
 30
0.0
 40
34.1319546174875
100
AcDbArc
 50
75.08201763927742
 51
104.9179823607225
  0
ARC
  5
1F2
330
2
100
AcDbEntity
  8
L-ZISSEN
100
AcDbCircle
 10
309.1533019760896
 20
-14.36804538250726
 30
0.0
 40
34.1319546174875
100
AcDbArc
 50
255.0820176392774
 51
284.9179823607225
  0
ARC
  5
1F3
330
2
100
AcDbEntity
  8
L-ZISSEN
100
AcDbCircle
 10
310.7737245226103
 20
-35.87381361187818
 30
0.0
 40
2.715501624970328
100
AcDbArc
 50
174.9022474682891
 51
271.2432652078082
  0
LINE
  5
1F4
330
2
100
AcDbEntity
  8
L-ZISSEN
100
AcDbLine
 10
314.8112331567549
 20
-34.48939319218425
 30
0.0
 11
308.0689639242314
 21
-34.48939319218425
 31
0.0
  0
LINE
  5
1F5
330
2
100
AcDbEntity
  8
L-ZISSEN
100
AcDbLine
 10
308.0689639242314
 20
-35.63252710028701
 30
0.0
 11
314.8112331567549
 21
-35.63252710028701
 31
0.0
  0
LINE
  5
1F6
330
2
100
AcDbEntity
  8
L-ZISSEN
100
AcDbLine
 10
307.9400985404929
 20
17.99133926684499
 30
0.0
 11
320.4184467076002
 21
17.99133926684499
 31
0.0
  0
LINE
  5
1F7
330
2
100
AcDbEntity
  8
L-ZISSEN
100
AcDbLine
 10
302.9400985404928
 20
-12.4999999999909
 30
0.0
 11
302.9400985404928
 21
12.40689711858158
 31
0.0
  0
LINE
  5
1F8
330
2
100
AcDbEntity
  8
L-ZISSEN
100
AcDbLine
 10
302.9400985404933
 20
13.00000000000818
 30
0.0
 11
302.9400985404933
 21
-12.4999999999909
 31
0.0
  0
LINE
  5
1F9
330
2
100
AcDbEntity
  8
L-ZISSEN
100
AcDbLine
 10
300.366505411686
 20
-47.34959374133995
 30
0.0
 11
300.366505411686
 21
-43.65040625864913
 31
0.0
  0
LINE
  5
1FA
330
2
100
AcDbEntity
  8
L-ZISSEN
100
AcDbLine
 10
308.1900985404913
 20
-64.49999999999454
 30
0.0
 11
308.1900985404913
 21
-62.49999999998999
 31
0.0
  0
LINE
  5
1FB
330
2
100
AcDbEntity
  8
L-ZISSEN
100
AcDbLine
 10
306.4016613319613
 20
-40.49999999999454
 30
0.0
 11
306.4016613319613
 21
-34.48939319218425
 31
0.0
  0
LINE
  5
1FC
330
2
100
AcDbEntity
  8
L-ZISSEN
100
AcDbLine
 10
308.0689639242314
 20
-34.48939319218425
 30
0.0
 11
308.0689639242314
 21
-35.63252710028701
 31
0.0
  0
LINE
  5
1FD
330
2
100
AcDbEntity
  8
L-ZISSEN
100
AcDbLine
 10
309.4400985404931
 20
-62.49999999998999
 30
0.0
 11
309.4400985404931
 21
-52.4999999999909
 31
0.0
  0
LINE
  5
1FE
330
2
100
AcDbEntity
  8
L-ZISSEN
100
AcDbLine
 10
307.9400985404932
 20
-12.4999999999909
 30
0.0
 11
307.9400985404929
 21
17.99133926684499
 31
0.0
  0
LINE
  5
1FF
330
2
100
AcDbEntity
  8
L-ZISSEN
100
AcDbLine
 10
308.9400985404931
 20
11.99999999999909
 30
0.0
 11
308.9400985404931
 21
-11.90689711856521
 31
0.0
  0
LINE
  5
200
330
2
100
AcDbEntity
  8
L-ZISSEN
100
AcDbLine
 10
313.9400985404932
 20
-42.83732627714925
 30
0.0
 11
313.9400985404932
 21
-40.49999999999454
 31
0.0
  0
LINE
  5
201
330
2
100
AcDbEntity
  8
L-SAISEN
100
AcDbLine
 10
312.2514398136913
 20
-42.64089891234926
 30
0.0
 11
312.2514398136913
 21
-40.49999999999454
 31
0.0
  0
LINE
  5
202
330
2
100
AcDbEntity
  8
L-SAISEN
100
AcDbLine
 10
312.2514398136877
 20
-52.4999999999909
 30
0.0
 11
312.2514398136877
 21
-48.35910108763982
 31
0.0
  0
LINE
  5
203
330
2
100
AcDbEntity
  8
L-ZISSEN
100
AcDbLine
 10
313.9400985404913
 20
-51.7685621409555
 30
0.0
 11
313.9400985404913
 21
-48.16267372284073
 31
0.0
  0
LINE
  5
204
330
2
100
AcDbEntity
  8
L-ZISSEN
100
AcDbLine
 10
312.2514398136877
 20
-52.4999999999909
 30
0.0
 11
313.9400985404913
 21
-51.7685621409555
 31
0.0
  0
LINE
  5
205
330
2
100
AcDbEntity
  8
L-ZISSEN
100
AcDbLine
 10
310.8326437621903
 20
-37.60366223340224
 30
0.0
 11
310.8326437621903
 21
-38.5886759653722
 31
0.0
  0
LINE
  5
206
330
2
100
AcDbEntity
  8
L-ZISSEN
100
AcDbLine
 10
312.0475533187978
 20
-37.60366223340224
 30
0.0
 11
310.8326437621903
 21
-37.60366223340224
 31
0.0
  0
ARC
  5
207
330
2
100
AcDbEntity
  8
L-ZISSEN
100
AcDbCircle
 10
312.106472558376
 20
-35.87381361187818
 30
0.0
 40
2.715501624969247
100
AcDbArc
 50
268.7567347921917
 51
5.097752531710924
  0
LINE
  5
208
330
2
100
AcDbEntity
  8
L-ZISSEN
100
AcDbLine
 10
314.8112331567549
 20
-35.63252710028701
 30
0.0
 11
314.8112331567549
 21
-34.48939319218425
 31
0.0
  0
LINE
  5
209
330
2
100
AcDbEntity
  8
L-ZISSEN
100
AcDbLine
 10
312.0475533187978
 20
-38.5886759653722
 30
0.0
 11
312.0475533187978
 21
-37.60366223340224
 31
0.0
  0
LINE
  5
20A
330
2
100
AcDbEntity
  8
L-ZISSEN
100
AcDbLine
 10
317.9400985404932
 20
-47.34959374133995
 30
0.0
 11
317.9400985404932
 21
-43.65040625864913
 31
0.0
  0
LINE
  5
20B
330
2
100
AcDbEntity
  8
L-ZISSEN
100
AcDbLine
 10
321.9400985404937
 20
-11.90689711856521
 30
0.0
 11
321.9400985404937
 21
-12.49999999999181
 31
0.0
  0
LINE
  5
20C
330
2
100
AcDbEntity
  8
L-ZISSEN
100
AcDbLine
 10
320.4184467076014
 20
-11.90689711856521
 30
0.0
 11
320.4184467076014
 21
-12.49999999999181
 31
0.0
  0
LINE
  5
20D
330
2
100
AcDbEntity
  8
L-ZISSEN
100
AcDbLine
 10
317.9400985404932
 20
-12.4999999999909
 30
0.0
 11
317.9400985404932
 21
-28.49999999999454
 31
0.0
  0
LINE
  5
20E
330
2
100
AcDbEntity
  8
L-ZISSEN
100
AcDbLine
 10
321.9400985404939
 20
14.94803560106174
 30
0.0
 11
321.9400985404939
 21
12.0
 31
0.0
  0
LINE
  5
20F
330
2
100
AcDbEntity
  8
L-ZISSEN
100
AcDbLine
 10
320.4184467076014
 20
17.99133926684317
 30
0.0
 11
320.4184467076014
 21
11.99999999999909
 31
0.0
  0
LINE
  5
210
330
2
100
AcDbEntity
  8
L-ZISSEN
100
AcDbLine
 10
321.9400985404939
 20
14.94803560106174
 30
0.0
 11
320.4184467076014
 21
17.99133926684317
 31
0.0
  0
LINE
  5
211
330
2
100
AcDbEntity
  8
L-ZISSEN
100
AcDbLine
 10
312.9400985404931
 20
28.00000000001
 30
0.0
 11
311.4400985404913
 21
29.50000000001
 31
0.0
  0
LINE
  5
212
330
2
100
AcDbEntity
  8
L-ZISSEN
100
AcDbLine
 10
312.940098540493
 20
19.99999999999909
 30
0.0
 11
312.940098540493
 21
24.50000000000545
 31
0.0
  0
LINE
  5
213
330
2
100
AcDbEntity
  8
L-ZISSEN
100
AcDbLine
 10
312.9400985404931
 20
24.50000000000545
 30
0.0
 11
312.9400985404931
 21
28.00000000001
 31
0.0
  0
LINE
  5
214
330
2
100
AcDbEntity
  8
L-ZISSEN
100
AcDbLine
 10
341.190098540493
 20
-20.00000000000091
 30
0.0
 11
323.690098540493
 21
-20.00000000000091
 31
0.0
  0
LINE
  5
215
330
2
100
AcDbEntity
  8
L-ZISSEN
100
AcDbLine
 10
324.190098540493
 20
-23.0000000000009
 30
0.0
 11
340.690098540493
 21
-23.0000000000009
 31
0.0
  0
LINE
  5
216
330
2
100
AcDbEntity
  8
L-ZISSEN
100
AcDbLine
 10
324.190098540493
 20
22.99999999999909
 30
0.0
 11
340.690098540493
 21
22.99999999999909
 31
0.0
  0
LINE
  5
217
330
2
100
AcDbEntity
  8
L-ZISSEN
100
AcDbLine
 10
341.190098540493
 20
19.99999999999909
 30
0.0
 11
323.690098540493
 21
19.99999999999909
 31
0.0
  0
CIRCLE
  5
218
330
2
100
AcDbEntity
  8
L-ZISSEN
100
AcDbCircle
 10
332.440098540493
 20
-0.0000000000009095
 30
0.0
 40
6.5
  0
CIRCLE
  5
219
330
2
100
AcDbEntity
  8
L-ZISSEN
100
AcDbCircle
 10
332.440098540493
 20
-0.0000000000009095
 30
0.0
 40
3.0
  0
CIRCLE
  5
21A
330
2
100
AcDbEntity
  8
L-ZISSEN
100
AcDbCircle
 10
332.440098540493
 20
-0.0000000000009095
 30
0.0
 40
3.0
  0
CIRCLE
  5
21B
330
2
100
AcDbEntity
  8
L-ZISSEN
100
AcDbCircle
 10
332.440098540493
 20
-0.0000000000009095
 30
0.0
 40
3.299999999999999
  0
LINE
  5
21C
330
2
100
AcDbEntity
  8
L-ZISSEN
100
AcDbLine
 10
325.4400985404931
 20
-23.0000000000009
 30
0.0
 11
325.4400985404931
 21
-28.49999999999454
 31
0.0
  0
LINE
  5
21D
330
2
100
AcDbEntity
  8
L-ZISSEN
100
AcDbLine
 10
325.4400985404934
 20
-23.30000000000018
 30
0.0
 11
322.9400985404936
 21
-23.30000000000018
 31
0.0
  0
LINE
  5
21E
330
2
100
AcDbEntity
  8
L-ZISSEN
100
AcDbLine
 10
322.9400985404933
 20
-40.49999999999454
 30
0.0
 11
322.9400985404931
 21
-28.49999999999454
 31
0.0
  0
LINE
  5
21F
330
2
100
AcDbEntity
  8
L-ZISSEN
100
AcDbLine
 10
325.4400985404936
 20
-20.00000000000091
 30
0.0
 11
322.9400985404936
 21
-20.00000000000091
 31
0.0
  0
LINE
  5
220
330
2
100
AcDbEntity
  8
L-ZISSEN
100
AcDbLine
 10
322.9400985404936
 20
-20.00000000000091
 30
0.0
 11
322.9400985404936
 21
-23.30000000000018
 31
0.0
  0
LINE
  5
221
330
2
100
AcDbEntity
  8
L-ZISSEN
100
AcDbLine
 10
325.4400985404931
 20
-11.90689711856521
 30
0.0
 11
325.4400985404931
 21
-20.00000000000091
 31
0.0
  0
LINE
  5
222
330
2
100
AcDbEntity
  8
L-ZISSEN
100
AcDbLine
 10
325.4400985404931
 20
19.99999999999909
 30
0.0
 11
325.4400985404931
 21
12.0
 31
0.0
  0
LINE
  5
223
330
2
100
AcDbEntity
  8
L-ZISSEN
100
AcDbLine
 10
323.690098540493
 20
-20.00000000000091
 30
0.0
 11
324.190098540493
 21
-23.0000000000009
 31
0.0
  0
LINE
  5
224
330
2
100
AcDbEntity
  8
L-ZISSEN
100
AcDbLine
 10
323.690098540493
 20
19.99999999999909
 30
0.0
 11
324.190098540493
 21
22.99999999999909
 31
0.0
  0
LINE
  5
225
330
2
100
AcDbEntity
  8
L-TYUSIN
100
AcDbLine
 10
332.440098540493
 20
8.99999999999909
 30
0.0
 11
332.440098540493
 21
-9.000000000000909
 31
0.0
  0
LINE
  5
226
330
2
100
AcDbEntity
  8
L-ZISSEN
100
AcDbLine
 10
339.4400985404958
 20
-20.0
 30
0.0
 11
339.4400985404958
 21
-11.90689711856521
 31
0.0
  0
LINE
  5
227
330
2
100
AcDbEntity
  8
L-ZISSEN
100
AcDbLine
 10
344.461750373388
 20
-11.90689711856521
 30
0.0
 11
344.461750373388
 21
-12.4999999999909
 31
0.0
  0
LINE
  5
228
330
2
100
AcDbEntity
  8
L-ZISSEN
100
AcDbLine
 10
342.9400985404959
 20
-11.90689711856521
 30
0.0
 11
342.9400985404957
 21
-12.4999999999909
 31
0.0
  0
LINE
  5
229
330
2
100
AcDbEntity
  8
L-ZISSEN
100
AcDbLine
 10
341.190098540493
 20
-20.00000000000091
 30
0.0
 11
340.690098540493
 21
-23.0000000000009
 31
0.0
  0
LINE
  5
22A
330
2
100
AcDbEntity
  8
L-ZISSEN
100
AcDbLine
 10
341.190098540493
 20
19.99999999999909
 30
0.0
 11
340.690098540493
 21
22.99999999999909
 31
0.0
  0
LINE
  5
22B
330
2
100
AcDbEntity
  8
L-ZISSEN
100
AcDbLine
 10
339.4400985404958
 20
15.00000000000363
 30
0.0
 11
342.9400985404955
 21
15.00000000000363
 31
0.0
  0
LINE
  5
22C
330
2
100
AcDbEntity
  8
L-ZISSEN
100
AcDbLine
 10
342.9400985404955
 20
14.94803560106629
 30
0.0
 11
344.461750373388
 21
17.9913392668468
 31
0.0
  0
LINE
  5
22D
330
2
100
AcDbEntity
  8
L-ZISSEN
100
AcDbLine
 10
341.9400985404958
 20
-23.4999999999909
 30
0.0
 11
341.9400985404958
 21
-19.9999999999909
 31
0.0
  0
LINE
  5
22E
330
2
100
AcDbEntity
  8
L-ZISSEN
100
AcDbLine
 10
339.4400985404958
 20
-23.4999999999909
 30
0.0
 11
341.9400985404958
 21
-23.4999999999909
 31
0.0
  0
LINE
  5
22F
330
2
100
AcDbEntity
  8
L-ZISSEN
100
AcDbLine
 10
339.440098540496
 20
-35.99999999999727
 30
0.0
 11
339.440098540496
 21
-23.4999999999909
 31
0.0
  0
LINE
  5
230
330
2
100
AcDbEntity
  8
L-ZISSEN
100
AcDbLine
 10
341.9400985404958
 20
-19.9999999999909
 30
0.0
 11
339.4400985404958
 21
-19.9999999999909
 31
0.0
  0
LINE
  5
231
330
2
100
AcDbEntity
  8
L-ZISSEN
100
AcDbLine
 10
339.4400985404958
 20
11.99999999999909
 30
0.0
 11
339.4400985404958
 21
20.00000000000363
 31
0.0
  0
LINE
  5
232
330
2
100
AcDbEntity
  8
L-ZISSEN
100
AcDbLine
 10
344.461750373388
 20
17.9913392668468
 30
0.0
 11
344.461750373388
 21
11.99999999999909
 31
0.0
  0
LINE
  5
233
330
2
100
AcDbEntity
  8
L-ZISSEN
100
AcDbLine
 10
342.9400985404955
 20
15.00000000000363
 30
0.0
 11
342.9400985404956
 21
11.99999999999909
 31
0.0
  0
TEXT
  5
234
330
2
100
AcDbEntity
  8
L-ZISSEN
100
AcDbText
 10
244.2224742842563
 20
62.54471253674819
 30
0.0
 40
4.5
  1
P.P
100
AcDbText
  0
LINE
  5
235
330
2
100
AcDbEntity
  8
L-ZISSEN
100
AcDbLine
 10
232.4400985404968
 20
250.0000000000009
 30
0.0
 11
254.4400985404968
 21
250.0000000000009
 31
0.0
  0
LINE
  5
236
330
2
100
AcDbEntity
  8
L-ZISSEN
100
AcDbLine
 10
232.4400985404968
 20
243.0000000000009
 30
0.0
 11
254.4400985404968
 21
243.0000000000009
 31
0.0
  0
LINE
  5
237
330
2
100
AcDbEntity
  8
L-ZISSEN
100
AcDbLine
 10
250.4400985404974
 20
221.5000000000054
 30
0.0
 11
253.9400985404951
 21
221.5000000000063
 31
0.0
  0
LINE
  5
238
330
2
100
AcDbEntity
  8
L-ZISSEN
100
AcDbLine
 10
250.4400985404974
 20
178.5000000000054
 30
0.0
 11
253.940098540495
 21
178.5000000000063
 31
0.0
  0
LINE
  5
239
330
2
100
AcDbEntity
  8
L-ZISSEN
100
AcDbLine
 10
233.4400985404968
 20
223.0000000000009
 30
0.0
 11
253.4400985404968
 21
223.0000000000009
 31
0.0
  0
LINE
  5
23A
330
2
100
AcDbEntity
  8
L-ZISSEN
100
AcDbLine
 10
233.4400985404968
 20
177.00000000001
 30
0.0
 11
253.4400985404968
 21
177.00000000001
 31
0.0
  0
LINE
  5
23B
330
2
100
AcDbEntity
  8
L-ZISSEN
100
AcDbLine
 10
252.1900985404968
 20
214.5000000000063
 30
0.0
 11
267.5746866860796
 21
214.5000000000054
 31
0.0
  0
LINE
  5
23C
330
2
100
AcDbEntity
  8
L-ZISSEN
100
AcDbLine
 10
252.1900985404968
 20
185.5000000000054
 30
0.0
 11
267.5746866860797
 21
185.5000000000045
 31
0.0
  0
LINE
  5
23D
330
2
100
AcDbEntity
  8
L-ZISSEN
100
AcDbLine
 10
217.9400985404972
 20
229.4999999999999
 30
0.0
 11
268.9400985404968
 21
229.5000000000009
 31
0.0
  0
LINE
  5
23E
330
2
100
AcDbEntity
  8
L-ZISSEN
100
AcDbLine
 10
217.9400985404972
 20
170.5000000000109
 30
0.0
 11
268.9400985404968
 21
170.5000000000099
 31
0.0
  0
LINE
  5
23F
330
2
100
AcDbEntity
  8
L-ZISSEN
100
AcDbLine
 10
182.1900985404961
 20
231.0000000000008
 30
0.0
 11
215.6900985404961
 21
231.0000000000008
 31
0.0
  0
LINE
  5
240
330
2
100
AcDbEntity
  8
L-ZISSEN
100
AcDbLine
 10
172.9400985404961
 20
235.0000000000008
 30
0.0
 11
224.9400985404961
 21
235.0000000000008
 31
0.0
  0
LINE
  5
241
330
2
100
AcDbEntity
  8
L-ZISSEN
100
AcDbLine
 10
231.940098540496
 20
182.2500000000009
 30
0.0
 11
165.9400985404958
 21
182.2500000000009
 31
0.0
  0
LINE
  5
242
330
2
100
AcDbEntity
  8
L-ZISSEN
100
AcDbLine
 10
161.4400985404961
 20
185.5000000000009
 30
0.0
 11
234.6900985404968
 21
185.5
 31
0.0
  0
LINE
  5
243
330
2
100
AcDbEntity
  8
L-ZISSEN
100
AcDbLine
 10
161.4400985404961
 20
214.5000000000009
 30
0.0
 11
234.6900985404968
 21
214.5000000000009
 31
0.0
  0
LINE
  5
244
330
2
100
AcDbEntity
  8
L-ZISSEN
100
AcDbLine
 10
231.8400985404958
 20
217.7500000000009
 30
0.0
 11
165.9400985404958
 21
217.7500000000009
 31
0.0
  0
LINE
  5
245
330
2
100
AcDbEntity
  8
L-ZISSEN
100
AcDbLine
 10
182.1900985404961
 20
169.0000000000009
 30
0.0
 11
215.6900985404961
 21
169.0000000000009
 31
0.0
  0
LINE
  5
246
330
2
100
AcDbEntity
  8
L-ZISSEN
100
AcDbLine
 10
172.7643314710865
 20
165.0000000000009
 30
0.0
 11
225.1158656099053
 21
165.0000000000009
 31
0.0
  0
LINE
  5
247
330
2
100
AcDbEntity
  8
L-ZISSEN
100
AcDbLine
 10
172.9400985404961
 20
235.0000000000008
 30
0.0
 11
169.9472205948161
 21
221.5000000000009
 31
0.0
  0
LINE
  5
248
330
2
100
AcDbEntity
  8
L-ZISSEN
100
AcDbLine
 10
172.7643314710865
 20
165.0000000000009
 30
0.0
 11
169.7714535254069
 21
178.5000000000009
 31
0.0
  0
LINE
  5
249
330
2
100
AcDbEntity
  8
L-ZISSEN
100
AcDbLine
 10
161.4400985404961
 20
221.5000000000009
 30
0.0
 11
161.4400985404961
 21
178.5000000000009
 31
0.0
  0
LINE
  5
24A
330
2
100
AcDbEntity
  8
L-ZISSEN
100
AcDbLine
 10
165.9400985404959
 20
217.7500000000009
 30
0.0
 11
164.6400985404961
 21
221.5000000000009
 31
0.0
  0
LINE
  5
24B
330
2
100
AcDbEntity
  8
L-ZISSEN
100
AcDbLine
 10
165.9400985404959
 20
182.2500000000009
 30
0.0
 11
164.6400985404961
 21
178.5000000000009
 31
0.0
  0
LINE
  5
24C
330
2
100
AcDbEntity
  8
L-ZISSEN
100
AcDbLine
 10
161.4400985404961
 20
178.5000000000009
 30
0.0
 11
169.7714535254069
 21
178.5000000000009
 31
0.0
  0
LINE
  5
24D
330
2
100
AcDbEntity
  8
L-ZISSEN
100
AcDbLine
 10
161.4400985404961
 20
221.5000000000009
 30
0.0
 11
169.9472205948161
 21
221.5000000000009
 31
0.0
  0
LINE
  5
24E
330
2
100
AcDbEntity
  8
L-ZISSEN
100
AcDbLine
 10
182.1900985404961
 20
169.0000000000009
 30
0.0
 11
179.2526442604769
 21
182.2500000000009
 31
0.0
  0
LINE
  5
24F
330
2
100
AcDbEntity
  8
L-ZISSEN
100
AcDbLine
 10
182.1900985404961
 20
231.0000000000008
 30
0.0
 11
179.2526442604769
 21
217.7500000000009
 31
0.0
  0
CIRCLE
  5
250
330
2
100
AcDbEntity
  8
L-ZISSEN
100
AcDbCircle
 10
175.4400985404961
 20
230.0000000000009
 30
0.0
 40
2.0
  0
CIRCLE
  5
251
330
2
100
AcDbEntity
  8
L-ZISSEN
100
AcDbCircle
 10
175.4400985404961
 20
170.0000000000009
 30
0.0
 40
2.0
  0
LINE
  5
252
330
2
100
AcDbEntity
  8
L-TYUSIN
100
AcDbLine
 10
198.9400985404961
 20
160.0000000000009
 30
0.0
 11
198.9400985404961
 21
240.0000000000009
 31
0.0
  0
LINE
  5
253
330
2
100
AcDbEntity
  8
L-ZISSEN
100
AcDbLine
 10
219.8144387634868
 20
218.5000000000008
 30
0.0
 11
231.5797189304685
 21
218.5000000000008
 31
0.0
  0
LINE
  5
254
330
2
100
AcDbEntity
  8
L-ZISSEN
100
AcDbLine
 10
219.8144387634868
 20
181.50000000001
 30
0.0
 11
231.5797189304685
 21
181.50000000001
 31
0.0
  0
LINE
  5
255
330
2
100
AcDbEntity
  8
L-ZISSEN
100
AcDbLine
 10
215.6900985404961
 20
169.0000000000009
 30
0.0
 11
218.6275528205149
 21
182.2500000000009
 31
0.0
  0
LINE
  5
256
330
2
100
AcDbEntity
  8
L-ZISSEN
100
AcDbLine
 10
215.6900985404961
 20
231.0000000000008
 30
0.0
 11
218.6275528205149
 21
217.7500000000009
 31
0.0
  0
LINE
  5
257
330
2
100
AcDbEntity
  8
L-ZISSEN
100
AcDbLine
 10
219.3346760628105
 20
218.8591889527078
 30
0.0
 11
216.4795098532224
 21
227.7600324959812
 31
0.0
  0
ARC
  5
258
330
2
100
AcDbEntity
  8
L-ZISSEN
100
AcDbCircle
 10
217.8025685719712
 20
228.1324294031173
 30
0.0
 40
1.374468562646009
100
AcDbArc
 50
84.25734745955436
 51
195.7201404610752
  0
ARC
  5
259
330
2
100
AcDbEntity
  8
L-ZISSEN
100
AcDbCircle
 10
217.8025685719712
 20
171.8675705968935
 30
0.0
 40
1.374468562646009
100
AcDbArc
 50
164.2798595389247
 51
275.7426525404456
  0
LINE
  5
25A
330
2
100
AcDbEntity
  8
L-ZISSEN
100
AcDbLine
 10
219.3346760628105
 20
181.140811047303
 30
0.0
 11
216.4795098532224
 21
172.2399675040296
 31
0.0
  0
LINE
  5
25B
330
2
100
AcDbEntity
  8
L-ZISSEN
100
AcDbLine
 10
225.1158656099053
 20
165.0000000000009
 30
0.0
 11
226.3351862544436
 21
170.5000000000118
 31
0.0
  0
ARC
  5
25C
330
2
100
AcDbEntity
  8
L-ZISSEN
100
AcDbCircle
 10
222.4400985404961
 20
230.0000000000009
 30
0.0
 40
2.0
100
AcDbArc
 50
345.5224878140565
 51
194.4775121859437
  0
LINE
  5
25D
330
2
100
AcDbEntity
  8
L-ZISSEN
100
AcDbLine
 10
224.9400985404961
 20
235.0000000000008
 30
0.0
 11
226.1594191850324
 21
229.5000000000009
 31
0.0
  0
ARC
  5
25E
330
2
100
AcDbEntity
  8
L-ZISSEN
100
AcDbCircle
 10
222.4400985404961
 20
170.0000000000009
 30
0.0
 40
2.0
100
AcDbArc
 50
165.5224878137609
 51
14.47751218623912
  0
ARC
  5
25F
330
2
100
AcDbEntity
  8
L-ZISSEN
100
AcDbCircle
 10
219.8144387634868
 20
219.0000000000009
 30
0.0
 40
0.5
100
AcDbArc
 50
196.357040261036
 51
270.0
  0
ARC
  5
260
330
2
100
AcDbEntity
  8
L-ZISSEN
100
AcDbCircle
 10
219.8144387634868
 20
181.0000000000099
 30
0.0
 40
0.5
100
AcDbArc
 50
90.00000000000003
 51
163.6429597389639
  0
LINE
  5
261
330
2
100
AcDbEntity
  8
L-ZISSEN
100
AcDbLine
 10
250.4400985404968
 20
221.5000000000009
 30
0.0
 11
236.4400985404968
 21
221.5000000000009
 31
0.0
  0
LINE
  5
262
330
2
100
AcDbEntity
  8
L-ZISSEN
100
AcDbLine
 10
250.4400985404968
 20
178.5000000000009
 30
0.0
 11
236.4400985404968
 21
178.5000000000009
 31
0.0
  0
LINE
  5
263
330
2
100
AcDbEntity
  8
L-ZISSEN
100
AcDbLine
 10
236.4400985404968
 20
214.7500000000009
 30
0.0
 11
250.4400985404968
 21
214.7500000000009
 31
0.0
  0
LINE
  5
264
330
2
100
AcDbEntity
  8
L-ZISSEN
100
AcDbLine
 10
236.4400985404968
 20
185.2500000000009
 30
0.0
 11
250.4400985404968
 21
185.2500000000009
 31
0.0
  0
LINE
  5
265
330
2
100
AcDbEntity
  8
L-ZISSEN
100
AcDbLine
 10
236.4400985404961
 20
221.5000000000009
 30
0.0
 11
236.4400985404961
 21
214.7500000000009
 31
0.0
  0
LINE
  5
266
330
2
100
AcDbEntity
  8
L-ZISSEN
100
AcDbLine
 10
237.6900985404968
 20
223.0000000000009
 30
0.0
 11
237.6900985404968
 21
221.4999999999999
 31
0.0
  0
LINE
  5
267
330
2
100
AcDbEntity
  8
L-ZISSEN
100
AcDbLine
 10
236.4400985404968
 20
221.5000000000009
 30
0.0
 11
236.4400985404968
 21
214.7500000000009
 31
0.0
  0
LINE
  5
268
330
2
100
AcDbEntity
  8
L-ZISSEN
100
AcDbLine
 10
234.6900985404968
 20
214.5000000000009
 30
0.0
 11
234.6900985404968
 21
185.5000000000009
 31
0.0
  0
LINE
  5
269
330
2
100
AcDbEntity
  8
L-ZISSEN
100
AcDbLine
 10
234.6900985404968
 20
214.5000000000009
 30
0.0
 11
236.4400985404968
 21
214.7500000000009
 31
0.0
  0
LINE
  5
26A
330
2
100
AcDbEntity
  8
L-ZISSEN
100
AcDbLine
 10
236.4400985404968
 20
185.2500000000009
 30
0.0
 11
234.6900985404968
 21
185.5000000000009
 31
0.0
  0
LINE
  5
26B
330
2
100
AcDbEntity
  8
L-ZISSEN
100
AcDbLine
 10
236.4400985404968
 20
185.2500000000009
 30
0.0
 11
236.4400985404968
 21
178.5000000000009
 31
0.0
  0
LINE
  5
26C
330
2
100
AcDbEntity
  8
L-ZISSEN
100
AcDbLine
 10
236.4400985404961
 20
185.2500000000009
 30
0.0
 11
236.4400985404961
 21
178.5000000000009
 31
0.0
  0
LINE
  5
26D
330
2
100
AcDbEntity
  8
L-ZISSEN
100
AcDbLine
 10
237.6900985404968
 20
177.00000000001
 30
0.0
 11
237.6900985404968
 21
178.5
 31
0.0
  0
ARC
  5
26E
330
2
100
AcDbEntity
  8
L-ZISSEN
100
AcDbCircle
 10
231.5797189304685
 20
219.0000000000009
 30
0.0
 40
0.5
100
AcDbArc
 50
270.0
 51
341.5650511770852
  0
ARC
  5
26F
330
2
100
AcDbEntity
  8
L-ZISSEN
100
AcDbCircle
 10
231.5797189304685
 20
181.0000000000099
 30
0.0
 40
0.5
100
AcDbArc
 50
18.43494882291479
 51
90.00000000000003
  0
LINE
  5
270
330
2
100
AcDbEntity
  8
L-ZISSEN
100
AcDbLine
 10
231.8400985404959
 20
217.7500000000009
 30
0.0
 11
233.1400985404961
 21
221.5000000000009
 31
0.0
  0
LINE
  5
271
330
2
100
AcDbEntity
  8
L-ZISSEN
100
AcDbLine
 10
236.4400985404961
 20
221.5000000000009
 30
0.0
 11
232.940098540497
 21
221.5000000000009
 31
0.0
  0
LINE
  5
272
330
2
100
AcDbEntity
  8
L-ZISSEN
100
AcDbLine
 10
231.940098540496
 20
182.2500000000009
 30
0.0
 11
233.2400985404962
 21
178.5000000000009
 31
0.0
  0
LINE
  5
273
330
2
100
AcDbEntity
  8
L-ZISSEN
100
AcDbLine
 10
236.4400985404961
 20
178.5000000000009
 30
0.0
 11
232.9400985405001
 21
178.5000000000009
 31
0.0
  0
LINE
  5
274
330
2
100
AcDbEntity
  8
L-ZISSEN
100
AcDbLine
 10
233.4400985404968
 20
223.0000000000009
 30
0.0
 11
232.054060579494
 21
218.8418861169911
 31
0.0
  0
LINE
  5
275
330
2
100
AcDbEntity
  8
L-ZISSEN
100
AcDbLine
 10
233.4400985404968
 20
177.00000000001
 30
0.0
 11
232.054060579494
 21
181.1581138830197
 31
0.0
  0
LINE
  5
276
330
2
100
AcDbEntity
  8
L-ZISSEN
100
AcDbLine
 10
232.4400985404968
 20
250.0000000000009
 30
0.0
 11
232.4400985404968
 21
229.5000000000009
 31
0.0
  0
LINE
  5
277
330
2
100
AcDbEntity
  8
L-TYUSIN
100
AcDbLine
 10
243.4400985404968
 20
255.0000000000009
 30
0.0
 11
243.4400985404968
 21
238.0000000000009
 31
0.0
  0
LINE
  5
278
330
2
100
AcDbEntity
  8
L-ZISSEN
100
AcDbLine
 10
250.4400985404974
 20
221.5000000000054
 30
0.0
 11
250.4400985404974
 21
214.7500000000009
 31
0.0
  0
LINE
  5
279
330
2
100
AcDbEntity
  8
L-ZISSEN
100
AcDbLine
 10
249.1900985404968
 20
223.0000000000009
 30
0.0
 11
249.1900985404968
 21
221.4999999999999
 31
0.0
  0
LINE
  5
27A
330
2
100
AcDbEntity
  8
L-ZISSEN
100
AcDbLine
 10
252.1900985404968
 20
214.5000000000009
 30
0.0
 11
252.1900985404968
 21
185.5000000000009
 31
0.0
  0
LINE
  5
27B
330
2
100
AcDbEntity
  8
L-ZISSEN
100
AcDbLine
 10
252.1900985404968
 20
214.5000000000009
 30
0.0
 11
250.4400985404968
 21
214.7500000000009
 31
0.0
  0
LINE
  5
27C
330
2
100
AcDbEntity
  8
L-ZISSEN
100
AcDbLine
 10
250.4400985404968
 20
185.2500000000009
 30
0.0
 11
252.1900985404968
 21
185.5000000000009
 31
0.0
  0
LINE
  5
27D
330
2
100
AcDbEntity
  8
L-ZISSEN
100
AcDbLine
 10
250.4400985404968
 20
221.5000000000009
 30
0.0
 11
250.4400985404968
 21
214.7500000000009
 31
0.0
  0
LINE
  5
27E
330
2
100
AcDbEntity
  8
L-ZISSEN
100
AcDbLine
 10
250.4400985404968
 20
185.2500000000009
 30
0.0
 11
250.4400985404968
 21
178.5000000000009
 31
0.0
  0
LINE
  5
27F
330
2
100
AcDbEntity
  8
L-ZISSEN
100
AcDbLine
 10
250.4400985404974
 20
185.2500000000009
 30
0.0
 11
250.4400985404974
 21
178.5000000000054
 31
0.0
  0
LINE
  5
280
330
2
100
AcDbEntity
  8
L-ZISSEN
100
AcDbLine
 10
249.1900985404968
 20
177.00000000001
 30
0.0
 11
249.1900985404968
 21
178.5
 31
0.0
  0
LINE
  5
281
330
2
100
AcDbEntity
  8
L-ZISSEN
100
AcDbLine
 10
276.9400985404913
 20
35.50000000000455
 30
0.0
 11
298.9400985404913
 21
35.50000000000546
 31
0.0
  0
LINE
  5
282
330
2
100
AcDbEntity
  8
L-SOUZOU
100
AcDbLine
 10
306.8400985404988
 20
155.7500000000009
 30
0.0
 11
269.0400985404986
 21
155.7500000000009
 31
0.0
  0
LINE
  5
283
330
2
100
AcDbEntity
  8
L-SOUZOU
100
AcDbLine
 10
308.9400985404987
 20
139.7500000000009
 30
0.0
 11
266.9400985404987
 21
139.7500000000009
 31
0.0
  0
LINE
  5
284
330
2
100
AcDbEntity
  8
L-SOUZOU
100
AcDbLine
 10
307.4400985404987
 20
130.7500000000009
 30
0.0
 11
268.4400985404987
 21
130.7500000000009
 31
0.0
  0
LINE
  5
285
330
2
100
AcDbEntity
  8
L-ZISSEN
100
AcDbLine
 10
261.9400985404973
 20
235.0000000000054
 30
0.0
 11
313.9400985404973
 21
235.0000000000054
 31
0.0
  0
LINE
  5
286
330
2
100
AcDbEntity
  8
L-ZISSEN
100
AcDbLine
 10
261.7643314710877
 20
165.0000000000054
 30
0.0
 11
314.1158656099065
 21
165.0000000000054
 31
0.0
  0
CIRCLE
  5
287
330
2
100
AcDbEntity
  8
L-ZISSEN
100
AcDbCircle
 10
287.9400985404959
 20
200.0000000000054
 30
0.0
 40
25.0
  0
LINE
  5
288
330
2
100
AcDbEntity
  8
L-ZISSEN
100
AcDbLine
 10
271.1900985404958
 20
169.0000000000054
 30
0.0
 11
304.6900985404959
 21
169.0000000000054
 31
0.0
  0
LINE
  5
289
330
2
100
AcDbEntity
  8
L-ZISSEN
100
AcDbLine
 10
271.1900985404958
 20
231.0000000000054
 30
0.0
 11
304.6900985404959
 21
231.0000000000054
 31
0.0
  0
POLYLINE
  5
28A
330
2
100
AcDbEntity
  8
L-ZISSEN
100
AcDb2dPolyline
 66
     1
 10
0.0
 20
0.0
 30
0.0
 70
     1
  0
VERTEX
  5
615
330
28A
100
AcDbEntity
  8
L-ZISSEN
100
AcDbVertex
100
AcDb2dVertex
 10
275.9400985404983
 20
193.0717967697264
 30
0.0
  0
VERTEX
  5
616
330
28A
100
AcDbEntity
  8
L-ZISSEN
100
AcDbVertex
100
AcDb2dVertex
 10
287.9400985405006
 20
186.1435935394538
 30
0.0
  0
VERTEX
  5
617
330
28A
100
AcDbEntity
  8
L-ZISSEN
100
AcDbVertex
100
AcDb2dVertex
 10
299.9400985404983
 20
193.0717967697337
 30
0.0
  0
VERTEX
  5
618
330
28A
100
AcDbEntity
  8
L-ZISSEN
100
AcDbVertex
100
AcDb2dVertex
 10
299.9400985404936
 20
206.9282032302844
 30
0.0
  0
VERTEX
  5
619
330
28A
100
AcDbEntity
  8
L-ZISSEN
100
AcDbVertex
100
AcDb2dVertex
 10
287.9400985404912
 20
213.856406460557
 30
0.0
  0
VERTEX
  5
61A
330
28A
100
AcDbEntity
  8
L-ZISSEN
100
AcDbVertex
100
AcDb2dVertex
 10
275.9400985404936
 20
206.9282032302771
 30
0.0
  0
SEQEND
  5
61B
330
28A
100
AcDbEntity
  8
L-ZISSEN
  0
LINE
  5
28B
330
2
100
AcDbEntity
  8
L-SOUZOU
100
AcDbLine
 10
267.5400985404986
 20
154.2500000000009
 30
0.0
 11
267.5400985404986
 21
139.7500000000009
 31
0.0
  0
LINE
  5
28C
330
2
100
AcDbEntity
  8
L-ZISSEN
100
AcDbLine
 10
257.0928633521595
 20
64.79138676469847
 30
0.0
 11
255.0928633521596
 21
64.79138676469847
 31
0.0
  0
ARC
  5
28D
330
2
100
AcDbEntity
  8
L-SOUZOU
100
AcDbCircle
 10
268.4400985404986
 20
132.2500000000009
 30
0.0
 40
1.5
100
AcDbArc
 50
180.0
 51
270.0
  0
LINE
  5
28E
330
2
100
AcDbEntity
  8
L-SOUZOU
100
AcDbLine
 10
266.9400985404987
 20
139.7500000000009
 30
0.0
 11
266.9400985404987
 21
132.2500000000009
 31
0.0
  0
LINE
  5
28F
330
2
100
AcDbEntity
  8
L-ZISSEN
100
AcDbLine
 10
270.3350566490373
 20
217.7500000000045
 30
0.0
 11
254.9400985404971
 21
217.7500000000045
 31
0.0
  0
LINE
  5
290
330
2
100
AcDbEntity
  8
L-ZISSEN
100
AcDbLine
 10
270.3350566490377
 20
182.2500000000054
 30
0.0
 11
254.9400985404969
 21
182.2500000000045
 31
0.0
  0
LINE
  5
291
330
2
100
AcDbEntity
  8
L-ZISSEN
100
AcDbLine
 10
267.0657583175066
 20
218.5000000000008
 30
0.0
 11
255.3004781505246
 21
218.5000000000008
 31
0.0
  0
LINE
  5
292
330
2
100
AcDbEntity
  8
L-ZISSEN
100
AcDbLine
 10
267.0657583175066
 20
181.50000000001
 30
0.0
 11
255.3004781505246
 21
181.50000000001
 31
0.0
  0
LINE
  5
293
330
2
100
AcDbEntity
  8
L-ZISSEN
100
AcDbLine
 10
261.9400985404973
 20
235.0000000000054
 30
0.0
 11
260.7207778959601
 21
229.5000000000009
 31
0.0
  0
LINE
  5
294
330
2
100
AcDbEntity
  8
L-ZISSEN
100
AcDbLine
 10
261.7643314710877
 20
165.0000000000054
 30
0.0
 11
260.5450108265506
 21
170.5000000000109
 31
0.0
  0
ARC
  5
295
330
2
100
AcDbEntity
  8
L-ZISSEN
100
AcDbCircle
 10
255.3004781505246
 20
219.0000000000009
 30
0.0
 40
0.5
100
AcDbArc
 50
198.4349488229148
 51
270.0
  0
ARC
  5
296
330
2
100
AcDbEntity
  8
L-ZISSEN
100
AcDbCircle
 10
255.3004781505246
 20
181.0000000000099
 30
0.0
 40
0.5
100
AcDbArc
 50
90.00000000000003
 51
161.5650511770851
  0
LINE
  5
297
330
2
100
AcDbEntity
  8
L-ZISSEN
100
AcDbLine
 10
254.9400985404971
 20
217.7500000000054
 30
0.0
 11
253.6400985404974
 21
221.5000000000054
 31
0.0
  0
LINE
  5
298
330
2
100
AcDbEntity
  8
L-ZISSEN
100
AcDbLine
 10
254.9400985404971
 20
182.2500000000054
 30
0.0
 11
253.6400985404974
 21
178.5000000000054
 31
0.0
  0
LINE
  5
299
330
2
100
AcDbEntity
  8
L-ZISSEN
100
AcDbLine
 10
253.4400985404968
 20
223.0000000000009
 30
0.0
 11
254.8261365014996
 21
218.8418861169911
 31
0.0
  0
LINE
  5
29A
330
2
100
AcDbEntity
  8
L-ZISSEN
100
AcDbLine
 10
253.4400985404968
 20
177.00000000001
 30
0.0
 11
254.8261365014996
 21
181.1581138830197
 31
0.0
  0
LINE
  5
29B
330
2
100
AcDbEntity
  8
L-ZISSEN
100
AcDbLine
 10
254.4400985404968
 20
250.0000000000009
 30
0.0
 11
254.4400985404968
 21
229.5000000000009
 31
0.0
  0
ARC
  5
29C
330
2
100
AcDbEntity
  8
L-SOUZOU
100
AcDbCircle
 10
269.0400985404985
 20
154.2500000000009
 30
0.0
 40
1.5
100
AcDbArc
 50
89.99999999999998
 51
180.0
  0
LINE
  5
29D
330
2
100
AcDbEntity
  8
L-ZISSEN
100
AcDbLine
 10
271.1900985404958
 20
169.0000000000054
 30
0.0
 11
268.2526442604767
 21
182.2500000000054
 31
0.0
  0
LINE
  5
29E
330
2
100
AcDbEntity
  8
L-ZISSEN
100
AcDbLine
 10
271.1900985404958
 20
231.0000000000054
 30
0.0
 11
268.2526442604767
 21
217.7500000000054
 31
0.0
  0
LINE
  5
29F
330
2
100
AcDbEntity
  8
L-ZISSEN
100
AcDbLine
 10
267.545521018183
 20
218.8591889527078
 30
0.0
 11
270.4006872277709
 21
227.6584144519938
 31
0.0
  0
ARC
  5
2A0
330
2
100
AcDbEntity
  8
L-ZISSEN
100
AcDbCircle
 10
267.0657583175066
 20
219.0000000000009
 30
0.0
 40
0.5
100
AcDbArc
 50
270.0
 51
343.6429597389639
  0
ARC
  5
2A1
330
2
100
AcDbEntity
  8
L-ZISSEN
100
AcDbCircle
 10
268.9400985404968
 20
228.0000000000009
 30
0.0
 40
1.5
100
AcDbArc
 50
346.8369066796855
 51
90.0
  0
ARC
  5
2A2
330
2
100
AcDbEntity
  8
L-ZISSEN
100
AcDbCircle
 10
267.0657583175066
 20
181.0000000000099
 30
0.0
 40
0.5
100
AcDbArc
 50
16.35704026103607
 51
90.00000000000003
  0
LINE
  5
2A3
330
2
100
AcDbEntity
  8
L-ZISSEN
100
AcDbLine
 10
267.545521018183
 20
181.140811047303
 30
0.0
 11
270.4006872277709
 21
172.341585548017
 31
0.0
  0
ARC
  5
2A4
330
2
100
AcDbEntity
  8
L-ZISSEN
100
AcDbCircle
 10
268.9400985404968
 20
172.00000000001
 30
0.0
 40
1.5
100
AcDbArc
 50
270.0
 51
13.16309332031452
  0
LINE
  5
2A5
330
2
100
AcDbEntity
  8
L-TYUSIN
100
AcDbLine
 10
287.9400985404946
 20
240.0000000000054
 30
0.0
 11
287.940098540501
 21
125.7500000000009
 31
0.0
  0
LINE
  5
2A6
330
2
100
AcDbEntity
  8
L-ZISSEN
100
AcDbLine
 10
276.9400985404913
 20
35.50000000000455
 30
0.0
 11
275.9400985404931
 21
34.50000000000454
 31
0.0
  0
LINE
  5
2A7
330
2
100
AcDbEntity
  8
L-SOUZOU
100
AcDbLine
 10
294.7400985404997
 20
163.2500000000009
 30
0.0
 11
281.1400985404993
 21
163.2500000000009
 31
0.0
  0
LINE
  5
2A8
330
2
100
AcDbEntity
  8
L-SOUZOU
100
AcDbLine
 10
294.6745438334033
 20
164.7500000000009
 30
0.0
 11
281.2056532475958
 21
164.7500000000009
 31
0.0
  0
LINE
  5
2A9
330
2
100
AcDbEntity
  8
L-SOUZOU
100
AcDbLine
 10
281.3384723848386
 20
169.0000000000054
 30
0.0
 11
281.1587759050394
 21
163.2500000000009
 31
0.0
  0
LINE
  5
2AA
330
2
100
AcDbEntity
  8
L-SOUZOU
100
AcDbLine
 10
281.1400985404998
 20
163.2500000000009
 30
0.0
 11
281.1400985404993
 21
155.7500000000009
 31
0.0
  0
LINE
  5
2AB
330
2
100
AcDbEntity
  8
L-SOUZOU
100
AcDbLine
 10
282.1944723848387
 20
169.0000000000063
 30
0.0
 11
282.061653247596
 21
164.7500000000009
 31
0.0
  0
LINE
  5
2AC
330
2
100
AcDbEntity
  8
L-SOUZOU
100
AcDbLine
 10
282.061653247596
 20
164.7500000000009
 30
0.0
 11
281.1780389199116
 21
163.8663856723169
 31
0.0
  0
LINE
  5
2AD
330
2
100
AcDbEntity
  8
L-SOUZOU
100
AcDbLine
 10
294.5417246961608
 20
169.0000000000054
 30
0.0
 11
294.7214211759592
 21
163.2500000000009
 31
0.0
  0
LINE
  5
2AE
330
2
100
AcDbEntity
  8
L-SOUZOU
100
AcDbLine
 10
294.7400985404997
 20
163.2500000000009
 30
0.0
 11
294.7400985404997
 21
155.7500000000009
 31
0.0
  0
LINE
  5
2AF
330
2
100
AcDbEntity
  8
L-SOUZOU
100
AcDbLine
 10
293.6857246961604
 20
169.0000000000063
 30
0.0
 11
293.818543833403
 21
164.7500000000009
 31
0.0
  0
LINE
  5
2B0
330
2
100
AcDbEntity
  8
L-SOUZOU
100
AcDbLine
 10
293.818543833403
 20
164.7500000000009
 30
0.0
 11
294.7021581610874
 21
163.8663856723169
 31
0.0
  0
LINE
  5
2B1
330
2
100
AcDbEntity
  8
L-ZISSEN
100
AcDbLine
 10
321.4400985404973
 20
250.0000000000009
 30
0.0
 11
343.4400985404973
 21
250.0000000000009
 31
0.0
  0
LINE
  5
2B2
330
2
100
AcDbEntity
  8
L-ZISSEN
100
AcDbLine
 10
321.4400985404973
 20
243.0000000000009
 30
0.0
 11
343.4400985404973
 21
243.0000000000009
 31
0.0
  0
LINE
  5
2B3
330
2
100
AcDbEntity
  8
L-ZISSEN
100
AcDbLine
 10
325.4400985404974
 20
221.5000000000054
 30
0.0
 11
321.9400985404991
 21
221.5000000000054
 31
0.0
  0
LINE
  5
2B4
330
2
100
AcDbEntity
  8
L-ZISSEN
100
AcDbLine
 10
320.9400985404972
 20
217.7500000000054
 30
0.0
 11
322.2400985404974
 21
221.5000000000054
 31
0.0
  0
LINE
  5
2B5
330
2
100
AcDbEntity
  8
L-ZISSEN
100
AcDbLine
 10
325.4400985404974
 20
178.5000000000054
 30
0.0
 11
321.9400985404989
 21
178.5000000000063
 31
0.0
  0
LINE
  5
2B6
330
2
100
AcDbEntity
  8
L-ZISSEN
100
AcDbLine
 10
320.9400985404972
 20
182.2500000000054
 30
0.0
 11
322.2400985404974
 21
178.5000000000054
 31
0.0
  0
LINE
  5
2B7
330
2
100
AcDbEntity
  8
L-ZISSEN
100
AcDbLine
 10
322.4400985404973
 20
223.0000000000009
 30
0.0
 11
321.0540605794946
 21
218.8418861169921
 31
0.0
  0
LINE
  5
2B8
330
2
100
AcDbEntity
  8
L-ZISSEN
100
AcDbLine
 10
322.4400985404973
 20
177.00000000001
 30
0.0
 11
321.0540605794946
 21
181.1581138830188
 31
0.0
  0
LINE
  5
2B9
330
2
100
AcDbEntity
  8
L-ZISSEN
100
AcDbLine
 10
308.3055103949122
 20
214.5000000000054
 30
0.0
 11
323.6900985404973
 21
214.5000000000063
 31
0.0
  0
LINE
  5
2BA
330
2
100
AcDbEntity
  8
L-ZISSEN
100
AcDbLine
 10
308.3055103949118
 20
185.5000000000045
 30
0.0
 11
323.6900985404973
 21
185.5000000000045
 31
0.0
  0
LINE
  5
2BB
330
2
100
AcDbEntity
  8
L-SOUZOU
100
AcDbLine
 10
308.3400985404988
 20
154.2500000000009
 30
0.0
 11
308.3400985404988
 21
139.7500000000009
 31
0.0
  0
LINE
  5
2BC
330
2
100
AcDbEntity
  8
L-ZISSEN
100
AcDbLine
 10
299.9400985404932
 20
34.50000000000545
 30
0.0
 11
298.9400985404913
 21
35.50000000000546
 31
0.0
  0
ARC
  5
2BD
330
2
100
AcDbEntity
  8
L-SOUZOU
100
AcDbCircle
 10
307.4400985404986
 20
132.2500000000009
 30
0.0
 40
1.5
100
AcDbArc
 50
270.0
 51
0.0
  0
LINE
  5
2BE
330
2
100
AcDbEntity
  8
L-SOUZOU
100
AcDbLine
 10
308.9400985404987
 20
139.7500000000009
 30
0.0
 11
308.9400985404987
 21
132.2500000000009
 31
0.0
  0
LINE
  5
2BF
330
2
100
AcDbEntity
  8
L-ZISSEN
100
AcDbLine
 10
320.9400985404971
 20
217.7500000000063
 30
0.0
 11
305.5451404319545
 21
217.7500000000045
 31
0.0
  0
LINE
  5
2C0
330
2
100
AcDbEntity
  8
L-ZISSEN
100
AcDbLine
 10
320.9400985404972
 20
182.2500000000054
 30
0.0
 11
305.5451404319541
 21
182.2500000000054
 31
0.0
  0
LINE
  5
2C1
330
2
100
AcDbEntity
  8
L-ZISSEN
100
AcDbLine
 10
308.8144387634873
 20
218.5000000000008
 30
0.0
 11
320.5797189304691
 21
218.5000000000008
 31
0.0
  0
LINE
  5
2C2
330
2
100
AcDbEntity
  8
L-ZISSEN
100
AcDbLine
 10
308.8144387634873
 20
181.50000000001
 30
0.0
 11
320.5797189304691
 21
181.50000000001
 31
0.0
  0
ARC
  5
2C3
330
2
100
AcDbEntity
  8
L-SOUZOU
100
AcDbCircle
 10
306.8400985404987
 20
154.2500000000009
 30
0.0
 40
1.5
100
AcDbArc
 50
0.0
 51
89.99999999999998
  0
LINE
  5
2C4
330
2
100
AcDbEntity
  8
L-ZISSEN
100
AcDbLine
 10
304.6900985404959
 20
169.0000000000054
 30
0.0
 11
307.6275528205146
 21
182.2500000000054
 31
0.0
  0
LINE
  5
2C5
330
2
100
AcDbEntity
  8
L-ZISSEN
100
AcDbLine
 10
304.6900985404959
 20
231.0000000000054
 30
0.0
 11
307.6275528205146
 21
217.7500000000054
 31
0.0
  0
LINE
  5
2C6
330
2
100
AcDbEntity
  8
L-ZISSEN
100
AcDbLine
 10
308.3346760628111
 20
218.8591889527078
 30
0.0
 11
305.479509853223
 21
227.7600324959812
 31
0.0
  0
ARC
  5
2C7
330
2
100
AcDbEntity
  8
L-ZISSEN
100
AcDbCircle
 10
308.8144387634873
 20
219.0000000000009
 30
0.0
 40
0.5
100
AcDbArc
 50
196.357040261036
 51
270.0
  0
ARC
  5
2C8
330
2
100
AcDbEntity
  8
L-ZISSEN
100
AcDbCircle
 10
306.8025685719718
 20
228.1324294031173
 30
0.0
 40
1.374468562646009
100
AcDbArc
 50
84.25734745955436
 51
195.7201404610752
  0
ARC
  5
2C9
330
2
100
AcDbEntity
  8
L-ZISSEN
100
AcDbCircle
 10
306.8025685719718
 20
171.8675705968935
 30
0.0
 40
1.374468562646009
100
AcDbArc
 50
164.2798595389247
 51
275.7426525404456
  0
LINE
  5
2CA
330
2
100
AcDbEntity
  8
L-ZISSEN
100
AcDbLine
 10
308.3346760628111
 20
181.140811047303
 30
0.0
 11
305.479509853223
 21
172.2399675040296
 31
0.0
  0
ARC
  5
2CB
330
2
100
AcDbEntity
  8
L-ZISSEN
100
AcDbCircle
 10
308.8144387634873
 20
181.0000000000099
 30
0.0
 40
0.5
100
AcDbArc
 50
90.00000000000003
 51
163.6429597389639
  0
ARC
  5
2CC
330
2
100
AcDbEntity
  8
L-ZISSEN
100
AcDbCircle
 10
320.5797189304691
 20
219.0000000000009
 30
0.0
 40
0.5
100
AcDbArc
 50
270.0
 51
341.5650511770852
  0
ARC
  5
2CD
330
2
100
AcDbEntity
  8
L-ZISSEN
100
AcDbCircle
 10
320.5797189304691
 20
181.0000000000099
 30
0.0
 40
0.5
100
AcDbArc
 50
18.43494882291479
 51
90.00000000000003
  0
LINE
  5
2CE
330
2
100
AcDbEntity
  8
L-ZISSEN
100
AcDbLine
 10
313.9400985404973
 20
235.0000000000054
 30
0.0
 11
315.1594191850347
 21
229.4999999999999
 31
0.0
  0
LINE
  5
2CF
330
2
100
AcDbEntity
  8
L-ZISSEN
100
AcDbLine
 10
314.1158656099065
 20
165.0000000000054
 30
0.0
 11
315.3351862544437
 21
170.5000000000099
 31
0.0
  0
LINE
  5
2D0
330
2
100
AcDbEntity
  8
L-ZISSEN
100
AcDbLine
 10
321.4400985404973
 20
250.0000000000009
 30
0.0
 11
321.4400985404973
 21
229.5000000000009
 31
0.0
  0
LINE
  5
2D1
330
2
100
AcDbEntity
  8
L-ZISSEN
100
AcDbLine
 10
339.4400985404974
 20
178.5000000000054
 30
0.0
 11
325.4400985404974
 21
178.5000000000054
 31
0.0
  0
LINE
  5
2D2
330
2
100
AcDbEntity
  8
L-ZISSEN
100
AcDbLine
 10
339.4400985404974
 20
221.5000000000054
 30
0.0
 11
325.4400985404974
 21
221.5000000000054
 31
0.0
  0
LINE
  5
2D3
330
2
100
AcDbEntity
  8
L-ZISSEN
100
AcDbLine
 10
325.4400985404974
 20
214.7500000000054
 30
0.0
 11
339.4400985404974
 21
214.7500000000054
 31
0.0
  0
LINE
  5
2D4
330
2
100
AcDbEntity
  8
L-ZISSEN
100
AcDbLine
 10
325.4400985404974
 20
185.2500000000054
 30
0.0
 11
339.4400985404974
 21
185.2500000000054
 31
0.0
  0
LINE
  5
2D5
330
2
100
AcDbEntity
  8
L-ZISSEN
100
AcDbLine
 10
322.4400985404975
 20
223.0000000000009
 30
0.0
 11
342.4400985404973
 21
223.0000000000009
 31
0.0
  0
LINE
  5
2D6
330
2
100
AcDbEntity
  8
L-ZISSEN
100
AcDbLine
 10
322.4400985404975
 20
177.00000000001
 30
0.0
 11
342.4400985404973
 21
177.00000000001
 31
0.0
  0
LINE
  5
2D7
330
2
100
AcDbEntity
  8
L-TYUSIN
100
AcDbLine
 10
323.6900985404973
 20
200.0000000000009
 30
0.0
 11
341.1900985404973
 21
200.0000000000009
 31
0.0
  0
LINE
  5
2D8
330
2
100
AcDbEntity
  8
L-TYUSIN
100
AcDbLine
 10
332.4400985404968
 20
255.0000000000009
 30
0.0
 11
332.4400985404968
 21
238.0000000000009
 31
0.0
  0
LINE
  5
2D9
330
2
100
AcDbEntity
  8
L-ZISSEN
100
AcDbLine
 10
325.4400985404974
 20
221.5000000000054
 30
0.0
 11
325.4400985404974
 21
214.7500000000054
 31
0.0
  0
LINE
  5
2DA
330
2
100
AcDbEntity
  8
L-ZISSEN
100
AcDbLine
 10
323.6900985404973
 20
214.5000000000054
 30
0.0
 11
323.6900985404973
 21
185.5000000000054
 31
0.0
  0
LINE
  5
2DB
330
2
100
AcDbEntity
  8
L-ZISSEN
100
AcDbLine
 10
325.4400985404968
 20
185.2500000000054
 30
0.0
 11
325.4400985404968
 21
178.5000000000063
 31
0.0
  0
LINE
  5
2DC
330
2
100
AcDbEntity
  8
L-ZISSEN
100
AcDbLine
 10
325.4400985404974
 20
185.2500000000054
 30
0.0
 11
325.4400985404974
 21
178.5000000000054
 31
0.0
  0
LINE
  5
2DD
330
2
100
AcDbEntity
  8
L-ZISSEN
100
AcDbLine
 10
325.4400985404974
 20
185.2500000000054
 30
0.0
 11
323.6900985404973
 21
185.5000000000054
 31
0.0
  0
LINE
  5
2DE
330
2
100
AcDbEntity
  8
L-ZISSEN
100
AcDbLine
 10
325.4400985404968
 20
221.5000000000063
 30
0.0
 11
325.4400985404968
 21
214.7500000000054
 31
0.0
  0
LINE
  5
2DF
330
2
100
AcDbEntity
  8
L-ZISSEN
100
AcDbLine
 10
325.4400985404974
 20
221.5000000000054
 30
0.0
 11
325.4400985404974
 21
214.7500000000054
 31
0.0
  0
LINE
  5
2E0
330
2
100
AcDbEntity
  8
L-ZISSEN
100
AcDbLine
 10
323.6900985404973
 20
214.5000000000054
 30
0.0
 11
325.4400985404974
 21
214.7500000000054
 31
0.0
  0
LINE
  5
2E1
330
2
100
AcDbEntity
  8
L-ZISSEN
100
AcDbLine
 10
325.4400985404974
 20
185.2500000000054
 30
0.0
 11
325.4400985404974
 21
178.5000000000054
 31
0.0
  0
LINE
  5
2E2
330
2
100
AcDbEntity
  8
L-ZISSEN
100
AcDbLine
 10
326.6900985404973
 20
223.0000000000009
 30
0.0
 11
326.6900985404973
 21
221.5000000000063
 31
0.0
  0
LINE
  5
2E3
330
2
100
AcDbEntity
  8
L-ZISSEN
100
AcDbLine
 10
326.6900985404973
 20
177.00000000001
 30
0.0
 11
326.6900985404973
 21
178.5000000000063
 31
0.0
  0
LINE
  5
2E4
330
2
100
AcDbEntity
  8
L-ZISSEN
100
AcDbLine
 10
339.4400985404954
 20
221.5000000000009
 30
0.0
 11
339.4400985404954
 21
214.7500000000054
 31
0.0
  0
LINE
  5
2E5
330
2
100
AcDbEntity
  8
L-ZISSEN
100
AcDbLine
 10
343.9400985404952
 20
217.7500000000009
 30
0.0
 11
342.6400985404955
 21
221.5000000000009
 31
0.0
  0
LINE
  5
2E6
330
2
100
AcDbEntity
  8
L-ZISSEN
100
AcDbLine
 10
339.4400985404954
 20
221.5000000000009
 30
0.0
 11
342.9400985404972
 21
221.5000000000009
 31
0.0
  0
LINE
  5
2E7
330
2
100
AcDbEntity
  8
L-ZISSEN
100
AcDbLine
 10
343.9400985404952
 20
182.2500000000009
 30
0.0
 11
342.6400985404955
 21
178.5000000000009
 31
0.0
  0
LINE
  5
2E8
330
2
100
AcDbEntity
  8
L-ZISSEN
100
AcDbLine
 10
339.4400985404954
 20
178.5000000000009
 30
0.0
 11
342.9400985404942
 21
178.5000000000009
 31
0.0
  0
LINE
  5
2E9
330
2
100
AcDbEntity
  8
L-ZISSEN
100
AcDbLine
 10
341.1900985404973
 20
214.5000000000054
 30
0.0
 11
341.1900985404973
 21
185.5000000000054
 31
0.0
  0
LINE
  5
2EA
330
2
100
AcDbEntity
  8
L-ZISSEN
100
AcDbLine
 10
339.4400985404974
 20
185.2500000000054
 30
0.0
 11
341.1900985404973
 21
185.5000000000054
 31
0.0
  0
LINE
  5
2EB
330
2
100
AcDbEntity
  8
L-ZISSEN
100
AcDbLine
 10
339.440098540498
 20
185.2500000000054
 30
0.0
 11
339.440098540498
 21
178.50000000001
 31
0.0
  0
LINE
  5
2EC
330
2
100
AcDbEntity
  8
L-ZISSEN
100
AcDbLine
 10
339.4400985404974
 20
185.2500000000054
 30
0.0
 11
339.4400985404974
 21
178.5000000000054
 31
0.0
  0
LINE
  5
2ED
330
2
100
AcDbEntity
  8
L-ZISSEN
100
AcDbLine
 10
341.1900985404973
 20
214.5000000000054
 30
0.0
 11
339.4400985404974
 21
214.7500000000054
 31
0.0
  0
LINE
  5
2EE
330
2
100
AcDbEntity
  8
L-ZISSEN
100
AcDbLine
 10
339.440098540498
 20
221.50000000001
 30
0.0
 11
339.440098540498
 21
214.7500000000054
 31
0.0
  0
LINE
  5
2EF
330
2
100
AcDbEntity
  8
L-ZISSEN
100
AcDbLine
 10
339.4400985404974
 20
221.5000000000054
 30
0.0
 11
339.4400985404974
 21
214.7500000000054
 31
0.0
  0
LINE
  5
2F0
330
2
100
AcDbEntity
  8
L-ZISSEN
100
AcDbLine
 10
339.4400985404954
 20
185.2500000000054
 30
0.0
 11
339.4400985404954
 21
178.5000000000009
 31
0.0
  0
ARC
  5
2F1
330
2
100
AcDbEntity
  8
L-ZISSEN
100
AcDbCircle
 10
344.3004781505252
 20
219.0000000000009
 30
0.0
 40
0.5
100
AcDbArc
 50
198.4349488229148
 51
270.0
  0
LINE
  5
2F2
330
2
100
AcDbEntity
  8
L-ZISSEN
100
AcDbLine
 10
342.4400985404973
 20
223.0000000000009
 30
0.0
 11
343.8261365015002
 21
218.8418861169921
 31
0.0
  0
LINE
  5
2F3
330
2
100
AcDbEntity
  8
L-ZISSEN
100
AcDbLine
 10
342.4400985404973
 20
177.00000000001
 30
0.0
 11
343.8261365015002
 21
181.1581138830188
 31
0.0
  0
ARC
  5
2F4
330
2
100
AcDbEntity
  8
L-ZISSEN
100
AcDbCircle
 10
344.3004781505252
 20
181.0000000000099
 30
0.0
 40
0.5
100
AcDbArc
 50
90.00000000000003
 51
161.5650511770851
  0
LINE
  5
2F5
330
2
100
AcDbEntity
  8
L-ZISSEN
100
AcDbLine
 10
338.1900985404973
 20
223.0000000000009
 30
0.0
 11
338.1900985404973
 21
221.5000000000063
 31
0.0
  0
LINE
  5
2F6
330
2
100
AcDbEntity
  8
L-ZISSEN
100
AcDbLine
 10
338.1900985404973
 20
177.00000000001
 30
0.0
 11
338.1900985404973
 21
178.5000000000063
 31
0.0
  0
LINE
  5
2F7
330
2
100
AcDbEntity
  8
L-ZISSEN
100
AcDbLine
 10
343.4400985404973
 20
250.0000000000009
 30
0.0
 11
343.4400985404973
 21
229.5000000000009
 31
0.0
  0
LINE
  5
2F8
330
2
100
AcDbEntity
  8
L-ZISSEN
100
AcDbLine
 10
375.690098540496
 20
28.50000000000363
 30
0.0
 11
375.690098540496
 21
43.50000000000363
 31
0.0
  0
LINE
  5
2F9
330
2
100
AcDbEntity
  8
L-ZISSEN
100
AcDbLine
 10
376.9400985404964
 20
31.00000000000454
 30
0.0
 11
378.6721493480651
 21
34.00000000000455
 31
0.0
  0
LINE
  5
2FA
330
2
100
AcDbEntity
  8
L-ZISSEN
100
AcDbLine
 10
389.4400985404964
 20
31.00000000000454
 30
0.0
 11
387.7080477329278
 21
34.00000000000455
 31
0.0
  0
LINE
  5
2FB
330
2
100
AcDbEntity
  8
L-ZISSEN
100
AcDbLine
 10
361.6900985404957
 20
28.50000000000363
 30
0.0
 11
361.6900985404957
 21
43.50000000000363
 31
0.0
  0
LINE
  5
2FC
330
2
100
AcDbEntity
  8
L-TYUSIN
100
AcDbLine
 10
376.9400985404958
 20
-145.5000003877921
 30
0.0
 11
376.940098540496
 21
47.25595894575417
 31
0.0
  0
LINE
  5
2FD
330
2
100
AcDbEntity
  8
L-TYUSIN
100
AcDbLine
 10
486.9252161219765
 20
-144.5749934205814
 30
0.0
 11
486.9252161219765
 21
305.4250498064329
 31
0.0
  0
LINE
  5
2FE
330
2
100
AcDbEntity
  8
L-ZISSEN
100
AcDbLine
 10
375.940098540496
 20
27.50000000000364
 30
0.0
 11
391.9400985404958
 21
27.50000000000364
 31
0.0
  0
ARC
  5
2FF
330
2
100
AcDbEntity
  8
L-ZISSEN
100
AcDbCircle
 10
376.9400985404972
 20
-33.54728891851391
 30
0.0
 40
99.53938471878553
100
AcDbArc
 50
275.3320776948647
 51
283.9062370650588
  0
LINE
  5
300
330
2
100
AcDbEntity
  8
L-ZISSEN
100
AcDbLine
 10
373.9400985404965
 20
25.00000000000364
 30
0.0
 11
358.4400985404958
 21
25.00000000000364
 31
0.0
  0
LINE
  5
301
330
2
100
AcDbEntity
  8
L-ZISSEN
100
AcDbLine
 10
378.690098540496
 20
28.50000000000363
 30
0.0
 11
358.6900985404958
 21
28.50000000000363
 31
0.0
  0
LINE
  5
302
330
2
100
AcDbEntity
  8
L-ZISSEN
100
AcDbLine
 10
375.9400985404957
 20
25.00000000000364
 30
0.0
 11
360.940098540496
 21
25.00000000000364
 31
0.0
  0
LINE
  5
303
330
2
100
AcDbEntity
  8
L-ZISSEN
100
AcDbLine
 10
374.1900985404957
 20
14.00000000000363
 30
0.0
 11
357.2526442604768
 21
14.00000000000363
 31
0.0
  0
LINE
  5
304
330
2
100
AcDbEntity
  8
L-ZISSEN
100
AcDbLine
 10
368.8150985404959
 20
-40.99999999999636
 30
0.0
 11
365.6900985404959
 21
-42.87499999999636
 31
0.0
  0
LINE
  5
305
330
2
100
AcDbEntity
  8
L-ZISSEN
100
AcDbLine
 10
368.8150985404959
 20
-44.74999999999636
 30
0.0
 11
365.6900985404959
 21
-42.87499999999636
 31
0.0
  0
LINE
  5
306
330
2
100
AcDbEntity
  8
L-ZISSEN
100
AcDbLine
 10
386.1900985405014
 20
-132.655949540047
 30
0.0
 11
367.6900985404894
 21
-132.655949540047
 31
0.0
  0
LINE
  5
307
330
2
100
AcDbEntity
  8
L-ZISSEN
100
AcDbLine
 10
385.9400985404981
 20
-140.5000003877921
 30
0.0
 11
367.9400985404963
 21
-140.5000003877921
 31
0.0
  0
LINE
  5
308
330
2
100
AcDbEntity
  8
L-ZISSEN
100
AcDbLine
 10
376.9400985404959
 20
-62.24999999999636
 30
0.0
 11
363.8150985404936
 21
-60.37499999999636
 31
0.0
  0
LINE
  5
309
330
2
100
AcDbEntity
  8
L-ZISSEN
100
AcDbLine
 10
376.9400985404959
 20
-63.08117225722345
 30
0.0
 11
365.0256654056615
 21
-61.37911038081893
 31
0.0
  0
LINE
  5
30A
330
2
100
AcDbEntity
  8
L-ZISSEN
100
AcDbLine
 10
376.9400985404959
 20
-70.99999999999636
 30
0.0
 11
362.8775985404936
 21
-67.24999999999636
 31
0.0
  0
LINE
  5
30B
330
2
100
AcDbEntity
  8
L-ZISSEN
100
AcDbLine
 10
365.0256654056615
 20
-65.94202551104081
 30
0.0
 11
376.9400985404959
 21
-68.4363834854721
 31
0.0
  0
LINE
  5
30C
330
2
100
AcDbEntity
  8
L-ZISSEN
100
AcDbLine
 10
364.1275985404959
 20
-75.99999999999636
 30
0.0
 11
389.7525985404959
 21
-75.99999999999636
 31
0.0
  0
LINE
  5
30D
330
2
100
AcDbEntity
  8
L-ZISSEN
100
AcDbLine
 10
346.9400985404959
 20
-122.4036840439839
 30
0.0
 11
346.940098540496
 21
-35.99999999999727
 31
0.0
  0
LINE
  5
30E
330
2
100
AcDbEntity
  8
L-ZISSEN
100
AcDbLine
 10
351.6600985404957
 20
-46.33873891162784
 30
0.0
 11
351.6600985404957
 21
-114.3387389116269
 31
0.0
  0
LINE
  5
30F
330
2
100
AcDbEntity
  8
L-ZISSEN
100
AcDbLine
 10
360.0900985404964
 20
-46.33873891162784
 30
0.0
 11
360.0900985404964
 21
-114.3387389116278
 31
0.0
  0
ARC
  5
310
330
2
100
AcDbEntity
  8
L-ZISSEN
100
AcDbCircle
 10
376.9400985404972
 20
-33.54728891851391
 30
0.0
 40
99.53938471878538
100
AcDbArc
 50
256.0937629349475
 51
264.6679223051352
  0
LINE
  5
311
330
2
100
AcDbEntity
  8
L-ZISSEN
100
AcDbLine
 10
360.0900985404964
 20
-114.3387389116278
 30
0.0
 11
355.8750985404949
 21
-116.3387389116278
 31
0.0
  0
LINE
  5
312
330
2
100
AcDbEntity
  8
L-ZISSEN
100
AcDbLine
 10
355.8750985404949
 20
-116.3387389116278
 30
0.0
 11
351.6600985404957
 21
-114.3387389116269
 31
0.0
  0
ARC
  5
313
330
2
100
AcDbEntity
  8
L-ZISSEN
100
AcDbCircle
 10
354.9400985404968
 20
-122.4036840439839
 30
0.0
 40
8.000000000000113
100
AcDbArc
 50
180.0
 51
256.0937629349412
  0
LINE
  5
314
330
2
100
AcDbEntity
  8
L-ZISSEN
100
AcDbLine
 10
367.9400985404963
 20
-140.500000387793
 30
0.0
 11
367.9400985404963
 21
-132.655949540047
 31
0.0
  0
LINE
  5
315
330
2
100
AcDbEntity
  8
L-ZISSEN
100
AcDbLine
 10
351.6600985404957
 20
-46.33873891162784
 30
0.0
 11
360.0900985404964
 21
-46.33873891162784
 31
0.0
  0
LINE
  5
316
330
2
100
AcDbEntity
  8
L-ZISSEN
100
AcDbLine
 10
355.9400985404931
 20
-11.90689711856521
 30
0.0
 11
355.9400985404931
 21
11.99999999999909
 31
0.0
  0
LINE
  5
317
330
2
100
AcDbEntity
  8
L-ZISSEN
100
AcDbLine
 10
350.9400985404957
 20
-35.99999999999636
 30
0.0
 11
350.9400985404957
 21
-12.4999999999909
 31
0.0
  0
LINE
  5
318
330
2
100
AcDbEntity
  8
L-ZISSEN
100
AcDbLine
 10
347.1158656099049
 20
-35.99999999999636
 30
0.0
 11
347.1158656099049
 21
-12.4999999999909
 31
0.0
  0
LINE
  5
319
330
2
100
AcDbEntity
  8
L-ZISSEN
100
AcDbLine
 10
358.6900985404958
 20
25.00000000000364
 30
0.0
 11
358.6900985404958
 21
28.50000000000363
 31
0.0
  0
LINE
  5
31A
330
2
100
AcDbEntity
  8
L-ZISSEN
100
AcDbLine
 10
358.4400985404958
 20
25.00000000000364
 30
0.0
 11
358.4400985404958
 21
20.00000000000454
 31
0.0
  0
LINE
  5
31B
330
2
100
AcDbEntity
  8
L-ZISSEN
100
AcDbLine
 10
363.4939461177892
 20
28.50000000000363
 30
0.0
 11
363.4939461177892
 21
25.00000000000364
 31
0.0
  0
LINE
  5
31C
330
2
100
AcDbEntity
  8
L-ZISSEN
100
AcDbLine
 10
362.8775985404936
 20
-35.99999999999636
 30
0.0
 11
362.8775985404936
 21
-59.78927536712944
 31
0.0
  0
LINE
  5
31D
330
2
100
AcDbEntity
  8
L-ZISSEN
100
AcDbLine
 10
363.8150985404936
 20
-35.99999999999636
 30
0.0
 11
363.8150985404936
 21
-60.37499999999636
 31
0.0
  0
LINE
  5
31E
330
2
100
AcDbEntity
  8
L-ZISSEN
100
AcDbLine
 10
362.8775985404936
 20
-35.99999999999636
 30
0.0
 11
362.8775985404936
 21
-74.74999999999636
 31
0.0
  0
LINE
  5
31F
330
2
100
AcDbEntity
  8
L-ZISSEN
100
AcDbLine
 10
367.5650985404959
 20
-68.49999999999545
 30
0.0
 11
367.5650985404936
 21
-75.99999999999636
 31
0.0
  0
LINE
  5
320
330
2
100
AcDbEntity
  8
L-ZISSEN
100
AcDbLine
 10
365.0256654056615
 20
-60.54793812359185
 30
0.0
 11
363.8150985404936
 21
-60.37499999999636
 31
0.0
  0
LINE
  5
321
330
2
100
AcDbEntity
  8
L-ZISSEN
100
AcDbLine
 10
365.0256654056615
 20
-61.37911038081893
 30
0.0
 11
363.8150985404936
 21
-60.37499999999636
 31
0.0
  0
LINE
  5
322
330
2
100
AcDbEntity
  8
L-ZISSEN
100
AcDbLine
 10
362.8775985404936
 20
-67.24999999999636
 30
0.0
 11
365.0256654056615
 21
-65.94202551104081
 31
0.0
  0
LINE
  5
323
330
2
100
AcDbEntity
  8
L-ZISSEN
100
AcDbLine
 10
365.0256654056615
 20
-61.37911038081893
 30
0.0
 11
365.0256654056615
 21
-65.94202551104081
 31
0.0
  0
ARC
  5
324
330
2
100
AcDbEntity
  8
L-ZISSEN
100
AcDbCircle
 10
364.1275985404959
 20
-74.74999999999636
 30
0.0
 40
1.250000000000568
100
AcDbArc
 50
180.0
 51
270.0
  0
LINE
  5
325
330
2
100
AcDbEntity
  8
L-ZISSEN
100
AcDbLine
 10
360.1900985404958
 20
14.00000000000363
 30
0.0
 11
360.1900985404958
 21
-12.4999999999909
 31
0.0
  0
LINE
  5
326
330
2
100
AcDbEntity
  8
L-ZISSEN
100
AcDbLine
 10
357.2526442604768
 20
14.00000000000363
 30
0.0
 11
357.2526442604768
 21
-12.4999999999909
 31
0.0
  0
LINE
  5
327
330
2
100
AcDbEntity
  8
L-ZISSEN
100
AcDbLine
 10
385.9400985404981
 20
-140.500000387793
 30
0.0
 11
385.9400985404981
 21
-132.655949540047
 31
0.0
  0
LINE
  5
328
330
2
100
AcDbEntity
  8
L-ZISSEN
100
AcDbLine
 10
380.6900985404981
 20
-49.74999999999545
 30
0.0
 11
376.9400985404981
 21
-55.99999999999545
 31
0.0
  0
LINE
  5
329
330
2
100
AcDbEntity
  8
L-ZISSEN
100
AcDbLine
 10
388.8545316753302
 20
-65.94202551104081
 30
0.0
 11
376.9400985404959
 21
-68.4363834854721
 31
0.0
  0
LINE
  5
32A
330
2
100
AcDbEntity
  8
L-ZISSEN
100
AcDbLine
 10
376.9400985404959
 20
-63.08117225722345
 30
0.0
 11
388.8545316753302
 21
-61.37911038081893
 31
0.0
  0
LINE
  5
32B
330
2
100
AcDbEntity
  8
L-ZISSEN
100
AcDbLine
 10
376.9400985404959
 20
-62.24999999999636
 30
0.0
 11
390.0650985404936
 21
-60.37499999999636
 31
0.0
  0
LINE
  5
32C
330
2
100
AcDbEntity
  8
L-ZISSEN
100
AcDbLine
 10
378.1900985404981
 20
-49.74999999999545
 30
0.0
 11
380.6900985404981
 21
-49.74999999999545
 31
0.0
  0
LINE
  5
32D
330
2
100
AcDbEntity
  8
L-ZISSEN
100
AcDbLine
 10
376.9400985404959
 20
-70.99999999999636
 30
0.0
 11
391.0025985404936
 21
-67.24999999999636
 31
0.0
  0
LINE
  5
32E
330
2
100
AcDbEntity
  8
L-ZISSEN
100
AcDbLine
 10
373.8862509632027
 20
28.50000000000363
 30
0.0
 11
373.8862509632027
 21
25.00000000000364
 31
0.0
  0
LINE
  5
32F
330
2
100
AcDbEntity
  8
L-ZISSEN
100
AcDbLine
 10
370.5321366068873
 20
20.00000000000363
 30
0.0
 11
370.5321366068873
 21
14.00000000000363
 31
0.0
  0
LINE
  5
330
330
2
100
AcDbEntity
  8
L-ZISSEN
100
AcDbLine
 10
374.1900985404957
 20
20.00000000000363
 30
0.0
 11
374.1900985404957
 21
14.00000000000363
 31
0.0
  0
LINE
  5
331
330
2
100
AcDbEntity
  8
L-ZISSEN
100
AcDbLine
 10
375.940098540496
 20
27.50000000000364
 30
0.0
 11
375.9400985404957
 21
20.00000000000363
 31
0.0
  0
LINE
  5
332
330
2
100
AcDbEntity
  8
L-ZISSEN
100
AcDbLine
 10
378.690098540496
 20
27.50000000000364
 30
0.0
 11
378.690098540496
 21
28.50000000000363
 31
0.0
  0
LINE
  5
333
330
2
100
AcDbEntity
  8
L-ZISSEN
100
AcDbLine
 10
376.9400985404964
 20
28.50000000000363
 30
0.0
 11
376.9400985404964
 21
31.00000000000454
 31
0.0
  0
LINE
  5
334
330
2
100
AcDbEntity
  8
L-ZISSEN
100
AcDbLine
 10
368.6900985404958
 20
28.50000000000363
 30
0.0
 11
375.690098540496
 21
28.50000000000363
 31
0.0
  0
LINE
  5
335
330
2
100
AcDbEntity
  8
L-ZISSEN
100
AcDbLine
 10
373.1900985404982
 20
-49.74999999999545
 30
0.0
 11
376.9400985404981
 21
-55.99999999999545
 31
0.0
  0
LINE
  5
336
330
2
100
AcDbEntity
  8
L-TYUSIN
100
AcDbLine
 10
374.7533049779408
 20
-65.99645470116957
 30
0.0
 11
378.9480849528526
 21
-65.99645470116957
 31
0.0
  0
CIRCLE
  5
337
330
2
100
AcDbEntity
  8
L-ZISSEN
100
AcDbCircle
 10
376.9400985404959
 20
-65.99645470116957
 30
0.0
 40
1.25
  0
ARC
  5
338
330
2
100
AcDbEntity
  8
L-ZISSEN
100
AcDbCircle
 10
376.9400985404959
 20
-72.24999999999636
 30
0.0
 40
1.250000000000568
100
AcDbArc
 50
180.0
 51
0.0
  0
LINE
  5
339
330
2
100
AcDbEntity
  8
L-ZISSEN
100
AcDbLine
 10
375.6900985404936
 20
-70.66666666666242
 30
0.0
 11
375.6900985404959
 21
-72.24999999999636
 31
0.0
  0
LINE
  5
33A
330
2
100
AcDbEntity
  8
L-ZISSEN
100
AcDbLine
 10
376.9400985404959
 20
-62.24999999999636
 30
0.0
 11
376.9400985404959
 21
-63.08117225722345
 31
0.0
  0
LINE
  5
33B
330
2
100
AcDbEntity
  8
L-ZISSEN
100
AcDbLine
 10
376.9400985404959
 20
-70.99999999999636
 30
0.0
 11
376.9400985404959
 21
-68.4363834854721
 31
0.0
  0
LINE
  5
33C
330
2
100
AcDbEntity
  8
L-ZISSEN
100
AcDbLine
 10
378.1900985404959
 20
-70.66666666666242
 30
0.0
 11
378.1900985404959
 21
-72.24999999999636
 31
0.0
  0
LINE
  5
33D
330
2
100
AcDbEntity
  8
L-ZISSEN
100
AcDbLine
 10
378.1900985404981
 20
-39.74999999999545
 30
0.0
 11
375.6900985404981
 21
-39.74999999999545
 31
0.0
  0
LINE
  5
33E
330
2
100
AcDbEntity
  8
L-ZISSEN
100
AcDbLine
 10
378.1900985404981
 20
-39.74999999999454
 30
0.0
 11
375.6900985404981
 21
-39.74999999999454
 31
0.0
  0
LINE
  5
33F
330
2
100
AcDbEntity
  8
L-ZISSEN
100
AcDbLine
 10
375.6900985404981
 20
-39.74999999999545
 30
0.0
 11
375.6900985404981
 21
-49.74999999999545
 31
0.0
  0
LINE
  5
340
330
2
100
AcDbEntity
  8
L-ZISSEN
100
AcDbLine
 10
375.6900985404981
 20
-39.74999999999545
 30
0.0
 11
375.6900985404981
 21
-49.74999999999545
 31
0.0
  0
LINE
  5
341
330
2
100
AcDbEntity
  8
L-ZISSEN
100
AcDbLine
 10
375.6900985404981
 20
-49.74999999999545
 30
0.0
 11
373.1900985404982
 21
-49.74999999999545
 31
0.0
  0
LINE
  5
342
330
2
100
AcDbEntity
  8
L-ZISSEN
100
AcDbLine
 10
373.8150985404959
 20
-42.24999999999636
 30
0.0
 11
373.8150985404959
 21
-43.49999999999636
 31
0.0
  0
LINE
  5
343
330
2
100
AcDbEntity
  8
L-ZISSEN
100
AcDbLine
 10
378.1900985404981
 20
-39.74999999999545
 30
0.0
 11
378.1900985404981
 21
-49.74999999999545
 31
0.0
  0
LINE
  5
344
330
2
100
AcDbEntity
  8
L-ZISSEN
100
AcDbLine
 10
378.1900985404981
 20
-39.74999999999545
 30
0.0
 11
378.1900985404981
 21
-49.74999999999545
 31
0.0
  0
LINE
  5
345
330
2
100
AcDbEntity
  8
L-ZISSEN
100
AcDbLine
 10
368.8150985404959
 20
-42.24999999999636
 30
0.0
 11
368.8150985404959
 21
-40.99999999999636
 31
0.0
  0
LINE
  5
346
330
2
100
AcDbEntity
  8
L-ZISSEN
100
AcDbLine
 10
368.8150985404959
 20
-43.49999999999636
 30
0.0
 11
368.8150985404959
 21
-44.74999999999636
 31
0.0
  0
LINE
  5
347
330
2
100
AcDbEntity
  8
L-ZISSEN
100
AcDbLine
 10
368.8150985404959
 20
-42.24999999999636
 30
0.0
 11
368.8150985404959
 21
-40.99999999999636
 31
0.0
  0
LINE
  5
348
330
2
100
AcDbEntity
  8
L-ZISSEN
100
AcDbLine
 10
373.8150985404959
 20
-43.49999999999636
 30
0.0
 11
368.8150985404959
 21
-43.49999999999636
 31
0.0
  0
LINE
  5
349
330
2
100
AcDbEntity
  8
L-ZISSEN
100
AcDbLine
 10
373.8150985404959
 20
-43.49999999999636
 30
0.0
 11
368.8150985404959
 21
-43.49999999999636
 31
0.0
  0
LINE
  5
34A
330
2
100
AcDbEntity
  8
L-ZISSEN
100
AcDbLine
 10
373.8150985404959
 20
-42.24999999999636
 30
0.0
 11
368.8150985404959
 21
-42.24999999999636
 31
0.0
  0
LINE
  5
34B
330
2
100
AcDbEntity
  8
L-ZISSEN
100
AcDbLine
 10
373.8150985404959
 20
-42.24999999999636
 30
0.0
 11
368.8150985404959
 21
-42.24999999999636
 31
0.0
  0
LINE
  5
34C
330
2
100
AcDbEntity
  8
L-ZISSEN
100
AcDbLine
 10
373.8150985404959
 20
-42.24999999999636
 30
0.0
 11
368.8150985404959
 21
-42.24999999999636
 31
0.0
  0
LINE
  5
34D
330
2
100
AcDbEntity
  8
L-ZISSEN
100
AcDbLine
 10
373.8150985404959
 20
-42.24999999999636
 30
0.0
 11
368.8150985404959
 21
-42.24999999999636
 31
0.0
  0
LINE
  5
34E
330
2
100
AcDbEntity
  8
L-ZISSEN
100
AcDbLine
 10
389.4400985404962
 20
31.00000000000363
 30
0.0
 11
389.4400985404964
 21
27.50000000000364
 31
0.0
  0
LINE
  5
34F
330
2
100
AcDbEntity
  8
L-ZISSEN
100
AcDbLine
 10
391.0025985404936
 20
-35.99999999999636
 30
0.0
 11
391.0025985404936
 21
-59.78927536712944
 31
0.0
  0
LINE
  5
350
330
2
100
AcDbEntity
  8
L-ZISSEN
100
AcDbLine
 10
391.0025985404935
 20
-35.99999999999636
 30
0.0
 11
391.0025985404936
 21
-74.74999999999636
 31
0.0
  0
LINE
  5
351
330
2
100
AcDbEntity
  8
L-ZISSEN
100
AcDbLine
 10
390.0650985404936
 20
-35.99999999999636
 30
0.0
 11
390.0650985404936
 21
-60.37499999999636
 31
0.0
  0
LINE
  5
352
330
2
100
AcDbEntity
  8
L-ZISSEN
100
AcDbLine
 10
388.8545316753302
 20
-61.37911038081893
 30
0.0
 11
390.0650985404936
 21
-60.37499999999636
 31
0.0
  0
LINE
  5
353
330
2
100
AcDbEntity
  8
L-ZISSEN
100
AcDbLine
 10
388.8545316753302
 20
-60.54793812359185
 30
0.0
 11
390.0650985404936
 21
-60.37499999999636
 31
0.0
  0
LINE
  5
354
330
2
100
AcDbEntity
  8
L-ZISSEN
100
AcDbLine
 10
388.8545316753302
 20
-61.37911038081893
 30
0.0
 11
388.8545316753302
 21
-65.94202551104081
 31
0.0
  0
LINE
  5
355
330
2
100
AcDbEntity
  8
L-ZISSEN
100
AcDbLine
 10
386.3150985404936
 20
-68.49999999999636
 30
0.0
 11
386.3150985404936
 21
-75.99999999999636
 31
0.0
  0
LINE
  5
356
330
2
100
AcDbEntity
  8
L-ZISSEN
100
AcDbLine
 10
380.0650985404958
 20
-43.49999999999545
 30
0.0
 11
385.0650985404959
 21
-43.49999999999545
 31
0.0
  0
LINE
  5
357
330
2
100
AcDbEntity
  8
L-ZISSEN
100
AcDbLine
 10
380.0650985404958
 20
-43.49999999999545
 30
0.0
 11
385.0650985404959
 21
-43.49999999999545
 31
0.0
  0
LINE
  5
358
330
2
100
AcDbEntity
  8
L-ZISSEN
100
AcDbLine
 10
380.0650985404958
 20
-42.24999999999545
 30
0.0
 11
385.0650985404959
 21
-42.24999999999545
 31
0.0
  0
LINE
  5
359
330
2
100
AcDbEntity
  8
L-ZISSEN
100
AcDbLine
 10
380.0650985404958
 20
-42.24999999999545
 30
0.0
 11
385.0650985404959
 21
-42.24999999999545
 31
0.0
  0
LINE
  5
35A
330
2
100
AcDbEntity
  8
L-ZISSEN
100
AcDbLine
 10
380.0650985404958
 20
-42.24999999999636
 30
0.0
 11
385.0650985404959
 21
-42.24999999999636
 31
0.0
  0
LINE
  5
35B
330
2
100
AcDbEntity
  8
L-ZISSEN
100
AcDbLine
 10
380.0650985404958
 20
-42.24999999999636
 30
0.0
 11
385.0650985404959
 21
-42.24999999999636
 31
0.0
  0
LINE
  5
35C
330
2
100
AcDbEntity
  8
L-ZISSEN
100
AcDbLine
 10
380.0650985404958
 20
-42.24999999999545
 30
0.0
 11
380.0650985404958
 21
-43.49999999999545
 31
0.0
  0
LINE
  5
35D
330
2
100
AcDbEntity
  8
L-ZISSEN
100
AcDbLine
 10
385.0650985404959
 20
-40.99999999999545
 30
0.0
 11
388.1900985404959
 21
-42.87499999999545
 31
0.0
  0
LINE
  5
35E
330
2
100
AcDbEntity
  8
L-ZISSEN
100
AcDbLine
 10
385.0650985404959
 20
-42.24999999999545
 30
0.0
 11
385.0650985404959
 21
-40.99999999999545
 31
0.0
  0
LINE
  5
35F
330
2
100
AcDbEntity
  8
L-ZISSEN
100
AcDbLine
 10
385.0650985404959
 20
-43.49999999999545
 30
0.0
 11
385.0650985404959
 21
-44.74999999999545
 31
0.0
  0
LINE
  5
360
330
2
100
AcDbEntity
  8
L-ZISSEN
100
AcDbLine
 10
385.0650985404959
 20
-44.74999999999545
 30
0.0
 11
388.1900985404959
 21
-42.87499999999545
 31
0.0
  0
LINE
  5
361
330
2
100
AcDbEntity
  8
L-ZISSEN
100
AcDbLine
 10
385.0650985404959
 20
-42.24999999999636
 30
0.0
 11
385.0650985404959
 21
-40.99999999999636
 31
0.0
  0
LINE
  5
362
330
2
100
AcDbEntity
  8
L-ZISSEN
100
AcDbLine
 10
391.0025985404936
 20
-67.24999999999636
 30
0.0
 11
388.8545316753302
 21
-65.94202551104081
 31
0.0
  0
ARC
  5
363
330
2
100
AcDbEntity
  8
L-ZISSEN
100
AcDbCircle
 10
389.7525985404959
 20
-74.74999999999636
 30
0.0
 40
1.249999999999715
100
AcDbArc
 50
270.0
 51
0.0
  0
LINE
  5
364
330
2
100
AcDbEntity
  8
L-ZISSEN
100
AcDbLine
 10
406.9400985404936
 20
-122.4036840439857
 30
0.0
 11
406.9400985404959
 21
-35.99999999999636
 31
0.0
  0
LINE
  5
365
330
2
100
AcDbEntity
  8
L-ZISSEN
100
AcDbLine
 10
393.7900985404953
 20
-46.33873891162784
 30
0.0
 11
393.7900985404953
 21
-114.3387389116278
 31
0.0
  0
LINE
  5
366
330
2
100
AcDbEntity
  8
L-ZISSEN
100
AcDbLine
 10
402.220098540496
 20
-46.33873891162784
 30
0.0
 11
402.220098540496
 21
-114.3387389116269
 31
0.0
  0
ARC
  5
367
330
2
100
AcDbEntity
  8
L-ZISSEN
100
AcDbCircle
 10
398.9400985404954
 20
-122.4036840439857
 30
0.0
 40
8.000000000000113
100
AcDbArc
 50
283.9062370652483
 51
0.0
  0
LINE
  5
368
330
2
100
AcDbEntity
  8
L-ZISSEN
100
AcDbLine
 10
398.0050985404968
 20
-116.3387389116278
 30
0.0
 11
402.220098540496
 21
-114.3387389116269
 31
0.0
  0
LINE
  5
369
330
2
100
AcDbEntity
  8
L-ZISSEN
100
AcDbLine
 10
393.7900985404953
 20
-114.3387389116278
 30
0.0
 11
398.0050985404968
 21
-116.3387389116278
 31
0.0
  0
LINE
  5
36A
330
2
100
AcDbEntity
  8
L-ZISSEN
100
AcDbLine
 10
409.4184467076037
 20
17.9913392668468
 30
0.0
 11
396.6275528205145
 21
17.99133926684771
 31
0.0
  0
LINE
  5
36B
330
2
100
AcDbEntity
  8
L-ZISSEN
100
AcDbLine
 10
391.9400985404958
 20
27.50000000000364
 30
0.0
 11
391.9400985404955
 21
20.00000000000363
 31
0.0
  0
LINE
  5
36C
330
2
100
AcDbEntity
  8
L-ZISSEN
100
AcDbLine
 10
402.940098540496
 20
-35.99999999999636
 30
0.0
 11
402.940098540496
 21
-12.4999999999909
 31
0.0
  0
LINE
  5
36D
330
2
100
AcDbEntity
  8
L-ZISSEN
100
AcDbLine
 10
402.220098540496
 20
-46.33873891162784
 30
0.0
 11
393.7900985404953
 21
-46.33873891162784
 31
0.0
  0
LINE
  5
36E
330
2
100
AcDbEntity
  8
L-ZISSEN
100
AcDbLine
 10
393.6900985404958
 20
20.00000000000363
 30
0.0
 11
393.6900985404958
 21
-12.4999999999909
 31
0.0
  0
LINE
  5
36F
330
2
100
AcDbEntity
  8
L-ZISSEN
100
AcDbLine
 10
396.6275528205148
 20
-12.4999999999909
 30
0.0
 11
396.6275528205148
 21
20.00000000000363
 31
0.0
  0
LINE
  5
370
330
2
100
AcDbEntity
  8
L-ZISSEN
100
AcDbLine
 10
411.9400985404958
 20
-23.4999999999909
 30
0.0
 11
411.9400985404958
 21
-19.9999999999909
 31
0.0
  0
LINE
  5
371
330
2
100
AcDbEntity
  8
L-ZISSEN
100
AcDbLine
 10
414.4400985404957
 20
-23.4999999999909
 30
0.0
 11
411.9400985404958
 21
-23.4999999999909
 31
0.0
  0
LINE
  5
372
330
2
100
AcDbEntity
  8
L-ZISSEN
100
AcDbLine
 10
414.4400985404957
 20
-35.99999999999636
 30
0.0
 11
414.4400985404957
 21
-23.4999999999909
 31
0.0
  0
LINE
  5
373
330
2
100
AcDbEntity
  8
L-ZISSEN
100
AcDbLine
 10
411.9400985404958
 20
-19.9999999999909
 30
0.0
 11
414.4400985404957
 21
-19.9999999999909
 31
0.0
  0
LINE
  5
374
330
2
100
AcDbEntity
  8
L-ZISSEN
100
AcDbLine
 10
414.4400985404957
 20
-19.9999999999909
 30
0.0
 11
414.440098540496
 21
20.00000000000363
 31
0.0
  0
LINE
  5
375
330
2
100
AcDbEntity
  8
L-ZISSEN
100
AcDbLine
 10
410.9400985404962
 20
14.94803560106629
 30
0.0
 11
409.4184467076037
 21
17.9913392668468
 31
0.0
  0
LINE
  5
376
330
2
100
AcDbEntity
  8
L-ZISSEN
100
AcDbLine
 10
406.7643314710866
 20
-35.99999999999636
 30
0.0
 11
406.7643314710866
 21
-12.4999999999909
 31
0.0
  0
LINE
  5
377
330
2
100
AcDbEntity
  8
L-ZISSEN
100
AcDbLine
 10
410.9400985404962
 20
15.00000000000363
 30
0.0
 11
410.940098540496
 21
-12.4999999999909
 31
0.0
  0
LINE
  5
378
330
2
100
AcDbEntity
  8
L-ZISSEN
100
AcDbLine
 10
409.4184467076037
 20
17.9913392668468
 30
0.0
 11
409.4184467076037
 21
-12.4999999999909
 31
0.0
  0
LINE
  5
379
330
2
100
AcDbEntity
  8
L-ZISSEN
100
AcDbLine
 10
414.440098540496
 20
15.00000000000363
 30
0.0
 11
410.9400985404962
 21
15.00000000000363
 31
0.0
  0
LINE
  5
37A
330
2
100
AcDbEntity
  8
L-ZISSEN
100
AcDbLine
 10
512.6693490604955
 20
-12.91801005474098
 30
0.0
 11
514.3852100624721
 21
-92.1636033856812
 31
0.0
  0
ARC
  5
37B
330
2
100
AcDbEntity
  8
L-ZISSEN
100
AcDbCircle
 10
524.3818704707173
 20
-91.90518380006507
 30
0.0
 40
10.0
100
AcDbArc
 50
181.0000000000278
 51
265.1315559371179
  0
LINE
  5
37C
330
2
100
AcDbEntity
  8
L-ZISSEN
100
AcDbLine
 10
515.4252161219772
 20
-2.918010054742808
 30
0.0
 11
523.4252161219772
 21
-2.918010054742808
 31
0.0
  0
TEXT
  5
37D
330
2
100
AcDbEntity
  8
L-ZISSEN
100
AcDbText
 10
513.9252161219767
 20
10.83097044555324
 30
0.0
 40
4.5
  1
P.P
100
AcDbText
  0
LINE
  5
37E
330
2
100
AcDbEntity
  8
L-ZISSEN
100
AcDbLine
 10
515.4252161219772
 20
-2.918010054742808
 30
0.0
 11
515.4252161219772
 21
-12.91801005474098
 31
0.0
  0
LINE
  5
37F
330
2
100
AcDbEntity
  8
L-ZISSEN
100
AcDbLine
 10
511.9692315217496
 20
-12.91801005474098
 30
0.0
 11
515.4252161219772
 21
-12.91801005474098
 31
0.0
  0
LINE
  5
380
330
2
100
AcDbEntity
  8
L-ZISSEN
100
AcDbLine
 10
511.7218451869425
 20
0.5809704455532483
 30
0.0
 11
511.9692315217496
 21
-12.91801005474098
 31
0.0
  0
LINE
  5
381
330
2
100
AcDbEntity
  8
L-ZISSEN
100
AcDbLine
 10
526.9252161219767
 20
13.08097044555324
 30
0.0
 11
524.9252161219767
 21
13.08097044555324
 31
0.0
  0
LINE
  5
382
330
2
100
AcDbEntity
  8
L-ZISSEN
100
AcDbLine
 10
523.4252161219772
 20
-2.918010054742808
 30
0.0
 11
523.4252161219772
 21
-12.91801005474098
 31
0.0
  0
CIRCLE
  5
383
330
2
100
AcDbEntity
  8
L-ZISSEN
100
AcDbCircle
 10
383.9400985404953
 20
182.0000000000009
 30
0.0
 40
8.0
  0
LINE
  5
384
330
2
100
AcDbEntity
  8
L-ZISSEN
100
AcDbLine
 10
360.1900985404954
 20
231.0000000000008
 30
0.0
 11
393.6900985404954
 21
231.0000000000008
 31
0.0
  0
LINE
  5
385
330
2
100
AcDbEntity
  8
L-ZISSEN
100
AcDbLine
 10
350.9400985404954
 20
235.0000000000008
 30
0.0
 11
402.9400985404954
 21
235.0000000000008
 31
0.0
  0
LINE
  5
386
330
2
100
AcDbEntity
  8
L-ZISSEN
100
AcDbLine
 10
360.1900985404954
 20
169.0000000000009
 30
0.0
 11
393.6900985404954
 21
169.0000000000009
 31
0.0
  0
LINE
  5
387
330
2
100
AcDbEntity
  8
L-ZISSEN
100
AcDbLine
 10
350.7643314710858
 20
165.0000000000009
 30
0.0
 11
403.1158656099046
 21
165.0000000000009
 31
0.0
  0
LINE
  5
388
330
2
100
AcDbEntity
  8
L-ZISSEN
100
AcDbLine
 10
375.690098540496
 20
43.50000000000363
 30
0.0
 11
361.6900985404957
 21
43.50000000000363
 31
0.0
  0
CIRCLE
  5
389
330
2
100
AcDbEntity
  8
L-ZISSEN
100
AcDbCircle
 10
368.6900985404953
 20
200.0000000000009
 30
0.0
 40
7.0
  0
CIRCLE
  5
38A
330
2
100
AcDbEntity
  8
L-ZISSEN
100
AcDbCircle
 10
368.6900985404953
 20
200.0000000000009
 30
0.0
 40
10.25
  0
LINE
  5
38B
330
2
100
AcDbEntity
  8
L-ZISSEN
100
AcDbLine
 10
356.5455210181836
 20
218.8591889527078
 30
0.0
 11
359.4006872277715
 21
227.6584144519947
 31
0.0
  0
LINE
  5
38C
330
2
100
AcDbEntity
  8
L-ZISSEN
100
AcDbLine
 10
356.5455210181836
 20
181.140811047303
 30
0.0
 11
359.4006872277715
 21
172.3415855480161
 31
0.0
  0
LINE
  5
38D
330
2
100
AcDbEntity
  8
L-ZISSEN
100
AcDbLine
 10
350.9400985404954
 20
235.0000000000008
 30
0.0
 11
349.7207778959593
 21
229.5000000000009
 31
0.0
  0
ARC
  5
38E
330
2
100
AcDbEntity
  8
L-ZISSEN
100
AcDbCircle
 10
353.4400985404954
 20
230.0000000000009
 30
0.0
 40
2.0
100
AcDbArc
 50
345.5224878140701
 51
194.4775121859298
  0
LINE
  5
38F
330
2
100
AcDbEntity
  8
L-ZISSEN
100
AcDbLine
 10
350.7643314710858
 20
165.0000000000009
 30
0.0
 11
349.5450108265478
 21
170.5000000000099
 31
0.0
  0
ARC
  5
390
330
2
100
AcDbEntity
  8
L-ZISSEN
100
AcDbCircle
 10
353.4400985404953
 20
170.0000000000009
 30
0.0
 40
2.0
100
AcDbArc
 50
165.5224878138007
 51
14.47751218619924
  0
ARC
  5
391
330
2
100
AcDbEntity
  8
L-ZISSEN
100
AcDbCircle
 10
356.0657583175071
 20
219.0000000000009
 30
0.0
 40
0.5
100
AcDbArc
 50
270.0
 51
343.6429597389639
  0
ARC
  5
392
330
2
100
AcDbEntity
  8
L-ZISSEN
100
AcDbCircle
 10
356.0657583175071
 20
181.0000000000099
 30
0.0
 40
0.5
100
AcDbArc
 50
16.35704026103607
 51
90.00000000000003
  0
LINE
  5
393
330
2
100
AcDbEntity
  8
L-ZISSEN
100
AcDbLine
 10
360.1900985404954
 20
231.0000000000008
 30
0.0
 11
357.2526442604762
 21
217.7500000000009
 31
0.0
  0
LINE
  5
394
330
2
100
AcDbEntity
  8
L-ZISSEN
100
AcDbLine
 10
360.1900985404954
 20
169.0000000000009
 30
0.0
 11
357.2526442604762
 21
182.2500000000009
 31
0.0
  0
ARC
  5
395
330
2
100
AcDbEntity
  8
L-ZISSEN
100
AcDbCircle
 10
357.9400985404973
 20
228.0000000000009
 30
0.0
 40
1.5
100
AcDbArc
 50
346.8369066796855
 51
90.0
  0
ARC
  5
396
330
2
100
AcDbEntity
  8
L-ZISSEN
100
AcDbCircle
 10
357.9400985404973
 20
172.00000000001
 30
0.0
 40
1.5
100
AcDbArc
 50
270.0
 51
13.16309332031452
  0
LINE
  5
397
330
2
100
AcDbEntity
  8
L-ZISSEN
100
AcDbLine
 10
378.6721493480653
 20
34.00000000000545
 30
0.0
 11
387.7080477329274
 21
34.00000000000455
 31
0.0
  0
CIRCLE
  5
398
330
2
100
AcDbEntity
  8
L-ZISSEN
100
AcDbCircle
 10
383.9400985404953
 20
217.0000000000009
 30
0.0
 40
5.0
  0
LINE
  5
399
330
2
100
AcDbEntity
  8
L-ZISSEN
100
AcDbLine
 10
374.1900985404954
 20
231.0000000000008
 30
0.0
 11
370.5321366068865
 21
214.5000000000009
 31
0.0
  0
LINE
  5
39A
330
2
100
AcDbEntity
  8
L-ZISSEN
100
AcDbLine
 10
374.1900985404954
 20
169.0000000000009
 30
0.0
 11
370.5321366068865
 21
185.5000000000009
 31
0.0
  0
LINE
  5
39B
330
2
100
AcDbEntity
  8
L-TYUSIN
100
AcDbLine
 10
376.9400985404954
 20
160.0000000000009
 30
0.0
 11
376.9400985404954
 21
240.0000000000009
 31
0.0
  0
CIRCLE
  5
39C
330
2
100
AcDbEntity
  8
L-ZISSEN
100
AcDbCircle
 10
383.9400985404953
 20
217.0000000000009
 30
0.0
 40
3.267949192431018
  0
LINE
  5
39D
330
2
100
AcDbEntity
  8
L-ZISSEN
100
AcDbLine
 10
402.9400985404954
 20
235.0000000000008
 30
0.0
 11
405.9329764861749
 21
221.5000000000009
 31
0.0
  0
LINE
  5
39E
330
2
100
AcDbEntity
  8
L-ZISSEN
100
AcDbLine
 10
397.3480604741039
 20
214.5000000000009
 30
0.0
 11
414.4400985404955
 21
214.5000000000009
 31
0.0
  0
LINE
  5
39F
330
2
100
AcDbEntity
  8
L-ZISSEN
100
AcDbLine
 10
409.9400985404952
 20
217.7500000000009
 30
0.0
 11
396.6275528205142
 21
217.7500000000009
 31
0.0
  0
LINE
  5
3A0
330
2
100
AcDbEntity
  8
L-ZISSEN
100
AcDbLine
 10
409.9400985404954
 20
182.2500000000009
 30
0.0
 11
396.6275528205142
 21
182.2500000000009
 31
0.0
  0
LINE
  5
3A1
330
2
100
AcDbEntity
  8
L-ZISSEN
100
AcDbLine
 10
397.3480604741039
 20
185.5000000000009
 30
0.0
 11
414.4400985404955
 21
185.5000000000009
 31
0.0
  0
LINE
  5
3A2
330
2
100
AcDbEntity
  8
L-ZISSEN
100
AcDbLine
 10
393.6900985404954
 20
231.0000000000008
 30
0.0
 11
397.3480604741039
 21
214.5000000000009
 31
0.0
  0
LINE
  5
3A3
330
2
100
AcDbEntity
  8
L-ZISSEN
100
AcDbLine
 10
393.6900985404954
 20
169.0000000000009
 30
0.0
 11
397.3480604741039
 21
185.5000000000009
 31
0.0
  0
CIRCLE
  5
3A4
330
2
100
AcDbEntity
  8
L-ZISSEN
100
AcDbCircle
 10
400.4400985404954
 20
230.0000000000009
 30
0.0
 40
2.0
  0
CIRCLE
  5
3A5
330
2
100
AcDbEntity
  8
L-ZISSEN
100
AcDbCircle
 10
400.4400985404953
 20
170.0000000000009
 30
0.0
 40
2.0
  0
LINE
  5
3A6
330
2
100
AcDbEntity
  8
L-ZISSEN
100
AcDbLine
 10
414.4400985404955
 20
221.5000000000009
 30
0.0
 11
414.4400985404955
 21
178.5000000000009
 31
0.0
  0
LINE
  5
3A7
330
2
100
AcDbEntity
  8
L-ZISSEN
100
AcDbLine
 10
409.9400985404953
 20
217.7500000000009
 30
0.0
 11
411.2400985404955
 21
221.5000000000009
 31
0.0
  0
LINE
  5
3A8
330
2
100
AcDbEntity
  8
L-ZISSEN
100
AcDbLine
 10
414.4400985404955
 20
221.5000000000009
 30
0.0
 11
405.9329764861749
 21
221.5000000000009
 31
0.0
  0
LINE
  5
3A9
330
2
100
AcDbEntity
  8
L-ZISSEN
100
AcDbLine
 10
403.1158656099046
 20
165.0000000000009
 30
0.0
 11
406.1087435555841
 21
178.5000000000009
 31
0.0
  0
LINE
  5
3AA
330
2
100
AcDbEntity
  8
L-ZISSEN
100
AcDbLine
 10
409.9400985404953
 20
182.2500000000009
 30
0.0
 11
411.2400985404955
 21
178.5000000000009
 31
0.0
  0
LINE
  5
3AB
330
2
100
AcDbEntity
  8
L-ZISSEN
100
AcDbLine
 10
414.4400985404955
 20
178.5000000000009
 30
0.0
 11
406.1087435555841
 21
178.5000000000009
 31
0.0
  0
TEXT
  5
3AC
330
2
100
AcDbEntity
  8
L-ZISSEN
100
AcDbText
 10
513.9252161219767
 20
260.5669004851906
 30
0.0
 40
4.5
  1
P.P
100
AcDbText
  0
LINE
  5
3AD
330
2
100
AcDbEntity
  8
L-ZISSEN
100
AcDbLine
 10
511.9252161219738
 20
144.9739108783769
 30
0.0
 11
511.9252161219765
 21
250.3169004851924
 31
0.0
  0
ARC
  5
3AE
330
2
100
AcDbEntity
  8
L-ZISSEN
100
AcDbCircle
 10
541.9252161219742
 20
233.8303060038479
 30
0.0
 40
99.53938471878538
100
AcDbArc
 50
256.0937629349474
 51
263.0758486315302
  0
ARC
  5
3AF
330
2
100
AcDbEntity
  8
L-ZISSEN
100
AcDbCircle
 10
519.9252161219738
 20
144.9739108783769
 30
0.0
 40
8.000000000000113
100
AcDbArc
 50
180.0
 51
256.0937629347642
  0
LINE
  5
3B0
330
2
100
AcDbEntity
  8
L-ZISSEN
100
AcDbLine
 10
529.9252161219765
 20
131.0169004851914
 30
0.0
 11
529.9252161219765
 21
135.0169004851913
 31
0.0
  0
LINE
  5
3B1
330
2
100
AcDbEntity
  8
L-ZISSEN
100
AcDbLine
 10
516.645216121974
 20
239.9781615735601
 30
0.0
 11
525.0752161219771
 21
239.9781615735601
 31
0.0
  0
LINE
  5
3B2
330
2
100
AcDbEntity
  8
L-ZISSEN
100
AcDbLine
 10
520.8602161219732
 20
155.4781615735582
 30
0.0
 11
516.645216121974
 21
157.47816157356
 31
0.0
  0
LINE
  5
3B3
330
2
100
AcDbEntity
  8
L-ZISSEN
100
AcDbLine
 10
516.645216121974
 20
239.9781615735601
 30
0.0
 11
516.6452161219767
 21
157.4781615735582
 31
0.0
  0
LINE
  5
3B4
330
2
100
AcDbEntity
  8
L-ZISSEN
100
AcDbLine
 10
526.9252161219767
 20
262.8169004851906
 30
0.0
 11
524.9252161219767
 21
262.8169004851906
 31
0.0
  0
LINE
  5
3B5
330
2
100
AcDbEntity
  8
L-ZISSEN
100
AcDbLine
 10
525.0752161219748
 20
157.47816157356
 30
0.0
 11
520.8602161219732
 21
155.4781615735582
 31
0.0
  0
LINE
  5
3B6
330
2
100
AcDbEntity
  8
L-ZISSEN
100
AcDbLine
 10
525.0752161219771
 20
239.9781615735601
 30
0.0
 11
525.0752161219771
 21
157.4781615735609
 31
0.0
  0
LINE
  5
3B7
330
2
100
AcDbEntity
  8
L-ZISSEN
100
AcDbLine
 10
717.2052161219767
 20
239.9781615735601
 30
0.0
 11
708.775216121976
 21
239.9781615735601
 31
0.0
  0
LINE
  5
3B8
330
2
100
AcDbEntity
  8
L-ZISSEN
100
AcDbLine
 10
712.9902161219774
 20
155.4781615735582
 30
0.0
 11
717.2052161219767
 21
157.4781615735592
 31
0.0
  0
ARC
  5
3B9
330
2
100
AcDbEntity
  8
L-ZISSEN
100
AcDbCircle
 10
691.9252161219742
 20
233.8303060038479
 30
0.0
 40
99.53938471878515
100
AcDbArc
 50
276.9241513684761
 51
283.9062370650399
  0
LINE
  5
3BA
330
2
100
AcDbEntity
  8
L-ZISSEN
100
AcDbLine
 10
710.4252161219762
 20
-2.918010054740079
 30
0.0
 11
715.9365705602347
 21
-2.918010054741898
 31
0.0
  0
ARC
  5
3BB
330
2
100
AcDbEntity
  8
L-ZISSEN
100
AcDbCircle
 10
709.4685617732364
 20
-91.90518380006507
 30
0.0
 40
10.0
100
AcDbArc
 50
274.868444062882
 51
358.9999999999721
  0
LINE
  5
3BC
330
2
100
AcDbEntity
  8
L-ZISSEN
100
AcDbLine
 10
575.7293445316472
 20
-19.1826635661373
 30
0.0
 11
581.5293445316469
 21
-19.79346195851303
 31
0.0
  0
LINE
  5
3BD
330
2
100
AcDbEntity
  8
L-ZISSEN
100
AcDbLine
 10
576.2460195311498
 20
0.5809704455532483
 30
0.0
 11
576.9252161219767
 21
0.5809704455532483
 31
0.0
  0
LINE
  5
3BE
330
2
100
AcDbEntity
  8
L-ZISSEN
100
AcDbLine
 10
581.5293445316469
 20
-24.07763094111032
 30
0.0
 11
573.529344531647
 21
-26.01801005474135
 31
0.0
  0
LINE
  5
3BF
330
2
100
AcDbEntity
  8
L-ZISSEN
100
AcDbLine
 10
551.3603833901959
 20
-102.9180100547419
 30
0.0
 11
560.3172434537932
 21
-101.8691056888146
 31
0.0
  0
LINE
  5
3C0
330
2
100
AcDbEntity
  8
L-ZISSEN
100
AcDbLine
 10
560.4252161219772
 20
-12.91801005473917
 30
0.0
 11
545.675216121976
 21
-12.91801005474098
 31
0.0
  0
LINE
  5
3C1
330
2
100
AcDbEntity
  8
L-ZISSEN
100
AcDbLine
 10
550.6752161219765
 20
-16.91801005474099
 30
0.0
 11
550.6752161219783
 21
-93.9180100547419
 31
0.0
  0
LINE
  5
3C2
330
2
100
AcDbEntity
  8
L-ZISSEN
100
AcDbLine
 10
533.1752161219765
 20
-16.91801005474099
 30
0.0
 11
533.1752161219783
 21
-93.9180100547419
 31
0.0
  0
LINE
  5
3C3
330
2
100
AcDbEntity
  8
L-TYUSIN
100
AcDbLine
 10
548.1752161219767
 20
-88.6680100547419
 30
0.0
 11
535.6752161219767
 21
-88.6680100547419
 31
0.0
  0
CIRCLE
  5
3C4
330
2
100
AcDbEntity
  8
L-ZISSEN
100
AcDbCircle
 10
541.9252161219767
 20
-88.6680100547419
 30
0.0
 40
3.75
  0
ARC
  5
3C5
330
2
100
AcDbEntity
  8
L-ZISSEN
100
AcDbCircle
 10
538.0035097506825
 20
-121.9229526894287
 30
0.0
 40
15.50496374778473
100
AcDbArc
 50
75.34890043484683
 51
104.4621424617065
  0
POLYLINE
  5
3C6
330
2
100
AcDbEntity
  8
L-ZISSEN
100
AcDb2dPolyline
 66
     1
 10
0.0
 20
0.0
 30
0.0
 70
     1
  0
VERTEX
  5
61C
330
3C6
100
AcDbEntity
  8
L-ZISSEN
100
AcDbVertex
100
AcDb2dVertex
 10
540.6752161219767
 20
-87.94632221825485
 30
0.0
  0
VERTEX
  5
61D
330
3C6
100
AcDbEntity
  8
L-ZISSEN
100
AcDbVertex
100
AcDb2dVertex
 10
541.9252161219767
 20
-87.22463438176783
 30
0.0
  0
VERTEX
  5
61E
330
3C6
100
AcDbEntity
  8
L-ZISSEN
100
AcDbVertex
100
AcDb2dVertex
 10
543.1752161219767
 20
-87.94632221825485
 30
0.0
  0
VERTEX
  5
61F
330
3C6
100
AcDbEntity
  8
L-ZISSEN
100
AcDbVertex
100
AcDb2dVertex
 10
543.1752161219767
 20
-89.38969789122893
 30
0.0
  0
VERTEX
  5
620
330
3C6
100
AcDbEntity
  8
L-ZISSEN
100
AcDbVertex
100
AcDb2dVertex
 10
541.9252161219767
 20
-90.11138572771598
 30
0.0
  0
VERTEX
  5
621
330
3C6
100
AcDbEntity
  8
L-ZISSEN
100
AcDbVertex
100
AcDb2dVertex
 10
540.6752161219767
 20
-89.38969789122893
 30
0.0
  0
SEQEND
  5
622
330
3C6
100
AcDbEntity
  8
L-ZISSEN
  0
ARC
  5
3C7
330
2
100
AcDbEntity
  8
L-ZISSEN
100
AcDbCircle
 10
538.0041145184946
 20
-94.28186280422323
 30
0.0
 40
15.15026028548078
100
AcDbArc
 50
255.1892479928005
 51
284.999709110692
  0
LINE
  5
3C8
330
2
100
AcDbEntity
  8
L-ZISSEN
100
AcDbLine
 10
537.3899517623381
 20
-109.4196694758238
 30
0.0
 11
546.4585756200742
 21
-109.4197466387722
 31
0.0
  0
LINE
  5
3C9
330
2
100
AcDbEntity
  8
L-ZISSEN
100
AcDbLine
 10
547.658014900232
 20
-121.4190295544467
 30
0.0
 11
536.2580149002333
 21
-121.4190295544467
 31
0.0
  0
LINE
  5
3CA
330
2
100
AcDbEntity
  8
L-ZISSEN
100
AcDbLine
 10
536.4580149002308
 20
-111.3601949649382
 30
0.0
 11
544.9580149002322
 21
-111.3601949649382
 31
0.0
  0
LINE
  5
3CB
330
2
100
AcDbEntity
  8
L-ZISSEN
100
AcDbLine
 10
533.1752161219765
 20
-93.9180100547419
 30
0.0
 11
550.6752161219765
 21
-93.9180100547419
 31
0.0
  0
LINE
  5
3CC
330
2
100
AcDbEntity
  8
L-ZISSEN
100
AcDbLine
 10
532.4900488537573
 20
-102.9180100547419
 30
0.0
 11
551.3603833901959
 21
-102.9180100547419
 31
0.0
  0
LINE
  5
3CD
330
2
100
AcDbEntity
  8
L-ZISSEN
100
AcDbLine
 10
532.4900488537577
 20
-106.4180100547418
 30
0.0
 11
551.3603833901959
 21
-106.4180100547418
 31
0.0
  0
LINE
  5
3CE
330
2
100
AcDbEntity
  8
L-ZISSEN
100
AcDbLine
 10
532.4900488537576
 20
-102.9180100547419
 30
0.0
 11
532.4900488537577
 21
-106.4180100547418
 31
0.0
  0
LINE
  5
3CF
330
2
100
AcDbEntity
  8
L-ZISSEN
100
AcDbLine
 10
535.9580149002336
 20
-121.1190295544465
 30
0.0
 11
535.9580149002336
 21
-111.8601949649382
 31
0.0
  0
LINE
  5
3D0
330
2
100
AcDbEntity
  8
L-ZISSEN
100
AcDbLine
 10
536.9580149002326
 20
-111.3601949649382
 30
0.0
 11
536.9580149002326
 21
-121.4190295544467
 31
0.0
  0
LINE
  5
3D1
330
2
100
AcDbEntity
  8
L-ZISSEN
100
AcDbLine
 10
537.9580149002317
 20
-111.3601949649382
 30
0.0
 11
537.9580149002317
 21
-121.4190295544467
 31
0.0
  0
LINE
  5
3D2
330
2
100
AcDbEntity
  8
L-ZISSEN
100
AcDbLine
 10
538.9580149002331
 20
-111.3601949649382
 30
0.0
 11
538.9580149002331
 21
-121.4190295544467
 31
0.0
  0
LINE
  5
3D3
330
2
100
AcDbEntity
  8
L-ZISSEN
100
AcDbLine
 10
536.2580149002333
 20
-121.4190295544467
 30
0.0
 11
535.9580149002336
 21
-121.1190295544465
 31
0.0
  0
LINE
  5
3D4
330
2
100
AcDbEntity
  8
L-ZISSEN
100
AcDbLine
 10
536.9580149002309
 20
-111.3601949649382
 30
0.0
 11
536.4580149002335
 21
-110.8601949649382
 31
0.0
  0
LINE
  5
3D5
330
2
100
AcDbEntity
  8
L-ZISSEN
100
AcDbLine
 10
536.4580149002308
 20
-111.3601949649382
 30
0.0
 11
535.9580149002336
 21
-111.8601949649382
 31
0.0
  0
LINE
  5
3D6
330
2
100
AcDbEntity
  8
L-ZISSEN
100
AcDbLine
 10
536.958014900235
 20
-109.4197261655754
 30
0.0
 11
536.9580149002309
 21
-111.3601949649382
 31
0.0
  0
LINE
  5
3D7
330
2
100
AcDbEntity
  8
L-ZISSEN
100
AcDbLine
 10
536.4580149002335
 20
-110.8601949649382
 30
0.0
 11
536.4580149002335
 21
-109.4190295544467
 31
0.0
  0
LINE
  5
3D8
330
2
100
AcDbEntity
  8
L-ZISSEN
100
AcDbLine
 10
540.9580149002335
 20
-111.3601949649382
 30
0.0
 11
540.9580149002335
 21
-121.4190295544467
 31
0.0
  0
LINE
  5
3D9
330
2
100
AcDbEntity
  8
L-ZISSEN
100
AcDbLine
 10
539.9580149002344
 20
-111.3601949649382
 30
0.0
 11
539.9580149002344
 21
-121.4190295544467
 31
0.0
  0
LINE
  5
3DA
330
2
100
AcDbEntity
  8
L-ZISSEN
100
AcDbLine
 10
534.1312961219767
 20
-106.9092968243903
 30
0.0
 11
534.1312961219767
 21
-108.9287622845031
 31
0.0
  0
LINE
  5
3DB
330
2
100
AcDbEntity
  8
L-ZISSEN
100
AcDbLine
 10
551.3603833901959
 20
-102.9180100547419
 30
0.0
 11
551.3603833901957
 21
-106.4180100547418
 31
0.0
  0
LINE
  5
3DC
330
2
100
AcDbEntity
  8
L-ZISSEN
100
AcDbLine
 10
549.7191361219777
 20
-106.9092968243903
 30
0.0
 11
549.7191361219777
 21
-108.9287622845031
 31
0.0
  0
LINE
  5
3DD
330
2
100
AcDbEntity
  8
L-ZISSEN
100
AcDbLine
 10
547.4580149002322
 20
-111.3601949649382
 30
0.0
 11
547.9580149002317
 21
-111.8601949649382
 31
0.0
  0
LINE
  5
3DE
330
2
100
AcDbEntity
  8
L-ZISSEN
100
AcDbLine
 10
546.9580149002349
 20
-111.3601949649382
 30
0.0
 11
546.958014900237
 21
-121.4190295544467
 31
0.0
  0
LINE
  5
3DF
330
2
100
AcDbEntity
  8
L-ZISSEN
100
AcDbLine
 10
546.9580149002322
 20
-111.3601949649382
 30
0.0
 11
547.4580149002317
 21
-110.8601949649382
 31
0.0
  0
LINE
  5
3E0
330
2
100
AcDbEntity
  8
L-ZISSEN
100
AcDbLine
 10
541.9580149002349
 20
-111.3601949649382
 30
0.0
 11
541.9580149002349
 21
-121.4190295544467
 31
0.0
  0
LINE
  5
3E1
330
2
100
AcDbEntity
  8
L-ZISSEN
100
AcDbLine
 10
542.958014900234
 20
-111.3601949649382
 30
0.0
 11
542.958014900234
 21
-121.4190295544467
 31
0.0
  0
LINE
  5
3E2
330
2
100
AcDbEntity
  8
L-ZISSEN
100
AcDbLine
 10
543.9580149002331
 20
-111.3601949649382
 30
0.0
 11
543.9580149002331
 21
-121.4190295544467
 31
0.0
  0
LINE
  5
3E3
330
2
100
AcDbEntity
  8
L-ZISSEN
100
AcDbLine
 10
544.9580149002322
 20
-111.3601949649382
 30
0.0
 11
544.9580149002322
 21
-121.4190295544467
 31
0.0
  0
LINE
  5
3E4
330
2
100
AcDbEntity
  8
L-ZISSEN
100
AcDbLine
 10
545.9580149002358
 20
-111.3601949649382
 30
0.0
 11
545.9580149002358
 21
-121.4190295544467
 31
0.0
  0
LINE
  5
3E5
330
2
100
AcDbEntity
  8
L-ZISSEN
100
AcDbLine
 10
544.9580149002322
 20
-111.3601949649382
 30
0.0
 11
547.4580149002322
 21
-111.3601949649382
 31
0.0
  0
LINE
  5
3E6
330
2
100
AcDbEntity
  8
L-ZISSEN
100
AcDbLine
 10
547.9580149002317
 20
-111.8601949649382
 30
0.0
 11
547.9580149002317
 21
-121.1190295544465
 31
0.0
  0
LINE
  5
3E7
330
2
100
AcDbEntity
  8
L-ZISSEN
100
AcDbLine
 10
547.658014900232
 20
-121.4190295544467
 30
0.0
 11
547.9580149002317
 21
-121.1190295544465
 31
0.0
  0
LINE
  5
3E8
330
2
100
AcDbEntity
  8
L-ZISSEN
100
AcDbLine
 10
546.9580149002363
 20
-109.4203758168687
 30
0.0
 11
546.9580149002322
 21
-111.3601949649382
 31
0.0
  0
LINE
  5
3E9
330
2
100
AcDbEntity
  8
L-ZISSEN
100
AcDbLine
 10
547.4580149002317
 20
-110.8601949649382
 30
0.0
 11
547.4580149002317
 21
-109.4190295544467
 31
0.0
  0
LINE
  5
3EA
330
2
100
AcDbEntity
  8
L-ZISSEN
100
AcDbLine
 10
541.9252161219771
 20
-106.9221487123922
 30
0.0
 11
541.9252161219771
 21
-108.9169726250202
 31
0.0
  0
LINE
  5
3EB
330
2
100
AcDbEntity
  8
L-ZISSEN
100
AcDbLine
 10
541.9252161219771
 20
-106.9221487123922
 30
0.0
 11
541.9252161219771
 21
-108.9169726250202
 31
0.0
  0
LINE
  5
3EC
330
2
100
AcDbEntity
  8
L-ZISSEN
100
AcDbLine
 10
541.9252161219771
 20
-106.9221487123922
 30
0.0
 11
541.9252161219771
 21
-108.9169726250202
 31
0.0
  0
LINE
  5
3ED
330
2
100
AcDbEntity
  8
L-ZISSEN
100
AcDbLine
 10
541.9252161219771
 20
-106.9221487123922
 30
0.0
 11
541.9252161219771
 21
-108.9169726250202
 31
0.0
  0
ARC
  5
3EE
330
2
100
AcDbEntity
  8
L-ZISSEN
100
AcDbCircle
 10
545.8469224932719
 20
-121.9229526894287
 30
0.0
 40
15.50496374778473
100
AcDbArc
 50
75.53785753829346
 51
104.6510995651531
  0
ARC
  5
3EF
330
2
100
AcDbEntity
  8
L-ZISSEN
100
AcDbCircle
 10
545.8463177254598
 20
-94.28186280422323
 30
0.0
 40
15.15026028548078
100
AcDbArc
 50
255.0002908893079
 51
284.8107520071994
  0
LINE
  5
3F0
330
2
100
AcDbEntity
  8
L-TYUSIN
100
AcDbLine
 10
548.1752161219767
 20
-22.16801005474099
 30
0.0
 11
535.6752161219767
 21
-22.16801005474099
 31
0.0
  0
LINE
  5
3F1
330
2
100
AcDbEntity
  8
L-ZISSEN
100
AcDbLine
 10
545.6752161219765
 20
-2.918010054741898
 30
0.0
 11
538.1752161219765
 21
-2.918010054741898
 31
0.0
  0
SOLID
  5
3F2
330
2
100
AcDbEntity
  8
L-ZISSEN
100
AcDbTrace
 10
540.1753787628936
 20
1.605265485016388
 30
0.0
 11
540.60216836267
 21
2.117413004748414
 31
0.0
 12
541.9252161219765
 22
0.5809704455532483
 32
0.0
 13
541.9252161219765
 23
0.5809704455532483
 33
0.0
  0
LINE
  5
3F3
330
2
100
AcDbEntity
  8
L-ZISSEN
100
AcDbLine
 10
544.4252161219765
 20
-82.4180100547419
 30
0.0
 11
539.4252161219765
 21
-82.4180100547419
 31
0.0
  0
LINE
  5
3F4
330
2
100
AcDbEntity
  8
L-ZISSEN
100
AcDbLine
 10
539.4252161219765
 20
-28.41801005474099
 30
0.0
 11
544.4252161219765
 21
-28.41801005474099
 31
0.0
  0
CIRCLE
  5
3F5
330
2
100
AcDbEntity
  8
L-ZISSEN
100
AcDbCircle
 10
541.9252161219767
 20
-22.16801005474099
 30
0.0
 40
3.75
  0
POLYLINE
  5
3F6
330
2
100
AcDbEntity
  8
L-ZISSEN
100
AcDb2dPolyline
 66
     1
 10
0.0
 20
0.0
 30
0.0
 70
     1
  0
VERTEX
  5
623
330
3F6
100
AcDbEntity
  8
L-ZISSEN
100
AcDbVertex
100
AcDb2dVertex
 10
540.6752161219767
 20
-22.88969789122802
 30
0.0
  0
VERTEX
  5
624
330
3F6
100
AcDbEntity
  8
L-ZISSEN
100
AcDbVertex
100
AcDb2dVertex
 10
541.9252161219767
 20
-23.61138572771506
 30
0.0
  0
VERTEX
  5
625
330
3F6
100
AcDbEntity
  8
L-ZISSEN
100
AcDbVertex
100
AcDb2dVertex
 10
543.1752161219767
 20
-22.88969789122802
 30
0.0
  0
VERTEX
  5
626
330
3F6
100
AcDbEntity
  8
L-ZISSEN
100
AcDbVertex
100
AcDb2dVertex
 10
543.1752161219767
 20
-21.44632221825395
 30
0.0
  0
VERTEX
  5
627
330
3F6
100
AcDbEntity
  8
L-ZISSEN
100
AcDbVertex
100
AcDb2dVertex
 10
541.9252161219767
 20
-20.72463438176691
 30
0.0
  0
VERTEX
  5
628
330
3F6
100
AcDbEntity
  8
L-ZISSEN
100
AcDbVertex
100
AcDb2dVertex
 10
540.6752161219767
 20
-21.44632221825395
 30
0.0
  0
SEQEND
  5
629
330
3F6
100
AcDbEntity
  8
L-ZISSEN
  0
LINE
  5
3F7
330
2
100
AcDbEntity
  8
L-ZISSEN
100
AcDbLine
 10
533.1752161219765
 20
-16.91801005474099
 30
0.0
 11
550.6752161219765
 21
-16.91801005474099
 31
0.0
  0
LINE
  5
3F8
330
2
100
AcDbEntity
  8
L-ZISSEN
100
AcDbLine
 10
538.1752161219765
 20
-2.918010054741898
 30
0.0
 11
538.1752161219765
 21
-12.91801005474098
 31
0.0
  0
LINE
  5
3F9
330
2
100
AcDbEntity
  8
L-ZISSEN
100
AcDbLine
 10
539.4252161219765
 20
-82.4180100547419
 30
0.0
 11
539.4252161219765
 21
-28.41801005474099
 31
0.0
  0
LINE
  5
3FA
330
2
100
AcDbEntity
  8
L-ZISSEN
100
AcDbLine
 10
545.6752161219762
 20
-2.918010054741898
 30
0.0
 11
545.675216121976
 21
-12.91801005474098
 31
0.0
  0
LINE
  5
3FB
330
2
100
AcDbEntity
  8
L-ZISSEN
100
AcDbLine
 10
544.4252161219765
 20
-28.41801005474099
 30
0.0
 11
544.4252161219765
 21
-82.4180100547419
 31
0.0
  0
LINE
  5
3FC
330
2
100
AcDbEntity
  8
L-ZISSEN
100
AcDbLine
 10
571.1810831834579
 20
-12.91801005474098
 30
0.0
 11
569.4652221814813
 21
-92.1636033856812
 31
0.0
  0
ARC
  5
3FD
330
2
100
AcDbEntity
  8
L-ZISSEN
100
AcDbCircle
 10
559.4685617732361
 20
-91.90518380006507
 30
0.0
 40
10.0
100
AcDbArc
 50
274.868444062882
 51
358.9999999999721
  0
LINE
  5
3FE
330
2
100
AcDbEntity
  8
L-ZISSEN
100
AcDbLine
 10
560.4252161219762
 20
-2.918010054740989
 30
0.0
 11
565.9365705602347
 21
-2.918010054742808
 31
0.0
  0
LINE
  5
3FF
330
2
100
AcDbEntity
  8
L-ZISSEN
100
AcDbLine
 10
560.4252161219772
 20
-2.918010054740989
 30
0.0
 11
560.4252161219772
 21
-12.91801005473917
 31
0.0
  0
LINE
  5
400
330
2
100
AcDbEntity
  8
L-ZISSEN
100
AcDbLine
 10
575.7293445316472
 20
0.2819899452588288
 30
0.0
 11
575.7293445316472
 21
-19.1826635661373
 31
0.0
  0
LINE
  5
401
330
2
100
AcDbEntity
  8
L-ZISSEN
100
AcDbLine
 10
574.017232217341
 20
-4.418010054742808
 30
0.0
 11
574.017232217341
 21
-12.91801005474098
 31
0.0
  0
LINE
  5
402
330
2
100
AcDbEntity
  8
L-ZISSEN
100
AcDbLine
 10
571.9947305831554
 20
-4.418010054742808
 30
0.0
 11
571.9947305831554
 21
-12.91801005474098
 31
0.0
  0
LINE
  5
403
330
2
100
AcDbEntity
  8
L-ZISSEN
100
AcDbLine
 10
571.1810831834579
 20
-12.91801005474098
 30
0.0
 11
571.8812007222038
 21
-12.91801005474098
 31
0.0
  0
LINE
  5
404
330
2
100
AcDbEntity
  8
L-ZISSEN
100
AcDbLine
 10
574.017232217341
 20
-12.91801005474098
 30
0.0
 11
571.3544926157726
 21
-12.91801005474098
 31
0.0
  0
LINE
  5
405
330
2
100
AcDbEntity
  8
L-ZISSEN
100
AcDbLine
 10
571.3998035501792
 20
-21.93554644981031
 30
0.0
 11
571.3998035501799
 21
-12.91801005474098
 31
0.0
  0
LINE
  5
406
330
2
100
AcDbEntity
  8
L-ZISSEN
100
AcDbLine
 10
573.529344531647
 20
0.5809704455532483
 30
0.0
 11
573.529344531647
 21
0.2819899452597383
 31
0.0
  0
LINE
  5
407
330
2
100
AcDbEntity
  8
L-ZISSEN
100
AcDbLine
 10
574.017232217341
 20
-4.418010054742808
 30
0.0
 11
571.9947305831554
 21
-4.418010054742808
 31
0.0
  0
LINE
  5
408
330
2
100
AcDbEntity
  8
L-ZISSEN
100
AcDbLine
 10
573.529344531647
 20
-4.418010054742808
 30
0.0
 11
573.529344531647
 21
0.2819899452597383
 31
0.0
  0
LINE
  5
409
330
2
100
AcDbEntity
  8
L-ZISSEN
100
AcDbLine
 10
575.7293445316472
 20
0.2819899452588288
 30
0.0
 11
573.529344531647
 21
0.2819899452588288
 31
0.0
  0
LINE
  5
40A
330
2
100
AcDbEntity
  8
L-ZISSEN
100
AcDbLine
 10
571.9252161219767
 20
0.5809704455541578
 30
0.0
 11
575.4960195311493
 21
0.5809704455532483
 31
0.0
  0
LINE
  5
40B
330
2
100
AcDbEntity
  8
L-ZISSEN
100
AcDbLine
 10
565.9365705602347
 20
-2.918010054742808
 30
0.0
 11
565.9365705602347
 21
-12.91801005473917
 31
0.0
  0
LINE
  5
40C
330
2
100
AcDbEntity
  8
L-ZISSEN
100
AcDbLine
 10
565.9365705602347
 20
-12.91801005473917
 30
0.0
 11
571.1810831834579
 21
-12.91801005473917
 31
0.0
  0
LINE
  5
40D
330
2
100
AcDbEntity
  8
L-ZISSEN
100
AcDbLine
 10
573.529344531647
 20
-23.21801005474117
 30
0.0
 11
571.3998035501799
 21
-23.21801005474026
 31
0.0
  0
LINE
  5
40E
330
2
100
AcDbEntity
  8
L-ZISSEN
100
AcDbLine
 10
570.832478788303
 20
-29.01801005474226
 30
0.0
 11
573.5293445316474
 21
-29.01801005474226
 31
0.0
  0
LINE
  5
40F
330
2
100
AcDbEntity
  8
L-ZISSEN
100
AcDbLine
 10
573.529344531647
 20
-31.51801005474135
 30
0.0
 11
574.029344531647
 21
-31.51801005474135
 31
0.0
  0
LINE
  5
410
330
2
100
AcDbEntity
  8
L-ZISSEN
100
AcDbLine
 10
573.529344531647
 20
-35.51801005474135
 30
0.0
 11
574.029344531647
 21
-35.51801005474135
 31
0.0
  0
ARC
  5
411
330
2
100
AcDbEntity
  8
L-ZISSEN
100
AcDbCircle
 10
572.7611627134647
 20
-33.51801005474135
 30
0.0
 40
2.368181818181991
100
AcDbArc
 50
302.3784125140529
 51
57.62158748594707
  0
LINE
  5
412
330
2
100
AcDbEntity
  8
L-ZISSEN
100
AcDbLine
 10
570.5293445316465
 20
-43.01801005474135
 30
0.0
 11
573.5293445316465
 21
-40.01801005474135
 31
0.0
  0
LINE
  5
413
330
2
100
AcDbEntity
  8
L-ZISSEN
100
AcDbLine
 10
572.3293445316471
 20
-29.01801005474226
 30
0.0
 11
572.3293445316471
 21
-23.21801005474026
 31
0.0
  0
LINE
  5
414
330
2
100
AcDbEntity
  8
L-ZISSEN
100
AcDbLine
 10
571.3998035501799
 20
-23.21801005474117
 30
0.0
 11
571.3998035501799
 21
-12.91801005474098
 31
0.0
  0
LINE
  5
415
330
2
100
AcDbEntity
  8
L-ZISSEN
100
AcDbLine
 10
573.529344531647
 20
-26.01801005474135
 30
0.0
 11
573.529344531647
 21
-12.91801005474008
 31
0.0
  0
LINE
  5
416
330
2
100
AcDbEntity
  8
L-ZISSEN
100
AcDbLine
 10
573.5293445316465
 20
-40.01801005474135
 30
0.0
 11
573.5293445316474
 21
-16.69905463848135
 31
0.0
  0
LINE
  5
417
330
2
100
AcDbEntity
  8
L-ZISSEN
100
AcDbLine
 10
581.5293445316469
 20
-19.79346195851303
 30
0.0
 11
581.5293445316469
 21
-24.07763094111032
 31
0.0
  0
LINE
  5
418
330
2
100
AcDbEntity
  8
L-ZISSEN
100
AcDbLine
 10
665.4252161219772
 20
-2.918010054741898
 30
0.0
 11
673.4252161219772
 21
-2.918010054741898
 31
0.0
  0
ARC
  5
419
330
2
100
AcDbEntity
  8
L-ZISSEN
100
AcDbCircle
 10
674.381870470717
 20
-91.90518380006507
 30
0.0
 40
10.0
100
AcDbArc
 50
191.6119735011068
 51
265.1315559371179
  0
LINE
  5
41A
330
2
100
AcDbEntity
  8
L-TYUSIN
100
AcDbLine
 10
643.28062524161
 20
-21.91801005474098
 30
0.0
 11
667.8022999512602
 21
-21.91801005474098
 31
0.0
  0
LINE
  5
41B
330
2
100
AcDbEntity
  8
L-TYUSIN
100
AcDbLine
 10
666.3215009508264
 20
-88.91801005474098
 30
0.0
 11
643.28062524161
 21
-88.91801005474098
 31
0.0
  0
LINE
  5
41C
330
2
100
AcDbEntity
  8
L-ZISSEN
100
AcDbLine
 10
650.1806252416097
 20
-16.91801005474099
 30
0.0
 11
650.1806252416115
 21
-93.91801005474098
 31
0.0
  0
LINE
  5
41D
330
2
100
AcDbEntity
  8
L-ZISSEN
100
AcDbLine
 10
659.6806252416097
 20
-16.91801005474099
 30
0.0
 11
659.6806252416115
 21
-93.91801005474098
 31
0.0
  0
LINE
  5
41E
330
2
100
AcDbEntity
  8
L-ZISSEN
 48
0.3
100
AcDbLine
 10
664.7784084371266
 20
-93.91801005474098
 30
0.0
 11
664.7784084371266
 21
-16.91801005474099
 31
0.0
  0
LINE
  5
41F
330
2
100
AcDbEntity
  8
L-ZISSEN
100
AcDbLine
 10
650.1806252416097
 20
-93.91801005474098
 30
0.0
 11
659.6806252416097
 21
-93.9180100547419
 31
0.0
  0
LINE
  5
420
330
2
100
AcDbEntity
  8
L-ZISSEN
100
AcDbLine
 10
648.2806252416101
 20
-90.11138572771598
 30
0.0
 11
648.2806252416098
 21
-87.22463438176783
 31
0.0
  0
ARC
  5
421
330
2
100
AcDbEntity
  8
L-ZISSEN
100
AcDbCircle
 10
650.5926278093872
 20
-90.14279657055977
 30
0.0
 40
2.312215931624567
100
AcDbArc
 50
179.2216280233924
 51
259.735931627791
  0
ARC
  5
422
330
2
100
AcDbEntity
  8
L-ZISSEN
100
AcDbCircle
 10
650.5926278093872
 20
-87.19322353892403
 30
0.0
 40
2.312215931624567
100
AcDbArc
 50
100.264068372209
 51
180.7783719766075
  0
LINE
  5
423
330
2
100
AcDbEntity
  8
L-ZISSEN
 48
0.3
100
AcDbLine
 10
663.4784084371265
 20
-93.91801005474098
 30
0.0
 11
664.7784084371266
 21
-93.91801005474098
 31
0.0
  0
LINE
  5
424
330
2
100
AcDbEntity
  8
L-ZISSEN
100
AcDbLine
 10
659.6806252416115
 20
-93.91801005474098
 30
0.0
 11
663.4784084371265
 21
-93.91801005474098
 31
0.0
  0
LINE
  5
425
330
2
100
AcDbEntity
  8
L-ZISSEN
100
AcDbLine
 10
650.1806252416097
 20
-16.91801005474099
 30
0.0
 11
659.6806252416097
 21
-16.91801005474099
 31
0.0
  0
ARC
  5
426
330
2
100
AcDbEntity
  8
L-ZISSEN
100
AcDbCircle
 10
650.5926278093872
 20
-20.69322353892312
 30
0.0
 40
2.312215931624567
100
AcDbArc
 50
100.264068372209
 51
180.7783719766075
  0
ARC
  5
427
330
2
100
AcDbEntity
  8
L-ZISSEN
100
AcDbCircle
 10
650.5926278093872
 20
-23.64279657055885
 30
0.0
 40
2.312215931624567
100
AcDbArc
 50
179.2216280233924
 51
259.735931627791
  0
LINE
  5
428
330
2
100
AcDbEntity
  8
L-ZISSEN
100
AcDbLine
 10
648.2806252416101
 20
-20.72463438176691
 30
0.0
 11
648.2806252416098
 21
-23.61138572771506
 31
0.0
  0
LINE
  5
429
330
2
100
AcDbEntity
  8
L-ZISSEN
 48
0.3
100
AcDbLine
 10
664.7784084371266
 20
-16.91801005474099
 30
0.0
 11
662.7807427803561
 21
-16.91801005474099
 31
0.0
  0
LINE
  5
42A
330
2
100
AcDbEntity
  8
L-ZISSEN
100
AcDbLine
 10
661.9692315217496
 20
-12.91801005474098
 30
0.0
 11
665.4252161219772
 21
-12.91801005474098
 31
0.0
  0
LINE
  5
42B
330
2
100
AcDbEntity
  8
L-ZISSEN
100
AcDbLine
 10
662.6693490604964
 20
-12.91801005474098
 30
0.0
 11
662.7072028591847
 21
-16.91801005474099
 31
0.0
  0
LINE
  5
42C
330
2
100
AcDbEntity
  8
L-ZISSEN
100
AcDbLine
 10
657.9692315217496
 20
-16.91801005474099
 30
0.0
 11
661.4252161219772
 21
-16.91801005474099
 31
0.0
  0
LINE
  5
42D
330
2
100
AcDbEntity
  8
L-ZISSEN
100
AcDbLine
 10
661.7218451869428
 20
0.5809704455532483
 30
0.0
 11
661.9692315217496
 21
-12.91801005474098
 31
0.0
  0
LINE
  5
42E
330
2
100
AcDbEntity
  8
L-ZISSEN
100
AcDbLine
 10
659.6806252416097
 20
-16.91801005474099
 30
0.0
 11
662.7807427803561
 21
-16.91801005474099
 31
0.0
  0
LINE
  5
42F
330
2
100
AcDbEntity
  8
L-ZISSEN
100
AcDbLine
 10
665.4252161219772
 20
-2.918010054741898
 30
0.0
 11
665.4252161219772
 21
-12.91801005474098
 31
0.0
  0
LINE
  5
430
330
2
100
AcDbEntity
  8
L-ZISSEN
100
AcDbLine
 10
694.8044661219783
 20
-9.702260054739781
 30
0.0
 11
691.925216121978
 21
-14.5010100547397
 31
0.0
  0
LINE
  5
431
330
2
100
AcDbEntity
  8
L-ZISSEN
100
AcDbLine
 10
692.884966121978
 20
-2.024260054739897
 30
0.0
 11
690.9654661219781
 21
-2.024260054739897
 31
0.0
  0
LINE
  5
432
330
2
100
AcDbEntity
  8
L-ZISSEN
100
AcDbLine
 10
703.9252161219764
 20
0.2819899452597383
 30
0.0
 11
679.9252161219765
 21
0.2819899452597383
 31
0.0
  0
LINE
  5
433
330
2
100
AcDbEntity
  8
L-ZISSEN
100
AcDbLine
 10
691.9252161219765
 20
-19.29976005474054
 30
0.0
 11
702.0025911219748
 21
-17.86013505474056
 31
0.0
  0
LINE
  5
434
330
2
100
AcDbEntity
  8
L-ZISSEN
100
AcDbLine
 10
691.9252161219765
 20
-19.93793411384013
 30
0.0
 11
701.0731178829023
 21
-18.63109100513611
 31
0.0
  0
ARC
  5
435
330
2
100
AcDbEntity
  8
L-ZISSEN
100
AcDbCircle
 10
691.9252161219767
 20
-27.76801005474044
 30
0.0
 40
1.25
100
AcDbArc
 50
180.0
 51
0.0
  0
LINE
  5
436
330
2
100
AcDbEntity
  8
L-ZISSEN
100
AcDbLine
 10
682.4900488537585
 20
-102.9180100547419
 30
0.0
 11
701.3603833901959
 21
-102.9180100547419
 31
0.0
  0
LINE
  5
437
330
2
100
AcDbEntity
  8
L-ZISSEN
100
AcDbLine
 10
682.4900488537589
 20
-106.4180100547418
 30
0.0
 11
701.3603833901959
 21
-106.4180100547418
 31
0.0
  0
LINE
  5
438
330
2
100
AcDbEntity
  8
L-ZISSEN
100
AcDbLine
 10
685.179699283728
 20
-106.4184084396274
 30
0.0
 11
698.6707329602263
 21
-106.4176116698563
 31
0.0
  0
ARC
  5
439
330
2
100
AcDbEntity
  8
L-ZISSEN
100
AcDbCircle
 10
691.9580149002326
 20
-127.0600922283629
 30
0.0
 40
20.64106267391679
100
AcDbArc
 50
77.50558048157383
 51
102.676318687742
  0
LINE
  5
43A
330
2
100
AcDbEntity
  8
L-ZISSEN
100
AcDbLine
 10
681.9252161219763
 20
-43.01801005474044
 30
0.0
 11
701.9252161219762
 21
-43.01801005474044
 31
0.0
  0
LINE
  5
43B
330
2
100
AcDbEntity
  8
L-ZISSEN
100
AcDbLine
 10
682.3252161219768
 20
-40.01801005474135
 30
0.0
 11
701.5252161219766
 21
-40.01801005474135
 31
0.0
  0
LINE
  5
43C
330
2
100
AcDbEntity
  8
L-TYUSIN
100
AcDbLine
 10
684.3252161219768
 20
-33.51801005474044
 30
0.0
 11
699.5252161219767
 21
-33.51801005474044
 31
0.0
  0
LINE
  5
43D
330
2
100
AcDbEntity
  8
L-ZISSEN
100
AcDbLine
 10
684.3252161219768
 20
-37.01801005474044
 30
0.0
 11
699.5252161219767
 21
-37.01801005474044
 31
0.0
  0
LINE
  5
43E
330
2
100
AcDbEntity
  8
L-ZISSEN
100
AcDbLine
 10
684.3252161219768
 20
-38.01801005474044
 30
0.0
 11
699.5252161219767
 21
-38.01801005474044
 31
0.0
  0
LINE
  5
43F
330
2
100
AcDbEntity
  8
L-ZISSEN
100
AcDbLine
 10
691.9252161219765
 20
-26.01801005474044
 30
0.0
 11
702.7224036219747
 21
-23.13876005474048
 31
0.0
  0
LINE
  5
440
330
2
100
AcDbEntity
  8
L-ZISSEN
100
AcDbLine
 10
701.0731178829023
 20
-22.13449724212023
 30
0.0
 11
691.9252161219765
 21
-24.04966529488865
 31
0.0
  0
LINE
  5
441
330
2
100
AcDbEntity
  8
L-ZISSEN
100
AcDbLine
 10
686.4580149002308
 20
-111.3601949649382
 30
0.0
 11
694.9580149002322
 21
-111.3601949649382
 31
0.0
  0
LINE
  5
442
330
2
100
AcDbEntity
  8
L-ZISSEN
100
AcDbLine
 10
685.179699283728
 20
-109.419650669266
 30
0.0
 11
698.6707329602263
 21
-109.4204474390371
 31
0.0
  0
ARC
  5
443
330
2
100
AcDbEntity
  8
L-ZISSEN
100
AcDbCircle
 10
691.9580149002326
 20
-88.77796688052876
 30
0.0
 40
20.64106267391694
100
AcDbArc
 50
257.3236813122706
 51
282.4944195184261
  0
LINE
  5
444
330
2
100
AcDbEntity
  8
L-ZISSEN
100
AcDbLine
 10
697.658014900232
 20
-121.4190295544467
 30
0.0
 11
686.2580149002333
 21
-121.4190295544467
 31
0.0
  0
LINE
  5
445
330
2
100
AcDbEntity
  8
L-ZISSEN
100
AcDbLine
 10
682.4900488537576
 20
-102.9180100547419
 30
0.0
 11
673.53318879016
 21
-101.8691056888137
 31
0.0
  0
ARC
  5
446
330
2
100
AcDbEntity
  8
L-ZISSEN
100
AcDbCircle
 10
685.179699283728
 20
-111.6897386099972
 30
0.0
 40
5.271330170370607
100
AcDbArc
 50
64.74766100340973
 51
114.9228807251748
  0
LINE
  5
447
330
2
100
AcDbEntity
  8
L-ZISSEN
100
AcDbLine
 10
682.4900488537585
 20
-102.9180100547419
 30
0.0
 11
682.4900488537589
 21
-106.4180100547418
 31
0.0
  0
ARC
  5
448
330
2
100
AcDbEntity
  8
L-ZISSEN
100
AcDbCircle
 10
685.179699283728
 20
-104.1483204988953
 30
0.0
 40
5.271330170370607
100
AcDbArc
 50
245.0771192748252
 51
295.2523389966485
  0
LINE
  5
449
330
2
100
AcDbEntity
  8
L-ZISSEN
100
AcDbLine
 10
691.9580149002349
 20
-111.3601949649382
 30
0.0
 11
691.9580149002351
 21
-121.4190295544467
 31
0.0
  0
LINE
  5
44A
330
2
100
AcDbEntity
  8
L-ZISSEN
100
AcDbLine
 10
685.9580149002333
 20
-121.1190295544465
 30
0.0
 11
685.9580149002336
 21
-111.8601949649382
 31
0.0
  0
LINE
  5
44B
330
2
100
AcDbEntity
  8
L-ZISSEN
100
AcDbLine
 10
688.9580149002331
 20
-111.3601949649382
 30
0.0
 11
688.9580149002333
 21
-121.4190295544467
 31
0.0
  0
LINE
  5
44C
330
2
100
AcDbEntity
  8
L-ZISSEN
100
AcDbLine
 10
689.9580149002344
 20
-111.3601949649382
 30
0.0
 11
689.9580149002347
 21
-121.4190295544467
 31
0.0
  0
LINE
  5
44D
330
2
100
AcDbEntity
  8
L-ZISSEN
100
AcDbLine
 10
686.9580149002326
 20
-111.3601949649382
 30
0.0
 11
686.9580149002329
 21
-121.4190295544467
 31
0.0
  0
LINE
  5
44E
330
2
100
AcDbEntity
  8
L-ZISSEN
100
AcDbLine
 10
687.9580149002317
 20
-111.3601949649382
 30
0.0
 11
687.9580149002317
 21
-121.4190295544467
 31
0.0
  0
LINE
  5
44F
330
2
100
AcDbEntity
  8
L-ZISSEN
100
AcDbLine
 10
686.2580149002333
 20
-121.4190295544467
 30
0.0
 11
685.9580149002336
 21
-121.1190295544465
 31
0.0
  0
LINE
  5
450
330
2
100
AcDbEntity
  8
L-ZISSEN
100
AcDbLine
 10
686.9580149002309
 20
-111.3601949649382
 30
0.0
 11
686.4580149002335
 21
-110.8601949649382
 31
0.0
  0
LINE
  5
451
330
2
100
AcDbEntity
  8
L-ZISSEN
100
AcDbLine
 10
686.4580149002308
 20
-111.3601949649382
 30
0.0
 11
685.9580149002336
 21
-111.8601949649382
 31
0.0
  0
LINE
  5
452
330
2
100
AcDbEntity
  8
L-ZISSEN
100
AcDbLine
 10
690.9580149002335
 20
-111.3601949649382
 30
0.0
 11
690.9580149002338
 21
-121.4190295544467
 31
0.0
  0
LINE
  5
453
330
2
100
AcDbEntity
  8
L-ZISSEN
100
AcDbLine
 10
686.4580149002335
 20
-110.8601949649382
 30
0.0
 11
686.4580149002335
 21
-109.4190295544467
 31
0.0
  0
LINE
  5
454
330
2
100
AcDbEntity
  8
L-ZISSEN
100
AcDbLine
 10
686.9580149002351
 20
-109.4197261655745
 30
0.0
 11
686.9580149002309
 21
-111.3601949649382
 31
0.0
  0
LINE
  5
455
330
2
100
AcDbEntity
  8
L-ZISSEN
100
AcDbLine
 10
682.9583712801486
 20
-106.9092968243894
 30
0.0
 11
682.9583712801486
 21
-108.9287622845022
 31
0.0
  0
LINE
  5
456
330
2
100
AcDbEntity
  8
L-ZISSEN
100
AcDbLine
 10
687.4284785822141
 20
-106.9221487123959
 30
0.0
 11
687.428478582221
 21
-108.9159103964984
 31
0.0
  0
LINE
  5
457
330
2
100
AcDbEntity
  8
L-ZISSEN
100
AcDbLine
 10
679.6252161219769
 20
-12.91801005474008
 30
0.0
 11
680.9252161219762
 21
-12.91801005474008
 31
0.0
  0
LINE
  5
458
330
2
100
AcDbEntity
  8
L-ZISSEN
100
AcDbLine
 10
679.6252161219769
 20
-4.418010054741898
 30
0.0
 11
680.9252161219762
 21
-4.418010054741898
 31
0.0
  0
LINE
  5
459
330
2
100
AcDbEntity
  8
L-ZISSEN
100
AcDbLine
 10
679.6252161219769
 20
-4.418010054741898
 30
0.0
 11
679.6252161219769
 21
-12.91801005474008
 31
0.0
  0
LINE
  5
45A
330
2
100
AcDbEntity
  8
L-ZISSEN
100
AcDbLine
 10
679.9252161219767
 20
0.5809704455532483
 30
0.0
 11
679.9252161219765
 21
0.2819899452597383
 31
0.0
  0
LINE
  5
45B
330
2
100
AcDbEntity
  8
L-ZISSEN
100
AcDbLine
 10
673.4252161219772
 20
-2.918010054741898
 30
0.0
 11
673.4252161219772
 21
-12.91801005474098
 31
0.0
  0
LINE
  5
45C
330
2
100
AcDbEntity
  8
L-ZISSEN
100
AcDbLine
 10
673.4252161219772
 20
-12.91801005474008
 30
0.0
 11
680.4252161219771
 21
-12.91801005474008
 31
0.0
  0
LINE
  5
45D
330
2
100
AcDbEntity
  8
L-ZISSEN
100
AcDbLine
 10
685.6868411219764
 20
-5.863260054740749
 30
0.0
 11
683.2874661219764
 21
-4.423635054740771
 31
0.0
  0
LINE
  5
45E
330
2
100
AcDbEntity
  8
L-ZISSEN
100
AcDbLine
 10
685.6868411219764
 20
-2.984010054740792
 30
0.0
 11
683.2874661219764
 21
-4.423635054740771
 31
0.0
  0
LINE
  5
45F
330
2
100
AcDbEntity
  8
L-ZISSEN
100
AcDbLine
 10
691.9252161219765
 20
-19.93793411384013
 30
0.0
 11
682.7773143610507
 21
-18.63109100513611
 31
0.0
  0
LINE
  5
460
330
2
100
AcDbEntity
  8
L-ZISSEN
100
AcDbLine
 10
691.9252161219765
 20
-19.29976005474054
 30
0.0
 11
681.8478411219746
 21
-17.86013505474056
 31
0.0
  0
LINE
  5
461
330
2
100
AcDbEntity
  8
L-ZISSEN
100
AcDbLine
 10
681.8478411219746
 20
0.2819899452597383
 30
0.0
 11
681.8478411219746
 21
-17.86013505474056
 31
0.0
  0
LINE
  5
462
330
2
100
AcDbEntity
  8
L-ZISSEN
100
AcDbLine
 10
682.7773143610507
 20
-18.63109100513611
 30
0.0
 11
681.8478411219746
 21
-17.86013505474056
 31
0.0
  0
LINE
  5
463
330
2
100
AcDbEntity
  8
L-ZISSEN
100
AcDbLine
 10
682.7773143610507
 20
-17.99291694603653
 30
0.0
 11
681.8478411219746
 21
-17.86013505474056
 31
0.0
  0
LINE
  5
464
330
2
100
AcDbEntity
  8
L-ZISSEN
100
AcDbLine
 10
682.7773143610507
 20
-18.63109100513611
 30
0.0
 11
682.7773143610507
 21
-22.13449724212023
 31
0.0
  0
LINE
  5
465
330
2
100
AcDbEntity
  8
L-ZISSEN
100
AcDbLine
 10
691.9252161219765
 20
-19.29976005474054
 30
0.0
 11
691.9252161219765
 21
-19.93793411384013
 31
0.0
  0
LINE
  5
466
330
2
100
AcDbEntity
  8
L-ZISSEN
100
AcDbLine
 10
690.9654661219781
 20
-9.702260054739781
 30
0.0
 11
689.0459661219781
 21
-9.702260054739781
 31
0.0
  0
LINE
  5
467
330
2
100
AcDbEntity
  8
L-ZISSEN
100
AcDbLine
 10
689.5258411219765
 20
-3.943760054740778
 30
0.0
 11
685.6868411219764
 21
-3.943760054740778
 31
0.0
  0
LINE
  5
468
330
2
100
AcDbEntity
  8
L-ZISSEN
100
AcDbLine
 10
689.5258411219765
 20
-3.943760054740778
 30
0.0
 11
685.6868411219764
 21
-3.943760054740778
 31
0.0
  0
LINE
  5
469
330
2
100
AcDbEntity
  8
L-ZISSEN
100
AcDbLine
 10
689.5258411219765
 20
-4.903510054740763
 30
0.0
 11
685.6868411219764
 21
-4.903510054740763
 31
0.0
  0
LINE
  5
46A
330
2
100
AcDbEntity
  8
L-ZISSEN
100
AcDbLine
 10
689.5258411219765
 20
-4.903510054740763
 30
0.0
 11
685.6868411219764
 21
-4.903510054740763
 31
0.0
  0
LINE
  5
46B
330
2
100
AcDbEntity
  8
L-ZISSEN
100
AcDbLine
 10
685.6868411219764
 20
-4.903510054740763
 30
0.0
 11
685.6868411219764
 21
-5.863260054740749
 31
0.0
  0
LINE
  5
46C
330
2
100
AcDbEntity
  8
L-ZISSEN
100
AcDbLine
 10
685.6868411219764
 20
-3.943760054740778
 30
0.0
 11
685.6868411219764
 21
-2.984010054740792
 31
0.0
  0
LINE
  5
46D
330
2
100
AcDbEntity
  8
L-ZISSEN
100
AcDbLine
 10
689.5258411219765
 20
-3.943760054740778
 30
0.0
 11
689.5258411219765
 21
-4.903510054740763
 31
0.0
  0
LINE
  5
46E
330
2
100
AcDbEntity
  8
L-ZISSEN
100
AcDbLine
 10
690.9654661219781
 20
-2.024260054739897
 30
0.0
 11
690.9654661219781
 21
-9.702260054739781
 31
0.0
  0
LINE
  5
46F
330
2
100
AcDbEntity
  8
L-ZISSEN
100
AcDbLine
 10
690.9654661219781
 20
-2.024260054739897
 30
0.0
 11
690.9654661219781
 21
-9.702260054739781
 31
0.0
  0
LINE
  5
470
330
2
100
AcDbEntity
  8
L-ZISSEN
100
AcDbLine
 10
689.0459661219781
 20
-9.702260054739781
 30
0.0
 11
691.925216121978
 21
-14.5010100547397
 31
0.0
  0
LINE
  5
471
330
2
100
AcDbEntity
  8
L-ZISSEN
100
AcDbLine
 10
681.4252161219762
 20
-29.01801005474135
 30
0.0
 11
684.3252161219764
 21
-29.01801005474135
 31
0.0
  0
ARC
  5
472
330
2
100
AcDbEntity
  8
L-ZISSEN
100
AcDbCircle
 10
681.4252161219762
 20
-28.51801005474135
 30
0.0
 40
0.5
100
AcDbArc
 50
180.0
 51
270.0
  0
LINE
  5
473
330
2
100
AcDbEntity
  8
L-ZISSEN
100
AcDbLine
 10
682.3252161219768
 20
-40.01801005474044
 30
0.0
 11
681.9252161219763
 21
-43.01801005474044
 31
0.0
  0
LINE
  5
474
330
2
100
AcDbEntity
  8
L-ZISSEN
100
AcDbLine
 10
681.9252161219763
 20
-29.01801005474044
 30
0.0
 11
681.9252161219763
 21
-43.01801005474044
 31
0.0
  0
LINE
  5
475
330
2
100
AcDbEntity
  8
L-ZISSEN
100
AcDbLine
 10
682.3252161219759
 20
-29.01801005474044
 30
0.0
 11
682.3252161219768
 21
-40.01801005474044
 31
0.0
  0
CIRCLE
  5
476
330
2
100
AcDbEntity
  8
L-ZISSEN
100
AcDbCircle
 10
687.6752161219762
 20
-33.51801005474044
 30
0.0
 40
2.0
  0
LINE
  5
477
330
2
100
AcDbEntity
  8
L-ZISSEN
100
AcDbLine
 10
684.3252161219764
 20
-23.99134338807471
 30
0.0
 11
684.3252161219768
 21
-38.01801005474044
 31
0.0
  0
LINE
  5
478
330
2
100
AcDbEntity
  8
L-TYUSIN
100
AcDbLine
 10
687.6752161219762
 20
-30.26801005474044
 30
0.0
 11
687.6752161219762
 21
-36.76801005474044
 31
0.0
  0
LINE
  5
479
330
2
100
AcDbEntity
  8
L-ZISSEN
100
AcDbLine
 10
690.6752161219767
 20
-27.76801005474044
 30
0.0
 11
690.6752161219767
 21
-25.68467672140741
 31
0.0
  0
LINE
  5
47A
330
2
100
AcDbEntity
  8
L-ZISSEN
100
AcDbLine
 10
691.9252161219765
 20
-26.01801005474044
 30
0.0
 11
681.1280286219746
 21
-23.13876005474048
 31
0.0
  0
LINE
  5
47B
330
2
100
AcDbEntity
  8
L-ZISSEN
100
AcDbLine
 10
681.1280286219748
 20
0.2819899452597383
 30
0.0
 11
681.1280286219746
 21
-23.13876005474048
 31
0.0
  0
LINE
  5
47C
330
2
100
AcDbEntity
  8
L-ZISSEN
100
AcDbLine
 10
681.1280286219746
 20
-23.13876005474048
 30
0.0
 11
682.7773143610507
 21
-22.13449724212023
 31
0.0
  0
LINE
  5
47D
330
2
100
AcDbEntity
  8
L-ZISSEN
100
AcDbLine
 10
682.7773143610507
 20
-22.13449724212023
 30
0.0
 11
691.9252161219765
 21
-24.04966529488865
 31
0.0
  0
LINE
  5
47E
330
2
100
AcDbEntity
  8
L-ZISSEN
100
AcDbLine
 10
680.9252161219762
 20
0.2819899452597383
 30
0.0
 11
680.9252161219762
 21
-28.51801005474135
 31
0.0
  0
LINE
  5
47F
330
2
100
AcDbEntity
  8
L-ZISSEN
100
AcDbLine
 10
701.3603833901959
 20
-102.9180100547419
 30
0.0
 11
710.3172434537935
 21
-101.8691056888137
 31
0.0
  0
LINE
  5
480
330
2
100
AcDbEntity
  8
L-ZISSEN
100
AcDbLine
 10
701.3603833901959
 20
-102.9180100547419
 30
0.0
 11
701.3603833901954
 21
-106.4180100547418
 31
0.0
  0
ARC
  5
481
330
2
100
AcDbEntity
  8
L-ZISSEN
100
AcDbCircle
 10
698.6707329602263
 20
-111.688941840227
 30
0.0
 40
5.271330170371789
100
AcDbArc
 50
64.28835488513318
 51
115.2591066834237
  0
ARC
  5
482
330
2
100
AcDbEntity
  8
L-ZISSEN
100
AcDbCircle
 10
698.6707329602263
 20
-104.1491172686655
 30
0.0
 40
5.271330170371532
100
AcDbArc
 50
244.7408933165762
 51
295.7116451148668
  0
LINE
  5
483
330
2
100
AcDbEntity
  8
L-ZISSEN
100
AcDbLine
 10
696.9580149002349
 20
-111.3601949649382
 30
0.0
 11
696.958014900237
 21
-121.4190295544467
 31
0.0
  0
LINE
  5
484
330
2
100
AcDbEntity
  8
L-ZISSEN
100
AcDbLine
 10
697.9580149002317
 20
-111.8601949649382
 30
0.0
 11
697.9580149002317
 21
-121.1190295544465
 31
0.0
  0
LINE
  5
485
330
2
100
AcDbEntity
  8
L-ZISSEN
100
AcDbLine
 10
697.658014900232
 20
-121.4190295544467
 30
0.0
 11
697.9580149002317
 21
-121.1190295544465
 31
0.0
  0
LINE
  5
486
330
2
100
AcDbEntity
  8
L-ZISSEN
100
AcDbLine
 10
697.4580149002322
 20
-111.3601949649382
 30
0.0
 11
697.9580149002317
 21
-111.8601949649382
 31
0.0
  0
LINE
  5
487
330
2
100
AcDbEntity
  8
L-ZISSEN
100
AcDbLine
 10
696.9580149002322
 20
-111.3601949649382
 30
0.0
 11
697.4580149002317
 21
-110.8601949649382
 31
0.0
  0
LINE
  5
488
330
2
100
AcDbEntity
  8
L-ZISSEN
100
AcDbLine
 10
697.458014900232
 20
-110.8601949649373
 30
0.0
 11
697.4580149002317
 21
-109.4190295544467
 31
0.0
  0
LINE
  5
489
330
2
100
AcDbEntity
  8
L-ZISSEN
100
AcDbLine
 10
696.9580149002365
 20
-109.4203758168687
 30
0.0
 11
696.9580149002322
 21
-111.3601949649382
 31
0.0
  0
LINE
  5
48A
330
2
100
AcDbEntity
  8
L-ZISSEN
100
AcDbLine
 10
692.958014900234
 20
-111.3601949649382
 30
0.0
 11
692.9580149002342
 21
-121.4190295544467
 31
0.0
  0
LINE
  5
48B
330
2
100
AcDbEntity
  8
L-ZISSEN
100
AcDbLine
 10
693.9580149002331
 20
-111.3601949649382
 30
0.0
 11
693.9580149002333
 21
-121.4190295544467
 31
0.0
  0
LINE
  5
48C
330
2
100
AcDbEntity
  8
L-ZISSEN
100
AcDbLine
 10
694.9580149002322
 20
-111.3601949649382
 30
0.0
 11
694.9580149002322
 21
-121.4190295544467
 31
0.0
  0
LINE
  5
48D
330
2
100
AcDbEntity
  8
L-ZISSEN
100
AcDbLine
 10
695.9580149002358
 20
-111.3601949649382
 30
0.0
 11
695.9580149002361
 21
-121.4190295544467
 31
0.0
  0
LINE
  5
48E
330
2
100
AcDbEntity
  8
L-ZISSEN
100
AcDbLine
 10
694.9580149002322
 20
-111.3601949649382
 30
0.0
 11
697.4580149002322
 21
-111.3601949649382
 31
0.0
  0
LINE
  5
48F
330
2
100
AcDbEntity
  8
L-ZISSEN
100
AcDbLine
 10
700.9576585203189
 20
-106.9395320613521
 30
0.0
 11
700.9576585203189
 21
-108.8985270475404
 31
0.0
  0
LINE
  5
490
330
2
100
AcDbEntity
  8
L-ZISSEN
100
AcDbLine
 10
696.4213905372498
 20
-106.9216175981327
 30
0.0
 11
696.4213905372498
 21
-108.9164415107606
 31
0.0
  0
LINE
  5
491
330
2
100
AcDbEntity
  8
L-ZISSEN
100
AcDbLine
 10
704.2252161219765
 20
-12.91801005474008
 30
0.0
 11
702.9252161219763
 21
-12.91801005474098
 31
0.0
  0
LINE
  5
492
330
2
100
AcDbEntity
  8
L-ZISSEN
100
AcDbLine
 10
704.2252161219765
 20
-12.91801005474008
 30
0.0
 11
702.9252161219763
 21
-12.91801005474008
 31
0.0
  0
LINE
  5
493
330
2
100
AcDbEntity
  8
L-ZISSEN
100
AcDbLine
 10
704.2252161219773
 20
-4.418010054741898
 30
0.0
 11
702.9252161219763
 21
-4.418010054741898
 31
0.0
  0
LINE
  5
494
330
2
100
AcDbEntity
  8
L-ZISSEN
100
AcDbLine
 10
710.4252161219772
 20
-12.91801005473917
 30
0.0
 11
703.4252161219772
 21
-12.91801005474008
 31
0.0
  0
LINE
  5
495
330
2
100
AcDbEntity
  8
L-ZISSEN
100
AcDbLine
 10
702.0025911219748
 20
0.2819899452597383
 30
0.0
 11
702.0025911219748
 21
-17.86013505474056
 31
0.0
  0
LINE
  5
496
330
2
100
AcDbEntity
  8
L-ZISSEN
100
AcDbLine
 10
701.0731178829023
 20
-17.99291694603653
 30
0.0
 11
702.0025911219748
 21
-17.86013505474056
 31
0.0
  0
LINE
  5
497
330
2
100
AcDbEntity
  8
L-ZISSEN
100
AcDbLine
 10
701.0731178829023
 20
-18.63109100513611
 30
0.0
 11
702.0025911219748
 21
-17.86013505474056
 31
0.0
  0
LINE
  5
498
330
2
100
AcDbEntity
  8
L-ZISSEN
100
AcDbLine
 10
701.0731178829023
 20
-18.63109100513611
 30
0.0
 11
701.0731178829023
 21
-22.13449724212023
 31
0.0
  0
LINE
  5
499
330
2
100
AcDbEntity
  8
L-ZISSEN
100
AcDbLine
 10
698.1635911219767
 20
-4.903510054739854
 30
0.0
 11
698.1635911219767
 21
-5.863260054739839
 31
0.0
  0
LINE
  5
49A
330
2
100
AcDbEntity
  8
L-ZISSEN
100
AcDbLine
 10
698.1635911219767
 20
-3.943760054739868
 30
0.0
 11
698.1635911219767
 21
-2.984010054739883
 31
0.0
  0
LINE
  5
49B
330
2
100
AcDbEntity
  8
L-ZISSEN
100
AcDbLine
 10
698.1635911219767
 20
-5.863260054739839
 30
0.0
 11
700.5629661219765
 21
-4.423635054739861
 31
0.0
  0
LINE
  5
49C
330
2
100
AcDbEntity
  8
L-ZISSEN
100
AcDbLine
 10
698.1635911219767
 20
-2.984010054739883
 30
0.0
 11
700.5629661219765
 21
-4.423635054739861
 31
0.0
  0
LINE
  5
49D
330
2
100
AcDbEntity
  8
L-ZISSEN
100
AcDbLine
 10
692.884966121978
 20
-9.702260054739781
 30
0.0
 11
694.8044661219783
 21
-9.702260054739781
 31
0.0
  0
LINE
  5
49E
330
2
100
AcDbEntity
  8
L-ZISSEN
100
AcDbLine
 10
692.884966121978
 20
-2.024260054739897
 30
0.0
 11
692.884966121978
 21
-9.702260054739781
 31
0.0
  0
LINE
  5
49F
330
2
100
AcDbEntity
  8
L-ZISSEN
100
AcDbLine
 10
692.884966121978
 20
-2.024260054739897
 30
0.0
 11
692.884966121978
 21
-9.702260054739781
 31
0.0
  0
LINE
  5
4A0
330
2
100
AcDbEntity
  8
L-ZISSEN
100
AcDbLine
 10
694.3245911219764
 20
-3.943760054739868
 30
0.0
 11
694.3245911219764
 21
-4.903510054739854
 31
0.0
  0
LINE
  5
4A1
330
2
100
AcDbEntity
  8
L-ZISSEN
100
AcDbLine
 10
694.3245911219764
 20
-3.943760054739868
 30
0.0
 11
698.1635911219767
 21
-3.943760054739868
 31
0.0
  0
LINE
  5
4A2
330
2
100
AcDbEntity
  8
L-ZISSEN
100
AcDbLine
 10
694.3245911219764
 20
-3.943760054739868
 30
0.0
 11
698.1635911219767
 21
-3.943760054739868
 31
0.0
  0
LINE
  5
4A3
330
2
100
AcDbEntity
  8
L-ZISSEN
100
AcDbLine
 10
694.3245911219764
 20
-4.903510054739854
 30
0.0
 11
698.1635911219767
 21
-4.903510054739854
 31
0.0
  0
LINE
  5
4A4
330
2
100
AcDbEntity
  8
L-ZISSEN
100
AcDbLine
 10
694.3245911219764
 20
-4.903510054739854
 30
0.0
 11
698.1635911219767
 21
-4.903510054739854
 31
0.0
  0
ARC
  5
4A5
330
2
100
AcDbEntity
  8
L-ZISSEN
100
AcDbCircle
 10
702.4252161219763
 20
-28.51801005474135
 30
0.0
 40
0.5
100
AcDbArc
 50
270.0
 51
0.0
  0
LINE
  5
4A6
330
2
100
AcDbEntity
  8
L-ZISSEN
100
AcDbLine
 10
699.5252161219767
 20
-29.01801005474135
 30
0.0
 11
702.4252161219763
 21
-29.01801005474135
 31
0.0
  0
LINE
  5
4A7
330
2
100
AcDbEntity
  8
L-ZISSEN
100
AcDbLine
 10
699.5252161219767
 20
-23.9913433880738
 30
0.0
 11
699.5252161219767
 21
-38.01801005474044
 31
0.0
  0
LINE
  5
4A8
330
2
100
AcDbEntity
  8
L-ZISSEN
100
AcDbLine
 10
701.5252161219766
 20
-40.01801005474135
 30
0.0
 11
701.9252161219772
 21
-43.01801005474044
 31
0.0
  0
LINE
  5
4A9
330
2
100
AcDbEntity
  8
L-ZISSEN
100
AcDbLine
 10
701.9252161219772
 20
-29.01801005474044
 30
0.0
 11
701.9252161219772
 21
-43.01801005474044
 31
0.0
  0
LINE
  5
4AA
330
2
100
AcDbEntity
  8
L-ZISSEN
100
AcDbLine
 10
701.5252161219766
 20
-29.01801005474044
 30
0.0
 11
701.5252161219766
 21
-40.01801005474135
 31
0.0
  0
LINE
  5
4AB
330
2
100
AcDbEntity
  8
L-ZISSEN
100
AcDbLine
 10
693.1752161219767
 20
-27.76801005474044
 30
0.0
 11
693.1752161219767
 21
-25.68467672140741
 31
0.0
  0
LINE
  5
4AC
330
2
100
AcDbEntity
  8
L-TYUSIN
100
AcDbLine
 10
696.1752161219772
 20
-30.26801005474044
 30
0.0
 11
696.1752161219772
 21
-36.76801005474044
 31
0.0
  0
CIRCLE
  5
4AD
330
2
100
AcDbEntity
  8
L-ZISSEN
100
AcDbCircle
 10
696.1752161219772
 20
-33.51801005474044
 30
0.0
 40
2.0
  0
LINE
  5
4AE
330
2
100
AcDbEntity
  8
L-ZISSEN
100
AcDbLine
 10
702.7224036219747
 20
0.2819899452597383
 30
0.0
 11
702.7224036219747
 21
-23.13876005474048
 31
0.0
  0
LINE
  5
4AF
330
2
100
AcDbEntity
  8
L-ZISSEN
100
AcDbLine
 10
702.7224036219747
 20
-23.13876005474048
 30
0.0
 11
701.0731178829023
 21
-22.13449724212023
 31
0.0
  0
LINE
  5
4B0
330
2
100
AcDbEntity
  8
L-ZISSEN
100
AcDbLine
 10
702.9252161219763
 20
0.2819899452597383
 30
0.0
 11
702.9252161219763
 21
-28.51801005474135
 31
0.0
  0
LINE
  5
4B1
330
2
100
AcDbEntity
  8
L-ZISSEN
100
AcDbLine
 10
710.4252161219772
 20
-2.918010054740079
 30
0.0
 11
710.4252161219772
 21
-12.91801005473917
 31
0.0
  0
LINE
  5
4B2
330
2
100
AcDbEntity
  8
L-ZISSEN
100
AcDbLine
 10
704.2252161219773
 20
-4.418010054741898
 30
0.0
 11
704.2252161219765
 21
-12.91801005474008
 31
0.0
  0
LINE
  5
4B3
330
2
100
AcDbEntity
  8
L-ZISSEN
100
AcDbLine
 10
703.9252161219763
 20
0.5809704455541578
 30
0.0
 11
703.9252161219763
 21
0.2819899452597383
 31
0.0
  0
LINE
  5
4B4
330
2
100
AcDbEntity
  8
L-ZISSEN
100
AcDbLine
 10
580.9252161219752
 20
224.3677936968115
 30
0.0
 11
575.4252161219779
 21
222.4274145831814
 31
0.0
  0
LINE
  5
4B5
330
2
100
AcDbEntity
  8
L-ZISSEN
100
AcDbLine
 10
531.9252161219765
 20
104.3169004851915
 30
0.0
 11
551.9252161219765
 21
104.3169004851915
 31
0.0
  0
LINE
  5
4B6
330
2
100
AcDbEntity
  8
L-ZISSEN
100
AcDbLine
 10
531.9252161219765
 20
117.8169004851915
 30
0.0
 11
551.9252161219765
 21
117.8169004851915
 31
0.0
  0
LINE
  5
4B7
330
2
100
AcDbEntity
  8
L-ZISSEN
100
AcDbLine
 10
531.9252161219765
 20
118.5169004851914
 30
0.0
 11
551.9252161219765
 21
118.5169004851914
 31
0.0
  0
LINE
  5
4B8
330
2
100
AcDbEntity
  8
L-ZISSEN
100
AcDbLine
 10
552.9252161219765
 20
122.0169004851914
 30
0.0
 11
530.9252161219765
 21
122.0169004851914
 31
0.0
  0
LINE
  5
4B9
330
2
100
AcDbEntity
  8
L-ZISSEN
100
AcDbLine
 10
531.9252161219765
 20
118.5169004851914
 30
0.0
 11
531.9252161219765
 21
122.0169004851914
 31
0.0
  0
LINE
  5
4BA
330
2
100
AcDbEntity
  8
L-ZISSEN
100
AcDbLine
 10
531.9252161219765
 20
104.3169004851915
 30
0.0
 11
531.9252161219765
 21
117.8169004851915
 31
0.0
  0
LINE
  5
4BB
330
2
100
AcDbEntity
  8
L-ZISSEN
100
AcDbLine
 10
532.9252161219764
 20
117.8169004851915
 30
0.0
 11
532.9252161219769
 21
118.5169004851914
 31
0.0
  0
LINE
  5
4BC
330
2
100
AcDbEntity
  8
L-ZISSEN
100
AcDbLine
 10
530.9252161219765
 20
131.0169004851914
 30
0.0
 11
530.9252161219765
 21
122.0169004851914
 31
0.0
  0
LINE
  5
4BD
330
2
100
AcDbEntity
  8
L-ZISSEN
100
AcDbLine
 10
551.9252161219765
 20
118.5169004851914
 30
0.0
 11
551.9252161219767
 21
122.0169004851914
 31
0.0
  0
LINE
  5
4BE
330
2
100
AcDbEntity
  8
L-ZISSEN
100
AcDbLine
 10
551.9252161219765
 20
104.3169004851915
 30
0.0
 11
551.9252161219765
 21
117.8169004851915
 31
0.0
  0
LINE
  5
4BF
330
2
100
AcDbEntity
  8
L-ZISSEN
100
AcDbLine
 10
550.925216121977
 20
117.8169004851915
 30
0.0
 11
550.9252161219765
 21
118.5169004851914
 31
0.0
  0
LINE
  5
4C0
330
2
100
AcDbEntity
  8
L-ZISSEN
100
AcDbLine
 10
552.9252161219765
 20
131.0169004851914
 30
0.0
 11
552.9252161219765
 21
122.0169004851914
 31
0.0
  0
SOLID
  5
4C1
330
2
100
AcDbEntity
  8
L-ZISSEN
100
AcDbTrace
 10
540.1753787628936
 20
251.3411955246547
 30
0.0
 11
540.60216836267
 21
251.8533430443858
 31
0.0
 12
541.9252161219765
 22
250.3169004851906
 32
0.0
 13
541.9252161219765
 23
250.3169004851906
 33
0.0
  0
LINE
  5
4C2
330
2
100
AcDbEntity
  8
L-ZISSEN
100
AcDbLine
 10
571.9252161219738
 20
144.9739108783769
 30
0.0
 11
571.9252161219765
 21
250.3169004851924
 31
0.0
  0
ARC
  5
4C3
330
2
100
AcDbEntity
  8
L-ZISSEN
100
AcDbCircle
 10
541.9252161219742
 20
233.8303060038479
 30
0.0
 40
99.53938471878515
100
AcDbArc
 50
276.9241513684761
 51
283.9062370650399
  0
LINE
  5
4C4
330
2
100
AcDbEntity
  8
L-ZISSEN
100
AcDbLine
 10
553.9252161219764
 20
131.0169004851914
 30
0.0
 11
553.9252161219764
 21
135.0169004851913
 31
0.0
  0
ARC
  5
4C5
330
2
100
AcDbEntity
  8
L-ZISSEN
100
AcDbCircle
 10
563.9252161219724
 20
144.9739108783769
 30
0.0
 40
8.000000000000113
100
AcDbArc
 50
283.9062370650525
 51
0.0
  0
LINE
  5
4C6
330
2
100
AcDbEntity
  8
L-ZISSEN
100
AcDbLine
 10
567.2052161219767
 20
239.9781615735601
 30
0.0
 11
558.7752161219737
 21
239.9781615735601
 31
0.0
  0
LINE
  5
4C7
330
2
100
AcDbEntity
  8
L-ZISSEN
100
AcDbLine
 10
562.9902161219752
 20
155.4781615735582
 30
0.0
 11
567.2052161219721
 21
157.47816157356
 31
0.0
  0
LINE
  5
4C8
330
2
100
AcDbEntity
  8
L-ZISSEN
100
AcDbLine
 10
558.7752161219714
 20
157.47816157356
 30
0.0
 11
562.9902161219752
 21
155.4781615735582
 31
0.0
  0
LINE
  5
4C9
330
2
100
AcDbEntity
  8
L-ZISSEN
100
AcDbLine
 10
558.7752161219737
 20
239.9781615735601
 30
0.0
 11
558.7752161219737
 21
157.4781615735582
 31
0.0
  0
LINE
  5
4CA
330
2
100
AcDbEntity
  8
L-ZISSEN
100
AcDbLine
 10
575.4252161219779
 20
222.4274145831814
 30
0.0
 11
575.239311446528
 21
222.4274145831814
 31
0.0
  0
LINE
  5
4CB
330
2
100
AcDbEntity
  8
L-ZISSEN
100
AcDbLine
 10
575.239311446528
 20
224.3233939471765
 30
0.0
 11
575.239311446528
 21
226.5098781881106
 31
0.0
  0
LINE
  5
4CC
330
2
100
AcDbEntity
  8
L-ZISSEN
100
AcDbLine
 10
573.4756373027562
 20
216.8434181997318
 30
0.0
 11
571.9252161219765
 21
216.8434181997318
 31
0.0
  0
LINE
  5
4CD
330
2
100
AcDbEntity
  8
L-ZISSEN
100
AcDbLine
 10
571.9890534720002
 20
217.1939339705559
 30
0.0
 11
573.752727615772
 21
224.6739097179988
 31
0.0
  0
LINE
  5
4CE
330
2
100
AcDbEntity
  8
L-ZISSEN
100
AcDbLine
 10
573.752727615772
 20
226.5098781881106
 30
0.0
 11
573.752727615772
 21
224.6739097179988
 31
0.0
  0
LINE
  5
4CF
330
2
100
AcDbEntity
  8
L-ZISSEN
100
AcDbLine
 10
573.4756373027562
 20
216.8434181997318
 30
0.0
 11
575.239311446528
 21
224.3233939471765
 31
0.0
  0
LINE
  5
4D0
330
2
100
AcDbEntity
  8
L-ZISSEN
100
AcDbLine
 10
575.239311446528
 20
226.5098781881106
 30
0.0
 11
571.9252161219765
 21
226.5098781881106
 31
0.0
  0
LINE
  5
4D1
330
2
100
AcDbEntity
  8
L-ZISSEN
100
AcDbLine
 10
567.2052161219767
 20
239.9781615735601
 30
0.0
 11
567.2052161219739
 21
157.47816157356
 31
0.0
  0
LINE
  5
4D2
330
2
100
AcDbEntity
  8
L-ZISSEN
100
AcDbLine
 10
575.239311446528
 20
222.4274145831814
 30
0.0
 11
575.239311446528
 21
250.3169004851906
 31
0.0
  0
LINE
  5
4D3
330
2
100
AcDbEntity
  8
L-ZISSEN
100
AcDbLine
 10
571.9252161219765
 20
250.3169004851924
 30
0.0
 11
571.9252161219765
 21
208.9929060309923
 31
0.0
  0
LINE
  5
4D4
330
2
100
AcDbEntity
  8
L-ZISSEN
100
AcDbLine
 10
576.9252161219765
 20
229.3169004851924
 30
0.0
 11
580.9252161219752
 21
228.6519626794097
 31
0.0
  0
LINE
  5
4D5
330
2
100
AcDbEntity
  8
L-ZISSEN
100
AcDbLine
 10
580.9252161219752
 20
228.6519626794097
 30
0.0
 11
580.9252161219752
 21
224.3677936968115
 31
0.0
  0
LINE
  5
4D6
330
2
100
AcDbEntity
  8
L-ZISSEN
100
AcDbLine
 10
576.9252161219765
 20
250.3169004851906
 30
0.0
 11
576.9252161219765
 21
229.3169004851924
 31
0.0
  0
TEXT
  5
4D7
330
2
100
AcDbEntity
  8
L-ZISSEN
100
AcDbText
 10
591.3849309107981
 20
291.3544128351068
 30
0.0
 40
4.5
  1
N
100
AcDbText
  0
TEXT
  5
4D8
330
2
100
AcDbEntity
  8
L-ZISSEN
100
AcDbText
 10
591.2949085160607
 20
297.8652765053075
 30
0.0
 40
4.5
  1
2
100
AcDbText
  0
LINE
  5
4D9
330
2
100
AcDbEntity
  8
L-ZISSEN
100
AcDbLine
 10
666.6452161219763
 20
239.9781615735601
 30
0.0
 11
675.0752161219771
 21
239.9781615735601
 31
0.0
  0
LINE
  5
4DA
330
2
100
AcDbEntity
  8
L-ZISSEN
100
AcDbLine
 10
670.8602161219755
 20
155.4781615735582
 30
0.0
 11
666.6452161219763
 21
157.4781615735592
 31
0.0
  0
ARC
  5
4DB
330
2
100
AcDbEntity
  8
L-ZISSEN
100
AcDbCircle
 10
691.9252161219742
 20
233.8303060038479
 30
0.0
 40
99.53938471878538
100
AcDbArc
 50
256.0937629349474
 51
263.0758486315302
  0
LINE
  5
4DC
330
2
100
AcDbEntity
  8
L-ZISSEN
100
AcDbLine
 10
661.9252161219765
 20
144.9739108783769
 30
0.0
 11
661.9252161219765
 21
250.3169004851906
 31
0.0
  0
ARC
  5
4DD
330
2
100
AcDbEntity
  8
L-ZISSEN
100
AcDbCircle
 10
669.9252161219738
 20
144.9739108783769
 30
0.0
 40
8.000000000000113
100
AcDbArc
 50
180.0
 51
256.0937629347642
  0
LINE
  5
4DE
330
2
100
AcDbEntity
  8
L-ZISSEN
100
AcDbLine
 10
666.6452161219763
 20
239.9781615735601
 30
0.0
 11
666.6452161219763
 21
157.4781615735592
 31
0.0
  0
LINE
  5
4DF
330
2
100
AcDbEntity
  8
L-ZISSEN
100
AcDbLine
 10
693.1752161219788
 20
246.5669004851924
 30
0.0
 11
690.6752161219787
 21
246.5669004851924
 31
0.0
  0
ARC
  5
4E0
330
2
100
AcDbEntity
  8
L-ZISSEN
100
AcDbCircle
 10
691.9252161219765
 20
214.0669004851906
 30
0.0
 40
1.250000000000568
100
AcDbArc
 50
180.0
 51
0.0
  0
CIRCLE
  5
4E1
330
2
100
AcDbEntity
  8
L-ZISSEN
100
AcDbCircle
 10
691.9252161219765
 20
220.3204457840174
 30
0.0
 40
1.25
  0
LINE
  5
4E2
330
2
100
AcDbEntity
  8
L-TYUSIN
100
AcDbLine
 10
689.7384225594215
 20
220.3204457840174
 30
0.0
 11
693.9332025343333
 21
220.3204457840174
 31
0.0
  0
LINE
  5
4E3
330
2
100
AcDbEntity
  8
L-ZISSEN
100
AcDbLine
 10
703.8396492568108
 20
220.3748749741471
 30
0.0
 11
691.9252161219765
 21
217.8805169997158
 31
0.0
  0
LINE
  5
4E4
330
2
100
AcDbEntity
  8
L-ZISSEN
100
AcDbLine
 10
691.9252161219765
 20
223.2357282279636
 30
0.0
 11
703.8396492568108
 21
224.937790104369
 31
0.0
  0
LINE
  5
4E5
330
2
100
AcDbEntity
  8
L-ZISSEN
100
AcDbLine
 10
691.9252161219765
 20
224.0669004851906
 30
0.0
 11
705.0502161219742
 21
225.9419004851906
 31
0.0
  0
LINE
  5
4E6
330
2
100
AcDbEntity
  8
L-ZISSEN
100
AcDbLine
 10
691.9252161219765
 20
215.3169004851906
 30
0.0
 11
705.9877161219742
 21
219.0669004851906
 31
0.0
  0
LINE
  5
4E7
330
2
100
AcDbEntity
  8
L-ZISSEN
100
AcDbLine
 10
679.1127161219765
 20
210.3169004851906
 30
0.0
 11
704.7377161219765
 21
210.3169004851906
 31
0.0
  0
LINE
  5
4E8
330
2
100
AcDbEntity
  8
L-ZISSEN
100
AcDbLine
 10
681.9252161219765
 20
104.3169004851915
 30
0.0
 11
701.9252161219765
 21
104.3169004851915
 31
0.0
  0
LINE
  5
4E9
330
2
100
AcDbEntity
  8
L-ZISSEN
100
AcDbLine
 10
681.9252161219765
 20
117.8169004851915
 30
0.0
 11
701.9252161219765
 21
117.8169004851915
 31
0.0
  0
LINE
  5
4EA
330
2
100
AcDbEntity
  8
L-ZISSEN
100
AcDbLine
 10
681.9252161219765
 20
118.5169004851914
 30
0.0
 11
701.9252161219765
 21
118.5169004851914
 31
0.0
  0
LINE
  5
4EB
330
2
100
AcDbEntity
  8
L-ZISSEN
100
AcDbLine
 10
702.9252161219765
 20
122.0169004851914
 30
0.0
 11
680.9252161219765
 21
122.0169004851914
 31
0.0
  0
LINE
  5
4EC
330
2
100
AcDbEntity
  8
L-ZISSEN
100
AcDbLine
 10
679.9252161219765
 20
131.0169004851914
 30
0.0
 11
703.9252161219764
 21
131.0169004851914
 31
0.0
  0
LINE
  5
4ED
330
2
100
AcDbEntity
  8
L-ZISSEN
100
AcDbLine
 10
679.9252161219765
 20
135.0169004851913
 30
0.0
 11
703.9252161219764
 21
135.0169004851913
 31
0.0
  0
LINE
  5
4EE
330
2
100
AcDbEntity
  8
L-ZISSEN
100
AcDbLine
 10
679.9252161219765
 20
133.5169004851914
 30
0.0
 11
703.9252161219764
 21
133.5169004851914
 31
0.0
  0
LINE
  5
4EF
330
2
100
AcDbEntity
  8
L-ZISSEN
100
AcDbLine
 10
695.6752161219788
 20
236.5669004851925
 30
0.0
 11
691.9252161219787
 21
230.3169004851925
 31
0.0
  0
LINE
  5
4F0
330
2
100
AcDbEntity
  8
L-ZISSEN
100
AcDbLine
 10
679.9252161219765
 20
131.0169004851914
 30
0.0
 11
679.9252161219765
 21
135.0169004851913
 31
0.0
  0
LINE
  5
4F1
330
2
100
AcDbEntity
  8
L-ZISSEN
100
AcDbLine
 10
681.9252161219765
 20
118.5169004851914
 30
0.0
 11
681.9252161219765
 21
122.0169004851914
 31
0.0
  0
LINE
  5
4F2
330
2
100
AcDbEntity
  8
L-ZISSEN
100
AcDbLine
 10
681.9252161219765
 20
104.3169004851915
 30
0.0
 11
681.9252161219765
 21
117.8169004851915
 31
0.0
  0
LINE
  5
4F3
330
2
100
AcDbEntity
  8
L-ZISSEN
100
AcDbLine
 10
682.9252161219764
 20
117.8169004851915
 30
0.0
 11
682.925216121977
 21
118.5169004851914
 31
0.0
  0
LINE
  5
4F4
330
2
100
AcDbEntity
  8
L-ZISSEN
100
AcDbLine
 10
680.9252161219765
 20
131.0169004851914
 30
0.0
 11
680.9252161219765
 21
122.0169004851914
 31
0.0
  0
LINE
  5
4F5
330
2
100
AcDbEntity
  8
L-ZISSEN
100
AcDbLine
 10
683.8002161219765
 20
245.3169004851906
 30
0.0
 11
680.6752161219765
 21
243.4419004851906
 31
0.0
  0
LINE
  5
4F6
330
2
100
AcDbEntity
  8
L-ZISSEN
100
AcDbLine
 10
683.8002161219765
 20
241.5669004851906
 30
0.0
 11
680.6752161219765
 21
243.4419004851906
 31
0.0
  0
LINE
  5
4F7
330
2
100
AcDbEntity
  8
L-ZISSEN
100
AcDbLine
 10
691.9252161219765
 20
224.0669004851906
 30
0.0
 11
678.8002161219742
 21
225.9419004851906
 31
0.0
  0
LINE
  5
4F8
330
2
100
AcDbEntity
  8
L-ZISSEN
100
AcDbLine
 10
680.0107829871421
 20
220.3748749741471
 30
0.0
 11
691.9252161219765
 21
217.8805169997158
 31
0.0
  0
LINE
  5
4F9
330
2
100
AcDbEntity
  8
L-ZISSEN
100
AcDbLine
 10
691.9252161219765
 20
223.2357282279636
 30
0.0
 11
680.0107829871421
 21
224.937790104369
 31
0.0
  0
LINE
  5
4FA
330
2
100
AcDbEntity
  8
L-ZISSEN
100
AcDbLine
 10
691.9252161219765
 20
215.3169004851906
 30
0.0
 11
677.8627161219742
 21
219.0669004851906
 31
0.0
  0
LINE
  5
4FB
330
2
100
AcDbEntity
  8
L-ZISSEN
100
AcDbLine
 10
677.8627161219742
 20
219.0669004851906
 30
0.0
 11
680.0107829871421
 21
220.3748749741471
 31
0.0
  0
LINE
  5
4FC
330
2
100
AcDbEntity
  8
L-ZISSEN
100
AcDbLine
 10
680.0107829871421
 20
225.7689623615961
 30
0.0
 11
678.8002161219742
 21
225.9419004851906
 31
0.0
  0
LINE
  5
4FD
330
2
100
AcDbEntity
  8
L-ZISSEN
100
AcDbLine
 10
680.0107829871421
 20
224.937790104369
 30
0.0
 11
678.8002161219742
 21
225.9419004851906
 31
0.0
  0
LINE
  5
4FE
330
2
100
AcDbEntity
  8
L-ZISSEN
100
AcDbLine
 10
680.0107829871421
 20
224.937790104369
 30
0.0
 11
680.0107829871421
 21
220.3748749741471
 31
0.0
  0
ARC
  5
4FF
330
2
100
AcDbEntity
  8
L-ZISSEN
100
AcDbCircle
 10
679.1127161219765
 20
211.5669004851906
 30
0.0
 40
1.250000000000568
100
AcDbArc
 50
180.0
 51
270.0
  0
LINE
  5
500
330
2
100
AcDbEntity
  8
L-ZISSEN
100
AcDbLine
 10
675.0752161219771
 20
157.4781615735582
 30
0.0
 11
670.8602161219755
 21
155.4781615735582
 31
0.0
  0
LINE
  5
501
330
2
100
AcDbEntity
  8
L-ZISSEN
100
AcDbLine
 10
675.0752161219771
 20
239.9781615735601
 30
0.0
 11
675.0752161219771
 21
157.4781615735592
 31
0.0
  0
LINE
  5
502
330
2
100
AcDbEntity
  8
L-ZISSEN
100
AcDbLine
 10
677.8627161219742
 20
250.3169004851906
 30
0.0
 11
677.8627161219742
 21
211.5669004851906
 31
0.0
  0
LINE
  5
503
330
2
100
AcDbEntity
  8
L-ZISSEN
100
AcDbLine
 10
677.8627161219742
 20
250.3169004851906
 30
0.0
 11
677.8627161219742
 21
226.5276251180584
 31
0.0
  0
LINE
  5
504
330
2
100
AcDbEntity
  8
L-ZISSEN
100
AcDbLine
 10
678.8002161219742
 20
250.3169004851906
 30
0.0
 11
678.8002161219742
 21
225.9419004851906
 31
0.0
  0
LINE
  5
505
330
2
100
AcDbEntity
  8
L-ZISSEN
100
AcDbLine
 10
690.6752161219787
 20
246.5669004851924
 30
0.0
 11
690.6752161219787
 21
236.5669004851925
 31
0.0
  0
LINE
  5
506
330
2
100
AcDbEntity
  8
L-ZISSEN
100
AcDbLine
 10
690.6752161219787
 20
246.5669004851924
 30
0.0
 11
690.6752161219787
 21
236.5669004851925
 31
0.0
  0
LINE
  5
507
330
2
100
AcDbEntity
  8
L-ZISSEN
100
AcDbLine
 10
688.8002161219765
 20
244.0669004851906
 30
0.0
 11
688.8002161219765
 21
242.8169004851906
 31
0.0
  0
LINE
  5
508
330
2
100
AcDbEntity
  8
L-ZISSEN
100
AcDbLine
 10
690.6752161219787
 20
236.5669004851925
 30
0.0
 11
688.1752161219788
 21
236.5669004851925
 31
0.0
  0
LINE
  5
509
330
2
100
AcDbEntity
  8
L-ZISSEN
100
AcDbLine
 10
683.8002161219765
 20
244.0669004851906
 30
0.0
 11
683.8002161219765
 21
245.3169004851906
 31
0.0
  0
LINE
  5
50A
330
2
100
AcDbEntity
  8
L-ZISSEN
100
AcDbLine
 10
683.8002161219765
 20
242.8169004851906
 30
0.0
 11
683.8002161219765
 21
241.5669004851906
 31
0.0
  0
LINE
  5
50B
330
2
100
AcDbEntity
  8
L-ZISSEN
100
AcDbLine
 10
688.8002161219765
 20
242.8169004851906
 30
0.0
 11
683.8002161219765
 21
242.8169004851906
 31
0.0
  0
LINE
  5
50C
330
2
100
AcDbEntity
  8
L-ZISSEN
100
AcDbLine
 10
688.8002161219765
 20
242.8169004851906
 30
0.0
 11
683.8002161219765
 21
242.8169004851906
 31
0.0
  0
LINE
  5
50D
330
2
100
AcDbEntity
  8
L-ZISSEN
100
AcDbLine
 10
688.8002161219765
 20
244.0669004851906
 30
0.0
 11
683.8002161219765
 21
244.0669004851906
 31
0.0
  0
LINE
  5
50E
330
2
100
AcDbEntity
  8
L-ZISSEN
100
AcDbLine
 10
688.8002161219765
 20
244.0669004851906
 30
0.0
 11
683.8002161219765
 21
244.0669004851906
 31
0.0
  0
LINE
  5
50F
330
2
100
AcDbEntity
  8
L-ZISSEN
100
AcDbLine
 10
682.5502161219765
 20
217.8169004851925
 30
0.0
 11
682.5502161219742
 21
210.3169004851906
 31
0.0
  0
LINE
  5
510
330
2
100
AcDbEntity
  8
L-ZISSEN
100
AcDbLine
 10
691.9252161219765
 20
215.3169004851906
 30
0.0
 11
691.9252161219765
 21
217.8805169997158
 31
0.0
  0
LINE
  5
511
330
2
100
AcDbEntity
  8
L-ZISSEN
100
AcDbLine
 10
691.9252161219765
 20
224.0669004851906
 30
0.0
 11
691.9252161219765
 21
223.2357282279636
 31
0.0
  0
LINE
  5
512
330
2
100
AcDbEntity
  8
L-ZISSEN
100
AcDbLine
 10
690.6752161219742
 20
215.6502338185255
 30
0.0
 11
690.6752161219765
 21
214.0669004851906
 31
0.0
  0
LINE
  5
513
330
2
100
AcDbEntity
  8
L-ZISSEN
100
AcDbLine
 10
688.1752161219788
 20
236.5669004851925
 30
0.0
 11
691.9252161219787
 21
230.3169004851925
 31
0.0
  0
LINE
  5
514
330
2
100
AcDbEntity
  8
L-ZISSEN
100
AcDbLine
 10
701.9252161219765
 20
118.5169004851914
 30
0.0
 11
701.9252161219768
 21
122.0169004851914
 31
0.0
  0
LINE
  5
515
330
2
100
AcDbEntity
  8
L-ZISSEN
100
AcDbLine
 10
701.9252161219765
 20
104.3169004851915
 30
0.0
 11
701.9252161219765
 21
117.8169004851915
 31
0.0
  0
LINE
  5
516
330
2
100
AcDbEntity
  8
L-ZISSEN
100
AcDbLine
 10
700.925216121977
 20
117.8169004851915
 30
0.0
 11
700.9252161219765
 21
118.5169004851914
 31
0.0
  0
LINE
  5
517
330
2
100
AcDbEntity
  8
L-ZISSEN
100
AcDbLine
 10
702.9252161219765
 20
131.0169004851914
 30
0.0
 11
702.9252161219765
 21
122.0169004851914
 31
0.0
  0
LINE
  5
518
330
2
100
AcDbEntity
  8
L-ZISSEN
100
AcDbLine
 10
703.9252161219764
 20
131.0169004851914
 30
0.0
 11
703.9252161219764
 21
135.0169004851913
 31
0.0
  0
LINE
  5
519
330
2
100
AcDbEntity
  8
L-ZISSEN
100
AcDbLine
 10
703.8396492568108
 20
224.937790104369
 30
0.0
 11
705.0502161219742
 21
225.9419004851906
 31
0.0
  0
LINE
  5
51A
330
2
100
AcDbEntity
  8
L-ZISSEN
100
AcDbLine
 10
703.8396492568108
 20
225.7689623615961
 30
0.0
 11
705.0502161219742
 21
225.9419004851906
 31
0.0
  0
LINE
  5
51B
330
2
100
AcDbEntity
  8
L-ZISSEN
100
AcDbLine
 10
705.9877161219742
 20
219.0669004851906
 30
0.0
 11
703.8396492568108
 21
220.3748749741471
 31
0.0
  0
LINE
  5
51C
330
2
100
AcDbEntity
  8
L-ZISSEN
100
AcDbLine
 10
700.0502161219765
 20
245.3169004851925
 30
0.0
 11
703.1752161219765
 21
243.4419004851924
 31
0.0
  0
LINE
  5
51D
330
2
100
AcDbEntity
  8
L-ZISSEN
100
AcDbLine
 10
700.0502161219765
 20
241.5669004851924
 30
0.0
 11
703.1752161219765
 21
243.4419004851924
 31
0.0
  0
LINE
  5
51E
330
2
100
AcDbEntity
  8
L-ZISSEN
100
AcDbLine
 10
700.0502161219765
 20
244.0669004851924
 30
0.0
 11
700.0502161219765
 21
245.3169004851925
 31
0.0
  0
LINE
  5
51F
330
2
100
AcDbEntity
  8
L-ZISSEN
100
AcDbLine
 10
700.0502161219765
 20
242.8169004851925
 30
0.0
 11
700.0502161219765
 21
241.5669004851924
 31
0.0
  0
LINE
  5
520
330
2
100
AcDbEntity
  8
L-ZISSEN
100
AcDbLine
 10
693.1752161219788
 20
236.5669004851925
 30
0.0
 11
695.6752161219788
 21
236.5669004851925
 31
0.0
  0
LINE
  5
521
330
2
100
AcDbEntity
  8
L-ZISSEN
100
AcDbLine
 10
693.1752161219788
 20
246.5669004851924
 30
0.0
 11
693.1752161219788
 21
236.5669004851925
 31
0.0
  0
LINE
  5
522
330
2
100
AcDbEntity
  8
L-ZISSEN
100
AcDbLine
 10
693.1752161219788
 20
246.5669004851924
 30
0.0
 11
693.1752161219788
 21
236.5669004851925
 31
0.0
  0
LINE
  5
523
330
2
100
AcDbEntity
  8
L-ZISSEN
100
AcDbLine
 10
695.0502161219765
 20
244.0669004851924
 30
0.0
 11
695.0502161219765
 21
242.8169004851925
 31
0.0
  0
LINE
  5
524
330
2
100
AcDbEntity
  8
L-ZISSEN
100
AcDbLine
 10
695.0502161219765
 20
242.8169004851925
 30
0.0
 11
700.0502161219765
 21
242.8169004851925
 31
0.0
  0
LINE
  5
525
330
2
100
AcDbEntity
  8
L-ZISSEN
100
AcDbLine
 10
695.0502161219765
 20
242.8169004851925
 30
0.0
 11
700.0502161219765
 21
242.8169004851925
 31
0.0
  0
LINE
  5
526
330
2
100
AcDbEntity
  8
L-ZISSEN
100
AcDbLine
 10
695.0502161219765
 20
244.0669004851924
 30
0.0
 11
700.0502161219765
 21
244.0669004851924
 31
0.0
  0
LINE
  5
527
330
2
100
AcDbEntity
  8
L-ZISSEN
100
AcDbLine
 10
695.0502161219765
 20
244.0669004851924
 30
0.0
 11
700.0502161219765
 21
244.0669004851924
 31
0.0
  0
LINE
  5
528
330
2
100
AcDbEntity
  8
L-ZISSEN
100
AcDbLine
 10
701.3002161219742
 20
217.8169004851906
 30
0.0
 11
701.3002161219742
 21
210.3169004851906
 31
0.0
  0
LINE
  5
529
330
2
100
AcDbEntity
  8
L-ZISSEN
100
AcDbLine
 10
703.8396492568108
 20
224.937790104369
 30
0.0
 11
703.8396492568108
 21
220.3748749741471
 31
0.0
  0
LINE
  5
52A
330
2
100
AcDbEntity
  8
L-ZISSEN
100
AcDbLine
 10
693.1752161219765
 20
215.6502338185246
 30
0.0
 11
693.1752161219765
 21
214.0669004851906
 31
0.0
  0
LINE
  5
52B
330
2
100
AcDbEntity
  8
L-ZISSEN
100
AcDbLine
 10
708.775216121976
 20
157.4781615735582
 30
0.0
 11
712.9902161219774
 21
155.4781615735582
 31
0.0
  0
ARC
  5
52C
330
2
100
AcDbEntity
  8
L-ZISSEN
100
AcDbCircle
 10
704.7377161219765
 20
211.5669004851906
 30
0.0
 40
1.249999999999715
100
AcDbArc
 50
270.0
 51
0.0
  0
LINE
  5
52D
330
2
100
AcDbEntity
  8
L-ZISSEN
100
AcDbLine
 10
708.775216121976
 20
239.9781615735601
 30
0.0
 11
708.775216121976
 21
157.4781615735582
 31
0.0
  0
LINE
  5
52E
330
2
100
AcDbEntity
  8
L-ZISSEN
100
AcDbLine
 10
705.9877161219742
 20
250.3169004851906
 30
0.0
 11
705.9877161219742
 21
211.5669004851906
 31
0.0
  0
LINE
  5
52F
330
2
100
AcDbEntity
  8
L-ZISSEN
100
AcDbLine
 10
705.9877161219742
 20
250.3169004851906
 30
0.0
 11
705.9877161219742
 21
226.5276251180584
 31
0.0
  0
LINE
  5
530
330
2
100
AcDbEntity
  8
L-ZISSEN
100
AcDbLine
 10
705.0502161219742
 20
250.3169004851906
 30
0.0
 11
705.0502161219742
 21
225.9419004851906
 31
0.0
  0
LINE
  5
531
330
2
100
AcDbEntity
  8
L-ZISSEN
100
AcDbLine
 10
721.1810831834579
 20
-12.91801005474098
 30
0.0
 11
719.465222181481
 21
-92.16360338568028
 31
0.0
  0
LINE
  5
532
330
2
100
AcDbEntity
  8
L-ZISSEN
100
AcDbLine
 10
722.0614992374024
 20
0.5809704455532483
 30
0.0
 11
721.8812007222038
 21
-12.91801005474098
 31
0.0
  0
LINE
  5
533
330
2
100
AcDbEntity
  8
L-ZISSEN
100
AcDbLine
 10
721.1810831834579
 20
-12.91801005474098
 30
0.0
 11
721.8812007222038
 21
-12.91801005474098
 31
0.0
  0
LINE
  5
534
330
2
100
AcDbEntity
  8
L-ZISSEN
100
AcDbLine
 10
715.9365705602347
 20
-2.918010054741898
 30
0.0
 11
715.9365705602347
 21
-12.91801005473917
 31
0.0
  0
LINE
  5
535
330
2
100
AcDbEntity
  8
L-ZISSEN
100
AcDbLine
 10
715.9365705602347
 20
-12.91801005473917
 30
0.0
 11
721.1810831834579
 21
-12.91801005473917
 31
0.0
  0
LINE
  5
536
330
2
100
AcDbEntity
  8
L-ZISSEN
100
AcDbLine
 10
851.425216121976
 20
-12.91801005474008
 30
0.0
 11
858.425216121976
 21
-12.91801005474008
 31
0.0
  0
LINE
  5
537
330
2
100
AcDbEntity
  8
L-ZISSEN
100
AcDbLine
 10
860.4900488537563
 20
-102.9180100547419
 30
0.0
 11
851.5331887901588
 21
-101.8691056888137
 31
0.0
  0
LINE
  5
538
330
2
100
AcDbEntity
  8
L-ZISSEN
100
AcDbLine
 10
828.1806252416085
 20
-16.91801005474099
 30
0.0
 11
837.6806252416084
 21
-16.91801005474099
 31
0.0
  0
LINE
  5
539
330
2
100
AcDbEntity
  8
L-ZISSEN
100
AcDbLine
 10
828.1806252416085
 20
-93.91801005474098
 30
0.0
 11
837.6806252416084
 21
-93.91801005474098
 31
0.0
  0
LINE
  5
53A
330
2
100
AcDbEntity
  8
L-TYUSIN
100
AcDbLine
 10
821.2806252416088
 20
-21.91801005474098
 30
0.0
 11
845.8022999512589
 21
-21.91801005474098
 31
0.0
  0
LINE
  5
53B
330
2
100
AcDbEntity
  8
L-TYUSIN
100
AcDbLine
 10
844.3215009508252
 20
-88.91801005474098
 30
0.0
 11
821.2806252416088
 21
-88.91801005474098
 31
0.0
  0
LINE
  5
53C
330
2
100
AcDbEntity
  8
L-ZISSEN
100
AcDbLine
 10
828.1806252416085
 20
-16.91801005474099
 30
0.0
 11
828.1806252416103
 21
-93.91801005474098
 31
0.0
  0
ARC
  5
53D
330
2
100
AcDbEntity
  8
L-ZISSEN
100
AcDbCircle
 10
828.592627809386
 20
-87.19322353892403
 30
0.0
 40
2.312215931624567
100
AcDbArc
 50
100.2640683722025
 51
180.7783719766075
  0
ARC
  5
53E
330
2
100
AcDbEntity
  8
L-ZISSEN
100
AcDbCircle
 10
828.592627809386
 20
-90.14279657055977
 30
0.0
 40
2.312215931624567
100
AcDbArc
 50
179.2216280233924
 51
259.7359316277974
  0
LINE
  5
53F
330
2
100
AcDbEntity
  8
L-ZISSEN
100
AcDbLine
 10
826.2806252416089
 20
-90.11138572771505
 30
0.0
 11
826.2806252416089
 21
-87.22463438176783
 31
0.0
  0
ARC
  5
540
330
2
100
AcDbEntity
  8
L-ZISSEN
100
AcDbCircle
 10
828.592627809386
 20
-20.69322353892312
 30
0.0
 40
2.312215931624567
100
AcDbArc
 50
100.2640683722025
 51
180.7783719766075
  0
ARC
  5
541
330
2
100
AcDbEntity
  8
L-ZISSEN
100
AcDbCircle
 10
828.592627809386
 20
-23.64279657055885
 30
0.0
 40
2.312215931624567
100
AcDbArc
 50
179.2216280233924
 51
259.7359316277974
  0
LINE
  5
542
330
2
100
AcDbEntity
  8
L-ZISSEN
100
AcDbLine
 10
826.2806252416089
 20
-20.72463438176691
 30
0.0
 11
826.2806252416089
 21
-23.61138572771506
 31
0.0
  0
LINE
  5
543
330
2
100
AcDbEntity
  8
L-ZISSEN
100
AcDbLine
 10
837.6806252416084
 20
-16.91801005474099
 30
0.0
 11
837.6806252416102
 21
-93.91801005474098
 31
0.0
  0
LINE
  5
544
330
2
100
AcDbEntity
  8
L-ZISSEN
 48
0.3
100
AcDbLine
 10
842.7784084371253
 20
-93.91801005474098
 30
0.0
 11
842.7784084371253
 21
-16.91801005474099
 31
0.0
  0
LINE
  5
545
330
2
100
AcDbEntity
  8
L-ZISSEN
 48
0.3
100
AcDbLine
 10
841.4784084371252
 20
-93.91801005474098
 30
0.0
 11
842.7784084371253
 21
-93.91801005474098
 31
0.0
  0
ARC
  5
546
330
2
100
AcDbEntity
  8
L-ZISSEN
100
AcDbCircle
 10
852.3818704707158
 20
-91.90518380006507
 30
0.0
 40
10.0
100
AcDbArc
 50
191.6119735011068
 51
265.1315559371179
  0
LINE
  5
547
330
2
100
AcDbEntity
  8
L-ZISSEN
100
AcDbLine
 10
837.6806252416102
 20
-93.91801005474098
 30
0.0
 11
841.4784084371252
 21
-93.91801005474098
 31
0.0
  0
LINE
  5
548
330
2
100
AcDbEntity
  8
L-ZISSEN
100
AcDbLine
 10
839.9692315217484
 20
-12.91801005474098
 30
0.0
 11
843.425216121976
 21
-12.91801005474098
 31
0.0
  0
LINE
  5
549
330
2
100
AcDbEntity
  8
L-ZISSEN
 48
0.3
100
AcDbLine
 10
842.7784084371253
 20
-16.91801005474099
 30
0.0
 11
840.7807427803549
 21
-16.91801005474099
 31
0.0
  0
LINE
  5
54A
330
2
100
AcDbEntity
  8
L-ZISSEN
100
AcDbLine
 10
835.9692315217483
 20
-16.91801005474099
 30
0.0
 11
839.4252161219759
 21
-16.91801005474099
 31
0.0
  0
LINE
  5
54B
330
2
100
AcDbEntity
  8
L-ZISSEN
100
AcDbLine
 10
837.6806252416084
 20
-16.91801005474099
 30
0.0
 11
840.7807427803549
 21
-16.91801005474099
 31
0.0
  0
LINE
  5
54C
330
2
100
AcDbEntity
  8
L-ZISSEN
100
AcDbLine
 10
840.6693490604951
 20
-12.91801005474098
 30
0.0
 11
840.7072028591837
 21
-16.91801005474099
 31
0.0
  0
LINE
  5
54D
330
2
100
AcDbEntity
  8
L-ZISSEN
100
AcDbLine
 10
839.7218451869415
 20
0.5809704455532483
 30
0.0
 11
839.9692315217484
 21
-12.91801005474098
 31
0.0
  0
LINE
  5
54E
330
2
100
AcDbEntity
  8
L-ZISSEN
100
AcDbLine
 10
851.425216121976
 20
-2.918010054741898
 30
0.0
 11
851.425216121976
 21
-12.91801005474098
 31
0.0
  0
LINE
  5
54F
330
2
100
AcDbEntity
  8
L-ZISSEN
100
AcDbLine
 10
843.425216121976
 20
-2.918010054741898
 30
0.0
 11
843.425216121976
 21
-12.91801005474098
 31
0.0
  0
LINE
  5
550
330
2
100
AcDbEntity
  8
L-ZISSEN
100
AcDbLine
 10
843.425216121976
 20
-2.918010054741898
 30
0.0
 11
851.425216121976
 21
-2.918010054741898
 31
0.0
  0
LINE
  5
551
330
2
100
AcDbEntity
  8
L-ZISSEN
100
AcDbLine
 10
876.1635911219753
 20
-2.984010054739883
 30
0.0
 11
878.5629661219754
 21
-4.423635054739861
 31
0.0
  0
LINE
  5
552
330
2
100
AcDbEntity
  8
L-ZISSEN
100
AcDbLine
 10
876.1635911219753
 20
-5.863260054739839
 30
0.0
 11
878.5629661219754
 21
-4.423635054739861
 31
0.0
  0
LINE
  5
553
330
2
100
AcDbEntity
  8
L-ZISSEN
100
AcDbLine
 10
869.9252161219755
 20
-19.93793411384013
 30
0.0
 11
879.0731178829013
 21
-18.63109100513611
 31
0.0
  0
LINE
  5
554
330
2
100
AcDbEntity
  8
L-ZISSEN
100
AcDbLine
 10
869.9252161219755
 20
-19.29976005474054
 30
0.0
 11
880.0025911219735
 21
-17.86013505474056
 31
0.0
  0
LINE
  5
555
330
2
100
AcDbEntity
  8
L-ZISSEN
100
AcDbLine
 10
881.9252161219754
 20
0.2819899452597383
 30
0.0
 11
857.9252161219754
 21
0.2819899452597383
 31
0.0
  0
LINE
  5
556
330
2
100
AcDbEntity
  8
L-ZISSEN
100
AcDbLine
 10
869.9252161219755
 20
-26.01801005474044
 30
0.0
 11
880.7224036219734
 21
-23.13876005474048
 31
0.0
  0
LINE
  5
557
330
2
100
AcDbEntity
  8
L-ZISSEN
100
AcDbLine
 10
878.5854701598205
 20
-107.9180100547419
 30
0.0
 11
861.2649620841317
 21
-107.9180100547419
 31
0.0
  0
LINE
  5
558
330
2
100
AcDbEntity
  8
L-ZISSEN
100
AcDbLine
 10
860.4900488537577
 20
-105.9180100547419
 30
0.0
 11
879.3603833901947
 21
-105.9180100547419
 31
0.0
  0
LINE
  5
559
330
2
100
AcDbEntity
  8
L-ZISSEN
100
AcDbLine
 10
860.4900488537571
 20
-102.9180100547419
 30
0.0
 11
879.3603833901947
 21
-102.9180100547419
 31
0.0
  0
LINE
  5
55A
330
2
100
AcDbEntity
  8
L-ZISSEN
100
AcDbLine
 10
860.3252161219755
 20
-40.01801005474135
 30
0.0
 11
879.5252161219753
 21
-40.01801005474135
 31
0.0
  0
LINE
  5
55B
330
2
100
AcDbEntity
  8
L-ZISSEN
100
AcDbLine
 10
862.3252161219756
 20
-38.01801005474044
 30
0.0
 11
877.5252161219754
 21
-38.01801005474044
 31
0.0
  0
LINE
  5
55C
330
2
100
AcDbEntity
  8
L-ZISSEN
100
AcDbLine
 10
862.3252161219756
 20
-37.01801005474044
 30
0.0
 11
877.5252161219754
 21
-37.01801005474044
 31
0.0
  0
LINE
  5
55D
330
2
100
AcDbEntity
  8
L-TYUSIN
100
AcDbLine
 10
862.3252161219756
 20
-33.51801005474044
 30
0.0
 11
877.5252161219754
 21
-33.51801005474044
 31
0.0
  0
LINE
  5
55E
330
2
100
AcDbEntity
  8
L-ZISSEN
100
AcDbLine
 10
859.925216121975
 20
-43.01801005474044
 30
0.0
 11
879.9252161219751
 21
-43.01801005474044
 31
0.0
  0
LINE
  5
55F
330
2
100
AcDbEntity
  8
L-ZISSEN
100
AcDbLine
 10
879.0731178829013
 20
-22.13449724212023
 30
0.0
 11
869.9252161219755
 21
-24.04966529488865
 31
0.0
  0
LINE
  5
560
330
2
100
AcDbEntity
  8
L-ZISSEN
100
AcDbLine
 10
865.595089103054
 20
-107.9180100547419
 30
0.0
 11
865.595089103054
 21
-105.9180100547419
 31
0.0
  0
LINE
  5
561
330
2
100
AcDbEntity
  8
L-ZISSEN
100
AcDbLine
 10
861.2649620841317
 20
-107.9180100547419
 30
0.0
 11
861.2649620841317
 21
-105.9180100547419
 31
0.0
  0
LINE
  5
562
330
2
100
AcDbEntity
  8
L-ZISSEN
100
AcDbLine
 10
860.4900488537571
 20
-102.9180100547419
 30
0.0
 11
860.4900488537577
 21
-105.9180100547419
 31
0.0
  0
LINE
  5
563
330
2
100
AcDbEntity
  8
L-ZISSEN
100
AcDbLine
 10
874.2553431408984
 20
-107.9180100547419
 30
0.0
 11
874.2553431408984
 21
-105.9180100547419
 31
0.0
  0
LINE
  5
564
330
2
100
AcDbEntity
  8
L-ZISSEN
100
AcDbLine
 10
869.9252161219755
 20
-19.29976005474054
 30
0.0
 11
859.8478411219733
 21
-17.86013505474056
 31
0.0
  0
LINE
  5
565
330
2
100
AcDbEntity
  8
L-ZISSEN
100
AcDbLine
 10
869.9252161219755
 20
-19.93793411384013
 30
0.0
 11
860.7773143610497
 21
-18.63109100513611
 31
0.0
  0
LINE
  5
566
330
2
100
AcDbEntity
  8
L-ZISSEN
100
AcDbLine
 10
867.5258411219756
 20
-4.903510054740763
 30
0.0
 11
863.6868411219751
 21
-4.903510054740763
 31
0.0
  0
LINE
  5
567
330
2
100
AcDbEntity
  8
L-ZISSEN
100
AcDbLine
 10
867.5258411219756
 20
-4.903510054740763
 30
0.0
 11
863.6868411219751
 21
-4.903510054740763
 31
0.0
  0
LINE
  5
568
330
2
100
AcDbEntity
  8
L-ZISSEN
100
AcDbLine
 10
867.5258411219756
 20
-3.943760054740778
 30
0.0
 11
863.6868411219751
 21
-3.943760054740778
 31
0.0
  0
LINE
  5
569
330
2
100
AcDbEntity
  8
L-ZISSEN
100
AcDbLine
 10
867.5258411219756
 20
-3.943760054740778
 30
0.0
 11
863.6868411219751
 21
-3.943760054740778
 31
0.0
  0
LINE
  5
56A
330
2
100
AcDbEntity
  8
L-ZISSEN
100
AcDbLine
 10
869.9252161219755
 20
-26.01801005474044
 30
0.0
 11
859.1280286219733
 21
-23.13876005474048
 31
0.0
  0
CIRCLE
  5
56B
330
2
100
AcDbEntity
  8
L-ZISSEN
100
AcDbCircle
 10
865.6752161219751
 20
-33.51801005474044
 30
0.0
 40
2.0
  0
LINE
  5
56C
330
2
100
AcDbEntity
  8
L-ZISSEN
100
AcDbLine
 10
860.7773143610497
 20
-22.13449724212023
 30
0.0
 11
869.9252161219755
 21
-24.04966529488865
 31
0.0
  0
LINE
  5
56D
330
2
100
AcDbEntity
  8
L-ZISSEN
100
AcDbLine
 10
857.9252161219754
 20
0.5809704455532483
 30
0.0
 11
857.9252161219754
 21
0.2819899452597383
 31
0.0
  0
LINE
  5
56E
330
2
100
AcDbEntity
  8
L-ZISSEN
100
AcDbLine
 10
863.6868411219751
 20
-3.943760054740778
 30
0.0
 11
863.6868411219751
 21
-2.984010054740792
 31
0.0
  0
LINE
  5
56F
330
2
100
AcDbEntity
  8
L-ZISSEN
100
AcDbLine
 10
863.6868411219751
 20
-4.903510054740763
 30
0.0
 11
863.6868411219751
 21
-5.863260054740749
 31
0.0
  0
LINE
  5
570
330
2
100
AcDbEntity
  8
L-ZISSEN
100
AcDbLine
 10
857.6252161219757
 20
-4.418010054741898
 30
0.0
 11
858.925216121975
 21
-4.418010054741898
 31
0.0
  0
LINE
  5
571
330
2
100
AcDbEntity
  8
L-ZISSEN
100
AcDbLine
 10
863.6868411219751
 20
-2.984010054740792
 30
0.0
 11
861.2874661219752
 21
-4.423635054740771
 31
0.0
  0
LINE
  5
572
330
2
100
AcDbEntity
  8
L-ZISSEN
100
AcDbLine
 10
863.6868411219751
 20
-5.863260054740749
 30
0.0
 11
861.2874661219752
 21
-4.423635054740771
 31
0.0
  0
LINE
  5
573
330
2
100
AcDbEntity
  8
L-ZISSEN
100
AcDbLine
 10
857.6252161219757
 20
-12.91801005474008
 30
0.0
 11
858.925216121975
 21
-12.91801005474008
 31
0.0
  0
LINE
  5
574
330
2
100
AcDbEntity
  8
L-ZISSEN
100
AcDbLine
 10
857.6252161219757
 20
-4.418010054741898
 30
0.0
 11
857.6252161219757
 21
-12.91801005474008
 31
0.0
  0
LINE
  5
575
330
2
100
AcDbEntity
  8
L-ZISSEN
100
AcDbLine
 10
860.7773143610497
 20
-17.99291694603653
 30
0.0
 11
859.8478411219733
 21
-17.86013505474056
 31
0.0
  0
LINE
  5
576
330
2
100
AcDbEntity
  8
L-ZISSEN
100
AcDbLine
 10
860.7773143610497
 20
-18.63109100513611
 30
0.0
 11
859.8478411219733
 21
-17.86013505474056
 31
0.0
  0
LINE
  5
577
330
2
100
AcDbEntity
  8
L-ZISSEN
100
AcDbLine
 10
860.7773143610497
 20
-18.63109100513611
 30
0.0
 11
860.7773143610497
 21
-22.13449724212023
 31
0.0
  0
LINE
  5
578
330
2
100
AcDbEntity
  8
L-ZISSEN
100
AcDbLine
 10
859.8478411219733
 20
0.2819899452597383
 30
0.0
 11
859.8478411219733
 21
-17.86013505474056
 31
0.0
  0
LINE
  5
579
330
2
100
AcDbEntity
  8
L-TYUSIN
100
AcDbLine
 10
865.6752161219751
 20
-30.26801005474044
 30
0.0
 11
865.6752161219751
 21
-36.76801005474044
 31
0.0
  0
LINE
  5
57A
330
2
100
AcDbEntity
  8
L-ZISSEN
100
AcDbLine
 10
859.4252161219751
 20
-29.01801005474135
 30
0.0
 11
862.3252161219751
 21
-29.01801005474135
 31
0.0
  0
LINE
  5
57B
330
2
100
AcDbEntity
  8
L-ZISSEN
100
AcDbLine
 10
860.3252161219746
 20
-29.01801005474044
 30
0.0
 11
860.3252161219755
 21
-40.01801005474044
 31
0.0
  0
LINE
  5
57C
330
2
100
AcDbEntity
  8
L-ZISSEN
100
AcDbLine
 10
859.925216121975
 20
-29.01801005474044
 30
0.0
 11
859.925216121975
 21
-43.01801005474044
 31
0.0
  0
LINE
  5
57D
330
2
100
AcDbEntity
  8
L-ZISSEN
100
AcDbLine
 10
860.3252161219755
 20
-40.01801005474044
 30
0.0
 11
859.925216121975
 21
-43.01801005474044
 31
0.0
  0
LINE
  5
57E
330
2
100
AcDbEntity
  8
L-ZISSEN
100
AcDbLine
 10
862.3252161219751
 20
-23.99134338807471
 30
0.0
 11
862.3252161219756
 21
-38.01801005474044
 31
0.0
  0
ARC
  5
57F
330
2
100
AcDbEntity
  8
L-ZISSEN
100
AcDbCircle
 10
859.4252161219751
 20
-28.51801005474135
 30
0.0
 40
0.5
100
AcDbArc
 50
180.0
 51
270.0
  0
LINE
  5
580
330
2
100
AcDbEntity
  8
L-ZISSEN
100
AcDbLine
 10
859.1280286219733
 20
-23.13876005474048
 30
0.0
 11
860.7773143610497
 21
-22.13449724212023
 31
0.0
  0
LINE
  5
581
330
2
100
AcDbEntity
  8
L-ZISSEN
100
AcDbLine
 10
859.1280286219738
 20
0.2819899452597383
 30
0.0
 11
859.1280286219733
 21
-23.13876005474048
 31
0.0
  0
LINE
  5
582
330
2
100
AcDbEntity
  8
L-ZISSEN
100
AcDbLine
 10
858.925216121975
 20
0.2819899452597383
 30
0.0
 11
858.925216121975
 21
-28.51801005474135
 31
0.0
  0
LINE
  5
583
330
2
100
AcDbEntity
  8
L-ZISSEN
100
AcDbLine
 10
867.0459661219769
 20
-9.702260054739781
 30
0.0
 11
869.9252161219769
 21
-14.5010100547397
 31
0.0
  0
LINE
  5
584
330
2
100
AcDbEntity
  8
L-ZISSEN
100
AcDbLine
 10
868.9654661219769
 20
-9.702260054739781
 30
0.0
 11
867.0459661219769
 21
-9.702260054739781
 31
0.0
  0
LINE
  5
585
330
2
100
AcDbEntity
  8
L-ZISSEN
100
AcDbLine
 10
867.5258411219756
 20
-3.943760054740778
 30
0.0
 11
867.5258411219756
 21
-4.903510054740763
 31
0.0
  0
LINE
  5
586
330
2
100
AcDbEntity
  8
L-ZISSEN
100
AcDbLine
 10
876.1635911219753
 20
-3.943760054739868
 30
0.0
 11
876.1635911219753
 21
-2.984010054739883
 31
0.0
  0
LINE
  5
587
330
2
100
AcDbEntity
  8
L-ZISSEN
100
AcDbLine
 10
876.1635911219753
 20
-4.903510054739854
 30
0.0
 11
876.1635911219753
 21
-5.863260054739839
 31
0.0
  0
LINE
  5
588
330
2
100
AcDbEntity
  8
L-ZISSEN
100
AcDbLine
 10
870.8849661219769
 20
-2.024260054739897
 30
0.0
 11
868.9654661219769
 21
-2.024260054739897
 31
0.0
  0
LINE
  5
589
330
2
100
AcDbEntity
  8
L-ZISSEN
100
AcDbLine
 10
872.3245911219754
 20
-3.943760054739868
 30
0.0
 11
872.3245911219754
 21
-4.903510054739854
 31
0.0
  0
LINE
  5
58A
330
2
100
AcDbEntity
  8
L-ZISSEN
100
AcDbLine
 10
872.3245911219754
 20
-4.903510054739854
 30
0.0
 11
876.1635911219753
 21
-4.903510054739854
 31
0.0
  0
LINE
  5
58B
330
2
100
AcDbEntity
  8
L-ZISSEN
100
AcDbLine
 10
872.3245911219754
 20
-4.903510054739854
 30
0.0
 11
876.1635911219753
 21
-4.903510054739854
 31
0.0
  0
LINE
  5
58C
330
2
100
AcDbEntity
  8
L-ZISSEN
100
AcDbLine
 10
872.3245911219754
 20
-3.943760054739868
 30
0.0
 11
876.1635911219753
 21
-3.943760054739868
 31
0.0
  0
LINE
  5
58D
330
2
100
AcDbEntity
  8
L-ZISSEN
100
AcDbLine
 10
872.3245911219754
 20
-3.943760054739868
 30
0.0
 11
876.1635911219753
 21
-3.943760054739868
 31
0.0
  0
LINE
  5
58E
330
2
100
AcDbEntity
  8
L-ZISSEN
100
AcDbLine
 10
872.8044661219772
 20
-9.702260054739781
 30
0.0
 11
869.9252161219769
 21
-14.5010100547397
 31
0.0
  0
LINE
  5
58F
330
2
100
AcDbEntity
  8
L-ZISSEN
100
AcDbLine
 10
870.8849661219769
 20
-9.702260054739781
 30
0.0
 11
872.8044661219772
 21
-9.702260054739781
 31
0.0
  0
LINE
  5
590
330
2
100
AcDbEntity
  8
L-ZISSEN
100
AcDbLine
 10
868.9654661219769
 20
-2.024260054739897
 30
0.0
 11
868.9654661219769
 21
-9.702260054739781
 31
0.0
  0
LINE
  5
591
330
2
100
AcDbEntity
  8
L-ZISSEN
100
AcDbLine
 10
868.9654661219769
 20
-2.024260054739897
 30
0.0
 11
868.9654661219769
 21
-9.702260054739781
 31
0.0
  0
LINE
  5
592
330
2
100
AcDbEntity
  8
L-ZISSEN
100
AcDbLine
 10
870.8849661219769
 20
-2.024260054739897
 30
0.0
 11
870.8849661219769
 21
-9.702260054739781
 31
0.0
  0
LINE
  5
593
330
2
100
AcDbEntity
  8
L-ZISSEN
100
AcDbLine
 10
870.8849661219769
 20
-2.024260054739897
 30
0.0
 11
870.8849661219769
 21
-9.702260054739781
 31
0.0
  0
LINE
  5
594
330
2
100
AcDbEntity
  8
L-ZISSEN
100
AcDbLine
 10
869.9252161219755
 20
-19.29976005474054
 30
0.0
 11
869.9252161219755
 21
-19.93793411384013
 31
0.0
  0
LINE
  5
595
330
2
100
AcDbEntity
  8
L-ZISSEN
100
AcDbLine
 10
871.1752161219754
 20
-27.76801005474044
 30
0.0
 11
871.1752161219754
 21
-25.68467672140741
 31
0.0
  0
LINE
  5
596
330
2
100
AcDbEntity
  8
L-ZISSEN
100
AcDbLine
 10
868.6752161219756
 20
-27.76801005474044
 30
0.0
 11
868.6752161219756
 21
-25.68467672140741
 31
0.0
  0
LINE
  5
597
330
2
100
AcDbEntity
  8
L-TYUSIN
100
AcDbLine
 10
874.1752161219759
 20
-30.26801005474044
 30
0.0
 11
874.1752161219759
 21
-36.76801005474044
 31
0.0
  0
CIRCLE
  5
598
330
2
100
AcDbEntity
  8
L-ZISSEN
100
AcDbCircle
 10
874.1752161219759
 20
-33.51801005474044
 30
0.0
 40
2.0
  0
ARC
  5
599
330
2
100
AcDbEntity
  8
L-ZISSEN
100
AcDbCircle
 10
869.9252161219755
 20
-27.76801005474044
 30
0.0
 40
1.25
100
AcDbArc
 50
180.0
 51
0.0
  0
LINE
  5
59A
330
2
100
AcDbEntity
  8
L-ZISSEN
100
AcDbLine
 10
899.1810831834568
 20
-12.91801005474098
 30
0.0
 11
897.4652221814798
 21
-92.16360338568028
 31
0.0
  0
ARC
  5
59B
330
2
100
AcDbEntity
  8
L-ZISSEN
100
AcDbCircle
 10
887.4685617732351
 20
-91.90518380006507
 30
0.0
 40
10.0
100
AcDbArc
 50
274.868444062882
 51
358.9999999999721
  0
LINE
  5
59C
330
2
100
AcDbEntity
  8
L-ZISSEN
100
AcDbLine
 10
878.5854701598205
 20
-107.9180100547419
 30
0.0
 11
878.5854701598205
 21
-105.9180100547419
 31
0.0
  0
LINE
  5
59D
330
2
100
AcDbEntity
  8
L-ZISSEN
100
AcDbLine
 10
879.3603833901947
 20
-102.9180100547419
 30
0.0
 11
879.3603833901942
 21
-105.9180100547419
 31
0.0
  0
LINE
  5
59E
330
2
100
AcDbEntity
  8
L-ZISSEN
100
AcDbLine
 10
879.3603833901947
 20
-102.9180100547419
 30
0.0
 11
888.3172434537922
 21
-101.8691056888137
 31
0.0
  0
LINE
  5
59F
330
2
100
AcDbEntity
  8
L-ZISSEN
100
AcDbLine
 10
888.425216121975
 20
-2.918010054740079
 30
0.0
 11
893.9365705602334
 21
-2.918010054741898
 31
0.0
  0
LINE
  5
5A0
330
2
100
AcDbEntity
  8
L-ZISSEN
100
AcDbLine
 10
888.4252161219759
 20
-2.918010054740079
 30
0.0
 11
888.4252161219759
 21
-12.91801005473917
 31
0.0
  0
LINE
  5
5A1
330
2
100
AcDbEntity
  8
L-ZISSEN
100
AcDbLine
 10
881.925216121975
 20
0.5809704455541578
 30
0.0
 11
881.925216121975
 21
0.2819899452597383
 31
0.0
  0
LINE
  5
5A2
330
2
100
AcDbEntity
  8
L-ZISSEN
100
AcDbLine
 10
882.2252161219761
 20
-4.418010054741898
 30
0.0
 11
880.9252161219751
 21
-4.418010054741898
 31
0.0
  0
LINE
  5
5A3
330
2
100
AcDbEntity
  8
L-ZISSEN
100
AcDbLine
 10
882.2252161219752
 20
-12.91801005474008
 30
0.0
 11
880.9252161219751
 21
-12.91801005474008
 31
0.0
  0
LINE
  5
5A4
330
2
100
AcDbEntity
  8
L-ZISSEN
100
AcDbLine
 10
882.2252161219752
 20
-12.91801005474008
 30
0.0
 11
880.9252161219751
 21
-12.91801005474098
 31
0.0
  0
LINE
  5
5A5
330
2
100
AcDbEntity
  8
L-ZISSEN
100
AcDbLine
 10
882.2252161219761
 20
-4.418010054741898
 30
0.0
 11
882.2252161219752
 21
-12.91801005474008
 31
0.0
  0
LINE
  5
5A6
330
2
100
AcDbEntity
  8
L-ZISSEN
100
AcDbLine
 10
879.0731178829013
 20
-18.63109100513611
 30
0.0
 11
880.0025911219735
 21
-17.86013505474056
 31
0.0
  0
LINE
  5
5A7
330
2
100
AcDbEntity
  8
L-ZISSEN
100
AcDbLine
 10
879.0731178829013
 20
-17.99291694603653
 30
0.0
 11
880.0025911219735
 21
-17.86013505474056
 31
0.0
  0
LINE
  5
5A8
330
2
100
AcDbEntity
  8
L-ZISSEN
100
AcDbLine
 10
879.0731178829013
 20
-18.63109100513611
 30
0.0
 11
879.0731178829013
 21
-22.13449724212023
 31
0.0
  0
LINE
  5
5A9
330
2
100
AcDbEntity
  8
L-ZISSEN
100
AcDbLine
 10
880.0025911219735
 20
0.2819899452597383
 30
0.0
 11
880.0025911219735
 21
-17.86013505474056
 31
0.0
  0
LINE
  5
5AA
330
2
100
AcDbEntity
  8
L-ZISSEN
100
AcDbLine
 10
877.5252161219754
 20
-29.01801005474135
 30
0.0
 11
880.425216121975
 21
-29.01801005474135
 31
0.0
  0
LINE
  5
5AB
330
2
100
AcDbEntity
  8
L-ZISSEN
100
AcDbLine
 10
879.5252161219753
 20
-29.01801005474044
 30
0.0
 11
879.5252161219753
 21
-40.01801005474135
 31
0.0
  0
LINE
  5
5AC
330
2
100
AcDbEntity
  8
L-ZISSEN
100
AcDbLine
 10
879.925216121976
 20
-29.01801005474044
 30
0.0
 11
879.925216121976
 21
-43.01801005474044
 31
0.0
  0
LINE
  5
5AD
330
2
100
AcDbEntity
  8
L-ZISSEN
100
AcDbLine
 10
879.5252161219753
 20
-40.01801005474135
 30
0.0
 11
879.925216121976
 21
-43.01801005474044
 31
0.0
  0
LINE
  5
5AE
330
2
100
AcDbEntity
  8
L-ZISSEN
100
AcDbLine
 10
877.5252161219754
 20
-23.9913433880738
 30
0.0
 11
877.5252161219754
 21
-38.01801005474044
 31
0.0
  0
ARC
  5
5AF
330
2
100
AcDbEntity
  8
L-ZISSEN
100
AcDbCircle
 10
880.425216121975
 20
-28.51801005474135
 30
0.0
 40
0.5
100
AcDbArc
 50
270.0
 51
0.0
  0
LINE
  5
5B0
330
2
100
AcDbEntity
  8
L-ZISSEN
100
AcDbLine
 10
880.9252161219751
 20
0.2819899452597383
 30
0.0
 11
880.9252161219751
 21
-28.51801005474135
 31
0.0
  0
LINE
  5
5B1
330
2
100
AcDbEntity
  8
L-ZISSEN
100
AcDbLine
 10
880.7224036219734
 20
-23.13876005474048
 30
0.0
 11
879.0731178829013
 21
-22.13449724212023
 31
0.0
  0
LINE
  5
5B2
330
2
100
AcDbEntity
  8
L-ZISSEN
100
AcDbLine
 10
880.7224036219734
 20
0.2819899452597383
 30
0.0
 11
880.7224036219734
 21
-23.13876005474048
 31
0.0
  0
LINE
  5
5B3
330
2
100
AcDbEntity
  8
L-ZISSEN
100
AcDbLine
 10
888.4252161219759
 20
-12.91801005473917
 30
0.0
 11
881.4252161219759
 21
-12.91801005474008
 31
0.0
  0
LINE
  5
5B4
330
2
100
AcDbEntity
  8
L-ZISSEN
100
AcDbLine
 10
899.1810831834568
 20
-12.91801005474098
 30
0.0
 11
899.8812007222026
 21
-12.91801005474098
 31
0.0
  0
LINE
  5
5B5
330
2
100
AcDbEntity
  8
L-ZISSEN
100
AcDbLine
 10
893.9365705602334
 20
-12.91801005473917
 30
0.0
 11
899.1810831834568
 21
-12.91801005473917
 31
0.0
  0
LINE
  5
5B6
330
2
100
AcDbEntity
  8
L-ZISSEN
100
AcDbLine
 10
893.9365705602334
 20
-2.918010054741898
 30
0.0
 11
893.9365705602334
 21
-12.91801005473917
 31
0.0
  0
LINE
  5
5B7
330
2
100
AcDbEntity
  8
L-ZISSEN
100
AcDbLine
 10
900.0614992374011
 20
0.5809704455532483
 30
0.0
 11
899.8812007222026
 21
-12.91801005474098
 31
0.0
  0
TEXT
  5
5B8
330
2
100
AcDbEntity
  8
L-ZISSEN
100
AcDbText
 10
752.9252161219723
 20
296.5669004851897
 30
0.0
 40
4.5
  1
P.P
100
AcDbText
  0
TEXT
  5
5B9
330
2
100
AcDbEntity
  8
L-ZISSEN
100
AcDbText
 10
752.9252161219764
 20
46.83097044555142
 30
0.0
 40
4.5
  1
P.P
100
AcDbText
  0
LINE
  5
5BA
330
2
100
AcDbEntity
  8
L-ZISSEN
100
AcDbLine
 10
721.9252161219738
 20
144.9739108783769
 30
0.0
 11
721.9252161219765
 21
250.3169004851924
 31
0.0
  0
ARC
  5
5BB
330
2
100
AcDbEntity
  8
L-ZISSEN
100
AcDbCircle
 10
713.9252161219724
 20
144.9739108783769
 30
0.0
 40
8.000000000000113
100
AcDbArc
 50
283.9062370650525
 51
0.0
  0
LINE
  5
5BC
330
2
100
AcDbEntity
  8
L-ZISSEN
100
AcDbLine
 10
717.2052161219767
 20
239.9781615735601
 30
0.0
 11
717.2052161219767
 21
157.4781615735582
 31
0.0
  0
LINE
  5
5BD
330
2
100
AcDbEntity
  8
L-ZISSEN
100
AcDbLine
 10
779.3887735627814
 20
37.86133924488058
 30
0.0
 11
765.9252161219764
 21
49.08097044555143
 31
0.0
  0
LINE
  5
5BE
330
2
100
AcDbEntity
  8
L-ZISSEN
100
AcDbLine
 10
765.9252161219764
 20
49.08097044555143
 30
0.0
 11
763.9252161219764
 21
49.08097044555143
 31
0.0
  0
SOLID
  5
5BF
330
2
100
AcDbEntity
  8
L-ZISSEN
100
AcDbTrace
 10
780.3664448475826
 20
38.53004350062838
 30
0.0
 11
779.7645168986061
 21
38.24346508433336
 31
0.0
 12
780.9252161219761
 22
36.58097044555143
 32
0.0
 13
780.9252161219761
 23
36.58097044555143
 33
0.0
  0
SOLID
  5
5C0
330
2
100
AcDbEntity
  8
L-ZISSEN
100
AcDbTrace
 10
779.1753787628932
 20
37.60526548501366
 30
0.0
 11
779.6021683626697
 21
38.11741300474568
 31
0.0
 12
780.9252161219761
 22
36.58097044555143
 32
0.0
 13
780.9252161219761
 23
36.58097044555143
 33
0.0
  0
LINE
  5
5C1
330
2
100
AcDbEntity
  8
L-ZISSEN
100
AcDbLine
 10
779.3887735627773
 20
287.5972692845189
 30
0.0
 11
765.9252161219723
 21
298.8169004851897
 31
0.0
  0
LINE
  5
5C2
330
2
100
AcDbEntity
  8
L-ZISSEN
100
AcDbLine
 10
765.9252161219723
 20
298.8169004851897
 30
0.0
 11
763.9252161219722
 21
298.8169004851897
 31
0.0
  0
SOLID
  5
5C3
330
2
100
AcDbEntity
  8
L-ZISSEN
100
AcDbTrace
 10
779.1753787628891
 20
287.3411955246528
 30
0.0
 11
779.6021683626656
 21
287.8533430443849
 31
0.0
 12
780.925216121972
 22
286.3169004851897
 32
0.0
 13
780.925216121972
 23
286.3169004851897
 33
0.0
  0
ENDSEC
  0
SECTION
  2
OBJECTS
  0
DICTIONARY
  5
9
330
0
100
AcDbDictionary
  3
ACAD_GROUP
350
25
  3
ACAD_LAYOUT
350
E
  3
ACAD_MLINESTYLE
350
26
  3
ACAD_PLOTSETTINGS
350
27
1001
ACAD
1000
TREAT_AS_HARD
1070
     0
  0
DICTIONARY
  5
16
330
15
100
AcDbDictionary
  3
ACAD_LAYERSTATES
350
17
1001
ACAD
1000
TREAT_AS_HARD
1070
     1
  0
DICTIONARY
  5
3
330
2
100
AcDbDictionary
  3
ACAD_LAYOUTSELFREF
350
613
1001
ACAD
1000
TREAT_AS_HARD
1070
     1
  0
DICTIONARY
  5
10
330
F
100
AcDbDictionary
  3
ACAD_LAYOUTSELFREF
350
614
1001
ACAD
1000
TREAT_AS_HARD
1070
     1
  0
DICTIONARY
  5
25
102
{ACAD_REACTORS
330
9
102
}
330
9
100
AcDbDictionary
1001
ACAD
1000
TREAT_AS_HARD
1070
     0
  0
DICTIONARY
  5
E
102
{ACAD_REACTORS
330
9
102
}
330
9
100
AcDbDictionary
1001
ACAD
1000
TREAT_AS_HARD
1070
     0
  0
DICTIONARY
  5
26
102
{ACAD_REACTORS
330
9
102
}
330
9
100
AcDbDictionary
  3
STANDARD
350
2A
1001
ACAD
1000
TREAT_AS_HARD
1070
     0
  0
DICTIONARY
  5
27
102
{ACAD_REACTORS
330
9
102
}
330
9
100
AcDbDictionary
1001
ACAD
1000
TREAT_AS_HARD
1070
     0
  0
DICTIONARY
  5
17
102
{ACAD_REACTORS
330
16
102
}
330
16
100
AcDbDictionary
1001
ACAD
1000
TREAT_AS_HARD
1070
     0
  0
XRECORD
  5
613
102
{ACAD_REACTORS
330
3
102
}
330
3
100
AcDbXrecord
340
2
  0
XRECORD
  5
614
102
{ACAD_REACTORS
330
10
102
}
330
10
100
AcDbXrecord
340
F
  0
MLINESTYLE
  5
2A
102
{ACAD_REACTORS
330
26
102
}
330
26
100
AcDbMlineStyle
  2
STANDARD
 70
     0
  3

 62
   256
 51
90.0
 52
90.0
 71
     2
 49
0.5
 62
   256
  6
BYLAYER
 49
-0.5
 62
   256
  6
BYLAYER
  0
ENDSEC
  0
EOF
